  0
SECTION
  2
HEADER
  9
$ACADVER
  1
AC1009
  9
$INSBASE
 10
0.0
 20
0.0
 30
0.0
  9
$EXTMIN
 10
407760.9456000002101064
 20
4671055.0392000004649162
 30
0.0
  9
$EXTMAX
 10
407769.4551237156265415
 20
4671060.3848000001162291
 30
0.0
  9
$LIMMIN
 10
0.0
 20
0.0
  9
$LIMMAX
 10
12.0
 20
9.0
  9
$ORTHOMODE
 70
     0
  9
$REGENMODE
 70
     1
  9
$FILLMODE
 70
     1
  9
$QTEXTMODE
 70
     0
  9
$MIRRTEXT
 70
     1
  9
$DRAGMODE
 70
     2
  9
$LTSCALE
 40
1.0
  9
$OSMODE
 70
    37
  9
$ATTMODE
 70
     1
  9
$TEXTSIZE
 40
0.2
  9
$TRACEWID
 40
0.05
  9
$TEXTSTYLE
  7
STANDARD
  9
$CLAYER
  8
0
  9
$CELTYPE
  6
BYLAYER
  9
$CECOLOR
 62
   256
  9
$DIMSCALE
 40
1.0
  9
$DIMASZ
 40
0.18
  9
$DIMEXO
 40
0.0625
  9
$DIMDLI
 40
0.38
  9
$DIMRND
 40
0.0
  9
$DIMDLE
 40
0.0
  9
$DIMEXE
 40
0.18
  9
$DIMTP
 40
0.0
  9
$DIMTM
 40
0.0
  9
$DIMTXT
 40
0.18
  9
$DIMCEN
 40
0.09
  9
$DIMTSZ
 40
0.0
  9
$DIMTOL
 70
     0
  9
$DIMLIM
 70
     0
  9
$DIMTIH
 70
     1
  9
$DIMTOH
 70
     1
  9
$DIMSE1
 70
     0
  9
$DIMSE2
 70
     0
  9
$DIMTAD
 70
     0
  9
$DIMZIN
 70
     0
  9
$DIMBLK
  1

  9
$DIMASO
 70
     1
  9
$DIMSHO
 70
     1
  9
$DIMPOST
  1

  9
$DIMAPOST
  1

  9
$DIMALT
 70
     0
  9
$DIMALTD
 70
     2
  9
$DIMALTF
 40
25.3999999999999986
  9
$DIMLFAC
 40
1.0
  9
$DIMTOFL
 70
     0
  9
$DIMTVP
 40
0.0
  9
$DIMTIX
 70
     0
  9
$DIMSOXD
 70
     0
  9
$DIMSAH
 70
     0
  9
$DIMBLK1
  1

  9
$DIMBLK2
  1

  9
$DIMSTYLE
  2
STANDARD
  9
$DIMCLRD
 70
     0
  9
$DIMCLRE
 70
     0
  9
$DIMCLRT
 70
     0
  9
$DIMTFAC
 40
1.0
  9
$DIMGAP
 40
0.09
  9
$LUNITS
 70
     2
  9
$LUPREC
 70
     4
  9
$SKETCHINC
 40
0.1
  9
$FILLETRAD
 40
0.5
  9
$AUNITS
 70
     0
  9
$AUPREC
 70
     0
  9
$MENU
  1
.
  9
$ELEVATION
 40
0.0
  9
$PELEVATION
 40
0.0
  9
$THICKNESS
 40
0.0
  9
$LIMCHECK
 70
     0
  9
$BLIPMODE
 70
     0
  9
$CHAMFERA
 40
0.0
  9
$CHAMFERB
 40
0.0
  9
$SKPOLY
 70
     0
  9
$TDCREATE
 40
2458654.0989814819768071
  9
$TDUPDATE
 40
2459251.486041666008532
  9
$TDINDWG
 40
0.0047222338
  9
$TDUSRTIMER
 40
0.0047222338
  9
$USRTIMER
 70
     1
  9
$ANGBASE
 50
0.0
  9
$ANGDIR
 70
     0
  9
$PDMODE
 70
     0
  9
$PDSIZE
 40
0.0
  9
$PLINEWID
 40
0.0
  9
$COORDS
 70
     1
  9
$SPLFRAME
 70
     0
  9
$SPLINETYPE
 70
     6
  9
$SPLINESEGS
 70
     8
  9
$ATTDIA
 70
     1
  9
$ATTREQ
 70
     1
  9
$HANDLING
 70
     1
  9
$HANDSEED
  5
29E
  9
$SURFTAB1
 70
     6
  9
$SURFTAB2
 70
     6
  9
$SURFTYPE
 70
     6
  9
$SURFU
 70
     6
  9
$SURFV
 70
     6
  9
$UCSNAME
  2

  9
$UCSORG
 10
0.0
 20
0.0
 30
0.0
  9
$UCSXDIR
 10
1.0
 20
0.0
 30
0.0
  9
$UCSYDIR
 10
0.0
 20
1.0
 30
0.0
  9
$PUCSNAME
  2

  9
$PUCSORG
 10
0.0
 20
0.0
 30
0.0
  9
$PUCSXDIR
 10
1.0
 20
0.0
 30
0.0
  9
$PUCSYDIR
 10
0.0
 20
1.0
 30
0.0
  9
$USERI1
 70
     0
  9
$USERI2
 70
     0
  9
$USERI3
 70
     0
  9
$USERI4
 70
     0
  9
$USERI5
 70
     0
  9
$USERR1
 40
0.0
  9
$USERR2
 40
0.0
  9
$USERR3
 40
0.0
  9
$USERR4
 40
0.0
  9
$USERR5
 40
0.0
  9
$WORLDVIEW
 70
     1
  9
$SHADEDGE
 70
     3
  9
$SHADEDIF
 70
    70
  9
$TILEMODE
 70
     1
  9
$MAXACTVP
 70
    64
  9
$PLIMCHECK
 70
     0
  9
$PEXTMIN
 10
1.0000000000000000E+20
 20
1.0000000000000000E+20
 30
1.0000000000000000E+20
  9
$PEXTMAX
 10
-1.0000000000000000E+20
 20
-1.0000000000000000E+20
 30
-1.0000000000000000E+20
  9
$PLIMMIN
 10
0.0
 20
0.0
  9
$PLIMMAX
 10
12.0
 20
9.0
  9
$UNITMODE
 70
     0
  9
$VISRETAIN
 70
     1
  9
$PLINEGEN
 70
     0
  9
$PSLTSCALE
 70
     1
  0
ENDSEC
  0
SECTION
  2
TABLES
  0
TABLE
  2
VPORT
 70
     1
  0
VPORT
  2
*ACTIVE
 70
     0
 10
0.0
 20
0.0
 11
1.0
 21
1.0
 12
407764.0095899467123672
 22
4671056.9949329122900963
 13
0.0
 23
0.0
 14
0.5
 24
0.5
 15
0.5
 25
0.5
 16
0.0
 26
0.0
 36
1.0
 17
0.0
 27
0.0
 37
0.0
 40
14.2047734269872308
 41
1.6720297029702971
 42
50.0
 43
0.0
 44
0.0
 50
0.0
 51
0.0
 71
     0
 72
   100
 73
     1
 74
     3
 75
     0
 76
     0
 77
     0
 78
     0
  0
ENDTAB
  0
TABLE
  2
LTYPE
 70
     1
  0
LTYPE
  2
CONTINUOUS
 70
     0
  3
Solid line
 72
    65
 73
     0
 40
0.0
  0
ENDTAB
  0
TABLE
  2
LAYER
 70
     3
  0
LAYER
  2
0
 70
     0
 62
     7
  6
CONTINUOUS
  0
LAYER
  2
UNITS
 70
     0
 62
   254
  6
CONTINUOUS
  0
LAYER
  2
LABELS
 70
     0
 62
   213
  6
CONTINUOUS
  0
ENDTAB
  0
TABLE
  2
STYLE
 70
     1
  0
STYLE
  2
STANDARD
 70
     0
 40
0.0
 41
1.0
 50
0.0
 71
     0
 42
0.2
  3
txt
  4

  0
ENDTAB
  0
TABLE
  2
VIEW
 70
     2
  0
ENDTAB
  0
TABLE
  2
UCS
 70
     0
  0
ENDTAB
  0
TABLE
  2
APPID
 70
     3
  0
APPID
  2
ACAD
 70
     0
  0
APPID
  2
ACAD_MLEADERVER
 70
     0
  0
APPID
  2
ACAD_NAV_VCDISPLAY
 70
     0
  0
ENDTAB
  0
TABLE
  2
DIMSTYLE
 70
     1
  0
DIMSTYLE
  2
STANDARD
 70
     0
  3

  4

  5

  6

  7

 40
1.0
 41
0.18
 42
0.0625
 43
0.38
 44
0.18
 45
0.0
 46
0.0
 47
0.0
 48
0.0
140
0.18
141
0.09
142
0.0
143
25.3999999999999986
144
1.0
145
0.0
146
1.0
147
0.09
 71
     0
 72
     0
 73
     1
 74
     1
 75
     0
 76
     0
 77
     0
 78
     0
170
     0
171
     2
172
     0
173
     0
174
     0
175
     0
176
     0
177
     0
178
     0
  0
ENDTAB
  0
ENDSEC
  0
SECTION
  2
BLOCKS
  0
BLOCK
  8
0
  2
$MODEL_SPACE
 70
     0
 10
0.0
 20
0.0
 30
0.0
  3
$MODEL_SPACE
  1

  0
ENDBLK
  5
21
  8
0
  0
BLOCK
 67
     1
  8
0
  2
$PAPER_SPACE
 70
     0
 10
0.0
 20
0.0
 30
0.0
  3
$PAPER_SPACE
  1

  0
ENDBLK
  5
1D
 67
     1
  8
0
  0
BLOCK
  8
0
  2
SITE_12D56_EXCAVATION_UNIT
 70
     0
 10
0.0
 20
0.0
 30
0.0
  3
SITE_12D56_EXCAVATION_UNIT
  1

  0
TEXT
  5
115
  8
LABELS
 10
407767.5217903823941015
 20
4671057.2394113279879093
 30
0.0
 40
0.2
  1
east trenc
  0
TEXT
  5
11C
  8
LABELS
 10
407765.0299191866070032
 20
4671059.1094580311328173
 30
0.0
 40
0.2
  1
N trench
  0
TEXT
  5
123
  8
LABELS
 10
407764.1494719340116717
 20
4671057.9255095785483718
 30
0.0
 40
0.2
  1
A-100
  0
TEXT
  5
12A
  8
LABELS
 10
407765.0299563155858777
 20
4671059.1094567701220512
 30
0.0
 40
0.2
  1
A-101
  0
TEXT
  5
131
  8
LABELS
 10
407763.8847150653018616
 20
4671059.8753536753356457
 30
0.0
 40
0.2
  1
102a
  0
TEXT
  5
138
  8
LABELS
 10
407763.8829938163980842
 20
4671058.8438872806727886
 30
0.0
 40
0.2
  1
102c
  0
TEXT
  5
13F
  8
LABELS
 10
407764.884034457616508
 20
4671058.8465312970802188
 30
0.0
 40
0.2
  1
102d
  0
TEXT
  5
146
  8
LABELS
 10
407762.3816749993129633
 20
4671059.8753416752442718
 30
0.0
 40
0.2
  1
102e
  0
TEXT
  5
14D
  8
LABELS
 10
407762.3816912993788719
 20
4671058.8438221737742424
 30
0.0
 40
0.2
  1
102f
  0
TEXT
  5
154
  8
LABELS
 10
407763.128871817199979
 20
4671058.8445166265591979
 30
0.0
 40
0.2
  1
102m
  0
TEXT
  5
15B
  8
LABELS
 10
407764.8826607399969362
 20
4671059.8781596831977367
 30
0.0
 40
0.2
  1
102b
  0
TEXT
  5
162
  8
LABELS
 10
407762.6225000013946556
 20
4671057.9088499993085861
 30
0.0
 40
0.2
  1
102l
  0
TEXT
  5
169
  8
LABELS
 10
407761.4109499995247461
 20
4671057.9088499993085861
 30
0.0
 40
0.2
  1
102k
  0
ENDBLK
  5
171
  8
0
  0
ENDSEC
  0
SECTION
  2
ENTITIES
  0
POLYLINE
  5
B9
  8
UNITS
 66
     1
 10
0.0
 20
0.0
 30
0.0
 70
     1
  0
VERTEX
  5
247
  8
UNITS
 10
407766.6977000004262663
 20
4671059.0492000011727214
 30
0.0
  0
VERTEX
  5
248
  8
UNITS
 10
407767.2777000003843568
 20
4671059.2692000009119511
 30
0.0
  0
VERTEX
  5
249
  8
UNITS
 10
407768.3277000001980923
 20
4671055.1892000008374453
 30
0.0
  0
VERTEX
  5
24A
  8
UNITS
 10
407767.8976999996812083
 20
4671055.0392000004649162
 30
0.0
  0
SEQEND
  5
24B
  8
UNITS
  0
POLYLINE
  5
BA
  8
UNITS
 66
     1
 10
0.0
 20
0.0
 30
0.0
 70
     1
  0
VERTEX
  5
24C
  8
UNITS
 10
407768.0676999994902872
 20
4671060.1691999994218349
 30
0.0
  0
VERTEX
  5
24D
  8
UNITS
 10
407768.1876999997184612
 20
4671059.6791999991983175
 30
0.0
  0
VERTEX
  5
24E
  8
UNITS
 10
407762.947700000309851
 20
4671058.2892000013962388
 30
0.0
  0
VERTEX
  5
24F
  8
UNITS
 10
407762.0564000001177192
 20
4671058.0458000004291534
 30
0.0
  0
VERTEX
  5
250
  8
UNITS
 10
407761.9293999997898936
 20
4671058.5697000008076429
 30
0.0
  0
SEQEND
  5
251
  8
UNITS
  0
POLYLINE
  5
BB
  8
UNITS
 66
     1
 10
0.0
 20
0.0
 30
0.0
 70
     1
  0
VERTEX
  5
252
  8
UNITS
 10
407761.690100000181701
 20
4671060.3848000001162291
 30
0.0
  0
VERTEX
  5
253
  8
UNITS
 10
407766.6801000005216338
 20
4671060.3748000003397465
 30
0.0
  0
VERTEX
  5
254
  8
UNITS
 10
407766.5500999995856546
 20
4671055.4247999992221594
 30
0.0
  0
VERTEX
  5
255
  8
UNITS
 10
407761.6600999999209307
 20
4671055.4847999997437
 30
0.0
  0
SEQEND
  5
256
  8
UNITS
  0
POLYLINE
  5
BC
  8
UNITS
 66
     1
 10
0.0
 20
0.0
 30
0.0
 70
     1
  0
VERTEX
  5
257
  8
UNITS
 10
407761.9293999997898936
 20
4671058.5697000008076429
 30
0.0
  0
VERTEX
  5
258
  8
UNITS
 10
407768.0676999994902872
 20
4671060.1691999994218349
 30
0.0
  0
VERTEX
  5
259
  8
UNITS
 10
407768.1876999997184612
 20
4671059.6791999991983175
 30
0.0
  0
VERTEX
  5
25A
  8
UNITS
 10
407766.6403999999165535
 20
4671059.2686999998986721
 30
0.0
  0
VERTEX
  5
25B
  8
UNITS
 10
407762.947700000309851
 20
4671058.2892000013962388
 30
0.0
  0
VERTEX
  5
25C
  8
UNITS
 10
407762.0564000001177192
 20
4671058.0458000004291534
 30
0.0
  0
SEQEND
  5
25D
  8
UNITS
  0
POLYLINE
  5
BD
  8
UNITS
 66
     1
 10
0.0
 20
0.0
 30
0.0
 70
     1
  0
VERTEX
  5
25E
  8
UNITS
 10
407763.3765000001876615
 20
4671060.3804000001400709
 30
0.0
  0
VERTEX
  5
25F
  8
UNITS
 10
407764.3951000003144145
 20
4671060.3804000001400709
 30
0.0
  0
VERTEX
  5
260
  8
UNITS
 10
407764.3951000003144145
 20
4671059.3716000011190772
 30
0.0
  0
VERTEX
  5
261
  8
UNITS
 10
407763.3726000002934597
 20
4671059.370299999602139
 30
0.0
  0
SEQEND
  5
262
  8
UNITS
  0
POLYLINE
  5
BE
  8
UNITS
 66
     1
 10
0.0
 20
0.0
 30
0.0
 70
     1
  0
VERTEX
  5
263
  8
UNITS
 10
407763.3726000002934597
 20
4671059.370299999602139
 30
0.0
  0
VERTEX
  5
264
  8
UNITS
 10
407764.3951000003144145
 20
4671059.3716000011190772
 30
0.0
  0
VERTEX
  5
265
  8
UNITS
 10
407764.3952000000863336
 20
4671059.2122000008821487
 30
0.0
  0
VERTEX
  5
266
  8
UNITS
 10
407764.3952000000863336
 20
4671058.673200000077486
 30
0.0
  0
VERTEX
  5
267
  8
UNITS
 10
407764.3952000000863336
 20
4671058.3176999995484948
 30
0.0
  0
VERTEX
  5
268
  8
UNITS
 10
407763.368700000399258
 20
4671058.3172999992966652
 30
0.0
  0
SEQEND
  5
269
  8
UNITS
  0
POLYLINE
  5
BF
  8
UNITS
 66
     1
 10
0.0
 20
0.0
 30
0.0
 70
     1
  0
VERTEX
  5
26A
  8
UNITS
 10
407764.3951000003144145
 20
4671059.3716000011190772
 30
0.0
  0
VERTEX
  5
26B
  8
UNITS
 10
407765.3716000001877546
 20
4671059.3794999988749623
 30
0.0
  0
VERTEX
  5
26C
  8
UNITS
 10
407765.3716000001877546
 20
4671058.9321999996900558
 30
0.0
  0
VERTEX
  5
26D
  8
UNITS
 10
407765.3716000001877546
 20
4671058.3172999992966652
 30
0.0
  0
VERTEX
  5
26E
  8
UNITS
 10
407764.3952000000863336
 20
4671058.3176999995484948
 30
0.0
  0
VERTEX
  5
26F
  8
UNITS
 10
407764.3952000000863336
 20
4671058.673200000077486
 30
0.0
  0
VERTEX
  5
270
  8
UNITS
 10
407764.3952000000863336
 20
4671059.2122000008821487
 30
0.0
  0
SEQEND
  5
271
  8
UNITS
  0
POLYLINE
  5
C0
  8
UNITS
 66
     1
 10
0.0
 20
0.0
 30
0.0
 70
     1
  0
VERTEX
  5
272
  8
UNITS
 10
407762.8869999999878928
 20
4671060.3804000001400709
 30
0.0
  0
VERTEX
  5
273
  8
UNITS
 10
407762.8870999998762272
 20
4671059.370299999602139
 30
0.0
  0
VERTEX
  5
274
  8
UNITS
 10
407761.8762999995960854
 20
4671059.370299999602139
 30
0.0
  0
VERTEX
  5
275
  8
UNITS
 10
407761.8762999995960854
 20
4671060.3804000001400709
 30
0.0
  0
VERTEX
  5
276
  8
UNITS
 10
407761.954400000104215
 20
4671060.3804000001400709
 30
0.0
  0
SEQEND
  5
277
  8
UNITS
  0
POLYLINE
  5
C1
  8
UNITS
 66
     1
 10
0.0
 20
0.0
 30
0.0
 70
     1
  0
VERTEX
  5
278
  8
UNITS
 10
407761.8762999995960854
 20
4671059.370299999602139
 30
0.0
  0
VERTEX
  5
279
  8
UNITS
 10
407762.8870999998762272
 20
4671059.370299999602139
 30
0.0
  0
VERTEX
  5
27A
  8
UNITS
 10
407762.8870999998762272
 20
4671058.8191999988630414
 30
0.0
  0
VERTEX
  5
27B
  8
UNITS
 10
407762.8870999998762272
 20
4671058.317399999126792
 30
0.0
  0
VERTEX
  5
27C
  8
UNITS
 10
407761.9906000000773929
 20
4671058.3172999992966652
 30
0.0
  0
VERTEX
  5
27D
  8
UNITS
 10
407761.8762999995960854
 20
4671058.3172999992966652
 30
0.0
  0
SEQEND
  5
27E
  8
UNITS
  0
POLYLINE
  5
C2
  8
UNITS
 66
     1
 10
0.0
 20
0.0
 30
0.0
 70
     1
  0
VERTEX
  5
27F
  8
UNITS
 10
407762.8870999998762272
 20
4671058.317399999126792
 30
0.0
  0
VERTEX
  5
280
  8
UNITS
 10
407762.8870999998762272
 20
4671058.8191999988630414
 30
0.0
  0
VERTEX
  5
281
  8
UNITS
 10
407762.8870999998762272
 20
4671059.370299999602139
 30
0.0
  0
VERTEX
  5
282
  8
UNITS
 10
407763.3726000002934597
 20
4671059.370299999602139
 30
0.0
  0
VERTEX
  5
283
  8
UNITS
 10
407763.3710000002756715
 20
4671058.9453999996185303
 30
0.0
  0
VERTEX
  5
284
  8
UNITS
 10
407763.3689999998896383
 20
4671058.4009999996051192
 30
0.0
  0
VERTEX
  5
285
  8
UNITS
 10
407763.368700000399258
 20
4671058.3172999992966652
 30
0.0
  0
VERTEX
  5
286
  8
UNITS
 10
407763.0537999998778105
 20
4671058.3172999992966652
 30
0.0
  0
SEQEND
  5
287
  8
UNITS
  0
POLYLINE
  5
C3
  8
UNITS
 66
     1
 10
0.0
 20
0.0
 30
0.0
 70
     1
  0
VERTEX
  5
288
  8
UNITS
 10
407764.3951000003144145
 20
4671059.3794999988749623
 30
0.0
  0
VERTEX
  5
289
  8
UNITS
 10
407764.3951000003144145
 20
4671059.4088000003248453
 30
0.0
  0
VERTEX
  5
28A
  8
UNITS
 10
407764.3951000003144145
 20
4671060.3804000001400709
 30
0.0
  0
VERTEX
  5
28B
  8
UNITS
 10
407765.3716000001877546
 20
4671060.3804000001400709
 30
0.0
  0
VERTEX
  5
28C
  8
UNITS
 10
407765.3716000001877546
 20
4671059.3794999988749623
 30
0.0
  0
VERTEX
  5
28D
  8
UNITS
 10
407765.2788000003783964
 20
4671059.3794999988749623
 30
0.0
  0
VERTEX
  5
28E
  8
UNITS
 10
407764.3951000003144145
 20
4671059.3716000011190772
 30
0.0
  0
SEQEND
  5
28F
  8
UNITS
  0
POLYLINE
  5
C4
  8
UNITS
 66
     1
 10
0.0
 20
0.0
 30
0.0
 70
     1
  0
VERTEX
  5
290
  8
UNITS
 10
407761.8762999995960854
 20
4671058.3172999992966652
 30
0.0
  0
VERTEX
  5
291
  8
UNITS
 10
407763.368700000399258
 20
4671058.3172999992966652
 30
0.0
  0
VERTEX
  5
292
  8
UNITS
 10
407763.368700000399258
 20
4671057.500399999320507
 30
0.0
  0
VERTEX
  5
293
  8
UNITS
 10
407761.8762999995960854
 20
4671057.500399999320507
 30
0.0
  0
SEQEND
  5
294
  8
UNITS
  0
POLYLINE
  5
C5
  8
UNITS
 66
     1
 10
0.0
 20
0.0
 30
0.0
 70
     1
  0
VERTEX
  5
295
  8
UNITS
 10
407761.8762999995960854
 20
4671058.3172999992966652
 30
0.0
  0
VERTEX
  5
296
  8
UNITS
 10
407761.8762999995960854
 20
4671057.500399999320507
 30
0.0
  0
VERTEX
  5
297
  8
UNITS
 10
407760.9456000002101064
 20
4671057.500399999320507
 30
0.0
  0
VERTEX
  5
298
  8
UNITS
 10
407760.9456000002101064
 20
4671058.3172999992966652
 30
0.0
  0
SEQEND
  5
299
  8
UNITS
  0
TEXT
  5
18C
  8
LABELS
 10
407767.5217903823941015
 20
4671057.2394113279879093
 30
0.0
 40
0.2
  1
east trenc
  0
TEXT
  5
193
  8
LABELS
 10
407767.1628955599735491
 20
4671059.5760227581486106
 30
0.0
 40
0.2
  1
N trench
  0
TEXT
  5
19A
  8
LABELS
 10
407764.1494719340116717
 20
4671057.9255095785483718
 30
0.0
 40
0.2
  1
A-100
  0
TEXT
  5
1A1
  8
LABELS
 10
407765.0299563155858777
 20
4671059.1094567701220512
 30
0.0
 40
0.2
  1
A-101
  0
TEXT
  5
1A8
  8
LABELS
 10
407763.8847150653018616
 20
4671059.8753536753356457
 30
0.0
 40
0.2
  1
102a
  0
TEXT
  5
1AF
  8
LABELS
 10
407763.8829938163980842
 20
4671058.8438872806727886
 30
0.0
 40
0.2
  1
102c
  0
TEXT
  5
1B6
  8
LABELS
 10
407764.884034457616508
 20
4671058.8465312970802188
 30
0.0
 40
0.2
  1
102d
  0
TEXT
  5
1BD
  8
LABELS
 10
407762.3816749993129633
 20
4671059.8753416752442718
 30
0.0
 40
0.2
  1
102e
  0
TEXT
  5
1C4
  8
LABELS
 10
407762.3816912993788719
 20
4671058.8438221737742424
 30
0.0
 40
0.2
  1
102f
  0
TEXT
  5
1CB
  8
LABELS
 10
407763.128871817199979
 20
4671058.8445166265591979
 30
0.0
 40
0.2
  1
102m
  0
TEXT
  5
1D2
  8
LABELS
 10
407764.8826607399969362
 20
4671059.8781596831977367
 30
0.0
 40
0.2
  1
102b
  0
TEXT
  5
1D9
  8
LABELS
 10
407762.6225000013946556
 20
4671057.9088499993085861
 30
0.0
 40
0.2
  1
102l
  0
TEXT
  5
1E0
  8
LABELS
 10
407761.4109499995247461
 20
4671057.9088499993085861
 30
0.0
 40
0.2
  1
102k
  0
ENDSEC
  0
EOF
