  0
SECTION
  2
HEADER
  9
$ACADVER
  1
AC1009
  9
$INSBASE
 10
0.0
 20
0.0
 30
0.0
  9
$EXTMIN
 10
408847.9847597471089102
 20
4667724.7630906356498599
 30
0.0
  9
$EXTMAX
 10
408856.4380955658853054
 20
4667730.7215999476611614
 30
0.0
  9
$LIMMIN
 10
0.0
 20
0.0
  9
$LIMMAX
 10
12.0
 20
9.0
  9
$ORTHOMODE
 70
     0
  9
$REGENMODE
 70
     1
  9
$FILLMODE
 70
     1
  9
$QTEXTMODE
 70
     0
  9
$MIRRTEXT
 70
     1
  9
$DRAGMODE
 70
     2
  9
$LTSCALE
 40
1.0
  9
$OSMODE
 70
    37
  9
$ATTMODE
 70
     1
  9
$TEXTSIZE
 40
0.2
  9
$TRACEWID
 40
0.05
  9
$TEXTSTYLE
  7
STANDARD
  9
$CLAYER
  8
LABELS
  9
$CELTYPE
  6
BYLAYER
  9
$CECOLOR
 62
   256
  9
$DIMSCALE
 40
1.0
  9
$DIMASZ
 40
0.18
  9
$DIMEXO
 40
0.0625
  9
$DIMDLI
 40
0.38
  9
$DIMRND
 40
0.0
  9
$DIMDLE
 40
0.0
  9
$DIMEXE
 40
0.18
  9
$DIMTP
 40
0.0
  9
$DIMTM
 40
0.0
  9
$DIMTXT
 40
0.18
  9
$DIMCEN
 40
0.09
  9
$DIMTSZ
 40
0.0
  9
$DIMTOL
 70
     0
  9
$DIMLIM
 70
     0
  9
$DIMTIH
 70
     1
  9
$DIMTOH
 70
     1
  9
$DIMSE1
 70
     0
  9
$DIMSE2
 70
     0
  9
$DIMTAD
 70
     0
  9
$DIMZIN
 70
     0
  9
$DIMBLK
  1

  9
$DIMASO
 70
     1
  9
$DIMSHO
 70
     1
  9
$DIMPOST
  1

  9
$DIMAPOST
  1

  9
$DIMALT
 70
     0
  9
$DIMALTD
 70
     2
  9
$DIMALTF
 40
25.3999999999999986
  9
$DIMLFAC
 40
1.0
  9
$DIMTOFL
 70
     0
  9
$DIMTVP
 40
0.0
  9
$DIMTIX
 70
     0
  9
$DIMSOXD
 70
     0
  9
$DIMSAH
 70
     0
  9
$DIMBLK1
  1

  9
$DIMBLK2
  1

  9
$DIMSTYLE
  2
STANDARD
  9
$DIMCLRD
 70
     0
  9
$DIMCLRE
 70
     0
  9
$DIMCLRT
 70
     0
  9
$DIMTFAC
 40
1.0
  9
$DIMGAP
 40
0.09
  9
$LUNITS
 70
     2
  9
$LUPREC
 70
     4
  9
$SKETCHINC
 40
0.1
  9
$FILLETRAD
 40
0.5
  9
$AUNITS
 70
     0
  9
$AUPREC
 70
     0
  9
$MENU
  1
.
  9
$ELEVATION
 40
0.0
  9
$PELEVATION
 40
0.0
  9
$THICKNESS
 40
0.0
  9
$LIMCHECK
 70
     0
  9
$BLIPMODE
 70
     0
  9
$CHAMFERA
 40
0.0
  9
$CHAMFERB
 40
0.0
  9
$SKPOLY
 70
     0
  9
$TDCREATE
 40
2458654.090844907797873
  9
$TDUPDATE
 40
2459241.7547569437883794
  9
$TDINDWG
 40
0.0126157523
  9
$TDUSRTIMER
 40
0.0126157523
  9
$USRTIMER
 70
     1
  9
$ANGBASE
 50
0.0
  9
$ANGDIR
 70
     0
  9
$PDMODE
 70
     0
  9
$PDSIZE
 40
0.0
  9
$PLINEWID
 40
0.0
  9
$COORDS
 70
     1
  9
$SPLFRAME
 70
     0
  9
$SPLINETYPE
 70
     6
  9
$SPLINESEGS
 70
     8
  9
$ATTDIA
 70
     1
  9
$ATTREQ
 70
     1
  9
$HANDLING
 70
     1
  9
$HANDSEED
  5
391
  9
$SURFTAB1
 70
     6
  9
$SURFTAB2
 70
     6
  9
$SURFTYPE
 70
     6
  9
$SURFU
 70
     6
  9
$SURFV
 70
     6
  9
$UCSNAME
  2

  9
$UCSORG
 10
0.0
 20
0.0
 30
0.0
  9
$UCSXDIR
 10
1.0
 20
0.0
 30
0.0
  9
$UCSYDIR
 10
0.0
 20
1.0
 30
0.0
  9
$PUCSNAME
  2

  9
$PUCSORG
 10
0.0
 20
0.0
 30
0.0
  9
$PUCSXDIR
 10
1.0
 20
0.0
 30
0.0
  9
$PUCSYDIR
 10
0.0
 20
1.0
 30
0.0
  9
$USERI1
 70
     0
  9
$USERI2
 70
     0
  9
$USERI3
 70
     0
  9
$USERI4
 70
     0
  9
$USERI5
 70
     0
  9
$USERR1
 40
0.0
  9
$USERR2
 40
0.0
  9
$USERR3
 40
0.0
  9
$USERR4
 40
0.0
  9
$USERR5
 40
0.0
  9
$WORLDVIEW
 70
     1
  9
$SHADEDGE
 70
     3
  9
$SHADEDIF
 70
    70
  9
$TILEMODE
 70
     1
  9
$MAXACTVP
 70
    64
  9
$PLIMCHECK
 70
     0
  9
$PEXTMIN
 10
1.0000000000000000E+20
 20
1.0000000000000000E+20
 30
1.0000000000000000E+20
  9
$PEXTMAX
 10
-1.0000000000000000E+20
 20
-1.0000000000000000E+20
 30
-1.0000000000000000E+20
  9
$PLIMMIN
 10
0.0
 20
0.0
  9
$PLIMMAX
 10
12.0
 20
9.0
  9
$UNITMODE
 70
     0
  9
$VISRETAIN
 70
     1
  9
$PLINEGEN
 70
     0
  9
$PSLTSCALE
 70
     1
  0
ENDSEC
  0
SECTION
  2
TABLES
  0
TABLE
  2
VPORT
 70
     1
  0
VPORT
  2
*ACTIVE
 70
     0
 10
0.0
 20
0.0
 11
1.0
 21
1.0
 12
408853.8342405331204645
 22
4667726.92920056078583
 13
0.0
 23
0.0
 14
0.5
 24
0.5
 15
0.5
 25
0.5
 16
0.0
 26
0.0
 36
1.0
 17
0.0
 27
0.0
 37
0.0
 40
10.4880292937159503
 41
1.8188622754491011
 42
50.0
 43
0.0
 44
0.0
 50
0.0
 51
0.0
 71
     0
 72
   100
 73
     1
 74
     3
 75
     0
 76
     0
 77
     0
 78
     0
  0
ENDTAB
  0
TABLE
  2
LTYPE
 70
     2
  0
LTYPE
  2
CONTINUOUS
 70
     0
  3
Solid line
 72
    65
 73
     0
 40
0.0
  0
ENDTAB
  0
TABLE
  2
LAYER
 70
     3
  0
LAYER
  2
0
 70
     0
 62
     7
  6
CONTINUOUS
  0
LAYER
  2
12D16_AREA_I_COMPLETE_VESS
 70
     0
 62
   254
  6
CONTINUOUS
  0
LAYER
  2
LABELS
 70
     0
 62
     1
  6
CONTINUOUS
  0
ENDTAB
  0
TABLE
  2
STYLE
 70
     1
  0
STYLE
  2
STANDARD
 70
     0
 40
0.0
 41
1.0
 50
0.0
 71
     0
 42
0.2
  3
txt
  4

  0
ENDTAB
  0
TABLE
  2
VIEW
 70
     1
  0
ENDTAB
  0
TABLE
  2
UCS
 70
     0
  0
ENDTAB
  0
TABLE
  2
APPID
 70
     6
  0
APPID
  2
ACAD
 70
     0
  0
APPID
  2
ACAD_MLEADERVER
 70
     0
  0
APPID
  2
ACAECLAYERSTANDARD
 70
     0
  0
APPID
  2
ACCMTRANSPARENCY
 70
     0
  0
APPID
  2
ACAD_EXEMPT_FROM_CAD_STANDARDS
 70
     0
  0
APPID
  2
ACAD_NAV_VCDISPLAY
 70
     0
  0
ENDTAB
  0
TABLE
  2
DIMSTYLE
 70
     1
  0
DIMSTYLE
  2
STANDARD
 70
     0
  3

  4

  5

  6

  7

 40
1.0
 41
0.18
 42
0.0625
 43
0.38
 44
0.18
 45
0.0
 46
0.0
 47
0.0
 48
0.0
140
0.18
141
0.09
142
0.0
143
25.3999999999999986
144
1.0
145
0.0
146
1.0
147
0.09
 71
     0
 72
     0
 73
     1
 74
     1
 75
     0
 76
     0
 77
     0
 78
     0
170
     0
171
     2
172
     0
173
     0
174
     0
175
     0
176
     0
177
     0
178
     0
  0
ENDTAB
  0
ENDSEC
  0
SECTION
  2
BLOCKS
  0
BLOCK
  8
0
  2
$MODEL_SPACE
 70
     0
 10
0.0
 20
0.0
 30
0.0
  3
$MODEL_SPACE
  1

  0
ENDBLK
  5
21
  8
0
  0
BLOCK
 67
     1
  8
0
  2
$PAPER_SPACE
 70
     0
 10
0.0
 20
0.0
 30
0.0
  3
$PAPER_SPACE
  1

  0
ENDBLK
  5
1D
 67
     1
  8
0
  0
ENDSEC
  0
SECTION
  2
ENTITIES
  0
POLYLINE
  5
B3
  8
12D16_AREA_I_COMPLETE_VESS
 66
     1
 10
0.0
 20
0.0
 30
0.0
 70
     1
  0
VERTEX
  5
1A9
  8
12D16_AREA_I_COMPLETE_VESS
 10
408855.5033106821938418
 20
4667730.6577502265572548
 30
0.0
  0
VERTEX
  5
1AA
  8
12D16_AREA_I_COMPLETE_VESS
 10
408855.5203763404279016
 20
4667730.6428012382239103
 30
0.0
  0
VERTEX
  5
1AB
  8
12D16_AREA_I_COMPLETE_VESS
 10
408855.5302982368157245
 20
4667730.634863724000752
 30
0.0
  0
VERTEX
  5
1AC
  8
12D16_AREA_I_COMPLETE_VESS
 10
408855.5627097589895129
 20
4667730.6275876648724079
 30
0.0
  0
VERTEX
  5
1AD
  8
12D16_AREA_I_COMPLETE_VESS
 10
408855.577261870726943
 20
4667730.6275876648724079
 30
0.0
  0
VERTEX
  5
1AE
  8
12D16_AREA_I_COMPLETE_VESS
 10
408855.5944598215282895
 20
4667730.6342022614553571
 30
0.0
  0
VERTEX
  5
1AF
  8
12D16_AREA_I_COMPLETE_VESS
 10
408855.619595289172139
 20
4667730.6375095620751381
 30
0.0
  0
VERTEX
  5
1B0
  8
12D16_AREA_I_COMPLETE_VESS
 10
408855.6427463787258603
 20
4667730.6414783205837011
 30
0.0
  0
VERTEX
  5
1B1
  8
12D16_AREA_I_COMPLETE_VESS
 10
408855.6526682730764151
 20
4667730.6414783205837011
 30
0.0
  0
VERTEX
  5
1B2
  8
12D16_AREA_I_COMPLETE_VESS
 10
408855.6685433053062297
 20
4667730.6474314592778683
 30
0.0
  0
VERTEX
  5
1B3
  8
12D16_AREA_I_COMPLETE_VESS
 10
408855.6844183346256614
 20
4667730.6540460512042046
 30
0.0
  0
VERTEX
  5
1B4
  8
12D16_AREA_I_COMPLETE_VESS
 10
408855.6950016896007583
 20
4667730.6487543750554323
 30
0.0
  0
VERTEX
  5
1B5
  8
12D16_AREA_I_COMPLETE_VESS
 10
408855.6983089874847792
 20
4667730.6388324778527021
 30
0.0
  0
VERTEX
  5
1B6
  8
12D16_AREA_I_COMPLETE_VESS
 10
408855.7055850446922705
 20
4667730.6196501543745399
 30
0.0
  0
VERTEX
  5
1B7
  8
12D16_AREA_I_COMPLETE_VESS
 10
408855.7042621251894161
 20
4667730.597821980714798
 30
0.0
  0
VERTEX
  5
1B8
  8
12D16_AREA_I_COMPLETE_VESS
 10
408855.7049235840095207
 20
4667730.5839313305914402
 30
0.0
  0
VERTEX
  5
1B9
  8
12D16_AREA_I_COMPLETE_VESS
 10
408855.7062465046183206
 20
4667730.5720250550657511
 30
0.0
  0
VERTEX
  5
1BA
  8
12D16_AREA_I_COMPLETE_VESS
 10
408855.7128611010848545
 20
4667730.5561500247567892
 30
0.0
  0
VERTEX
  5
1BB
  8
12D16_AREA_I_COMPLETE_VESS
 10
408855.7135225618258119
 20
4667730.5435822904109955
 30
0.0
  0
VERTEX
  5
1BC
  8
12D16_AREA_I_COMPLETE_VESS
 10
408855.7086277583730407
 20
4667730.515933278016746
 30
0.0
  0
VERTEX
  5
1BD
  8
12D16_AREA_I_COMPLETE_VESS
 10
408855.7086277583730407
 20
4667730.502174916677177
 30
0.0
  0
VERTEX
  5
1BE
  8
12D16_AREA_I_COMPLETE_VESS
 10
408855.7075694240047596
 20
4667730.45560815744102
 30
0.0
  0
VERTEX
  5
1BF
  8
12D16_AREA_I_COMPLETE_VESS
 10
408855.7012194115086459
 20
4667730.4111580662429333
 30
0.0
  0
VERTEX
  5
1C0
  8
12D16_AREA_I_COMPLETE_VESS
 10
408855.6959277336136438
 20
4667730.3825830118730664
 30
0.0
  0
VERTEX
  5
1C1
  8
12D16_AREA_I_COMPLETE_VESS
 10
408855.6768776969984174
 20
4667730.3825830118730664
 30
0.0
  0
VERTEX
  5
1C2
  8
12D16_AREA_I_COMPLETE_VESS
 10
408855.6525359796942212
 20
4667730.3815246764570475
 30
0.0
  0
VERTEX
  5
1C3
  8
12D16_AREA_I_COMPLETE_VESS
 10
408855.6366609475226142
 20
4667730.3762329956516623
 30
0.0
  0
VERTEX
  5
1C4
  8
12D16_AREA_I_COMPLETE_VESS
 10
408855.6239609224139713
 20
4667730.3667079769074917
 30
0.0
  0
VERTEX
  5
1C5
  8
12D16_AREA_I_COMPLETE_VESS
 10
408855.6165525754913688
 20
4667730.3614163026213646
 30
0.0
  0
VERTEX
  5
1C6
  8
12D16_AREA_I_COMPLETE_VESS
 10
408855.5922108609811403
 20
4667730.3518912829458714
 30
0.0
  0
VERTEX
  5
1C7
  8
12D16_AREA_I_COMPLETE_VESS
 10
408855.5773941631778143
 20
4667730.3540079519152641
 30
0.0
  0
VERTEX
  5
1C8
  8
12D16_AREA_I_COMPLETE_VESS
 10
408855.5678691436187364
 20
4667730.3698829868808389
 30
0.0
  0
VERTEX
  5
1C9
  8
12D16_AREA_I_COMPLETE_VESS
 10
408855.5583441238850355
 20
4667730.3889330206438899
 30
0.0
  0
VERTEX
  5
1CA
  8
12D16_AREA_I_COMPLETE_VESS
 10
408855.5498774414882064
 20
4667730.4122164025902748
 30
0.0
  0
VERTEX
  5
1CB
  8
12D16_AREA_I_COMPLETE_VESS
 10
408855.5382357517955825
 20
4667730.4333831109106541
 30
0.0
  0
VERTEX
  5
1CC
  8
12D16_AREA_I_COMPLETE_VESS
 10
408855.5255357269197702
 20
4667730.4503164812922478
 30
0.0
  0
VERTEX
  5
1CD
  8
12D16_AREA_I_COMPLETE_VESS
 10
408855.5170690417289734
 20
4667730.4799498710781336
 30
0.0
  0
VERTEX
  5
1CE
  8
12D16_AREA_I_COMPLETE_VESS
 10
408855.5160107071860693
 20
4667730.5032332502305508
 30
0.0
  0
VERTEX
  5
1CF
  8
12D16_AREA_I_COMPLETE_VESS
 10
408855.5138940364122391
 20
4667730.539216659963131
 30
0.0
  0
VERTEX
  5
1D0
  8
12D16_AREA_I_COMPLETE_VESS
 10
408855.501194009615574
 20
4667730.6164751444011927
 30
0.0
  0
SEQEND
  5
1D1
  8
12D16_AREA_I_COMPLETE_VESS
  0
POLYLINE
  5
B4
  8
12D16_AREA_I_COMPLETE_VESS
 66
     1
 10
0.0
 20
0.0
 30
0.0
 70
     1
  0
VERTEX
  5
1D2
  8
12D16_AREA_I_COMPLETE_VESS
 10
408855.5033106821938418
 20
4667730.6577502265572548
 30
0.0
  0
VERTEX
  5
1D3
  8
12D16_AREA_I_COMPLETE_VESS
 10
408855.5117773645906709
 20
4667730.6679367050528526
 30
0.0
  0
VERTEX
  5
1D4
  8
12D16_AREA_I_COMPLETE_VESS
 10
408855.5302982368157245
 20
4667730.6778586022555828
 30
0.0
  0
VERTEX
  5
1D5
  8
12D16_AREA_I_COMPLETE_VESS
 10
408855.5633712178096175
 20
4667730.6818273616954684
 30
0.0
  0
VERTEX
  5
1D6
  8
12D16_AREA_I_COMPLETE_VESS
 10
408855.5977671220898628
 20
4667730.6818273616954684
 30
0.0
  0
VERTEX
  5
1D7
  8
12D16_AREA_I_COMPLETE_VESS
 10
408855.6229025879874825
 20
4667730.6857961155474186
 30
0.0
  0
VERTEX
  5
1D8
  8
12D16_AREA_I_COMPLETE_VESS
 10
408855.640100538614206
 20
4667730.685134656727314
 30
0.0
  0
VERTEX
  5
1D9
  8
12D16_AREA_I_COMPLETE_VESS
 10
408855.6586214079870842
 20
4667730.6864575780928135
 30
0.0
  0
VERTEX
  5
1DA
  8
12D16_AREA_I_COMPLETE_VESS
 10
408855.675157901016064
 20
4667730.6857961155474186
 30
0.0
  0
VERTEX
  5
1DB
  8
12D16_AREA_I_COMPLETE_VESS
 10
408855.6857412531971931
 20
4667730.6771971387788653
 30
0.0
  0
VERTEX
  5
1DC
  8
12D16_AREA_I_COMPLETE_VESS
 10
408855.6844183346256614
 20
4667730.6540460512042046
 30
0.0
  0
VERTEX
  5
1DD
  8
12D16_AREA_I_COMPLETE_VESS
 10
408855.6685433053062297
 20
4667730.6474314592778683
 30
0.0
  0
VERTEX
  5
1DE
  8
12D16_AREA_I_COMPLETE_VESS
 10
408855.6526682730764151
 20
4667730.6414783205837011
 30
0.0
  0
VERTEX
  5
1DF
  8
12D16_AREA_I_COMPLETE_VESS
 10
408855.6427463787258603
 20
4667730.6414783205837011
 30
0.0
  0
VERTEX
  5
1E0
  8
12D16_AREA_I_COMPLETE_VESS
 10
408855.619595289172139
 20
4667730.6375095620751381
 30
0.0
  0
VERTEX
  5
1E1
  8
12D16_AREA_I_COMPLETE_VESS
 10
408855.5944598215282895
 20
4667730.6342022614553571
 30
0.0
  0
VERTEX
  5
1E2
  8
12D16_AREA_I_COMPLETE_VESS
 10
408855.577261870726943
 20
4667730.6275876648724079
 30
0.0
  0
VERTEX
  5
1E3
  8
12D16_AREA_I_COMPLETE_VESS
 10
408855.5627097589895129
 20
4667730.6275876648724079
 30
0.0
  0
VERTEX
  5
1E4
  8
12D16_AREA_I_COMPLETE_VESS
 10
408855.5302982368157245
 20
4667730.634863724000752
 30
0.0
  0
VERTEX
  5
1E5
  8
12D16_AREA_I_COMPLETE_VESS
 10
408855.5203763404279016
 20
4667730.6428012382239103
 30
0.0
  0
VERTEX
  5
1E6
  8
12D16_AREA_I_COMPLETE_VESS
 10
408855.509232310578227
 20
4667730.652563065290451
 30
0.0
  0
SEQEND
  5
1E7
  8
12D16_AREA_I_COMPLETE_VESS
  0
POLYLINE
  5
B5
  8
12D16_AREA_I_COMPLETE_VESS
 66
     1
 10
0.0
 20
0.0
 30
0.0
 70
     1
  0
VERTEX
  5
1E8
  8
12D16_AREA_I_COMPLETE_VESS
 10
408855.6511336864205077
 20
4667727.2272881455719471
 30
0.0
  0
VERTEX
  5
1E9
  8
12D16_AREA_I_COMPLETE_VESS
 10
408855.6723003936931491
 20
4667727.2669757269322872
 30
0.0
  0
VERTEX
  5
1EA
  8
12D16_AREA_I_COMPLETE_VESS
 10
408855.6947900213999674
 20
4667727.3040174674242735
 30
0.0
  0
VERTEX
  5
1EB
  8
12D16_AREA_I_COMPLETE_VESS
 10
408855.7212484087795019
 20
4667727.3251841757446527
 30
0.0
  0
VERTEX
  5
1EC
  8
12D16_AREA_I_COMPLETE_VESS
 10
408855.7569672298268415
 20
4667727.3463508849963546
 30
0.0
  0
VERTEX
  5
1ED
  8
12D16_AREA_I_COMPLETE_VESS
 10
408855.8006235677748919
 20
4667727.3106320630759001
 30
0.0
  0
VERTEX
  5
1EE
  8
12D16_AREA_I_COMPLETE_VESS
 10
408855.8284048726782203
 20
4667727.2762361597269773
 30
0.0
  0
VERTEX
  5
1EF
  8
12D16_AREA_I_COMPLETE_VESS
 10
408855.8575090980157256
 20
4667727.2352256644517183
 30
0.0
  0
VERTEX
  5
1F0
  8
12D16_AREA_I_COMPLETE_VESS
 10
408855.8667695316835307
 20
4667727.174371374770999
 30
0.0
  0
VERTEX
  5
1F1
  8
12D16_AREA_I_COMPLETE_VESS
 10
408855.8614778564078733
 20
4667727.1280691977590322
 30
0.0
  0
VERTEX
  5
1F2
  8
12D16_AREA_I_COMPLETE_VESS
 10
408855.8482486614957452
 20
4667727.0870587006211281
 30
0.0
  0
VERTEX
  5
1F3
  8
12D16_AREA_I_COMPLETE_VESS
 10
408855.8310507106943987
 20
4667727.0539857149124146
 30
0.0
  0
VERTEX
  5
1F4
  8
12D16_AREA_I_COMPLETE_VESS
 10
408855.8125298403901979
 20
4667727.0182668957859278
 30
0.0
  0
VERTEX
  5
1F5
  8
12D16_AREA_I_COMPLETE_VESS
 10
408855.7940089711919427
 20
4667727.0010689441114664
 30
0.0
  0
VERTEX
  5
1F6
  8
12D16_AREA_I_COMPLETE_VESS
 10
408855.758290148281958
 20
4667726.9904855890199542
 30
0.0
  0
VERTEX
  5
1F7
  8
12D16_AREA_I_COMPLETE_VESS
 10
408855.7238942459225655
 20
4667727.0182668957859278
 30
0.0
  0
VERTEX
  5
1F8
  8
12D16_AREA_I_COMPLETE_VESS
 10
408855.6934671028866433
 20
4667727.0579544734209776
 30
0.0
  0
VERTEX
  5
1F9
  8
12D16_AREA_I_COMPLETE_VESS
 10
408855.6749462328152731
 20
4667727.1069024875760078
 30
0.0
  0
VERTEX
  5
1FA
  8
12D16_AREA_I_COMPLETE_VESS
 10
408855.6590712005272508
 20
4667727.1532046664506197
 30
0.0
  0
VERTEX
  5
1FB
  8
12D16_AREA_I_COMPLETE_VESS
 10
408855.6484878464834765
 20
4667727.1730484552681446
 30
0.0
  0
SEQEND
  5
1FC
  8
12D16_AREA_I_COMPLETE_VESS
  0
POLYLINE
  5
B6
  8
12D16_AREA_I_COMPLETE_VESS
 66
     1
 10
0.0
 20
0.0
 30
0.0
 70
     1
  0
VERTEX
  5
1FD
  8
12D16_AREA_I_COMPLETE_VESS
 10
408855.5630272590206005
 20
4667727.5328825078904629
 30
0.0
  0
VERTEX
  5
1FE
  8
12D16_AREA_I_COMPLETE_VESS
 10
408855.5709647740004584
 20
4667727.5593408923596144
 30
0.0
  0
VERTEX
  5
1FF
  8
12D16_AREA_I_COMPLETE_VESS
 10
408855.589485646225512
 20
4667727.5789200998842716
 30
0.0
  0
VERTEX
  5
200
  8
12D16_AREA_I_COMPLETE_VESS
 10
408855.6101231853826903
 20
4667727.5905151357874274
 30
0.0
  0
VERTEX
  5
201
  8
12D16_AREA_I_COMPLETE_VESS
 10
408855.6289186560898088
 20
4667727.5831103846430779
 30
0.0
  0
VERTEX
  5
202
  8
12D16_AREA_I_COMPLETE_VESS
 10
408855.6524566048756242
 20
4667727.5646325713023543
 30
0.0
  0
VERTEX
  5
203
  8
12D16_AREA_I_COMPLETE_VESS
 10
408855.6811305517912842
 20
4667727.5418462883681059
 30
0.0
  0
VERTEX
  5
204
  8
12D16_AREA_I_COMPLETE_VESS
 10
408855.6974358615116216
 20
4667727.5281199952587485
 30
0.0
  0
VERTEX
  5
205
  8
12D16_AREA_I_COMPLETE_VESS
 10
408855.7016692039906047
 20
4667727.5122449658811092
 30
0.0
  0
VERTEX
  5
206
  8
12D16_AREA_I_COMPLETE_VESS
 10
408855.6995525315287523
 20
4667727.4910782594233751
 30
0.0
  0
VERTEX
  5
207
  8
12D16_AREA_I_COMPLETE_VESS
 10
408855.6958483568159863
 20
4667727.4757323935627937
 30
0.0
  0
VERTEX
  5
208
  8
12D16_AREA_I_COMPLETE_VESS
 10
408855.6900275117950514
 20
4667727.4619740340858698
 30
0.0
  0
VERTEX
  5
209
  8
12D16_AREA_I_COMPLETE_VESS
 10
408855.6699191397055984
 20
4667727.4476865027099848
 30
0.0
  0
VERTEX
  5
20A
  8
12D16_AREA_I_COMPLETE_VESS
 10
408855.6307607275084592
 20
4667727.4397489875555038
 30
0.0
  0
VERTEX
  5
20B
  8
12D16_AREA_I_COMPLETE_VESS
 10
408855.606275306083262
 20
4667727.4376446139067411
 30
0.0
  0
VERTEX
  5
20C
  8
12D16_AREA_I_COMPLETE_VESS
 10
408855.594446524977684
 20
4667727.4397862926125526
 30
0.0
  0
VERTEX
  5
20D
  8
12D16_AREA_I_COMPLETE_VESS
 10
408855.5709647740004584
 20
4667727.4556240197271109
 30
0.0
  0
VERTEX
  5
20E
  8
12D16_AREA_I_COMPLETE_VESS
 10
408855.5635564260883257
 20
4667727.4746740590780973
 30
0.0
  0
VERTEX
  5
20F
  8
12D16_AREA_I_COMPLETE_VESS
 10
408855.5609105891198851
 20
4667727.4900199212133884
 30
0.0
  0
VERTEX
  5
210
  8
12D16_AREA_I_COMPLETE_VESS
 10
408855.5624980917782523
 20
4667727.51277413405478
 30
0.0
  0
SEQEND
  5
211
  8
12D16_AREA_I_COMPLETE_VESS
  0
POLYLINE
  5
B7
  8
12D16_AREA_I_COMPLETE_VESS
 66
     1
 10
0.0
 20
0.0
 30
0.0
 70
     1
  0
VERTEX
  5
212
  8
12D16_AREA_I_COMPLETE_VESS
 10
408854.152001513983123
 20
4667726.1379302330315113
 30
0.0
  0
VERTEX
  5
213
  8
12D16_AREA_I_COMPLETE_VESS
 10
408854.1726390541880392
 20
4667726.0918926410377026
 30
0.0
  0
VERTEX
  5
214
  8
12D16_AREA_I_COMPLETE_VESS
 10
408854.1869265838176943
 20
4667726.0522050634026527
 30
0.0
  0
VERTEX
  5
215
  8
12D16_AREA_I_COMPLETE_VESS
 10
408854.190101589076221
 20
4667725.9934674464166164
 30
0.0
  0
VERTEX
  5
216
  8
12D16_AREA_I_COMPLETE_VESS
 10
408854.1710515515878797
 20
4667725.9617173820734024
 30
0.0
  0
VERTEX
  5
217
  8
12D16_AREA_I_COMPLETE_VESS
 10
408854.1424764943076298
 20
4667725.9236173089593649
 30
0.0
  0
VERTEX
  5
218
  8
12D16_AREA_I_COMPLETE_VESS
 10
408854.1154889399185777
 20
4667725.9172672927379608
 30
0.0
  0
VERTEX
  5
219
  8
12D16_AREA_I_COMPLETE_VESS
 10
408854.0758013614104129
 20
4667725.9077422730624676
 30
0.0
  0
VERTEX
  5
21A
  8
12D16_AREA_I_COMPLETE_VESS
 10
408854.067863846081309
 20
4667725.918854795396328
 30
0.0
  0
VERTEX
  5
21B
  8
12D16_AREA_I_COMPLETE_VESS
 10
408854.0583388264058158
 20
4667725.9791799187660217
 30
0.0
  0
VERTEX
  5
21C
  8
12D16_AREA_I_COMPLETE_VESS
 10
408854.0583388264058158
 20
4667726.0109299784526229
 30
0.0
  0
VERTEX
  5
21D
  8
12D16_AREA_I_COMPLETE_VESS
 10
408854.0599263291805983
 20
4667726.0426800427958369
 30
0.0
  0
VERTEX
  5
21E
  8
12D16_AREA_I_COMPLETE_VESS
 10
408854.0710388515144587
 20
4667726.09348014742136
 30
0.0
  0
VERTEX
  5
21F
  8
12D16_AREA_I_COMPLETE_VESS
 10
408854.063101336476393
 20
4667726.1506302617490292
 30
0.0
  0
VERTEX
  5
220
  8
12D16_AREA_I_COMPLETE_VESS
 10
408854.1059639229206368
 20
4667726.1474552527070045
 30
0.0
  0
VERTEX
  5
221
  8
12D16_AREA_I_COMPLETE_VESS
 10
408854.1472390043199994
 20
4667726.1474552527070045
 30
0.0
  0
SEQEND
  5
222
  8
12D16_AREA_I_COMPLETE_VESS
  0
POLYLINE
  5
B8
  8
12D16_AREA_I_COMPLETE_VESS
 66
     1
 10
0.0
 20
0.0
 30
0.0
 70
     1
  0
VERTEX
  5
223
  8
12D16_AREA_I_COMPLETE_VESS
 10
408854.1522639499162324
 20
4667726.3713981760665774
 30
0.0
  0
VERTEX
  5
224
  8
12D16_AREA_I_COMPLETE_VESS
 10
408854.1760764999198727
 20
4667726.3507606331259012
 30
0.0
  0
VERTEX
  5
225
  8
12D16_AREA_I_COMPLETE_VESS
 10
408854.1935390348080546
 20
4667726.326948088593781
 30
0.0
  0
VERTEX
  5
226
  8
12D16_AREA_I_COMPLETE_VESS
 10
408854.1744889945257455
 20
4667726.3015480386093259
 30
0.0
  0
VERTEX
  5
227
  8
12D16_AREA_I_COMPLETE_VESS
 10
408854.128451403521467
 20
4667726.3047230439260602
 30
0.0
  0
VERTEX
  5
228
  8
12D16_AREA_I_COMPLETE_VESS
 10
408854.1173388810711913
 20
4667726.326948088593781
 30
0.0
  0
SEQEND
  5
229
  8
12D16_AREA_I_COMPLETE_VESS
  0
POLYLINE
  5
B9
  8
12D16_AREA_I_COMPLETE_VESS
 66
     1
 10
0.0
 20
0.0
 30
0.0
 70
     1
  0
VERTEX
  5
22A
  8
12D16_AREA_I_COMPLETE_VESS
 10
408853.3783582979813218
 20
4667726.6162978587672114
 30
0.0
  0
VERTEX
  5
22B
  8
12D16_AREA_I_COMPLETE_VESS
 10
408853.3741249581798911
 20
4667726.5877228016033769
 30
0.0
  0
VERTEX
  5
22C
  8
12D16_AREA_I_COMPLETE_VESS
 10
408853.373066620901227
 20
4667726.5527977310121059
 30
0.0
  0
VERTEX
  5
22D
  8
12D16_AREA_I_COMPLETE_VESS
 10
408853.3688332802266814
 20
4667726.5358643671497703
 30
0.0
  0
VERTEX
  5
22E
  8
12D16_AREA_I_COMPLETE_VESS
 10
408853.319091513811145
 20
4667726.5390393752604723
 30
0.0
  0
VERTEX
  5
22F
  8
12D16_AREA_I_COMPLETE_VESS
 10
408853.2989831389859319
 20
4667726.5485643884167075
 30
0.0
  0
VERTEX
  5
230
  8
12D16_AREA_I_COMPLETE_VESS
 10
408853.2693497472209856
 20
4667726.5665560942143202
 30
0.0
  0
VERTEX
  5
231
  8
12D16_AREA_I_COMPLETE_VESS
 10
408853.2428913600742817
 20
4667726.5919561441987753
 30
0.0
  0
VERTEX
  5
232
  8
12D16_AREA_I_COMPLETE_VESS
 10
408853.2407746901735663
 20
4667726.6205312041565776
 30
0.0
  0
VERTEX
  5
233
  8
12D16_AREA_I_COMPLETE_VESS
 10
408853.2502997097908519
 20
4667726.6618062825873494
 30
0.0
  0
VERTEX
  5
234
  8
12D16_AREA_I_COMPLETE_VESS
 10
408853.2905164565891027
 20
4667726.6575729437172413
 30
0.0
  0
VERTEX
  5
235
  8
12D16_AREA_I_COMPLETE_VESS
 10
408853.3254415261908434
 20
4667726.6459312532097101
 30
0.0
  0
VERTEX
  5
236
  8
12D16_AREA_I_COMPLETE_VESS
 10
408853.3529582479968667
 20
4667726.6364062326028943
 30
0.0
  0
SEQEND
  5
237
  8
12D16_AREA_I_COMPLETE_VESS
  0
POLYLINE
  5
BA
  8
12D16_AREA_I_COMPLETE_VESS
 66
     1
 10
0.0
 20
0.0
 30
0.0
 70
     1
  0
VERTEX
  5
238
  8
12D16_AREA_I_COMPLETE_VESS
 10
408853.3487249054014683
 20
4667725.8675255291163921
 30
0.0
  0
VERTEX
  5
239
  8
12D16_AREA_I_COMPLETE_VESS
 10
408853.3725374527275562
 20
4667725.842125479131937
 30
0.0
  0
VERTEX
  5
23A
  8
12D16_AREA_I_COMPLETE_VESS
 10
408853.3582499260082841
 20
4667725.8246629424393177
 30
0.0
  0
VERTEX
  5
23B
  8
12D16_AREA_I_COMPLETE_VESS
 10
408853.2804622696712613
 20
4667725.8151379227638245
 30
0.0
  0
VERTEX
  5
23C
  8
12D16_AREA_I_COMPLETE_VESS
 10
408853.2741122571751475
 20
4667725.8627630174160004
 30
0.0
  0
VERTEX
  5
23D
  8
12D16_AREA_I_COMPLETE_VESS
 10
408853.3010998088866472
 20
4667725.8722880370914936
 30
0.0
  0
VERTEX
  5
23E
  8
12D16_AREA_I_COMPLETE_VESS
 10
408853.3312623715028167
 20
4667725.8786380514502525
 30
0.0
  0
SEQEND
  5
23F
  8
12D16_AREA_I_COMPLETE_VESS
  0
POLYLINE
  5
BB
  8
12D16_AREA_I_COMPLETE_VESS
 66
     1
 10
0.0
 20
0.0
 30
0.0
 70
     1
  0
VERTEX
  5
240
  8
12D16_AREA_I_COMPLETE_VESS
 10
408853.4471501018851995
 20
4667725.6881376691162586
 30
0.0
  0
VERTEX
  5
241
  8
12D16_AREA_I_COMPLETE_VESS
 10
408853.4439750965102576
 20
4667725.650037594139576
 30
0.0
  0
VERTEX
  5
242
  8
12D16_AREA_I_COMPLETE_VESS
 10
408853.4312750715762377
 20
4667725.6055875066667795
 30
0.0
  0
VERTEX
  5
243
  8
12D16_AREA_I_COMPLETE_VESS
 10
408853.4074625225039199
 20
4667725.592887481674552
 30
0.0
  0
VERTEX
  5
244
  8
12D16_AREA_I_COMPLETE_VESS
 10
408853.3344373786821961
 20
4667725.6040000040084124
 30
0.0
  0
VERTEX
  5
245
  8
12D16_AREA_I_COMPLETE_VESS
 10
408853.2868122821091674
 20
4667725.6008249931037426
 30
0.0
  0
VERTEX
  5
246
  8
12D16_AREA_I_COMPLETE_VESS
 10
408853.2725247527123429
 20
4667725.6325750574469566
 30
0.0
  0
VERTEX
  5
247
  8
12D16_AREA_I_COMPLETE_VESS
 10
408853.2756997597170994
 20
4667725.6802001520991325
 30
0.0
  0
VERTEX
  5
248
  8
12D16_AREA_I_COMPLETE_VESS
 10
408853.2883997848257422
 20
4667725.7087752111256123
 30
0.0
  0
VERTEX
  5
249
  8
12D16_AREA_I_COMPLETE_VESS
 10
408853.3042748169973493
 20
4667725.7262377440929413
 30
0.0
  0
VERTEX
  5
24A
  8
12D16_AREA_I_COMPLETE_VESS
 10
408853.3423748938948847
 20
4667725.7167127281427383
 30
0.0
  0
VERTEX
  5
24B
  8
12D16_AREA_I_COMPLETE_VESS
 10
408853.3884124847827479
 20
4667725.7024251967668533
 30
0.0
  0
VERTEX
  5
24C
  8
12D16_AREA_I_COMPLETE_VESS
 10
408853.4328625741763972
 20
4667725.7008376941084862
 30
0.0
  0
SEQEND
  5
24D
  8
12D16_AREA_I_COMPLETE_VESS
  0
POLYLINE
  5
BC
  8
12D16_AREA_I_COMPLETE_VESS
 66
     1
 10
0.0
 20
0.0
 30
0.0
 70
     1
  0
VERTEX
  5
24E
  8
12D16_AREA_I_COMPLETE_VESS
 10
408853.8997903187992051
 20
4667725.0595993911847472
 30
0.0
  0
VERTEX
  5
24F
  8
12D16_AREA_I_COMPLETE_VESS
 10
408853.9352187337935902
 20
4667725.0117795038968325
 30
0.0
  0
VERTEX
  5
250
  8
12D16_AREA_I_COMPLETE_VESS
 10
408853.9682401727186516
 20
4667724.9760806476697326
 30
0.0
  0
VERTEX
  5
251
  8
12D16_AREA_I_COMPLETE_VESS
 10
408854.003958995686844
 20
4667724.9099346809089184
 30
0.0
  0
VERTEX
  5
252
  8
12D16_AREA_I_COMPLETE_VESS
 10
408854.0079277522163466
 20
4667724.8649554252624512
 30
0.0
  0
VERTEX
  5
253
  8
12D16_AREA_I_COMPLETE_VESS
 10
408853.9946985599817708
 20
4667724.7988094575703144
 30
0.0
  0
VERTEX
  5
254
  8
12D16_AREA_I_COMPLETE_VESS
 10
408853.9788235278101638
 20
4667724.7644135560840368
 30
0.0
  0
VERTEX
  5
255
  8
12D16_AREA_I_COMPLETE_VESS
 10
408853.9589797389926389
 20
4667724.7630906356498599
 30
0.0
  0
VERTEX
  5
256
  8
12D16_AREA_I_COMPLETE_VESS
 10
408853.9298755127820186
 20
4667724.7961636213585734
 30
0.0
  0
VERTEX
  5
257
  8
12D16_AREA_I_COMPLETE_VESS
 10
408853.8941566916764714
 20
4667724.8411428770050406
 30
0.0
  0
VERTEX
  5
258
  8
12D16_AREA_I_COMPLETE_VESS
 10
408853.8518232750939205
 20
4667724.8927367264404893
 30
0.0
  0
VERTEX
  5
259
  8
12D16_AREA_I_COMPLETE_VESS
 10
408853.8227190498146228
 20
4667724.9165492784231901
 30
0.0
  0
VERTEX
  5
25A
  8
12D16_AREA_I_COMPLETE_VESS
 10
408853.8053195010870695
 20
4667724.9363214923068881
 30
0.0
  0
VERTEX
  5
25B
  8
12D16_AREA_I_COMPLETE_VESS
 10
408853.7936148234875873
 20
4667724.9496222576126456
 30
0.0
  0
VERTEX
  5
25C
  8
12D16_AREA_I_COMPLETE_VESS
 10
408853.8200732108089142
 20
4667724.9774035643786192
 30
0.0
  0
VERTEX
  5
25D
  8
12D16_AREA_I_COMPLETE_VESS
 10
408853.8255653131054714
 20
4667724.9854304837062955
 30
0.0
  0
SEQEND
  5
25E
  8
12D16_AREA_I_COMPLETE_VESS
  0
POLYLINE
  5
BD
  8
12D16_AREA_I_COMPLETE_VESS
 66
     1
 10
0.0
 20
0.0
 30
0.0
 70
     1
  0
VERTEX
  5
25F
  8
12D16_AREA_I_COMPLETE_VESS
 10
408854.6077928094891831
 20
4667729.5489462949335575
 30
0.0
  0
VERTEX
  5
260
  8
12D16_AREA_I_COMPLETE_VESS
 10
408854.5696877418085933
 20
4667729.6477858424186707
 30
0.0
  0
VERTEX
  5
261
  8
12D16_AREA_I_COMPLETE_VESS
 10
408854.6977513228193857
 20
4667729.7156341299414635
 30
0.0
  0
VERTEX
  5
262
  8
12D16_AREA_I_COMPLETE_VESS
 10
408854.8353349306271411
 20
4667729.7500300323590636
 30
0.0
  0
VERTEX
  5
263
  8
12D16_AREA_I_COMPLETE_VESS
 10
408854.8935433821752667
 20
4667729.7579675484448671
 30
0.0
  0
VERTEX
  5
264
  8
12D16_AREA_I_COMPLETE_VESS
 10
408854.9226476039038971
 20
4667729.6600715182721615
 30
0.0
  0
VERTEX
  5
265
  8
12D16_AREA_I_COMPLETE_VESS
 10
408854.7638972885906696
 20
4667729.575404679402709
 30
0.0
  0
VERTEX
  5
266
  8
12D16_AREA_I_COMPLETE_VESS
 10
408854.6686470984132029
 20
4667729.5145503934472799
 30
0.0
  0
VERTEX
  5
267
  8
12D16_AREA_I_COMPLETE_VESS
 10
408854.6183761638239957
 20
4667729.5198420695960522
 30
0.0
  0
SEQEND
  5
268
  8
12D16_AREA_I_COMPLETE_VESS
  0
POLYLINE
  5
BE
  8
12D16_AREA_I_COMPLETE_VESS
 66
     1
 10
0.0
 20
0.0
 30
0.0
 70
     1
  0
VERTEX
  5
269
  8
12D16_AREA_I_COMPLETE_VESS
 10
408854.5696877418085933
 20
4667729.6477858424186707
 30
0.0
  0
VERTEX
  5
26A
  8
12D16_AREA_I_COMPLETE_VESS
 10
408854.5416468427865766
 20
4667729.7235716432332993
 30
0.0
  0
VERTEX
  5
26B
  8
12D16_AREA_I_COMPLETE_VESS
 10
408854.5522301978780888
 20
4667729.6733007114380598
 30
0.0
  0
VERTEX
  5
26C
  8
12D16_AREA_I_COMPLETE_VESS
 10
408854.5696877418085933
 20
4667729.6477858424186707
 30
0.0
  0
VERTEX
  5
26D
  8
12D16_AREA_I_COMPLETE_VESS
 10
408854.586626099422574
 20
4667729.6230297796428204
 30
0.0
  0
VERTEX
  5
26E
  8
12D16_AREA_I_COMPLETE_VESS
 10
408854.6077928094891831
 20
4667729.5489462949335575
 30
0.0
  0
VERTEX
  5
26F
  8
12D16_AREA_I_COMPLETE_VESS
 10
408854.5839802622213028
 20
4667729.5304254256188869
 30
0.0
  0
VERTEX
  5
270
  8
12D16_AREA_I_COMPLETE_VESS
 10
408854.5057742455974221
 20
4667729.5419263122603297
 30
0.0
  0
VERTEX
  5
271
  8
12D16_AREA_I_COMPLETE_VESS
 10
408854.4940217491239309
 20
4667729.543654615059495
 30
0.0
  0
VERTEX
  5
272
  8
12D16_AREA_I_COMPLETE_VESS
 10
408854.4411049773916602
 20
4667729.543654615059495
 30
0.0
  0
VERTEX
  5
273
  8
12D16_AREA_I_COMPLETE_VESS
 10
408854.3961257198825479
 20
4667729.5463004568591714
 30
0.0
  0
VERTEX
  5
274
  8
12D16_AREA_I_COMPLETE_VESS
 10
408854.3379172692075372
 20
4667729.55423797480762
 30
0.0
  0
VERTEX
  5
275
  8
12D16_AREA_I_COMPLETE_VESS
 10
408854.3141047218814492
 20
4667729.5595296509563923
 30
0.0
  0
VERTEX
  5
276
  8
12D16_AREA_I_COMPLETE_VESS
 10
408854.3246880769729614
 20
4667729.6203839359804988
 30
0.0
  0
VERTEX
  5
277
  8
12D16_AREA_I_COMPLETE_VESS
 10
408854.3537923013791442
 20
4667729.6653631925582886
 30
0.0
  0
VERTEX
  5
278
  8
12D16_AREA_I_COMPLETE_VESS
 10
408854.368557887210045
 20
4667729.6889881305396557
 30
0.0
  0
VERTEX
  5
279
  8
12D16_AREA_I_COMPLETE_VESS
 10
408854.3802506877109408
 20
4667729.7076966119930148
 30
0.0
  0
VERTEX
  5
27A
  8
12D16_AREA_I_COMPLETE_VESS
 10
408854.4049672298133373
 20
4667729.727469845674932
 30
0.0
  0
VERTEX
  5
27B
  8
12D16_AREA_I_COMPLETE_VESS
 10
408854.4331674593850039
 20
4667729.7500300323590636
 30
0.0
  0
VERTEX
  5
27C
  8
12D16_AREA_I_COMPLETE_VESS
 10
408854.4860842339112423
 20
4667729.7738425778225064
 30
0.0
  0
VERTEX
  5
27D
  8
12D16_AREA_I_COMPLETE_VESS
 10
408854.5125426183803938
 20
4667729.7711967406794429
 30
0.0
  0
VERTEX
  5
27E
  8
12D16_AREA_I_COMPLETE_VESS
 10
408854.5628135530278087
 20
4667729.7685509026050568
 30
0.0
  0
VERTEX
  5
27F
  8
12D16_AREA_I_COMPLETE_VESS
 10
408854.681876290589571
 20
4667729.7844259347766638
 30
0.0
  0
VERTEX
  5
280
  8
12D16_AREA_I_COMPLETE_VESS
 10
408854.8485641246079467
 20
4667729.8108843183144927
 30
0.0
  0
VERTEX
  5
281
  8
12D16_AREA_I_COMPLETE_VESS
 10
408854.8935433821752667
 20
4667729.7579675484448671
 30
0.0
  0
VERTEX
  5
282
  8
12D16_AREA_I_COMPLETE_VESS
 10
408854.6977513228193857
 20
4667729.7156341299414635
 30
0.0
  0
VERTEX
  5
283
  8
12D16_AREA_I_COMPLETE_VESS
 10
408854.6142514346865937
 20
4667729.6713957581669092
 30
0.0
  0
SEQEND
  5
284
  8
12D16_AREA_I_COMPLETE_VESS
  0
POLYLINE
  5
BF
  8
12D16_AREA_I_COMPLETE_VESS
 66
     1
 10
0.0
 20
0.0
 30
0.0
 70
     1
  0
VERTEX
  5
285
  8
12D16_AREA_I_COMPLETE_VESS
 10
408855.0840437617152929
 20
4667730.153785003349185
 30
0.0
  0
VERTEX
  5
286
  8
12D16_AREA_I_COMPLETE_VESS
 10
408855.0099602796835825
 20
4667730.0966348899528384
 30
0.0
  0
VERTEX
  5
287
  8
12D16_AREA_I_COMPLETE_VESS
 10
408854.995014074316714
 20
4667730.0888059251010418
 30
0.0
  0
VERTEX
  5
288
  8
12D16_AREA_I_COMPLETE_VESS
 10
408854.9210601021186449
 20
4667730.0500681279227138
 30
0.0
  0
VERTEX
  5
289
  8
12D16_AREA_I_COMPLETE_VESS
 10
408854.9035889133810997
 20
4667730.0802456364035606
 30
0.0
  0
VERTEX
  5
28A
  8
12D16_AREA_I_COMPLETE_VESS
 10
408854.8977767219766974
 20
4667730.0902848746627569
 30
0.0
  0
VERTEX
  5
28B
  8
12D16_AREA_I_COMPLETE_VESS
 10
408854.8469766200869344
 20
4667730.1178015992045403
 30
0.0
  0
VERTEX
  5
28C
  8
12D16_AREA_I_COMPLETE_VESS
 10
408854.8198205389780924
 20
4667730.1201629964634776
 30
0.0
  0
VERTEX
  5
28D
  8
12D16_AREA_I_COMPLETE_VESS
 10
408854.7982931910082698
 20
4667730.122034939005971
 30
0.0
  0
VERTEX
  5
28E
  8
12D16_AREA_I_COMPLETE_VESS
 10
408854.7390264049172401
 20
4667730.1156849283725023
 30
0.0
  0
VERTEX
  5
28F
  8
12D16_AREA_I_COMPLETE_VESS
 10
408854.7294018780812621
 20
4667730.1203671311959624
 30
0.0
  0
VERTEX
  5
290
  8
12D16_AREA_I_COMPLETE_VESS
 10
408854.6607095812796615
 20
4667730.153785003349185
 30
0.0
  0
VERTEX
  5
291
  8
12D16_AREA_I_COMPLETE_VESS
 10
408854.6776429479941726
 20
4667730.2067017778754234
 30
0.0
  0
VERTEX
  5
292
  8
12D16_AREA_I_COMPLETE_VESS
 10
408854.7032299452112056
 20
4667730.2391119673848152
 30
0.0
  0
VERTEX
  5
293
  8
12D16_AREA_I_COMPLETE_VESS
 10
408854.7093930122791789
 20
4667730.2469185208901763
 30
0.0
  0
VERTEX
  5
294
  8
12D16_AREA_I_COMPLETE_VESS
 10
408854.743259746581316
 20
4667730.2786685861647129
 30
0.0
  0
VERTEX
  5
295
  8
12D16_AREA_I_COMPLETE_VESS
 10
408854.764426453912165
 20
4667730.3358187014237046
 30
0.0
  0
VERTEX
  5
296
  8
12D16_AREA_I_COMPLETE_VESS
 10
408854.8363932661013678
 20
4667730.3929688148200512
 30
0.0
  0
VERTEX
  5
297
  8
12D16_AREA_I_COMPLETE_VESS
 10
408854.9125934186740778
 20
4667730.3823854587972164
 30
0.0
  0
VERTEX
  5
298
  8
12D16_AREA_I_COMPLETE_VESS
 10
408854.9209393308847211
 20
4667730.3760751355439425
 30
0.0
  0
VERTEX
  5
299
  8
12D16_AREA_I_COMPLETE_VESS
 10
408854.9954781326814555
 20
4667730.3197165280580521
 30
0.0
  0
VERTEX
  5
29A
  8
12D16_AREA_I_COMPLETE_VESS
 10
408854.9993769255816005
 20
4667730.3167686611413956
 30
0.0
  0
VERTEX
  5
29B
  8
12D16_AREA_I_COMPLETE_VESS
 10
408855.0734604066237807
 20
4667730.2151684556156397
 30
0.0
  0
VERTEX
  5
29C
  8
12D16_AREA_I_COMPLETE_VESS
 10
408855.0739744686870836
 20
4667730.2121869055554271
 30
0.0
  0
SEQEND
  5
29D
  8
12D16_AREA_I_COMPLETE_VESS
  0
POLYLINE
  5
C0
  8
12D16_AREA_I_COMPLETE_VESS
 66
     1
 10
0.0
 20
0.0
 30
0.0
 70
     1
  0
VERTEX
  5
29E
  8
12D16_AREA_I_COMPLETE_VESS
 10
408854.8485641246079467
 20
4667729.8108843183144927
 30
0.0
  0
VERTEX
  5
29F
  8
12D16_AREA_I_COMPLETE_VESS
 10
408854.743127616122365
 20
4667729.7941483687609434
 30
0.0
  0
VERTEX
  5
2A0
  8
12D16_AREA_I_COMPLETE_VESS
 10
408854.7093930122791789
 20
4667729.8870844729244709
 30
0.0
  0
VERTEX
  5
2A1
  8
12D16_AREA_I_COMPLETE_VESS
 10
408854.6141428221017122
 20
4667729.8680344335734844
 30
0.0
  0
VERTEX
  5
2A2
  8
12D16_AREA_I_COMPLETE_VESS
 10
408854.5273593153106049
 20
4667729.8638010881841183
 30
0.0
  0
VERTEX
  5
2A3
  8
12D16_AREA_I_COMPLETE_VESS
 10
408854.5273593153106049
 20
4667729.9442345863208175
 30
0.0
  0
VERTEX
  5
2A4
  8
12D16_AREA_I_COMPLETE_VESS
 10
408854.612026151327882
 20
4667729.9823346612975001
 30
0.0
  0
VERTEX
  5
2A5
  8
12D16_AREA_I_COMPLETE_VESS
 10
408854.6374262013123371
 20
4667730.0246680807322264
 30
0.0
  0
VERTEX
  5
2A6
  8
12D16_AREA_I_COMPLETE_VESS
 10
408854.6903429746744223
 20
4667729.997151356190443
 30
0.0
  0
VERTEX
  5
2A7
  8
12D16_AREA_I_COMPLETE_VESS
 10
408854.7242097100242972
 20
4667729.997151356190443
 30
0.0
  0
VERTEX
  5
2A8
  8
12D16_AREA_I_COMPLETE_VESS
 10
408854.7580764414742589
 20
4667730.0183180654421449
 30
0.0
  0
VERTEX
  5
2A9
  8
12D16_AREA_I_COMPLETE_VESS
 10
408854.762309784127865
 20
4667730.0733515098690987
 30
0.0
  0
VERTEX
  5
2AA
  8
12D16_AREA_I_COMPLETE_VESS
 10
408854.8067598734050989
 20
4667730.0606514783576131
 30
0.0
  0
VERTEX
  5
2AB
  8
12D16_AREA_I_COMPLETE_VESS
 10
408854.8639099877909757
 20
4667729.997151356190443
 30
0.0
  0
VERTEX
  5
2AC
  8
12D16_AREA_I_COMPLETE_VESS
 10
408854.8998933946713805
 20
4667729.9950346853584051
 30
0.0
  0
VERTEX
  5
2AD
  8
12D16_AREA_I_COMPLETE_VESS
 10
408854.9041267344728112
 20
4667729.8934344816952944
 30
0.0
  0
VERTEX
  5
2AE
  8
12D16_AREA_I_COMPLETE_VESS
 10
408854.9125934186740778
 20
4667729.8193509988486767
 30
0.0
  0
SEQEND
  5
2AF
  8
12D16_AREA_I_COMPLETE_VESS
  0
POLYLINE
  5
C1
  8
12D16_AREA_I_COMPLETE_VESS
 66
     1
 10
0.0
 20
0.0
 30
0.0
 70
     1
  0
VERTEX
  5
2B0
  8
12D16_AREA_I_COMPLETE_VESS
 10
408853.977024880296085
 20
4667730.0627681529149413
 30
0.0
  0
VERTEX
  5
2B1
  8
12D16_AREA_I_COMPLETE_VESS
 10
408853.9368081334978342
 20
4667730.0712348390370607
 30
0.0
  0
VERTEX
  5
2B2
  8
12D16_AREA_I_COMPLETE_VESS
 10
408853.9241081085056067
 20
4667730.1559016723185778
 30
0.0
  0
VERTEX
  5
2B3
  8
12D16_AREA_I_COMPLETE_VESS
 10
408853.9241081085056067
 20
4667730.2448018509894609
 30
0.0
  0
VERTEX
  5
2B4
  8
12D16_AREA_I_COMPLETE_VESS
 10
408853.943158145993948
 20
4667730.2765519162639976
 30
0.0
  0
VERTEX
  5
2B5
  8
12D16_AREA_I_COMPLETE_VESS
 10
408853.9854915644973516
 20
4667730.3061853116378188
 30
0.0
  0
VERTEX
  5
2B6
  8
12D16_AREA_I_COMPLETE_VESS
 10
408854.038408336113207
 20
4667730.3188853366300464
 30
0.0
  0
VERTEX
  5
2B7
  8
12D16_AREA_I_COMPLETE_VESS
 10
408854.0849750954075716
 20
4667730.3167686611413956
 30
0.0
  0
VERTEX
  5
2B8
  8
12D16_AREA_I_COMPLETE_VESS
 10
408854.1146084879874252
 20
4667730.2003517607226968
 30
0.0
  0
VERTEX
  5
2B9
  8
12D16_AREA_I_COMPLETE_VESS
 10
408854.0489916913211346
 20
4667730.1283849533647299
 30
0.0
  0
SEQEND
  5
2BA
  8
12D16_AREA_I_COMPLETE_VESS
  0
POLYLINE
  5
C2
  8
12D16_AREA_I_COMPLETE_VESS
 66
     1
 10
0.0
 20
0.0
 30
0.0
 70
     1
  0
VERTEX
  5
2BB
  8
12D16_AREA_I_COMPLETE_VESS
 10
408853.3400437710224651
 20
4667730.2173796538263559
 30
0.0
  0
VERTEX
  5
2BC
  8
12D16_AREA_I_COMPLETE_VESS
 10
408853.3687465813709423
 20
4667730.1429370660334826
 30
0.0
  0
VERTEX
  5
2BD
  8
12D16_AREA_I_COMPLETE_VESS
 10
408853.3356735985144041
 20
4667730.0602546073496342
 30
0.0
  0
VERTEX
  5
2BE
  8
12D16_AREA_I_COMPLETE_VESS
 10
408853.3422881942242384
 20
4667729.9808794492855668
 30
0.0
  0
VERTEX
  5
2BF
  8
12D16_AREA_I_COMPLETE_VESS
 10
408853.1736159828142263
 20
4667729.7956707458943129
 30
0.0
  0
VERTEX
  5
2C0
  8
12D16_AREA_I_COMPLETE_VESS
 10
408853.0413240502239205
 20
4667729.9775721514597535
 30
0.0
  0
SEQEND
  5
2C1
  8
12D16_AREA_I_COMPLETE_VESS
  0
POLYLINE
  5
C3
  8
12D16_AREA_I_COMPLETE_VESS
 66
     1
 10
0.0
 20
0.0
 30
0.0
 70
     1
  0
VERTEX
  5
2C2
  8
12D16_AREA_I_COMPLETE_VESS
 10
408853.4216633532196283
 20
4667730.2818435952067375
 30
0.0
  0
VERTEX
  5
2C3
  8
12D16_AREA_I_COMPLETE_VESS
 10
408853.4845020212233067
 20
4667730.2256195237860084
 30
0.0
  0
VERTEX
  5
2C4
  8
12D16_AREA_I_COMPLETE_VESS
 10
408853.5208823028951883
 20
4667730.1429370660334826
 30
0.0
  0
VERTEX
  5
2C5
  8
12D16_AREA_I_COMPLETE_VESS
 10
408853.4845020212233067
 20
4667730.0701765017583966
 30
0.0
  0
VERTEX
  5
2C6
  8
12D16_AREA_I_COMPLETE_VESS
 10
408853.418356055393815
 20
4667730.1065567834302783
 30
0.0
  0
VERTEX
  5
2C7
  8
12D16_AREA_I_COMPLETE_VESS
 10
408853.3687465813709423
 20
4667730.1429370660334826
 30
0.0
  0
VERTEX
  5
2C8
  8
12D16_AREA_I_COMPLETE_VESS
 10
408853.3323662996990606
 20
4667730.1693954523652792
 30
0.0
  0
VERTEX
  5
2C9
  8
12D16_AREA_I_COMPLETE_VESS
 10
408853.3455954929231666
 20
4667730.2520779091864824
 30
0.0
  0
SEQEND
  5
2CA
  8
12D16_AREA_I_COMPLETE_VESS
  0
POLYLINE
  5
C4
  8
12D16_AREA_I_COMPLETE_VESS
 66
     1
 10
0.0
 20
0.0
 30
0.0
 70
     1
  0
VERTEX
  5
2CB
  8
12D16_AREA_I_COMPLETE_VESS
 10
408853.4845020212233067
 20
4667730.0701765017583966
 30
0.0
  0
VERTEX
  5
2CC
  8
12D16_AREA_I_COMPLETE_VESS
 10
408853.2629130361019634
 20
4667729.7295247800648212
 30
0.0
  0
VERTEX
  5
2CD
  8
12D16_AREA_I_COMPLETE_VESS
 10
408853.1736159828142263
 20
4667729.7956707458943129
 30
0.0
  0
VERTEX
  5
2CE
  8
12D16_AREA_I_COMPLETE_VESS
 10
408853.2761422285111621
 20
4667729.9180407822132111
 30
0.0
  0
VERTEX
  5
2CF
  8
12D16_AREA_I_COMPLETE_VESS
 10
408853.3422881942242384
 20
4667729.9808794492855668
 30
0.0
  0
VERTEX
  5
2D0
  8
12D16_AREA_I_COMPLETE_VESS
 10
408853.3356735985144041
 20
4667730.0602546073496342
 30
0.0
  0
VERTEX
  5
2D1
  8
12D16_AREA_I_COMPLETE_VESS
 10
408853.3687465813709423
 20
4667730.1429370660334826
 30
0.0
  0
SEQEND
  5
2D2
  8
12D16_AREA_I_COMPLETE_VESS
  0
POLYLINE
  5
C5
  8
12D16_AREA_I_COMPLETE_VESS
 66
     1
 10
0.0
 20
0.0
 30
0.0
 70
     1
  0
VERTEX
  5
2D3
  8
12D16_AREA_I_COMPLETE_VESS
 10
408853.6862472164793871
 20
4667729.1309037925675511
 30
0.0
  0
VERTEX
  5
2D4
  8
12D16_AREA_I_COMPLETE_VESS
 10
408853.8053099539829418
 20
4667729.1011381056159735
 30
0.0
  0
VERTEX
  5
2D5
  8
12D16_AREA_I_COMPLETE_VESS
 10
408853.9078361996216699
 20
4667729.0283775441348553
 30
0.0
  0
VERTEX
  5
2D6
  8
12D16_AREA_I_COMPLETE_VESS
 10
408853.9376018847106025
 20
4667728.9027002081274986
 30
0.0
  0
VERTEX
  5
2D7
  8
12D16_AREA_I_COMPLETE_VESS
 10
408853.831768341420684
 20
4667728.8630126314237714
 30
0.0
  0
VERTEX
  5
2D8
  8
12D16_AREA_I_COMPLETE_VESS
 10
408853.7193201995105483
 20
4667728.8861637208610773
 30
0.0
  0
VERTEX
  5
2D9
  8
12D16_AREA_I_COMPLETE_VESS
 10
408853.6201012497185729
 20
4667728.925851296633482
 30
0.0
  0
SEQEND
  5
2DA
  8
12D16_AREA_I_COMPLETE_VESS
  0
POLYLINE
  5
C6
  8
12D16_AREA_I_COMPLETE_VESS
 66
     1
 10
0.0
 20
0.0
 30
0.0
 70
     1
  0
VERTEX
  5
2DB
  8
12D16_AREA_I_COMPLETE_VESS
 10
408853.6622978132218122
 20
4667728.9089726749807596
 30
0.0
  0
VERTEX
  5
2DC
  8
12D16_AREA_I_COMPLETE_VESS
 10
408853.6035647597163916
 20
4667728.6480382429435849
 30
0.0
  0
VERTEX
  5
2DD
  8
12D16_AREA_I_COMPLETE_VESS
 10
408853.5407260907813907
 20
4667728.6348090469837189
 30
0.0
  0
VERTEX
  5
2DE
  8
12D16_AREA_I_COMPLETE_VESS
 10
408853.4911166178062558
 20
4667728.6281944513320923
 30
0.0
  0
VERTEX
  5
2DF
  8
12D16_AREA_I_COMPLETE_VESS
 10
408853.3026006146101281
 20
4667728.7637936789542437
 30
0.0
  0
VERTEX
  5
2E0
  8
12D16_AREA_I_COMPLETE_VESS
 10
408853.2893714224919677
 20
4667728.8100958578288555
 30
0.0
  0
VERTEX
  5
2E1
  8
12D16_AREA_I_COMPLETE_VESS
 10
408853.2794495262205601
 20
4667728.9027002081274986
 30
0.0
  0
VERTEX
  5
2E2
  8
12D16_AREA_I_COMPLETE_VESS
 10
408853.3489027908071876
 20
4667728.9456950910389423
 30
0.0
  0
VERTEX
  5
2E3
  8
12D16_AREA_I_COMPLETE_VESS
 10
408853.4117414588108659
 20
4667728.9655388798564672
 30
0.0
  0
VERTEX
  5
2E4
  8
12D16_AREA_I_COMPLETE_VESS
 10
408853.4977312135160901
 20
4667728.9159294012933969
 30
0.0
  0
SEQEND
  5
2E5
  8
12D16_AREA_I_COMPLETE_VESS
  0
POLYLINE
  5
C7
  8
12D16_AREA_I_COMPLETE_VESS
 66
     1
 10
0.0
 20
0.0
 30
0.0
 70
     1
  0
VERTEX
  5
2E6
  8
12D16_AREA_I_COMPLETE_VESS
 10
408854.3245557834743522
 20
4667728.4892879268154502
 30
0.0
  0
VERTEX
  5
2E7
  8
12D16_AREA_I_COMPLETE_VESS
 10
408854.3278630814165808
 20
4667728.3933762703090906
 30
0.0
  0
VERTEX
  5
2E8
  8
12D16_AREA_I_COMPLETE_VESS
 10
408854.3940090481191874
 20
4667728.4297565575689077
 30
0.0
  0
VERTEX
  5
2E9
  8
12D16_AREA_I_COMPLETE_VESS
 10
408854.4105455410899594
 20
4667728.3834543777629733
 30
0.0
  0
VERTEX
  5
2EA
  8
12D16_AREA_I_COMPLETE_VESS
 10
408854.3278630814165808
 20
4667728.3140011131763458
 30
0.0
  0
VERTEX
  5
2EB
  8
12D16_AREA_I_COMPLETE_VESS
 10
408854.3080192934721708
 20
4667728.274313535541296
 30
0.0
  0
VERTEX
  5
2EC
  8
12D16_AREA_I_COMPLETE_VESS
 10
408854.2352587311179377
 20
4667728.2577770417556167
 30
0.0
  0
VERTEX
  5
2ED
  8
12D16_AREA_I_COMPLETE_VESS
 10
408854.1922638528048992
 20
4667728.2776208352297544
 30
0.0
  0
VERTEX
  5
2EE
  8
12D16_AREA_I_COMPLETE_VESS
 10
408854.1624981677159667
 20
4667728.3536886936053634
 30
0.0
  0
VERTEX
  5
2EF
  8
12D16_AREA_I_COMPLETE_VESS
 10
408854.1327324826270342
 20
4667728.50913171377033
 30
0.0
  0
VERTEX
  5
2F0
  8
12D16_AREA_I_COMPLETE_VESS
 10
408854.2617171173915267
 20
4667728.5124390106648207
 30
0.0
  0
SEQEND
  5
2F1
  8
12D16_AREA_I_COMPLETE_VESS
  0
POLYLINE
  5
C8
  8
12D16_AREA_I_COMPLETE_VESS
 66
     1
 10
0.0
 20
0.0
 30
0.0
 70
     1
  0
VERTEX
  5
2F2
  8
12D16_AREA_I_COMPLETE_VESS
 10
408853.0667701503844
 20
4667728.4009442301467061
 30
0.0
  0
VERTEX
  5
2F3
  8
12D16_AREA_I_COMPLETE_VESS
 10
408853.1461453094962053
 20
4667728.3877150388434529
 30
0.0
  0
VERTEX
  5
2F4
  8
12D16_AREA_I_COMPLETE_VESS
 10
408853.4537240492063574
 20
4667728.242193914949894
 30
0.0
  0
VERTEX
  5
2F5
  8
12D16_AREA_I_COMPLETE_VESS
 10
408853.3710415925015695
 20
4667728.0801363000646234
 30
0.0
  0
VERTEX
  5
2F6
  8
12D16_AREA_I_COMPLETE_VESS
 10
408853.261900746379979
 20
4667727.9379224712029099
 30
0.0
  0
VERTEX
  5
2F7
  8
12D16_AREA_I_COMPLETE_VESS
 10
408853.1924474844709039
 20
4667727.9346151705831289
 30
0.0
  0
VERTEX
  5
2F8
  8
12D16_AREA_I_COMPLETE_VESS
 10
408853.0965358336106874
 20
4667727.9015421913936734
 30
0.0
  0
VERTEX
  5
2F9
  8
12D16_AREA_I_COMPLETE_VESS
 10
408853.0601555539178662
 20
4667727.9280005786567926
 30
0.0
  0
VERTEX
  5
2FA
  8
12D16_AREA_I_COMPLETE_VESS
 10
408853.0634628526750021
 20
4667728.0735217025503516
 30
0.0
  0
SEQEND
  5
2FB
  8
12D16_AREA_I_COMPLETE_VESS
  0
POLYLINE
  5
C9
  8
12D16_AREA_I_COMPLETE_VESS
 66
     1
 10
0.0
 20
0.0
 30
0.0
 70
     1
  0
VERTEX
  5
2FC
  8
12D16_AREA_I_COMPLETE_VESS
 10
408854.1453002170892432
 20
4667726.7714771963655949
 30
0.0
  0
VERTEX
  5
2FD
  8
12D16_AREA_I_COMPLETE_VESS
 10
408854.1188418305828236
 20
4667726.8243939690291882
 30
0.0
  0
VERTEX
  5
2FE
  8
12D16_AREA_I_COMPLETE_VESS
 10
408854.1109043154865503
 20
4667726.8984774528071284
 30
0.0
  0
VERTEX
  5
2FF
  8
12D16_AREA_I_COMPLETE_VESS
 10
408854.1479460549890064
 20
4667726.9090608078986406
 30
0.0
  0
VERTEX
  5
300
  8
12D16_AREA_I_COMPLETE_VESS
 10
408854.16646692721406
 20
4667726.8534981962293386
 30
0.0
  0
VERTEX
  5
301
  8
12D16_AREA_I_COMPLETE_VESS
 10
408854.1636887965723872
 20
4667726.8238648027181625
 30
0.0
  0
SEQEND
  5
302
  8
12D16_AREA_I_COMPLETE_VESS
  0
POLYLINE
  5
CA
  8
12D16_AREA_I_COMPLETE_VESS
 66
     1
 10
0.0
 20
0.0
 30
0.0
 70
     1
  0
VERTEX
  5
303
  8
12D16_AREA_I_COMPLETE_VESS
 10
408854.2881755018024705
 20
4667726.6868103612214327
 30
0.0
  0
VERTEX
  5
304
  8
12D16_AREA_I_COMPLETE_VESS
 10
408854.2986265643266961
 20
4667726.755602166056633
 30
0.0
  0
VERTEX
  5
305
  8
12D16_AREA_I_COMPLETE_VESS
 10
408854.3208516091108322
 20
4667726.8095772713422775
 30
0.0
  0
VERTEX
  5
306
  8
12D16_AREA_I_COMPLETE_VESS
 10
408854.3275110732065514
 20
4667726.876089796423912
 30
0.0
  0
VERTEX
  5
307
  8
12D16_AREA_I_COMPLETE_VESS
 10
408854.3728423378197476
 20
4667726.8561440333724022
 30
0.0
  0
VERTEX
  5
308
  8
12D16_AREA_I_COMPLETE_VESS
 10
408854.3834256930276752
 20
4667726.8138106148689985
 30
0.0
  0
VERTEX
  5
309
  8
12D16_AREA_I_COMPLETE_VESS
 10
408854.3701965007930994
 20
4667726.7000395534560084
 30
0.0
  0
SEQEND
  5
30A
  8
12D16_AREA_I_COMPLETE_VESS
  0
POLYLINE
  5
CB
  8
12D16_AREA_I_COMPLETE_VESS
 66
     1
 10
0.0
 20
0.0
 30
0.0
 70
     1
  0
VERTEX
  5
30B
  8
12D16_AREA_I_COMPLETE_VESS
 10
408854.3275110732065514
 20
4667726.876089796423912
 30
0.0
  0
VERTEX
  5
30C
  8
12D16_AREA_I_COMPLETE_VESS
 10
408854.3208516091108322
 20
4667726.8095772713422775
 30
0.0
  0
VERTEX
  5
30D
  8
12D16_AREA_I_COMPLETE_VESS
 10
408854.2986265643266961
 20
4667726.755602166056633
 30
0.0
  0
VERTEX
  5
30E
  8
12D16_AREA_I_COMPLETE_VESS
 10
408854.2881755018024705
 20
4667726.6868103612214327
 30
0.0
  0
VERTEX
  5
30F
  8
12D16_AREA_I_COMPLETE_VESS
 10
408854.214092020993121
 20
4667726.731789618730545
 30
0.0
  0
VERTEX
  5
310
  8
12D16_AREA_I_COMPLETE_VESS
 10
408854.1453002170892432
 20
4667726.7714771963655949
 30
0.0
  0
VERTEX
  5
311
  8
12D16_AREA_I_COMPLETE_VESS
 10
408854.1636887965723872
 20
4667726.8238648027181625
 30
0.0
  0
VERTEX
  5
312
  8
12D16_AREA_I_COMPLETE_VESS
 10
408854.16646692721406
 20
4667726.8534981962293386
 30
0.0
  0
VERTEX
  5
313
  8
12D16_AREA_I_COMPLETE_VESS
 10
408854.1479460549890064
 20
4667726.9090608078986406
 30
0.0
  0
VERTEX
  5
314
  8
12D16_AREA_I_COMPLETE_VESS
 10
408854.3066963739111088
 20
4667726.8852482605725527
 30
0.0
  0
SEQEND
  5
315
  8
12D16_AREA_I_COMPLETE_VESS
  0
POLYLINE
  5
CC
  8
12D16_AREA_I_COMPLETE_VESS
 66
     1
 10
0.0
 20
0.0
 30
0.0
 70
     1
  0
VERTEX
  5
316
  8
12D16_AREA_I_COMPLETE_VESS
 10
408855.4045064498786815
 20
4667729.7380973007529974
 30
0.0
  0
VERTEX
  5
317
  8
12D16_AREA_I_COMPLETE_VESS
 10
408855.4408867306192406
 20
4667729.7017170200124383
 30
0.0
  0
VERTEX
  5
318
  8
12D16_AREA_I_COMPLETE_VESS
 10
408855.4971108011086471
 20
4667729.6488002464175224
 30
0.0
  0
VERTEX
  5
319
  8
12D16_AREA_I_COMPLETE_VESS
 10
408855.4640378172043711
 20
4667729.5958834765478969
 30
0.0
  0
VERTEX
  5
31A
  8
12D16_AREA_I_COMPLETE_VESS
 10
408855.3879699570243247
 20
4667729.5595031920820475
 30
0.0
  0
VERTEX
  5
31B
  8
12D16_AREA_I_COMPLETE_VESS
 10
408855.292058307910338
 20
4667729.5198156144469976
 30
0.0
  0
VERTEX
  5
31C
  8
12D16_AREA_I_COMPLETE_VESS
 10
408855.2457561328192241
 20
4667729.5760396830737591
 30
0.0
  0
VERTEX
  5
31D
  8
12D16_AREA_I_COMPLETE_VESS
 10
408855.26890721952077
 20
4667729.6091126650571823
 30
0.0
  0
VERTEX
  5
31E
  8
12D16_AREA_I_COMPLETE_VESS
 10
408855.3185166951734573
 20
4667729.65872214268893
 30
0.0
  0
SEQEND
  5
31F
  8
12D16_AREA_I_COMPLETE_VESS
  0
POLYLINE
  5
CD
  8
12D16_AREA_I_COMPLETE_VESS
 66
     1
 10
0.0
 20
0.0
 30
0.0
 70
     1
  0
VERTEX
  5
320
  8
12D16_AREA_I_COMPLETE_VESS
 10
408855.6795183491776697
 20
4667729.3266211980953813
 30
0.0
  0
VERTEX
  5
321
  8
12D16_AREA_I_COMPLETE_VESS
 10
408855.72912782500498
 20
4667729.3001628136262298
 30
0.0
  0
VERTEX
  5
322
  8
12D16_AREA_I_COMPLETE_VESS
 10
408855.8149447169271298
 20
4667729.3035669988021255
 30
0.0
  0
VERTEX
  5
323
  8
12D16_AREA_I_COMPLETE_VESS
 10
408855.7754300002125092
 20
4667729.2207876546308398
 30
0.0
  0
VERTEX
  5
324
  8
12D16_AREA_I_COMPLETE_VESS
 10
408855.8155786728020757
 20
4667729.131577636115253
 30
0.0
  0
VERTEX
  5
325
  8
12D16_AREA_I_COMPLETE_VESS
 10
408855.7456643150071613
 20
4667729.1182614071294665
 30
0.0
  0
VERTEX
  5
326
  8
12D16_AREA_I_COMPLETE_VESS
 10
408855.6894402453908697
 20
4667729.1116468105465174
 30
0.0
  0
SEQEND
  5
327
  8
12D16_AREA_I_COMPLETE_VESS
  0
POLYLINE
  5
CE
  8
12D16_AREA_I_COMPLETE_VESS
 66
     1
 10
0.0
 20
0.0
 30
0.0
 70
     1
  0
VERTEX
  5
328
  8
12D16_AREA_I_COMPLETE_VESS
 10
408855.7895830915076658
 20
4667729.794321371242404
 30
0.0
  0
VERTEX
  5
329
  8
12D16_AREA_I_COMPLETE_VESS
 10
408855.7366663170978427
 20
4667729.794321371242404
 30
0.0
  0
VERTEX
  5
32A
  8
12D16_AREA_I_COMPLETE_VESS
 10
408855.6440619667991996
 20
4667729.7976286672055721
 30
0.0
  0
VERTEX
  5
32B
  8
12D16_AREA_I_COMPLETE_VESS
 10
408855.5646868078038096
 20
4667729.8505454417318106
 30
0.0
  0
VERTEX
  5
32C
  8
12D16_AREA_I_COMPLETE_VESS
 10
408855.5564532550051808
 20
4667729.8917132122442126
 30
0.0
  0
VERTEX
  5
32D
  8
12D16_AREA_I_COMPLETE_VESS
 10
408855.5448430171236396
 20
4667729.9497643867507577
 30
0.0
  0
VERTEX
  5
32E
  8
12D16_AREA_I_COMPLETE_VESS
 10
408855.6043743873015046
 20
4667730.0522906351834536
 30
0.0
  0
VERTEX
  5
32F
  8
12D16_AREA_I_COMPLETE_VESS
 10
408855.6837495453073643
 20
4667730.1085147075355053
 30
0.0
  0
VERTEX
  5
330
  8
12D16_AREA_I_COMPLETE_VESS
 10
408855.759817406476941
 20
4667730.0952855134382844
 30
0.0
  0
VERTEX
  5
331
  8
12D16_AREA_I_COMPLETE_VESS
 10
408855.876652492210269
 20
4667729.9994637481868267
 30
0.0
  0
VERTEX
  5
332
  8
12D16_AREA_I_COMPLETE_VESS
 10
408855.8768857261165977
 20
4667729.936589140444994
 30
0.0
  0
VERTEX
  5
333
  8
12D16_AREA_I_COMPLETE_VESS
 10
408855.8770942874252796
 20
4667729.8803658420220017
 30
0.0
  0
VERTEX
  5
334
  8
12D16_AREA_I_COMPLETE_VESS
 10
408855.8325779688893817
 20
4667729.847238146699965
 30
0.0
  0
SEQEND
  5
335
  8
12D16_AREA_I_COMPLETE_VESS
  0
POLYLINE
  5
CF
  8
12D16_AREA_I_COMPLETE_VESS
 66
     1
 10
0.0
 20
0.0
 30
0.0
 70
     1
  0
VERTEX
  5
336
  8
12D16_AREA_I_COMPLETE_VESS
 10
408855.5746087022125721
 20
4667728.7624443080276251
 30
0.0
  0
VERTEX
  5
337
  8
12D16_AREA_I_COMPLETE_VESS
 10
408855.6209108774201013
 20
4667728.8252829741686583
 30
0.0
  0
VERTEX
  5
338
  8
12D16_AREA_I_COMPLETE_VESS
 10
408855.7035933369770646
 20
4667728.8451267629861832
 30
0.0
  0
VERTEX
  5
339
  8
12D16_AREA_I_COMPLETE_VESS
 10
408855.7333590192720294
 20
4667728.8352048713713884
 30
0.0
  0
VERTEX
  5
33A
  8
12D16_AREA_I_COMPLETE_VESS
 10
408855.696978738589678
 20
4667728.7955172900110483
 30
0.0
  0
VERTEX
  5
33B
  8
12D16_AREA_I_COMPLETE_VESS
 10
408855.6043743873015046
 20
4667728.7558297123759985
 30
0.0
  0
SEQEND
  5
33C
  8
12D16_AREA_I_COMPLETE_VESS
  0
POLYLINE
  5
D0
  8
12D16_AREA_I_COMPLETE_VESS
 66
     1
 10
0.0
 20
0.0
 30
0.0
 70
     1
  0
VERTEX
  5
33D
  8
12D16_AREA_I_COMPLETE_VESS
 10
408855.6930874767713249
 20
4667728.8097968799993396
 30
0.0
  0
VERTEX
  5
33E
  8
12D16_AREA_I_COMPLETE_VESS
 10
408855.8353791222907603
 20
4667728.8862149231135845
 30
0.0
  0
VERTEX
  5
33F
  8
12D16_AREA_I_COMPLETE_VESS
 10
408855.8585302117862739
 20
4667728.7671521818265319
 30
0.0
  0
VERTEX
  5
340
  8
12D16_AREA_I_COMPLETE_VESS
 10
408855.8717594040208496
 20
4667728.7076208116486669
 30
0.0
  0
VERTEX
  5
341
  8
12D16_AREA_I_COMPLETE_VESS
 10
408855.8320718245813623
 20
4667728.6811624281108379
 30
0.0
  0
VERTEX
  5
342
  8
12D16_AREA_I_COMPLETE_VESS
 10
408855.7824623506749049
 20
4667728.6976989200338721
 30
0.0
  0
VERTEX
  5
343
  8
12D16_AREA_I_COMPLETE_VESS
 10
408855.7493893678183667
 20
4667728.7274646041914821
 30
0.0
  0
VERTEX
  5
344
  8
12D16_AREA_I_COMPLETE_VESS
 10
408855.7130090860882774
 20
4667728.7539229886606336
 30
0.0
  0
SEQEND
  5
345
  8
12D16_AREA_I_COMPLETE_VESS
  0
POLYLINE
  5
D1
  8
12D16_AREA_I_COMPLETE_VESS
 66
     1
 10
0.0
 20
0.0
 30
0.0
 70
     1
  0
VERTEX
  5
346
  8
12D16_AREA_I_COMPLETE_VESS
 10
408852.9339624285930768
 20
4667726.0205032946541905
 30
0.0
  0
VERTEX
  5
347
  8
12D16_AREA_I_COMPLETE_VESS
 10
408852.9377657488221303
 20
4667725.9482402419671416
 30
0.0
  0
VERTEX
  5
348
  8
12D16_AREA_I_COMPLETE_VESS
 10
408852.9073392000282183
 20
4667725.9216170152649283
 30
0.0
  0
VERTEX
  5
349
  8
12D16_AREA_I_COMPLETE_VESS
 10
408852.8426827858784236
 20
4667725.8911904655396938
 30
0.0
  0
VERTEX
  5
34A
  8
12D16_AREA_I_COMPLETE_VESS
 10
408852.7894363260129467
 20
4667725.8873871499672532
 30
0.0
  0
VERTEX
  5
34B
  8
12D16_AREA_I_COMPLETE_VESS
 10
408852.8008462811121717
 20
4667726.0471265250816941
 30
0.0
  0
VERTEX
  5
34C
  8
12D16_AREA_I_COMPLETE_VESS
 10
408852.8236661921837367
 20
4667726.0281099332496524
 30
0.0
  0
SEQEND
  5
34D
  8
12D16_AREA_I_COMPLETE_VESS
  0
POLYLINE
  5
D2
  8
12D16_AREA_I_COMPLETE_VESS
 66
     1
 10
0.0
 20
0.0
 30
0.0
 70
     1
  0
VERTEX
  5
34E
  8
12D16_AREA_I_COMPLETE_VESS
 10
408853.7076964033767581
 20
4667726.3325756443664432
 30
0.0
  0
VERTEX
  5
34F
  8
12D16_AREA_I_COMPLETE_VESS
 10
408853.6746234204038046
 20
4667726.325961047783494
 30
0.0
  0
VERTEX
  5
350
  8
12D16_AREA_I_COMPLETE_VESS
 10
408853.4828001196146943
 20
4667726.4086435027420521
 30
0.0
  0
VERTEX
  5
351
  8
12D16_AREA_I_COMPLETE_VESS
 10
408853.4464198388159275
 20
4667726.4450237844139338
 30
0.0
  0
VERTEX
  5
352
  8
12D16_AREA_I_COMPLETE_VESS
 10
408853.4563417322933674
 20
4667726.517784345895052
 30
0.0
  0
VERTEX
  5
353
  8
12D16_AREA_I_COMPLETE_VESS
 10
408853.5621752786100842
 20
4667726.6566908750683069
 30
0.0
  0
VERTEX
  5
354
  8
12D16_AREA_I_COMPLETE_VESS
 10
408853.6613942282274365
 20
4667726.7989047039300203
 30
0.0
  0
VERTEX
  5
355
  8
12D16_AREA_I_COMPLETE_VESS
 10
408853.8730613170191646
 20
4667726.726144140586257
 30
0.0
  0
VERTEX
  5
356
  8
12D16_AREA_I_COMPLETE_VESS
 10
408853.8168372475192882
 20
4667726.6103887017816305
 30
0.0
  0
VERTEX
  5
357
  8
12D16_AREA_I_COMPLETE_VESS
 10
408853.7804569639265537
 20
4667726.5012478558346629
 30
0.0
  0
VERTEX
  5
358
  8
12D16_AREA_I_COMPLETE_VESS
 10
408853.7506912807002664
 20
4667726.4284872952848673
 30
0.0
  0
SEQEND
  5
359
  8
12D16_AREA_I_COMPLETE_VESS
  0
POLYLINE
  5
D3
  8
12D16_AREA_I_COMPLETE_VESS
 66
     1
 10
0.0
 20
0.0
 30
0.0
 70
     1
  0
VERTEX
  5
35A
  8
12D16_AREA_I_COMPLETE_VESS
 10
408854.3162392862141132
 20
4667727.1891659013926983
 30
0.0
  0
VERTEX
  5
35B
  8
12D16_AREA_I_COMPLETE_VESS
 10
408854.349312269128859
 20
4667727.232160777784884
 30
0.0
  0
VERTEX
  5
35C
  8
12D16_AREA_I_COMPLETE_VESS
 10
408854.35261956701288
 20
4667727.2685410575941205
 30
0.0
  0
VERTEX
  5
35D
  8
12D16_AREA_I_COMPLETE_VESS
 10
408854.388999848626554
 20
4667727.3016140423715115
 30
0.0
  0
VERTEX
  5
35E
  8
12D16_AREA_I_COMPLETE_VESS
 10
408854.4353020237758756
 20
4667727.304921337403357
 30
0.0
  0
VERTEX
  5
35F
  8
12D16_AREA_I_COMPLETE_VESS
 10
408854.4882187973125838
 20
4667727.2486972659826279
 30
0.0
  0
VERTEX
  5
360
  8
12D16_AREA_I_COMPLETE_VESS
 10
408854.5113698840141296
 20
4667727.1825513001531363
 30
0.0
  0
VERTEX
  5
361
  8
12D16_AREA_I_COMPLETE_VESS
 10
408854.451838516513817
 20
4667727.1560929166153073
 30
0.0
  0
VERTEX
  5
362
  8
12D16_AREA_I_COMPLETE_VESS
 10
408854.3989217421039939
 20
4667727.1560929166153073
 30
0.0
  0
SEQEND
  5
363
  8
12D16_AREA_I_COMPLETE_VESS
  0
POLYLINE
  5
D4
  8
12D16_AREA_I_COMPLETE_VESS
 66
     1
 10
0.0
 20
0.0
 30
0.0
 70
     1
  0
VERTEX
  5
364
  8
12D16_AREA_I_COMPLETE_VESS
 10
408854.3162392862141132
 20
4667727.1891659013926983
 30
0.0
  0
VERTEX
  5
365
  8
12D16_AREA_I_COMPLETE_VESS
 10
408854.3261611824855208
 20
4667727.1230199299752712
 30
0.0
  0
VERTEX
  5
366
  8
12D16_AREA_I_COMPLETE_VESS
 10
408854.2997027952224016
 20
4667727.0734104570001364
 30
0.0
  0
VERTEX
  5
367
  8
12D16_AREA_I_COMPLETE_VESS
 10
408854.349312269128859
 20
4667727.0370301753282547
 30
0.0
  0
VERTEX
  5
368
  8
12D16_AREA_I_COMPLETE_VESS
 10
408854.388999848626554
 20
4667726.9808061039075255
 30
0.0
  0
VERTEX
  5
369
  8
12D16_AREA_I_COMPLETE_VESS
 10
408854.4121509370743297
 20
4667726.9080455433577299
 30
0.0
  0
VERTEX
  5
36A
  8
12D16_AREA_I_COMPLETE_VESS
 10
408854.3728423378197476
 20
4667726.8561440333724022
 30
0.0
  0
VERTEX
  5
36B
  8
12D16_AREA_I_COMPLETE_VESS
 10
408854.3275110732065514
 20
4667726.876089796423912
 30
0.0
  0
VERTEX
  5
36C
  8
12D16_AREA_I_COMPLETE_VESS
 10
408854.2765517067164183
 20
4667726.974191508255899
 30
0.0
  0
VERTEX
  5
36D
  8
12D16_AREA_I_COMPLETE_VESS
 10
408854.1905619510798715
 20
4667727.1097907423973083
 30
0.0
  0
SEQEND
  5
36E
  8
12D16_AREA_I_COMPLETE_VESS
  0
POLYLINE
  5
D5
  8
12D16_AREA_I_COMPLETE_VESS
 66
     1
 10
0.0
 20
0.0
 30
0.0
 70
     1
  0
VERTEX
  5
36F
  8
12D16_AREA_I_COMPLETE_VESS
 10
408854.6850691922008991
 20
4667727.739897208288312
 30
0.0
  0
VERTEX
  5
370
  8
12D16_AREA_I_COMPLETE_VESS
 10
408854.7401026337756775
 20
4667727.7504805577918887
 30
0.0
  0
VERTEX
  5
371
  8
12D16_AREA_I_COMPLETE_VESS
 10
408854.7655026856227778
 20
4667727.7547139041125774
 30
0.0
  0
VERTEX
  5
372
  8
12D16_AREA_I_COMPLETE_VESS
 10
408854.8163027875125408
 20
4667727.7758806105703115
 30
0.0
  0
VERTEX
  5
373
  8
12D16_AREA_I_COMPLETE_VESS
 10
408854.8501695189042948
 20
4667727.7695305980741978
 30
0.0
  0
VERTEX
  5
374
  8
12D16_AREA_I_COMPLETE_VESS
 10
408854.8501695189042948
 20
4667727.7441305480897427
 30
0.0
  0
VERTEX
  5
375
  8
12D16_AREA_I_COMPLETE_VESS
 10
408854.8480528491199948
 20
4667727.6636970536783338
 30
0.0
  0
VERTEX
  5
376
  8
12D16_AREA_I_COMPLETE_VESS
 10
408854.8014860897092149
 20
4667727.6763970786705613
 30
0.0
  0
VERTEX
  5
377
  8
12D16_AREA_I_COMPLETE_VESS
 10
408854.7422193055972457
 20
4667727.6996804587543011
 30
0.0
  0
VERTEX
  5
378
  8
12D16_AREA_I_COMPLETE_VESS
 10
408854.7125859110965393
 20
4667727.7187304981052876
 30
0.0
  0
SEQEND
  5
379
  8
12D16_AREA_I_COMPLETE_VESS
  0
POLYLINE
  5
D6
  8
12D16_AREA_I_COMPLETE_VESS
 66
     1
 10
0.0
 20
0.0
 30
0.0
 70
     1
  0
VERTEX
  5
37A
  8
12D16_AREA_I_COMPLETE_VESS
 10
408854.7337526213959791
 20
4667727.7885806355625391
 30
0.0
  0
VERTEX
  5
37B
  8
12D16_AREA_I_COMPLETE_VESS
 10
408854.7866693931282498
 20
4667727.8097473476082087
 30
0.0
  0
VERTEX
  5
37C
  8
12D16_AREA_I_COMPLETE_VESS
 10
408854.8014860897092149
 20
4667727.8351473994553089
 30
0.0
  0
VERTEX
  5
37D
  8
12D16_AREA_I_COMPLETE_VESS
 10
408854.8311194822890684
 20
4667727.8520807614549994
 30
0.0
  0
VERTEX
  5
37E
  8
12D16_AREA_I_COMPLETE_VESS
 10
408854.8565195343107916
 20
4667727.8520807614549994
 30
0.0
  0
VERTEX
  5
37F
  8
12D16_AREA_I_COMPLETE_VESS
 10
408854.8501695189042948
 20
4667727.7695305980741978
 30
0.0
  0
VERTEX
  5
380
  8
12D16_AREA_I_COMPLETE_VESS
 10
408854.8163027875125408
 20
4667727.7758806105703115
 30
0.0
  0
VERTEX
  5
381
  8
12D16_AREA_I_COMPLETE_VESS
 10
408854.7820352622075006
 20
4667727.7616024762392044
 30
0.0
  0
SEQEND
  5
382
  8
12D16_AREA_I_COMPLETE_VESS
  0
POLYLINE
  5
D7
  8
12D16_AREA_I_COMPLETE_VESS
 66
     1
 10
0.0
 20
0.0
 30
0.0
 70
     1
  0
VERTEX
  5
383
  8
12D16_AREA_I_COMPLETE_VESS
 10
408854.6893025320023298
 20
4667727.8795974869281054
 30
0.0
  0
VERTEX
  5
384
  8
12D16_AREA_I_COMPLETE_VESS
 10
408854.7549193305894732
 20
4667727.9007641952484846
 30
0.0
  0
VERTEX
  5
385
  8
12D16_AREA_I_COMPLETE_VESS
 10
408854.8120694449171424
 20
4667727.9113475512713194
 30
0.0
  0
VERTEX
  5
386
  8
12D16_AREA_I_COMPLETE_VESS
 10
408854.8247694697929546
 20
4667727.8795974869281054
 30
0.0
  0
VERTEX
  5
387
  8
12D16_AREA_I_COMPLETE_VESS
 10
408854.7930194074288011
 20
4667727.8668974619358778
 30
0.0
  0
VERTEX
  5
388
  8
12D16_AREA_I_COMPLETE_VESS
 10
408854.7697360282181762
 20
4667727.8478474225848913
 30
0.0
  0
VERTEX
  5
389
  8
12D16_AREA_I_COMPLETE_VESS
 10
408854.7560141598805785
 20
4667727.7974852584302425
 30
0.0
  0
VERTEX
  5
38A
  8
12D16_AREA_I_COMPLETE_VESS
 10
408854.7168192538083531
 20
4667727.8160973582416773
 30
0.0
  0
VERTEX
  5
38B
  8
12D16_AREA_I_COMPLETE_VESS
 10
408854.7020025571109727
 20
4667727.8203306971117854
 30
0.0
  0
SEQEND
  5
38C
  8
12D16_AREA_I_COMPLETE_VESS
  0
TEXT
  5
123
  8
LABELS
 10
408855.6344819358200766
 20
4667730.5215999465435743
 30
0.0
 40
0.2
  1
9290
  0
TEXT
  5
12B
  8
LABELS
 10
408855.7547781412140466
 20
4667727.1883574686944485
 30
0.0
 40
0.2
  1
9170
  0
TEXT
  5
12C
  8
LABELS
 10
408854.1471826825290918
 20
4667726.0299190673977137
 30
0.0
 40
0.2
  1
9204
  0
TEXT
  5
12D
  8
LABELS
 10
408854.1535610408755019
 20
4667726.3344805892556906
 30
0.0
 40
0.2
  1
9200
  0
TEXT
  5
12E
  8
LABELS
 10
408853.9568614835152403
 20
4667724.8882350772619247
 30
0.0
 40
0.2
  1
9163
  0
TEXT
  5
12F
  8
LABELS
 10
408854.7261232528253458
 20
4667729.5967924715951085
 30
0.0
 40
0.2
  1
9208
  0
TEXT
  5
130
  8
LABELS
 10
408854.4664973517064936
 20
4667729.6256203763186932
 30
0.0
 40
0.2
  1
9198
  0
TEXT
  5
131
  8
LABELS
 10
408854.8607440263731405
 20
4667730.2886621197685599
 30
0.0
 40
0.2
  1
9204
  0
TEXT
  5
132
  8
LABELS
 10
408854.8222809619037434
 20
4667729.9138994133099914
 30
0.0
 40
0.2
  1
9206
  0
TEXT
  5
133
  8
LABELS
 10
408854.0337877083220519
 20
4667730.1925691068172455
 30
0.0
 40
0.2
  1
9206
  0
TEXT
  5
134
  8
LABELS
 10
408853.2260628744843416
 20
4667729.9907738231122494
 30
0.0
 40
0.2
  1
9192
  0
TEXT
  5
135
  8
LABELS
 10
408853.4182907001813874
 20
4667730.2512820130214095
 30
0.0
 40
0.2
  1
9188
  0
TEXT
  5
136
  8
LABELS
 10
408853.7909974301001057
 20
4667729.0046604676172137
 30
0.0
 40
0.2
  1
9188
  0
TEXT
  5
137
  8
LABELS
 10
408853.5152401936938986
 20
4667728.735079544596374
 30
0.0
 40
0.2
  1
9178
  0
TEXT
  5
138
  8
LABELS
 10
408854.2399496727157384
 20
4667728.4203911833465099
 30
0.0
 40
0.2
  1
9184
  0
TEXT
  5
139
  8
LABELS
 10
408853.1998800376895815
 20
4667728.2153454683721066
 30
0.0
 40
0.2
  1
9174
  0
TEXT
  5
13A
  8
LABELS
 10
408854.2532469913712703
 20
4667726.8183607971295714
 30
0.0
 40
0.2
  1
9170
  0
TEXT
  5
13B
  8
LABELS
 10
408855.3147334239911288
 20
4667729.5656756451353431
 30
0.0
 40
0.2
  1
9194
  0
TEXT
  5
13C
  8
LABELS
 10
408855.7263575696852058
 20
4667729.232680294662714
 30
0.0
 40
0.2
  1
9126
  0
TEXT
  5
13D
  8
LABELS
 10
408855.7655599011923186
 20
4667729.9231559336185455
 30
0.0
 40
0.2
  1
9200
  0
TEXT
  5
13E
  8
LABELS
 10
408855.8047622326994315
 20
4667728.782157190144062
 30
0.0
 40
0.2
  1
9190
  0
TEXT
  5
13F
  8
LABELS
 10
408852.8580868209828623
 20
4667725.9640131974592805
 30
0.0
 40
0.2
  1
9168
  0
TEXT
  5
140
  8
LABELS
 10
408853.6328217922127806
 20
4667726.5524155320599675
 30
0.0
 40
0.2
  1
9168
  0
TEXT
  5
141
  8
LABELS
 10
408854.3995131853152998
 20
4667727.2204297799617052
 30
0.0
 40
0.2
  1
9172
  0
TEXT
  5
142
  8
LABELS
 10
408854.3204571355017833
 20
4667726.9996324554085732
 30
0.0
 40
0.2
  1
9196
  0
TEXT
  5
143
  8
LABELS
 10
408854.8113065746147186
 20
4667727.703671601600945
 30
0.0
 40
0.2
  1
9176
  0
TEXT
  5
144
  8
LABELS
 10
408854.7970359611208551
 20
4667727.7919071307405829
 30
0.0
 40
0.2
  1
9176
  0
ENDSEC
  0
EOF
