  0
SECTION
  2
HEADER
  9
$ACADVER
  1
AC1014
  9
$ACADMAINTVER
 70
     9
  9
$DWGCODEPAGE
  3
ANSI_1252
  9
$INSBASE
 10
0.0
 20
0.0
 30
0.0
  9
$EXTMIN
 10
0.0
 20
20.0
 30
0.0
  9
$EXTMAX
 10
46.66666666666666
 20
50.0
 30
0.0
  9
$LIMMIN
 10
0.0
 20
0.0
  9
$LIMMAX
 10
12.0
 20
9.0
  9
$ORTHOMODE
 70
     0
  9
$REGENMODE
 70
     1
  9
$FILLMODE
 70
     1
  9
$QTEXTMODE
 70
     0
  9
$MIRRTEXT
 70
     1
  9
$DRAGMODE
 70
     2
  9
$LTSCALE
 40
1.0
  9
$OSMODE
 70
    37
  9
$ATTMODE
 70
     1
  9
$TEXTSIZE
 40
1.0
  9
$TRACEWID
 40
0.05
  9
$TEXTSTYLE
  7
STANDARD
  9
$CLAYER
  8
TEXT
  9
$CELTYPE
  6
BYLAYER
  9
$CECOLOR
 62
   256
  9
$CELTSCALE
 40
1.0
  9
$DELOBJ
 70
     1
  9
$DISPSILH
 70
     0
  9
$DIMSCALE
 40
1.0
  9
$DIMASZ
 40
0.18
  9
$DIMEXO
 40
0.0625
  9
$DIMDLI
 40
0.38
  9
$DIMRND
 40
0.0
  9
$DIMDLE
 40
0.0
  9
$DIMEXE
 40
0.18
  9
$DIMTP
 40
0.0
  9
$DIMTM
 40
0.0
  9
$DIMTXT
 40
0.18
  9
$DIMCEN
 40
0.09
  9
$DIMTSZ
 40
0.0
  9
$DIMTOL
 70
     0
  9
$DIMLIM
 70
     0
  9
$DIMTIH
 70
     1
  9
$DIMTOH
 70
     1
  9
$DIMSE1
 70
     0
  9
$DIMSE2
 70
     0
  9
$DIMTAD
 70
     0
  9
$DIMZIN
 70
     0
  9
$DIMBLK
  1

  9
$DIMASO
 70
     1
  9
$DIMSHO
 70
     1
  9
$DIMPOST
  1

  9
$DIMAPOST
  1

  9
$DIMALT
 70
     0
  9
$DIMALTD
 70
     2
  9
$DIMALTF
 40
25.4
  9
$DIMLFAC
 40
1.0
  9
$DIMTOFL
 70
     0
  9
$DIMTVP
 40
0.0
  9
$DIMTIX
 70
     0
  9
$DIMSOXD
 70
     0
  9
$DIMSAH
 70
     0
  9
$DIMBLK1
  1

  9
$DIMBLK2
  1

  9
$DIMSTYLE
  2
STANDARD
  9
$DIMCLRD
 70
     0
  9
$DIMCLRE
 70
     0
  9
$DIMCLRT
 70
     0
  9
$DIMTFAC
 40
1.0
  9
$DIMGAP
 40
0.09
  9
$DIMJUST
 70
     0
  9
$DIMSD1
 70
     0
  9
$DIMSD2
 70
     0
  9
$DIMTOLJ
 70
     1
  9
$DIMTZIN
 70
     0
  9
$DIMALTZ
 70
     0
  9
$DIMALTTZ
 70
     0
  9
$DIMFIT
 70
     3
  9
$DIMUPT
 70
     0
  9
$DIMUNIT
 70
     2
  9
$DIMDEC
 70
     4
  9
$DIMTDEC
 70
     4
  9
$DIMALTU
 70
     2
  9
$DIMALTTD
 70
     2
  9
$DIMTXSTY
  7
STANDARD
  9
$DIMAUNIT
 70
     0
  9
$LUNITS
 70
     2
  9
$LUPREC
 70
     4
  9
$SKETCHINC
 40
0.1
  9
$FILLETRAD
 40
0.0
  9
$AUNITS
 70
     0
  9
$AUPREC
 70
     0
  9
$MENU
  1
acad
  9
$ELEVATION
 40
0.0
  9
$PELEVATION
 40
0.0
  9
$THICKNESS
 40
0.0
  9
$LIMCHECK
 70
     0
  9
$BLIPMODE
 70
     0
  9
$CHAMFERA
 40
0.0
  9
$CHAMFERB
 40
0.0
  9
$CHAMFERC
 40
0.0
  9
$CHAMFERD
 40
0.0
  9
$SKPOLY
 70
     0
  9
$TDCREATE
 40
2450284.326961689
  9
$TDUPDATE
 40
2452029.671296875
  9
$TDINDWG
 40
0.0276990162
  9
$TDUSRTIMER
 40
0.0276990162
  9
$USRTIMER
 70
     1
  9
$ANGBASE
 50
0.0
  9
$ANGDIR
 70
     0
  9
$PDMODE
 70
     0
  9
$PDSIZE
 40
0.0
  9
$PLINEWID
 40
0.0
  9
$COORDS
 70
     1
  9
$SPLFRAME
 70
     0
  9
$SPLINETYPE
 70
     6
  9
$SPLINESEGS
 70
     8
  9
$ATTDIA
 70
     0
  9
$ATTREQ
 70
     1
  9
$HANDLING
 70
  4097
  9
$HANDSEED
  5
333
  9
$SURFTAB1
 70
     6
  9
$SURFTAB2
 70
     6
  9
$SURFTYPE
 70
     6
  9
$SURFU
 70
     6
  9
$SURFV
 70
     6
  9
$UCSNAME
  2

  9
$UCSORG
 10
0.0
 20
0.0
 30
0.0
  9
$UCSXDIR
 10
1.0
 20
0.0
 30
0.0
  9
$UCSYDIR
 10
0.0
 20
1.0
 30
0.0
  9
$PUCSNAME
  2

  9
$PUCSORG
 10
0.0
 20
0.0
 30
0.0
  9
$PUCSXDIR
 10
1.0
 20
0.0
 30
0.0
  9
$PUCSYDIR
 10
0.0
 20
1.0
 30
0.0
  9
$USERI1
 70
     0
  9
$USERI2
 70
     0
  9
$USERI3
 70
     0
  9
$USERI4
 70
     0
  9
$USERI5
 70
     0
  9
$USERR1
 40
0.0
  9
$USERR2
 40
0.0
  9
$USERR3
 40
0.0
  9
$USERR4
 40
0.0
  9
$USERR5
 40
0.0
  9
$WORLDVIEW
 70
     1
  9
$SHADEDGE
 70
     3
  9
$SHADEDIF
 70
    70
  9
$TILEMODE
 70
     1
  9
$MAXACTVP
 70
    16
  9
$PINSBASE
 10
0.0
 20
0.0
 30
0.0
  9
$PLIMCHECK
 70
     0
  9
$PEXTMIN
 10
1.000000000000000E+20
 20
1.000000000000000E+20
 30
1.000000000000000E+20
  9
$PEXTMAX
 10
-1.000000000000000E+20
 20
-1.000000000000000E+20
 30
-1.000000000000000E+20
  9
$PLIMMIN
 10
0.0
 20
0.0
  9
$PLIMMAX
 10
12.0
 20
9.0
  9
$UNITMODE
 70
     0
  9
$VISRETAIN
 70
     0
  9
$PLINEGEN
 70
     0
  9
$PSLTSCALE
 70
     1
  9
$TREEDEPTH
 70
  3020
  9
$PICKSTYLE
 70
     1
  9
$CMLSTYLE
  2
STANDARD
  9
$CMLJUST
 70
     0
  9
$CMLSCALE
 40
1.0
  9
$PROXYGRAPHICS
 70
     1
  9
$MEASUREMENT
 70
     0
  0
ENDSEC
  0
SECTION
  2
CLASSES
  0
CLASS
  1
DICTIONARYVAR
  2
AcDbDictionaryVar
  3
AutoCAD 2000
 90
        0
280
     0
281
     0
  0
CLASS
  1
LWPOLYLINE
  2
AcDbPolyline
  3
AutoCAD 2000
 90
        0
280
     0
281
     1
  0
CLASS
  1
HATCH
  2
AcDbHatch
  3
AutoCAD 2000
 90
        0
280
     0
281
     1
  0
CLASS
  1
ACDBDICTIONARYWDFLT
  2
AcDbDictionaryWithDefault
  3
AutoCAD 2000
 90
        0
280
     0
281
     0
  0
CLASS
  1
ACDBPLACEHOLDER
  2
AcDbPlaceHolder
  3
AutoCAD 2000
 90
        0
280
     0
281
     0
  0
CLASS
  1
LAYOUT
  2
AcDbLayout
  3
AutoCAD 2000
 90
        0
280
     0
281
     0
  0
CLASS
  1
LONG_TRANSACTION
  2
AcDbLongTransaction
  3
AutoCAD 2000
 90
        0
280
     0
281
     0
  0
CLASS
  1
LWPOLYLINE
  2
AcDbPolyline
  3
AutoCAD 2000
 90
        0
280
     0
281
     1
  0
CLASS
  1
HATCH
  2
AcDbHatch
  3
AutoCAD 2000
 90
        0
280
     0
281
     1
  0
CLASS
  1
XRECORD
  2
AcDbXrecord
  3
AutoCAD 2000
 90
        0
280
     0
281
     0
  0
ENDSEC
  0
SECTION
  2
TABLES
  0
TABLE
  2
VPORT
  5
8
330
0
100
AcDbSymbolTable
 70
     2
  0
VPORT
  5
30E
330
8
100
AcDbSymbolTableRecord
100
AcDbViewportTableRecord
  2
*ACTIVE
 70
     0
 10
0.0
 20
0.0
 11
1.0
 21
1.0
 12
20.78587235891498
 22
34.998306
 13
0.0
 23
0.0
 14
0.05
 24
0.05
 15
0.0
 25
0.0
 16
0.0
 26
0.0
 36
1.0
 17
0.0
 27
0.0
 37
0.0
 40
30.436969
 41
1.74074074074074
 42
50.0
 43
0.0
 44
0.0
 50
0.0
 51
0.0
 71
     0
 72
   100
 73
     1
 74
     0
 75
     1
 76
     0
 77
     0
 78
     0
  0
ENDTAB
  0
TABLE
  2
LTYPE
  5
5
330
0
100
AcDbSymbolTable
 70
     1
  0
LTYPE
  5
11
330
5
100
AcDbSymbolTableRecord
100
AcDbLinetypeTableRecord
  2
BYBLOCK
 70
     0
  3

 72
    65
 73
     0
 40
0.0
  0
LTYPE
  5
12
330
5
100
AcDbSymbolTableRecord
100
AcDbLinetypeTableRecord
  2
BYLAYER
 70
     0
  3

 72
    65
 73
     0
 40
0.0
  0
LTYPE
  5
13
330
5
100
AcDbSymbolTableRecord
100
AcDbLinetypeTableRecord
  2
CONTINUOUS
 70
     0
  3
Solid line
 72
    65
 73
     0
 40
0.0
  0
ENDTAB
  0
TABLE
  2
LAYER
  5
2
330
0
100
AcDbSymbolTable
 70
     7
  0
LAYER
  5
E
330
2
100
AcDbSymbolTableRecord
100
AcDbLayerTableRecord
  2
0
 70
     0
 62
     7
  6
CONTINUOUS
  0
LAYER
  5
11A
330
2
100
AcDbSymbolTableRecord
100
AcDbLayerTableRecord
  2
BORDER
 70
     0
 62
     7
  6
CONTINUOUS
  0
LAYER
  5
11B
330
2
100
AcDbSymbolTableRecord
100
AcDbLayerTableRecord
  2
PRUEBAS
 70
     0
 62
     6
  6
CONTINUOUS
  0
LAYER
  5
11C
330
2
100
AcDbSymbolTableRecord
100
AcDbLayerTableRecord
  2
TOPO
 70
     0
 62
     1
  6
CONTINUOUS
  0
LAYER
  5
11D
330
2
100
AcDbSymbolTableRecord
100
AcDbLayerTableRecord
  2
TEXT
 70
     0
 62
     3
  6
CONTINUOUS
  0
LAYER
  5
2D6
330
2
100
AcDbSymbolTableRecord
100
AcDbLayerTableRecord
  2
SCALE
 70
     0
 62
     1
  6
CONTINUOUS
  0
LAYER
  5
2D7
330
2
100
AcDbSymbolTableRecord
100
AcDbLayerTableRecord
  2
1
 70
     0
 62
     4
  6
CONTINUOUS
  0
ENDTAB
  0
TABLE
  2
STYLE
  5
3
330
0
100
AcDbSymbolTable
 70
     2
  0
STYLE
  5
F
330
3
100
AcDbSymbolTableRecord
100
AcDbTextStyleTableRecord
  2
STANDARD
 70
     0
 40
0.0
 41
1.0
 50
0.0
 71
     0
 42
1.0
  3
txt
  4

  0
STYLE
  5
2D8
330
3
100
AcDbSymbolTableRecord
100
AcDbTextStyleTableRecord
  2
COMPLEX
 70
     0
 40
0.0
 41
1.0
 50
0.0
 71
     0
 42
0.2
  3
complex
  4

  0
ENDTAB
  0
TABLE
  2
VIEW
  5
6
330
0
100
AcDbSymbolTable
 70
     0
  0
ENDTAB
  0
TABLE
  2
UCS
  5
7
330
0
100
AcDbSymbolTable
 70
     0
  0
ENDTAB
  0
TABLE
  2
APPID
  5
9
330
0
100
AcDbSymbolTable
 70
     1
  0
APPID
  5
10
330
9
100
AcDbSymbolTableRecord
100
AcDbRegAppTableRecord
  2
ACAD
 70
     0
  0
ENDTAB
  0
TABLE
  2
DIMSTYLE
  5
A
330
0
100
AcDbSymbolTable
 70
     1
  0
DIMSTYLE
105
117
330
A
100
AcDbSymbolTableRecord
100
AcDbDimStyleTableRecord
  2
STANDARD
 70
     0
  3

  4

  5

  6

  7

 40
1.0
 41
0.18
 42
0.0625
 43
0.38
 44
0.18
 45
0.0
 46
0.0
 47
0.0
 48
0.0
140
0.18
141
0.09
142
0.0
143
25.4
144
1.0
145
0.0
146
1.0
147
0.09
 71
     0
 72
     0
 73
     1
 74
     1
 75
     0
 76
     0
 77
     0
 78
     0
170
     0
171
     2
172
     0
173
     0
174
     0
175
     0
176
     0
177
     0
178
     0
270
     2
271
     4
272
     4
273
     2
274
     2
340
F
275
     0
280
     0
281
     0
282
     0
283
     1
284
     0
285
     0
286
     0
287
     3
288
     0
  0
ENDTAB
  0
TABLE
  2
BLOCK_RECORD
  5
1
330
0
100
AcDbSymbolTable
 70
     4
  0
BLOCK_RECORD
  5
17
102
{ACAD_XDICTIONARY
360
331
102
}
330
1
100
AcDbSymbolTableRecord
100
AcDbBlockTableRecord
  2
*MODEL_SPACE
  0
BLOCK_RECORD
  5
14
102
{ACAD_XDICTIONARY
360
32F
102
}
330
1
100
AcDbSymbolTableRecord
100
AcDbBlockTableRecord
  2
*PAPER_SPACE
  0
BLOCK_RECORD
  5
13E
330
1
100
AcDbSymbolTableRecord
100
AcDbBlockTableRecord
  2
NORTH
  0
BLOCK_RECORD
  5
14C
330
1
100
AcDbSymbolTableRecord
100
AcDbBlockTableRecord
  2
*X1
  0
BLOCK_RECORD
  5
212
330
1
100
AcDbSymbolTableRecord
100
AcDbBlockTableRecord
  2
*X2
  0
BLOCK_RECORD
  5
2D9
330
1
100
AcDbSymbolTableRecord
100
AcDbBlockTableRecord
  2
ARROW2
  0
ENDTAB
  0
ENDSEC
  0
SECTION
  2
BLOCKS
  0
BLOCK
  5
20
330
17
100
AcDbEntity
  8
0
100
AcDbBlockBegin
  2
*MODEL_SPACE
 70
     0
 10
0.0
 20
0.0
 30
0.0
  3
*MODEL_SPACE
  1

  0
ENDBLK
  5
21
330
17
100
AcDbEntity
  8
0
100
AcDbBlockEnd
  0
BLOCK
  5
1E
330
14
100
AcDbEntity
 67
     1
  8
0
100
AcDbBlockBegin
  2
*PAPER_SPACE
 70
     0
 10
0.0
 20
0.0
 30
0.0
  3
*PAPER_SPACE
  1

  0
ENDBLK
  5
1F
330
14
100
AcDbEntity
 67
     1
  8
0
100
AcDbBlockEnd
  0
BLOCK
  5
14A
330
13E
100
AcDbEntity
  8
SCALE
100
AcDbBlockBegin
  2
NORTH
 70
     0
 10
4.06493
 20
3.914163999999999
 30
0.0
  3
NORTH
  1

  0
LWPOLYLINE
  5
13F
330
13E
100
AcDbEntity
  8
0
100
AcDbPolyline
 90
        3
 70
     1
 43
0.02
 10
4.039888999999999
 20
7.004616
 10
4.045827
 20
8.666968999999999
 10
3.860766999999999
 20
6.772057000000001
  0
LWPOLYLINE
  5
140
330
13E
100
AcDbEntity
  8
0
100
AcDbPolyline
 90
        4
 70
     1
 43
0.02
 10
4.040589999999999
 20
5.553612999999999
 10
3.971111
 20
5.501483999999999
 10
3.897087999999999
 20
3.973176
 10
4.041332999999999
 20
4.167657
  0
LWPOLYLINE
  5
141
330
13E
100
AcDbEntity
  8
0
100
AcDbPolyline
 90
        2
 70
     0
 43
0.027
 10
3.612048
 20
6.325251
 10
3.804219999999999
 20
6.324037999999999
  0
LWPOLYLINE
  5
142
330
13E
100
AcDbEntity
  8
0
100
AcDbPolyline
 90
        2
 70
     0
 43
0.027
 10
4.257519999999999
 20
6.324691
 10
4.454631
 20
6.325628
  0
LWPOLYLINE
  5
143
330
13E
100
AcDbEntity
  8
0
100
AcDbPolyline
 90
        2
 70
     0
 43
0.027
 10
4.044025
 20
7.009533
 10
4.044025
 20
6.564646999999999
  0
LWPOLYLINE
  5
144
330
13E
100
AcDbEntity
  8
0
100
AcDbPolyline
 90
        3
 70
     1
 43
0.02
 10
4.048161
 20
7.004616
 10
4.042222999999999
 20
8.666968999999999
 10
4.227284
 20
6.772057000000001
  0
LWPOLYLINE
  5
145
330
13E
100
AcDbEntity
  8
0
100
AcDbPolyline
 90
        2
 70
     0
 43
0.027
 10
4.037735999999999
 20
5.549355
 10
4.037735999999999
 20
6.014101
  0
LWPOLYLINE
  5
146
330
13E
100
AcDbEntity
  8
0
100
AcDbPolyline
 90
        4
 70
     1
 43
0.02
 10
4.034880999999999
 20
5.553612999999999
 10
4.104359999999999
 20
5.501483999999999
 10
4.178383999999999
 20
3.973176
 10
4.034138999999999
 20
4.167657
  0
LWPOLYLINE
  5
147
330
13E
100
AcDbEntity
  8
0
100
AcDbPolyline
 90
        4
 70
     0
 43
0.02
 10
3.919787999999999
 20
6.166399
 10
3.919787999999999
 20
6.496762999999999
 10
4.144377999999999
 20
6.201929999999999
 10
4.144377999999999
 20
6.522844999999999
  0
INSERT
  5
148
330
13E
100
AcDbEntity
  8
0
100
AcDbBlockReference
  2
*X1
 10
0.0
 20
0.0
 30
0.0
  0
INSERT
  5
149
330
13E
100
AcDbEntity
  8
0
100
AcDbBlockReference
  2
*X2
 10
0.0
 20
0.0
 30
0.0
  0
ENDBLK
  5
14B
330
13E
100
AcDbEntity
  8
SCALE
100
AcDbBlockEnd
  0
BLOCK
  5
210
330
14C
100
AcDbEntity
  8
1
100
AcDbBlockBegin
  2
*X1
 70
     1
 10
0.0
 20
0.0
 30
0.0
  3
*X1
  1

  0
LINE
  5
14D
330
14C
100
AcDbEntity
  8
0
100
AcDbLine
 10
4.034417999999999
 20
4.688492
 30
0.0
 11
4.138687
 21
4.792761
 31
0.0
  0
LINE
  5
14E
330
14C
100
AcDbEntity
  8
0
100
AcDbLine
 10
4.034423
 20
4.697334999999999
 30
0.0
 11
4.138278999999999
 21
4.801191
 31
0.0
  0
LINE
  5
14F
330
14C
100
AcDbEntity
  8
0
100
AcDbLine
 10
4.034426999999999
 20
4.706178999999999
 30
0.0
 11
4.137869999999999
 21
4.809622
 31
0.0
  0
LINE
  5
150
330
14C
100
AcDbEntity
  8
0
100
AcDbLine
 10
4.034431999999999
 20
4.715022
 30
0.0
 11
4.137462
 21
4.818051999999999
 31
0.0
  0
LINE
  5
151
330
14C
100
AcDbEntity
  8
0
100
AcDbLine
 10
4.034437
 20
4.723866
 30
0.0
 11
4.137054
 21
4.826483
 31
0.0
  0
LINE
  5
152
330
14C
100
AcDbEntity
  8
0
100
AcDbLine
 10
4.034441999999999
 20
4.732709999999999
 30
0.0
 11
4.136644999999999
 21
4.834912999999999
 31
0.0
  0
LINE
  5
153
330
14C
100
AcDbEntity
  8
0
100
AcDbLine
 10
4.034445999999999
 20
4.741552999999999
 30
0.0
 11
4.136237
 21
4.843344
 31
0.0
  0
LINE
  5
154
330
14C
100
AcDbEntity
  8
0
100
AcDbLine
 10
4.034450999999999
 20
4.750397
 30
0.0
 11
4.135829
 21
4.851773999999999
 31
0.0
  0
LINE
  5
155
330
14C
100
AcDbEntity
  8
0
100
AcDbLine
 10
4.034455999999999
 20
4.75924
 30
0.0
 11
4.135419999999999
 21
4.860205
 31
0.0
  0
LINE
  5
156
330
14C
100
AcDbEntity
  8
0
100
AcDbLine
 10
4.034461
 20
4.768083999999999
 30
0.0
 11
4.135012
 21
4.868635
 31
0.0
  0
LINE
  5
157
330
14C
100
AcDbEntity
  8
0
100
AcDbLine
 10
4.034464999999999
 20
4.776926999999999
 30
0.0
 11
4.134604
 21
4.877066
 31
0.0
  0
LINE
  5
158
330
14C
100
AcDbEntity
  8
0
100
AcDbLine
 10
4.034469999999999
 20
4.785770999999999
 30
0.0
 11
4.134196
 21
4.885495999999999
 31
0.0
  0
LINE
  5
159
330
14C
100
AcDbEntity
  8
0
100
AcDbLine
 10
4.034474999999999
 20
4.794615
 30
0.0
 11
4.133786999999999
 21
4.893926999999999
 31
0.0
  0
LINE
  5
15A
330
14C
100
AcDbEntity
  8
0
100
AcDbLine
 10
4.03448
 20
4.803458
 30
0.0
 11
4.133378999999999
 21
4.902357
 31
0.0
  0
LINE
  5
15B
330
14C
100
AcDbEntity
  8
0
100
AcDbLine
 10
4.034483999999999
 20
4.812301999999999
 30
0.0
 11
4.132970999999999
 21
4.910788
 31
0.0
  0
LINE
  5
15C
330
14C
100
AcDbEntity
  8
0
100
AcDbLine
 10
4.034488999999999
 20
4.821144999999999
 30
0.0
 11
4.132562
 21
4.919217999999999
 31
0.0
  0
LINE
  5
15D
330
14C
100
AcDbEntity
  8
0
100
AcDbLine
 10
4.034494
 20
4.829989
 30
0.0
 11
4.132153999999999
 21
4.927648999999999
 31
0.0
  0
LINE
  5
15E
330
14C
100
AcDbEntity
  8
0
100
AcDbLine
 10
4.034498
 20
4.838832
 30
0.0
 11
4.131745999999999
 21
4.936079
 31
0.0
  0
LINE
  5
15F
330
14C
100
AcDbEntity
  8
0
100
AcDbLine
 10
4.034502999999999
 20
4.847675999999999
 30
0.0
 11
4.131337
 21
4.94451
 31
0.0
  0
LINE
  5
160
330
14C
100
AcDbEntity
  8
0
100
AcDbLine
 10
4.034507999999999
 20
4.856519999999999
 30
0.0
 11
4.130929
 21
4.952941
 31
0.0
  0
LINE
  5
161
330
14C
100
AcDbEntity
  8
0
100
AcDbLine
 10
4.034512999999999
 20
4.865362999999999
 30
0.0
 11
4.130520999999999
 21
4.961370999999999
 31
0.0
  0
LINE
  5
162
330
14C
100
AcDbEntity
  8
0
100
AcDbLine
 10
4.034517
 20
4.874207
 30
0.0
 11
4.130112
 21
4.969801999999999
 31
0.0
  0
LINE
  5
163
330
14C
100
AcDbEntity
  8
0
100
AcDbLine
 10
4.034521999999999
 20
4.883049999999999
 30
0.0
 11
4.129704
 21
4.978232
 31
0.0
  0
LINE
  5
164
330
14C
100
AcDbEntity
  8
0
100
AcDbLine
 10
4.034526999999999
 20
4.891894
 30
0.0
 11
4.129296
 21
4.986663
 31
0.0
  0
LINE
  5
165
330
14C
100
AcDbEntity
  8
0
100
AcDbLine
 10
4.034531999999999
 20
4.900737
 30
0.0
 11
4.128887
 21
4.995092999999999
 31
0.0
  0
LINE
  5
166
330
14C
100
AcDbEntity
  8
0
100
AcDbLine
 10
4.034536
 20
4.909581
 30
0.0
 11
4.128479
 21
5.003523999999999
 31
0.0
  0
LINE
  5
167
330
14C
100
AcDbEntity
  8
0
100
AcDbLine
 10
4.034540999999999
 20
4.918425
 30
0.0
 11
4.128071
 21
5.011954
 31
0.0
  0
LINE
  5
168
330
14C
100
AcDbEntity
  8
0
100
AcDbLine
 10
4.034545999999999
 20
4.927267999999999
 30
0.0
 11
4.127661999999999
 21
5.020385
 31
0.0
  0
LINE
  5
169
330
14C
100
AcDbEntity
  8
0
100
AcDbLine
 10
4.034551
 20
4.936112
 30
0.0
 11
4.127253999999999
 21
5.028814999999999
 31
0.0
  0
LINE
  5
16A
330
14C
100
AcDbEntity
  8
0
100
AcDbLine
 10
4.034555
 20
4.944955
 30
0.0
 11
4.126845999999999
 21
5.037245999999999
 31
0.0
  0
LINE
  5
16B
330
14C
100
AcDbEntity
  8
0
100
AcDbLine
 10
4.034559999999999
 20
4.953799
 30
0.0
 11
4.126437
 21
5.045676
 31
0.0
  0
LINE
  5
16C
330
14C
100
AcDbEntity
  8
0
100
AcDbLine
 10
4.034564999999999
 20
4.962641999999999
 30
0.0
 11
4.126028999999999
 21
5.054107
 31
0.0
  0
LINE
  5
16D
330
14C
100
AcDbEntity
  8
0
100
AcDbLine
 10
4.034569999999999
 20
4.971485999999999
 30
0.0
 11
4.125620999999999
 21
5.062536999999999
 31
0.0
  0
LINE
  5
16E
330
14C
100
AcDbEntity
  8
0
100
AcDbLine
 10
4.034574
 20
4.98033
 30
0.0
 11
4.125212
 21
5.070967999999999
 31
0.0
  0
LINE
  5
16F
330
14C
100
AcDbEntity
  8
0
100
AcDbLine
 10
4.034578999999999
 20
4.989173
 30
0.0
 11
4.124804
 21
5.079398
 31
0.0
  0
LINE
  5
170
330
14C
100
AcDbEntity
  8
0
100
AcDbLine
 10
4.034583999999999
 20
4.998016999999999
 30
0.0
 11
4.124395999999999
 21
5.087829
 31
0.0
  0
LINE
  5
171
330
14C
100
AcDbEntity
  8
0
100
AcDbLine
 10
4.034587999999999
 20
5.006859999999999
 30
0.0
 11
4.123987
 21
5.096258999999999
 31
0.0
  0
LINE
  5
172
330
14C
100
AcDbEntity
  8
0
100
AcDbLine
 10
4.034593
 20
5.015704
 30
0.0
 11
4.123579
 21
5.104689999999999
 31
0.0
  0
LINE
  5
173
330
14C
100
AcDbEntity
  8
0
100
AcDbLine
 10
4.034597999999999
 20
5.024547
 30
0.0
 11
4.123171
 21
5.113119999999999
 31
0.0
  0
LINE
  5
174
330
14C
100
AcDbEntity
  8
0
100
AcDbLine
 10
4.034602999999999
 20
5.033390999999999
 30
0.0
 11
4.122762
 21
5.121551
 31
0.0
  0
LINE
  5
175
330
14C
100
AcDbEntity
  8
0
100
AcDbLine
 10
4.034607
 20
5.042234999999999
 30
0.0
 11
4.122354
 21
5.129980999999999
 31
0.0
  0
LINE
  5
176
330
14C
100
AcDbEntity
  8
0
100
AcDbLine
 10
4.034612
 20
5.051077999999999
 30
0.0
 11
4.121946
 21
5.138412
 31
0.0
  0
LINE
  5
177
330
14C
100
AcDbEntity
  8
0
100
AcDbLine
 10
4.034616999999999
 20
5.059922
 30
0.0
 11
4.121537
 21
5.146841999999999
 31
0.0
  0
LINE
  5
178
330
14C
100
AcDbEntity
  8
0
100
AcDbLine
 10
4.034621999999999
 20
5.068764999999999
 30
0.0
 11
4.121128999999999
 21
5.155273
 31
0.0
  0
LINE
  5
179
330
14C
100
AcDbEntity
  8
0
100
AcDbLine
 10
4.034626
 20
5.077608999999999
 30
0.0
 11
4.120720999999999
 21
5.163702999999999
 31
0.0
  0
LINE
  5
17A
330
14C
100
AcDbEntity
  8
0
100
AcDbLine
 10
4.034631
 20
5.086451999999999
 30
0.0
 11
4.120312
 21
5.172133999999999
 31
0.0
  0
LINE
  5
17B
330
14C
100
AcDbEntity
  8
0
100
AcDbLine
 10
4.034635999999999
 20
5.095296
 30
0.0
 11
4.119904
 21
5.180563999999999
 31
0.0
  0
LINE
  5
17C
330
14C
100
AcDbEntity
  8
0
100
AcDbLine
 10
4.034641
 20
5.10414
 30
0.0
 11
4.119495999999999
 21
5.188994999999999
 31
0.0
  0
LINE
  5
17D
330
14C
100
AcDbEntity
  8
0
100
AcDbLine
 10
4.034644999999999
 20
5.112982999999999
 30
0.0
 11
4.119087
 21
5.197424999999999
 31
0.0
  0
LINE
  5
17E
330
14C
100
AcDbEntity
  8
0
100
AcDbLine
 10
4.03465
 20
5.121826999999999
 30
0.0
 11
4.118679
 21
5.205855999999999
 31
0.0
  0
LINE
  5
17F
330
14C
100
AcDbEntity
  8
0
100
AcDbLine
 10
4.034654999999999
 20
5.130669999999999
 30
0.0
 11
4.118271
 21
5.214286
 31
0.0
  0
LINE
  5
180
330
14C
100
AcDbEntity
  8
0
100
AcDbLine
 10
4.034659999999999
 20
5.139514
 30
0.0
 11
4.117862
 21
5.222716999999999
 31
0.0
  0
LINE
  5
181
330
14C
100
AcDbEntity
  8
0
100
AcDbLine
 10
4.034664
 20
5.148356999999999
 30
0.0
 11
4.117454
 21
5.231146999999999
 31
0.0
  0
LINE
  5
182
330
14C
100
AcDbEntity
  8
0
100
AcDbLine
 10
4.034669
 20
5.157201
 30
0.0
 11
4.117046
 21
5.239577999999999
 31
0.0
  0
LINE
  5
183
330
14C
100
AcDbEntity
  8
0
100
AcDbLine
 10
4.034673999999999
 20
5.166044999999999
 30
0.0
 11
4.116636999999999
 21
5.248008
 31
0.0
  0
LINE
  5
184
330
14C
100
AcDbEntity
  8
0
100
AcDbLine
 10
4.034677999999999
 20
5.174888
 30
0.0
 11
4.116228999999999
 21
5.256439
 31
0.0
  0
LINE
  5
185
330
14C
100
AcDbEntity
  8
0
100
AcDbLine
 10
4.034683
 20
5.183732
 30
0.0
 11
4.115820999999999
 21
5.264869
 31
0.0
  0
LINE
  5
186
330
14C
100
AcDbEntity
  8
0
100
AcDbLine
 10
4.034688
 20
5.192574999999999
 30
0.0
 11
4.115412
 21
5.273299999999999
 31
0.0
  0
LINE
  5
187
330
14C
100
AcDbEntity
  8
0
100
AcDbLine
 10
4.034692999999999
 20
5.201419
 30
0.0
 11
4.115003999999999
 21
5.28173
 31
0.0
  0
LINE
  5
188
330
14C
100
AcDbEntity
  8
0
100
AcDbLine
 10
4.034697
 20
5.210262
 30
0.0
 11
4.114595999999999
 21
5.290161
 31
0.0
  0
LINE
  5
189
330
14C
100
AcDbEntity
  8
0
100
AcDbLine
 10
4.034701999999999
 20
5.219106
 30
0.0
 11
4.114187
 21
5.298591
 31
0.0
  0
LINE
  5
18A
330
14C
100
AcDbEntity
  8
0
100
AcDbLine
 10
4.034707
 20
5.227949999999999
 30
0.0
 11
4.113779
 21
5.307021999999999
 31
0.0
  0
LINE
  5
18B
330
14C
100
AcDbEntity
  8
0
100
AcDbLine
 10
4.034711999999999
 20
5.236792999999999
 30
0.0
 11
4.113370999999999
 21
5.315451999999999
 31
0.0
  0
LINE
  5
18C
330
14C
100
AcDbEntity
  8
0
100
AcDbLine
 10
4.034716
 20
5.245637
 30
0.0
 11
4.112962
 21
5.323883
 31
0.0
  0
LINE
  5
18D
330
14C
100
AcDbEntity
  8
0
100
AcDbLine
 10
4.034721
 20
5.25448
 30
0.0
 11
4.112554
 21
5.332313
 31
0.0
  0
LINE
  5
18E
330
14C
100
AcDbEntity
  8
0
100
AcDbLine
 10
4.034726
 20
5.263323999999999
 30
0.0
 11
4.112146
 21
5.340743999999999
 31
0.0
  0
LINE
  5
18F
330
14C
100
AcDbEntity
  8
0
100
AcDbLine
 10
4.034730999999999
 20
5.272166999999999
 30
0.0
 11
4.111737
 21
5.349173999999999
 31
0.0
  0
LINE
  5
190
330
14C
100
AcDbEntity
  8
0
100
AcDbLine
 10
4.034734999999999
 20
5.281011
 30
0.0
 11
4.111329
 21
5.357605
 31
0.0
  0
LINE
  5
191
330
14C
100
AcDbEntity
  8
0
100
AcDbLine
 10
4.03474
 20
5.289855
 30
0.0
 11
4.110921
 21
5.366035
 31
0.0
  0
LINE
  5
192
330
14C
100
AcDbEntity
  8
0
100
AcDbLine
 10
4.034745
 20
5.298697999999999
 30
0.0
 11
4.110511999999999
 21
5.374465999999999
 31
0.0
  0
LINE
  5
193
330
14C
100
AcDbEntity
  8
0
100
AcDbLine
 10
4.034748999999999
 20
5.307541999999999
 30
0.0
 11
4.110103999999999
 21
5.382895999999999
 31
0.0
  0
LINE
  5
194
330
14C
100
AcDbEntity
  8
0
100
AcDbLine
 10
4.034754
 20
5.316384999999999
 30
0.0
 11
4.109695999999999
 21
5.391326999999999
 31
0.0
  0
LINE
  5
195
330
14C
100
AcDbEntity
  8
0
100
AcDbLine
 10
4.034758999999999
 20
5.325229
 30
0.0
 11
4.109287
 21
5.399757
 31
0.0
  0
LINE
  5
196
330
14C
100
AcDbEntity
  8
0
100
AcDbLine
 10
4.034764
 20
5.334071999999999
 30
0.0
 11
4.108878999999999
 21
5.408187999999999
 31
0.0
  0
LINE
  5
197
330
14C
100
AcDbEntity
  8
0
100
AcDbLine
 10
4.034767999999999
 20
5.342916
 30
0.0
 11
4.108470999999999
 21
5.416617999999999
 31
0.0
  0
LINE
  5
198
330
14C
100
AcDbEntity
  8
0
100
AcDbLine
 10
4.034773
 20
5.351759999999999
 30
0.0
 11
4.108062
 21
5.425048999999999
 31
0.0
  0
LINE
  5
199
330
14C
100
AcDbEntity
  8
0
100
AcDbLine
 10
4.034778
 20
5.360603
 30
0.0
 11
4.107654
 21
5.433479
 31
0.0
  0
LINE
  5
19A
330
14C
100
AcDbEntity
  8
0
100
AcDbLine
 10
4.034783
 20
5.369447
 30
0.0
 11
4.107245999999999
 21
5.44191
 31
0.0
  0
LINE
  5
19B
330
14C
100
AcDbEntity
  8
0
100
AcDbLine
 10
4.034787
 20
5.378289999999999
 30
0.0
 11
4.106837
 21
5.450339999999999
 31
0.0
  0
LINE
  5
19C
330
14C
100
AcDbEntity
  8
0
100
AcDbLine
 10
4.034791999999999
 20
5.387133999999999
 30
0.0
 11
4.106429
 21
5.458770999999999
 31
0.0
  0
LINE
  5
19D
330
14C
100
AcDbEntity
  8
0
100
AcDbLine
 10
4.034797
 20
5.395976999999999
 30
0.0
 11
4.106021
 21
5.467201
 31
0.0
  0
LINE
  5
19E
330
14C
100
AcDbEntity
  8
0
100
AcDbLine
 10
4.034801999999999
 20
5.404821
 30
0.0
 11
4.105612
 21
5.475632
 31
0.0
  0
LINE
  5
19F
330
14C
100
AcDbEntity
  8
0
100
AcDbLine
 10
4.034805999999999
 20
5.413664999999999
 30
0.0
 11
4.105204
 21
5.484062
 31
0.0
  0
LINE
  5
1A0
330
14C
100
AcDbEntity
  8
0
100
AcDbLine
 10
4.034811
 20
5.422508
 30
0.0
 11
4.104796
 21
5.492492999999999
 31
0.0
  0
LINE
  5
1A1
330
14C
100
AcDbEntity
  8
0
100
AcDbLine
 10
4.034816
 20
5.431351999999999
 30
0.0
 11
4.104387
 21
5.500923
 31
0.0
  0
LINE
  5
1A2
330
14C
100
AcDbEntity
  8
0
100
AcDbLine
 10
4.034820999999999
 20
5.440195
 30
0.0
 11
4.099645999999999
 21
5.505021
 31
0.0
  0
LINE
  5
1A3
330
14C
100
AcDbEntity
  8
0
100
AcDbLine
 10
4.034824999999999
 20
5.449038999999999
 30
0.0
 11
4.094596
 21
5.508809999999999
 31
0.0
  0
LINE
  5
1A4
330
14C
100
AcDbEntity
  8
0
100
AcDbLine
 10
4.03483
 20
5.457881999999999
 30
0.0
 11
4.089546
 21
5.512598999999999
 31
0.0
  0
LINE
  5
1A5
330
14C
100
AcDbEntity
  8
0
100
AcDbLine
 10
4.034835
 20
5.466726
 30
0.0
 11
4.084495999999999
 21
5.516388
 31
0.0
  0
LINE
  5
1A6
330
14C
100
AcDbEntity
  8
0
100
AcDbLine
 10
4.034838999999999
 20
5.475569999999999
 30
0.0
 11
4.079445999999999
 21
5.520176999999999
 31
0.0
  0
LINE
  5
1A7
330
14C
100
AcDbEntity
  8
0
100
AcDbLine
 10
4.034844
 20
5.484412999999999
 30
0.0
 11
4.074397
 21
5.523965
 31
0.0
  0
LINE
  5
1A8
330
14C
100
AcDbEntity
  8
0
100
AcDbLine
 10
4.034848999999999
 20
5.493256999999999
 30
0.0
 11
4.069347
 21
5.527753999999999
 31
0.0
  0
LINE
  5
1A9
330
14C
100
AcDbEntity
  8
0
100
AcDbLine
 10
4.034854
 20
5.5021
 30
0.0
 11
4.064296999999999
 21
5.531543
 31
0.0
  0
LINE
  5
1AA
330
14C
100
AcDbEntity
  8
0
100
AcDbLine
 10
4.034857999999999
 20
5.510944
 30
0.0
 11
4.059247
 21
5.535332
 31
0.0
  0
LINE
  5
1AB
330
14C
100
AcDbEntity
  8
0
100
AcDbLine
 10
4.034862999999999
 20
5.519786999999999
 30
0.0
 11
4.054197
 21
5.539120999999999
 31
0.0
  0
LINE
  5
1AC
330
14C
100
AcDbEntity
  8
0
100
AcDbLine
 10
4.034868
 20
5.528630999999999
 30
0.0
 11
4.049147
 21
5.54291
 31
0.0
  0
LINE
  5
1AD
330
14C
100
AcDbEntity
  8
0
100
AcDbLine
 10
4.034873
 20
5.537474999999999
 30
0.0
 11
4.044096999999999
 21
5.546698999999999
 31
0.0
  0
LINE
  5
1AE
330
14C
100
AcDbEntity
  8
0
100
AcDbLine
 10
4.034876999999999
 20
5.546318
 30
0.0
 11
4.039047
 21
5.550487999999999
 31
0.0
  0
LINE
  5
1AF
330
14C
100
AcDbEntity
  8
0
100
AcDbLine
 10
4.034412999999999
 20
4.679648
 30
0.0
 11
4.139094999999999
 21
4.78433
 31
0.0
  0
LINE
  5
1B0
330
14C
100
AcDbEntity
  8
0
100
AcDbLine
 10
4.034407999999999
 20
4.670805
 30
0.0
 11
4.139504
 21
4.7759
 31
0.0
  0
LINE
  5
1B1
330
14C
100
AcDbEntity
  8
0
100
AcDbLine
 10
4.034404
 20
4.661960999999999
 30
0.0
 11
4.139912
 21
4.767469
 31
0.0
  0
LINE
  5
1B2
330
14C
100
AcDbEntity
  8
0
100
AcDbLine
 10
4.034398999999999
 20
4.653116999999999
 30
0.0
 11
4.14032
 21
4.759038999999999
 31
0.0
  0
LINE
  5
1B3
330
14C
100
AcDbEntity
  8
0
100
AcDbLine
 10
4.034393999999999
 20
4.644274
 30
0.0
 11
4.140729
 21
4.750608
 31
0.0
  0
LINE
  5
1B4
330
14C
100
AcDbEntity
  8
0
100
AcDbLine
 10
4.03439
 20
4.63543
 30
0.0
 11
4.141137
 21
4.742178
 31
0.0
  0
LINE
  5
1B5
330
14C
100
AcDbEntity
  8
0
100
AcDbLine
 10
4.034384999999999
 20
4.626587
 30
0.0
 11
4.141544999999999
 21
4.733747
 31
0.0
  0
LINE
  5
1B6
330
14C
100
AcDbEntity
  8
0
100
AcDbLine
 10
4.03438
 20
4.617742999999999
 30
0.0
 11
4.141954
 21
4.725316999999999
 31
0.0
  0
LINE
  5
1B7
330
14C
100
AcDbEntity
  8
0
100
AcDbLine
 10
4.034374999999999
 20
4.6089
 30
0.0
 11
4.142362
 21
4.716885999999999
 31
0.0
  0
LINE
  5
1B8
330
14C
100
AcDbEntity
  8
0
100
AcDbLine
 10
4.034371
 20
4.600055999999999
 30
0.0
 11
4.142769999999999
 21
4.708455999999999
 31
0.0
  0
LINE
  5
1B9
330
14C
100
AcDbEntity
  8
0
100
AcDbLine
 10
4.034366
 20
4.591212
 30
0.0
 11
4.143178999999999
 21
4.700025
 31
0.0
  0
LINE
  5
1BA
330
14C
100
AcDbEntity
  8
0
100
AcDbLine
 10
4.034360999999999
 20
4.582368999999999
 30
0.0
 11
4.143587
 21
4.691594999999999
 31
0.0
  0
LINE
  5
1BB
330
14C
100
AcDbEntity
  8
0
100
AcDbLine
 10
4.034355999999999
 20
4.573525
 30
0.0
 11
4.143994999999999
 21
4.683163999999999
 31
0.0
  0
LINE
  5
1BC
330
14C
100
AcDbEntity
  8
0
100
AcDbLine
 10
4.034351999999999
 20
4.564682
 30
0.0
 11
4.144403999999999
 21
4.674733999999999
 31
0.0
  0
LINE
  5
1BD
330
14C
100
AcDbEntity
  8
0
100
AcDbLine
 10
4.034347
 20
4.555837999999999
 30
0.0
 11
4.144811999999999
 21
4.666303
 31
0.0
  0
LINE
  5
1BE
330
14C
100
AcDbEntity
  8
0
100
AcDbLine
 10
4.034341999999999
 20
4.546994999999999
 30
0.0
 11
4.14522
 21
4.657873
 31
0.0
  0
LINE
  5
1BF
330
14C
100
AcDbEntity
  8
0
100
AcDbLine
 10
4.034336999999999
 20
4.538151
 30
0.0
 11
4.145629
 21
4.649441999999999
 31
0.0
  0
LINE
  5
1C0
330
14C
100
AcDbEntity
  8
0
100
AcDbLine
 10
4.034333
 20
4.529307
 30
0.0
 11
4.146037
 21
4.641011999999999
 31
0.0
  0
LINE
  5
1C1
330
14C
100
AcDbEntity
  8
0
100
AcDbLine
 10
4.034327999999999
 20
4.520463999999999
 30
0.0
 11
4.146444999999999
 21
4.632581
 31
0.0
  0
LINE
  5
1C2
330
14C
100
AcDbEntity
  8
0
100
AcDbLine
 10
4.034323
 20
4.511619999999999
 30
0.0
 11
4.146854
 21
4.624151
 31
0.0
  0
LINE
  5
1C3
330
14C
100
AcDbEntity
  8
0
100
AcDbLine
 10
4.034317999999999
 20
4.502777
 30
0.0
 11
4.147262
 21
4.615719999999999
 31
0.0
  0
LINE
  5
1C4
330
14C
100
AcDbEntity
  8
0
100
AcDbLine
 10
4.034314
 20
4.493933
 30
0.0
 11
4.147669999999999
 21
4.607289999999999
 31
0.0
  0
LINE
  5
1C5
330
14C
100
AcDbEntity
  8
0
100
AcDbLine
 10
4.034308999999999
 20
4.48509
 30
0.0
 11
4.148079
 21
4.598859
 31
0.0
  0
LINE
  5
1C6
330
14C
100
AcDbEntity
  8
0
100
AcDbLine
 10
4.034303999999999
 20
4.476245999999999
 30
0.0
 11
4.148487
 21
4.590429
 31
0.0
  0
LINE
  5
1C7
330
14C
100
AcDbEntity
  8
0
100
AcDbLine
 10
4.034299999999999
 20
4.467401999999999
 30
0.0
 11
4.148894999999999
 21
4.581998
 31
0.0
  0
LINE
  5
1C8
330
14C
100
AcDbEntity
  8
0
100
AcDbLine
 10
4.034294999999999
 20
4.458558999999999
 30
0.0
 11
4.149303999999999
 21
4.573567999999999
 31
0.0
  0
LINE
  5
1C9
330
14C
100
AcDbEntity
  8
0
100
AcDbLine
 10
4.03429
 20
4.449715
 30
0.0
 11
4.149712
 21
4.565137
 31
0.0
  0
LINE
  5
1CA
330
14C
100
AcDbEntity
  8
0
100
AcDbLine
 10
4.034284999999999
 20
4.440871999999999
 30
0.0
 11
4.150119999999999
 21
4.556707
 31
0.0
  0
LINE
  5
1CB
330
14C
100
AcDbEntity
  8
0
100
AcDbLine
 10
4.034281
 20
4.432027999999999
 30
0.0
 11
4.150528999999999
 21
4.548276
 31
0.0
  0
LINE
  5
1CC
330
14C
100
AcDbEntity
  8
0
100
AcDbLine
 10
4.034276
 20
4.423185
 30
0.0
 11
4.150936999999999
 21
4.539845999999999
 31
0.0
  0
LINE
  5
1CD
330
14C
100
AcDbEntity
  8
0
100
AcDbLine
 10
4.034270999999999
 20
4.414341
 30
0.0
 11
4.151345
 21
4.531414999999999
 31
0.0
  0
LINE
  5
1CE
330
14C
100
AcDbEntity
  8
0
100
AcDbLine
 10
4.034266
 20
4.405497
 30
0.0
 11
4.151754
 21
4.522985
 31
0.0
  0
LINE
  5
1CF
330
14C
100
AcDbEntity
  8
0
100
AcDbLine
 10
4.034262
 20
4.396653999999999
 30
0.0
 11
4.152162
 21
4.514554
 31
0.0
  0
LINE
  5
1D0
330
14C
100
AcDbEntity
  8
0
100
AcDbLine
 10
4.034257
 20
4.387809999999999
 30
0.0
 11
4.152569999999999
 21
4.506123999999999
 31
0.0
  0
LINE
  5
1D1
330
14C
100
AcDbEntity
  8
0
100
AcDbLine
 10
4.034251999999999
 20
4.378966999999999
 30
0.0
 11
4.152979
 21
4.497692999999999
 31
0.0
  0
LINE
  5
1D2
330
14C
100
AcDbEntity
  8
0
100
AcDbLine
 10
4.034246999999999
 20
4.370123
 30
0.0
 11
4.153387
 21
4.489262999999999
 31
0.0
  0
LINE
  5
1D3
330
14C
100
AcDbEntity
  8
0
100
AcDbLine
 10
4.034243
 20
4.36128
 30
0.0
 11
4.153794999999999
 21
4.480832
 31
0.0
  0
LINE
  5
1D4
330
14C
100
AcDbEntity
  8
0
100
AcDbLine
 10
4.034237999999999
 20
4.352435999999999
 30
0.0
 11
4.154204
 21
4.472401999999999
 31
0.0
  0
LINE
  5
1D5
330
14C
100
AcDbEntity
  8
0
100
AcDbLine
 10
4.034233
 20
4.343592
 30
0.0
 11
4.154612
 21
4.463970999999999
 31
0.0
  0
LINE
  5
1D6
330
14C
100
AcDbEntity
  8
0
100
AcDbLine
 10
4.034228999999999
 20
4.334748999999999
 30
0.0
 11
4.155019999999999
 21
4.455541
 31
0.0
  0
LINE
  5
1D7
330
14C
100
AcDbEntity
  8
0
100
AcDbLine
 10
4.034224
 20
4.325905
 30
0.0
 11
4.155428999999999
 21
4.447109999999999
 31
0.0
  0
LINE
  5
1D8
330
14C
100
AcDbEntity
  8
0
100
AcDbLine
 10
4.034219
 20
4.317061999999999
 30
0.0
 11
4.155837
 21
4.43868
 31
0.0
  0
LINE
  5
1D9
330
14C
100
AcDbEntity
  8
0
100
AcDbLine
 10
4.034213999999999
 20
4.308218
 30
0.0
 11
4.156244999999999
 21
4.430248999999999
 31
0.0
  0
LINE
  5
1DA
330
14C
100
AcDbEntity
  8
0
100
AcDbLine
 10
4.034209999999999
 20
4.299375
 30
0.0
 11
4.156654
 21
4.421819
 31
0.0
  0
LINE
  5
1DB
330
14C
100
AcDbEntity
  8
0
100
AcDbLine
 10
4.034205
 20
4.290530999999999
 30
0.0
 11
4.157062
 21
4.413387999999999
 31
0.0
  0
LINE
  5
1DC
330
14C
100
AcDbEntity
  8
0
100
AcDbLine
 10
4.0342
 20
4.281687
 30
0.0
 11
4.157469999999999
 21
4.404958
 31
0.0
  0
LINE
  5
1DD
330
14C
100
AcDbEntity
  8
0
100
AcDbLine
 10
4.034194999999999
 20
4.272844
 30
0.0
 11
4.157879
 21
4.396526999999999
 31
0.0
  0
LINE
  5
1DE
330
14C
100
AcDbEntity
  8
0
100
AcDbLine
 10
4.034191
 20
4.263999999999999
 30
0.0
 11
4.158287
 21
4.388097
 31
0.0
  0
LINE
  5
1DF
330
14C
100
AcDbEntity
  8
0
100
AcDbLine
 10
4.034186
 20
4.255156999999999
 30
0.0
 11
4.158694999999999
 21
4.379666
 31
0.0
  0
LINE
  5
1E0
330
14C
100
AcDbEntity
  8
0
100
AcDbLine
 10
4.034180999999999
 20
4.246312999999999
 30
0.0
 11
4.159104
 21
4.371235999999999
 31
0.0
  0
LINE
  5
1E1
330
14C
100
AcDbEntity
  8
0
100
AcDbLine
 10
4.034176
 20
4.23747
 30
0.0
 11
4.159512
 21
4.362805
 31
0.0
  0
LINE
  5
1E2
330
14C
100
AcDbEntity
  8
0
100
AcDbLine
 10
4.034171999999999
 20
4.228626
 30
0.0
 11
4.159919999999999
 21
4.354375
 31
0.0
  0
LINE
  5
1E3
330
14C
100
AcDbEntity
  8
0
100
AcDbLine
 10
4.034167
 20
4.219782
 30
0.0
 11
4.160328999999999
 21
4.345944
 31
0.0
  0
LINE
  5
1E4
330
14C
100
AcDbEntity
  8
0
100
AcDbLine
 10
4.034162
 20
4.210938999999999
 30
0.0
 11
4.160737
 21
4.337513999999999
 31
0.0
  0
LINE
  5
1E5
330
14C
100
AcDbEntity
  8
0
100
AcDbLine
 10
4.034156999999999
 20
4.202094999999999
 30
0.0
 11
4.161144999999999
 21
4.329082999999999
 31
0.0
  0
LINE
  5
1E6
330
14C
100
AcDbEntity
  8
0
100
AcDbLine
 10
4.034152999999999
 20
4.193251999999999
 30
0.0
 11
4.161553999999999
 21
4.320653
 31
0.0
  0
LINE
  5
1E7
330
14C
100
AcDbEntity
  8
0
100
AcDbLine
 10
4.034148
 20
4.184408
 30
0.0
 11
4.161961999999999
 21
4.312222
 31
0.0
  0
LINE
  5
1E8
330
14C
100
AcDbEntity
  8
0
100
AcDbLine
 10
4.034143
 20
4.175564999999999
 30
0.0
 11
4.16237
 21
4.303791999999999
 31
0.0
  0
LINE
  5
1E9
330
14C
100
AcDbEntity
  8
0
100
AcDbLine
 10
4.034537999999999
 20
4.167119999999999
 30
0.0
 11
4.162779
 21
4.295360999999999
 31
0.0
  0
LINE
  5
1EA
330
14C
100
AcDbEntity
  8
0
100
AcDbLine
 10
4.038301
 20
4.162044999999999
 30
0.0
 11
4.163187
 21
4.286931
 31
0.0
  0
LINE
  5
1EB
330
14C
100
AcDbEntity
  8
0
100
AcDbLine
 10
4.042065
 20
4.156969999999999
 30
0.0
 11
4.163594999999999
 21
4.2785
 31
0.0
  0
LINE
  5
1EC
330
14C
100
AcDbEntity
  8
0
100
AcDbLine
 10
4.045829
 20
4.151894999999999
 30
0.0
 11
4.164004
 21
4.270069999999999
 31
0.0
  0
LINE
  5
1ED
330
14C
100
AcDbEntity
  8
0
100
AcDbLine
 10
4.049592999999999
 20
4.146821
 30
0.0
 11
4.164412
 21
4.261638999999999
 31
0.0
  0
LINE
  5
1EE
330
14C
100
AcDbEntity
  8
0
100
AcDbLine
 10
4.053357
 20
4.141745999999999
 30
0.0
 11
4.164819999999999
 21
4.253209
 31
0.0
  0
LINE
  5
1EF
330
14C
100
AcDbEntity
  8
0
100
AcDbLine
 10
4.057120999999999
 20
4.136670999999999
 30
0.0
 11
4.165229
 21
4.244778
 31
0.0
  0
LINE
  5
1F0
330
14C
100
AcDbEntity
  8
0
100
AcDbLine
 10
4.060884999999999
 20
4.131596
 30
0.0
 11
4.165637
 21
4.236348
 31
0.0
  0
LINE
  5
1F1
330
14C
100
AcDbEntity
  8
0
100
AcDbLine
 10
4.064649
 20
4.126521
 30
0.0
 11
4.166044999999999
 21
4.227916999999999
 31
0.0
  0
LINE
  5
1F2
330
14C
100
AcDbEntity
  8
0
100
AcDbLine
 10
4.068412999999999
 20
4.121445999999999
 30
0.0
 11
4.166453999999999
 21
4.219486999999999
 31
0.0
  0
LINE
  5
1F3
330
14C
100
AcDbEntity
  8
0
100
AcDbLine
 10
4.072176999999999
 20
4.116371
 30
0.0
 11
4.166862
 21
4.211056
 31
0.0
  0
LINE
  5
1F4
330
14C
100
AcDbEntity
  8
0
100
AcDbLine
 10
4.075941
 20
4.111296
 30
0.0
 11
4.167269999999999
 21
4.202626
 31
0.0
  0
LINE
  5
1F5
330
14C
100
AcDbEntity
  8
0
100
AcDbLine
 10
4.079705
 20
4.106221999999999
 30
0.0
 11
4.167678999999999
 21
4.194194999999999
 31
0.0
  0
LINE
  5
1F6
330
14C
100
AcDbEntity
  8
0
100
AcDbLine
 10
4.083469
 20
4.101147
 30
0.0
 11
4.168086999999999
 21
4.185764999999999
 31
0.0
  0
LINE
  5
1F7
330
14C
100
AcDbEntity
  8
0
100
AcDbLine
 10
4.087233
 20
4.096072
 30
0.0
 11
4.168495
 21
4.177333999999999
 31
0.0
  0
LINE
  5
1F8
330
14C
100
AcDbEntity
  8
0
100
AcDbLine
 10
4.090996999999999
 20
4.090996999999999
 30
0.0
 11
4.168903
 21
4.168903
 31
0.0
  0
LINE
  5
1F9
330
14C
100
AcDbEntity
  8
0
100
AcDbLine
 10
4.094761
 20
4.085922
 30
0.0
 11
4.169312
 21
4.160473
 31
0.0
  0
LINE
  5
1FA
330
14C
100
AcDbEntity
  8
0
100
AcDbLine
 10
4.098525
 20
4.080847
 30
0.0
 11
4.169719999999999
 21
4.152041999999999
 31
0.0
  0
LINE
  5
1FB
330
14C
100
AcDbEntity
  8
0
100
AcDbLine
 10
4.102288999999999
 20
4.075771999999999
 30
0.0
 11
4.170128
 21
4.143612
 31
0.0
  0
LINE
  5
1FC
330
14C
100
AcDbEntity
  8
0
100
AcDbLine
 10
4.106053
 20
4.070698
 30
0.0
 11
4.170537
 21
4.135180999999999
 31
0.0
  0
LINE
  5
1FD
330
14C
100
AcDbEntity
  8
0
100
AcDbLine
 10
4.109816999999999
 20
4.065623
 30
0.0
 11
4.170944999999999
 21
4.126751
 31
0.0
  0
LINE
  5
1FE
330
14C
100
AcDbEntity
  8
0
100
AcDbLine
 10
4.113580999999999
 20
4.060548
 30
0.0
 11
4.171352999999999
 21
4.118319999999999
 31
0.0
  0
LINE
  5
1FF
330
14C
100
AcDbEntity
  8
0
100
AcDbLine
 10
4.117344999999999
 20
4.055473
 30
0.0
 11
4.171762
 21
4.10989
 31
0.0
  0
LINE
  5
200
330
14C
100
AcDbEntity
  8
0
100
AcDbLine
 10
4.121108999999999
 20
4.050398
 30
0.0
 11
4.172169999999999
 21
4.101458999999999
 31
0.0
  0
LINE
  5
201
330
14C
100
AcDbEntity
  8
0
100
AcDbLine
 10
4.124873
 20
4.045323
 30
0.0
 11
4.172577999999999
 21
4.093029
 31
0.0
  0
LINE
  5
202
330
14C
100
AcDbEntity
  8
0
100
AcDbLine
 10
4.128637
 20
4.040248
 30
0.0
 11
4.172987
 21
4.084598
 31
0.0
  0
LINE
  5
203
330
14C
100
AcDbEntity
  8
0
100
AcDbLine
 10
4.132400999999999
 20
4.035173
 30
0.0
 11
4.173394999999999
 21
4.076168
 31
0.0
  0
LINE
  5
204
330
14C
100
AcDbEntity
  8
0
100
AcDbLine
 10
4.136165
 20
4.030098999999999
 30
0.0
 11
4.173802999999999
 21
4.067737
 31
0.0
  0
LINE
  5
205
330
14C
100
AcDbEntity
  8
0
100
AcDbLine
 10
4.139929
 20
4.025024
 30
0.0
 11
4.174212
 21
4.059306999999999
 31
0.0
  0
LINE
  5
206
330
14C
100
AcDbEntity
  8
0
100
AcDbLine
 10
4.143692999999999
 20
4.019948999999999
 30
0.0
 11
4.174619999999999
 21
4.050876
 31
0.0
  0
LINE
  5
207
330
14C
100
AcDbEntity
  8
0
100
AcDbLine
 10
4.147456
 20
4.014873999999999
 30
0.0
 11
4.175028
 21
4.042445999999999
 31
0.0
  0
LINE
  5
208
330
14C
100
AcDbEntity
  8
0
100
AcDbLine
 10
4.151219999999999
 20
4.009799
 30
0.0
 11
4.175437
 21
4.034015
 31
0.0
  0
LINE
  5
209
330
14C
100
AcDbEntity
  8
0
100
AcDbLine
 10
4.154983999999999
 20
4.004723999999999
 30
0.0
 11
4.175844999999999
 21
4.025584999999999
 31
0.0
  0
LINE
  5
20A
330
14C
100
AcDbEntity
  8
0
100
AcDbLine
 10
4.158748
 20
3.999648999999999
 30
0.0
 11
4.176252999999999
 21
4.017153999999999
 31
0.0
  0
LINE
  5
20B
330
14C
100
AcDbEntity
  8
0
100
AcDbLine
 10
4.162512
 20
3.994573999999999
 30
0.0
 11
4.176662
 21
4.008723999999999
 31
0.0
  0
LINE
  5
20C
330
14C
100
AcDbEntity
  8
0
100
AcDbLine
 10
4.166275999999999
 20
3.989499999999999
 30
0.0
 11
4.177069999999999
 21
4.000293
 31
0.0
  0
LINE
  5
20D
330
14C
100
AcDbEntity
  8
0
100
AcDbLine
 10
4.17004
 20
3.984424999999999
 30
0.0
 11
4.177477999999999
 21
3.991863
 31
0.0
  0
LINE
  5
20E
330
14C
100
AcDbEntity
  8
0
100
AcDbLine
 10
4.173804
 20
3.97935
 30
0.0
 11
4.177887
 21
3.983432
 31
0.0
  0
LINE
  5
20F
330
14C
100
AcDbEntity
  8
0
100
AcDbLine
 10
4.177567999999999
 20
3.974275
 30
0.0
 11
4.178294999999999
 21
3.975001999999999
 31
0.0
  0
ENDBLK
  5
211
330
14C
100
AcDbEntity
  8
1
100
AcDbBlockEnd
  0
BLOCK
  5
2D4
330
212
100
AcDbEntity
  8
1
100
AcDbBlockBegin
  2
*X2
 70
     1
 10
0.0
 20
0.0
 30
0.0
  3
*X2
  1

  0
LINE
  5
213
330
212
100
AcDbEntity
  8
0
100
AcDbLine
 10
3.953202999999999
 20
7.718546
 30
0.0
 11
4.042758999999999
 21
7.808103
 31
0.0
  0
LINE
  5
214
330
212
100
AcDbEntity
  8
0
100
AcDbLine
 10
3.954158999999999
 20
7.728341999999999
 30
0.0
 11
4.042791
 21
7.816972999999999
 31
0.0
  0
LINE
  5
215
330
212
100
AcDbEntity
  8
0
100
AcDbLine
 10
3.955116
 20
7.738136999999999
 30
0.0
 11
4.042823
 21
7.825844
 31
0.0
  0
LINE
  5
216
330
212
100
AcDbEntity
  8
0
100
AcDbLine
 10
3.956072
 20
7.747932999999999
 30
0.0
 11
4.042854
 21
7.834713999999999
 31
0.0
  0
LINE
  5
217
330
212
100
AcDbEntity
  8
0
100
AcDbLine
 10
3.957028999999999
 20
7.757728
 30
0.0
 11
4.042886
 21
7.843585
 31
0.0
  0
LINE
  5
218
330
212
100
AcDbEntity
  8
0
100
AcDbLine
 10
3.957986
 20
7.767524
 30
0.0
 11
4.042918
 21
7.852454999999999
 31
0.0
  0
LINE
  5
219
330
212
100
AcDbEntity
  8
0
100
AcDbLine
 10
3.958942
 20
7.777319
 30
0.0
 11
4.042949
 21
7.861325999999999
 31
0.0
  0
LINE
  5
21A
330
212
100
AcDbEntity
  8
0
100
AcDbLine
 10
3.959898999999999
 20
7.787114999999999
 30
0.0
 11
4.042981
 21
7.870196
 31
0.0
  0
LINE
  5
21B
330
212
100
AcDbEntity
  8
0
100
AcDbLine
 10
3.960855999999999
 20
7.79691
 30
0.0
 11
4.043012999999999
 21
7.879067
 31
0.0
  0
LINE
  5
21C
330
212
100
AcDbEntity
  8
0
100
AcDbLine
 10
3.961812
 20
7.806705
 30
0.0
 11
4.043044
 21
7.887938
 31
0.0
  0
LINE
  5
21D
330
212
100
AcDbEntity
  8
0
100
AcDbLine
 10
3.962769
 20
7.816500999999999
 30
0.0
 11
4.043076
 21
7.896808
 31
0.0
  0
LINE
  5
21E
330
212
100
AcDbEntity
  8
0
100
AcDbLine
 10
3.963726
 20
7.826296000000001
 30
0.0
 11
4.043108
 21
7.905678999999999
 31
0.0
  0
LINE
  5
21F
330
212
100
AcDbEntity
  8
0
100
AcDbLine
 10
3.964681999999999
 20
7.836091999999999
 30
0.0
 11
4.043139
 21
7.914549
 31
0.0
  0
LINE
  5
220
330
212
100
AcDbEntity
  8
0
100
AcDbLine
 10
3.965638999999999
 20
7.845886999999999
 30
0.0
 11
4.043171
 21
7.92342
 31
0.0
  0
LINE
  5
221
330
212
100
AcDbEntity
  8
0
100
AcDbLine
 10
3.966596
 20
7.855682999999999
 30
0.0
 11
4.043203
 21
7.932289999999999
 31
0.0
  0
LINE
  5
222
330
212
100
AcDbEntity
  8
0
100
AcDbLine
 10
3.967551999999999
 20
7.865477999999999
 30
0.0
 11
4.043235
 21
7.941161
 31
0.0
  0
LINE
  5
223
330
212
100
AcDbEntity
  8
0
100
AcDbLine
 10
3.968508999999999
 20
7.875274
 30
0.0
 11
4.043266
 21
7.950031
 31
0.0
  0
LINE
  5
224
330
212
100
AcDbEntity
  8
0
100
AcDbLine
 10
3.969466
 20
7.885069
 30
0.0
 11
4.043298
 21
7.958902
 31
0.0
  0
LINE
  5
225
330
212
100
AcDbEntity
  8
0
100
AcDbLine
 10
3.970422
 20
7.894864999999999
 30
0.0
 11
4.04333
 21
7.967772
 31
0.0
  0
LINE
  5
226
330
212
100
AcDbEntity
  8
0
100
AcDbLine
 10
3.971379
 20
7.90466
 30
0.0
 11
4.043360999999999
 21
7.976642999999999
 31
0.0
  0
LINE
  5
227
330
212
100
AcDbEntity
  8
0
100
AcDbLine
 10
3.972334999999999
 20
7.914455999999999
 30
0.0
 11
4.043393
 21
7.985513
 31
0.0
  0
LINE
  5
228
330
212
100
AcDbEntity
  8
0
100
AcDbLine
 10
3.973291999999999
 20
7.924250999999999
 30
0.0
 11
4.043425
 21
7.994383999999999
 31
0.0
  0
LINE
  5
229
330
212
100
AcDbEntity
  8
0
100
AcDbLine
 10
3.974249
 20
7.934047
 30
0.0
 11
4.043455999999999
 21
8.003254
 31
0.0
  0
LINE
  5
22A
330
212
100
AcDbEntity
  8
0
100
AcDbLine
 10
3.975205
 20
7.943842
 30
0.0
 11
4.043487999999999
 21
8.012124999999999
 31
0.0
  0
LINE
  5
22B
330
212
100
AcDbEntity
  8
0
100
AcDbLine
 10
3.976162
 20
7.953638
 30
0.0
 11
4.04352
 21
8.020994999999999
 31
0.0
  0
LINE
  5
22C
330
212
100
AcDbEntity
  8
0
100
AcDbLine
 10
3.977119
 20
7.963433
 30
0.0
 11
4.043550999999999
 21
8.029866
 31
0.0
  0
LINE
  5
22D
330
212
100
AcDbEntity
  8
0
100
AcDbLine
 10
3.978075
 20
7.973228999999999
 30
0.0
 11
4.043582999999999
 21
8.038736
 31
0.0
  0
LINE
  5
22E
330
212
100
AcDbEntity
  8
0
100
AcDbLine
 10
3.979032
 20
7.983024
 30
0.0
 11
4.043614999999999
 21
8.047607000000001
 31
0.0
  0
LINE
  5
22F
330
212
100
AcDbEntity
  8
0
100
AcDbLine
 10
3.979988999999999
 20
7.99282
 30
0.0
 11
4.043645999999999
 21
8.056477
 31
0.0
  0
LINE
  5
230
330
212
100
AcDbEntity
  8
0
100
AcDbLine
 10
3.980944999999999
 20
8.002614999999998
 30
0.0
 11
4.043677999999999
 21
8.065348
 31
0.0
  0
LINE
  5
231
330
212
100
AcDbEntity
  8
0
100
AcDbLine
 10
3.981901999999999
 20
8.012411
 30
0.0
 11
4.043709999999999
 21
8.074218
 31
0.0
  0
LINE
  5
232
330
212
100
AcDbEntity
  8
0
100
AcDbLine
 10
3.982858999999999
 20
8.022206
 30
0.0
 11
4.043741999999999
 21
8.083088999999999
 31
0.0
  0
LINE
  5
233
330
212
100
AcDbEntity
  8
0
100
AcDbLine
 10
3.983815
 20
8.032000999999999
 30
0.0
 11
4.043773
 21
8.09196
 31
0.0
  0
LINE
  5
234
330
212
100
AcDbEntity
  8
0
100
AcDbLine
 10
3.984771999999999
 20
8.041797
 30
0.0
 11
4.043804999999999
 21
8.10083
 31
0.0
  0
LINE
  5
235
330
212
100
AcDbEntity
  8
0
100
AcDbLine
 10
3.985727999999999
 20
8.051591999999999
 30
0.0
 11
4.043836999999999
 21
8.109700999999999
 31
0.0
  0
LINE
  5
236
330
212
100
AcDbEntity
  8
0
100
AcDbLine
 10
3.986684999999999
 20
8.061388
 30
0.0
 11
4.043867999999999
 21
8.118571000000001
 31
0.0
  0
LINE
  5
237
330
212
100
AcDbEntity
  8
0
100
AcDbLine
 10
3.987641999999999
 20
8.071182999999999
 30
0.0
 11
4.043899999999999
 21
8.127442
 31
0.0
  0
LINE
  5
238
330
212
100
AcDbEntity
  8
0
100
AcDbLine
 10
3.988598
 20
8.080978999999999
 30
0.0
 11
4.043931999999999
 21
8.136312
 31
0.0
  0
LINE
  5
239
330
212
100
AcDbEntity
  8
0
100
AcDbLine
 10
3.989555
 20
8.090773999999999
 30
0.0
 11
4.043962999999999
 21
8.145182999999999
 31
0.0
  0
LINE
  5
23A
330
212
100
AcDbEntity
  8
0
100
AcDbLine
 10
3.990512
 20
8.100569999999999
 30
0.0
 11
4.043994999999999
 21
8.154052999999999
 31
0.0
  0
LINE
  5
23B
330
212
100
AcDbEntity
  8
0
100
AcDbLine
 10
3.991468
 20
8.110364999999999
 30
0.0
 11
4.044026999999999
 21
8.162924
 31
0.0
  0
LINE
  5
23C
330
212
100
AcDbEntity
  8
0
100
AcDbLine
 10
3.992424999999999
 20
8.120160999999999
 30
0.0
 11
4.044058
 21
8.171794
 31
0.0
  0
LINE
  5
23D
330
212
100
AcDbEntity
  8
0
100
AcDbLine
 10
3.993382
 20
8.129955999999999
 30
0.0
 11
4.044089999999999
 21
8.180664999999999
 31
0.0
  0
LINE
  5
23E
330
212
100
AcDbEntity
  8
0
100
AcDbLine
 10
3.994337999999999
 20
8.139751999999999
 30
0.0
 11
4.044121999999999
 21
8.189535000000001
 31
0.0
  0
LINE
  5
23F
330
212
100
AcDbEntity
  8
0
100
AcDbLine
 10
3.995294999999999
 20
8.149547
 30
0.0
 11
4.044152999999999
 21
8.198406
 31
0.0
  0
LINE
  5
240
330
212
100
AcDbEntity
  8
0
100
AcDbLine
 10
3.996251999999999
 20
8.159342999999999
 30
0.0
 11
4.044184999999999
 21
8.207276
 31
0.0
  0
LINE
  5
241
330
212
100
AcDbEntity
  8
0
100
AcDbLine
 10
3.997208
 20
8.169138
 30
0.0
 11
4.044216999999999
 21
8.216146999999999
 31
0.0
  0
LINE
  5
242
330
212
100
AcDbEntity
  8
0
100
AcDbLine
 10
3.998165
 20
8.178933999999999
 30
0.0
 11
4.044248
 21
8.225016999999999
 31
0.0
  0
LINE
  5
243
330
212
100
AcDbEntity
  8
0
100
AcDbLine
 10
3.999120999999999
 20
8.188728999999998
 30
0.0
 11
4.04428
 21
8.233888
 31
0.0
  0
LINE
  5
244
330
212
100
AcDbEntity
  8
0
100
AcDbLine
 10
4.000078
 20
8.198525
 30
0.0
 11
4.044312
 21
8.242758
 31
0.0
  0
LINE
  5
245
330
212
100
AcDbEntity
  8
0
100
AcDbLine
 10
4.001034999999999
 20
8.20832
 30
0.0
 11
4.044344
 21
8.251628999999999
 31
0.0
  0
LINE
  5
246
330
212
100
AcDbEntity
  8
0
100
AcDbLine
 10
4.001991
 20
8.218116
 30
0.0
 11
4.044374999999999
 21
8.260499000000001
 31
0.0
  0
LINE
  5
247
330
212
100
AcDbEntity
  8
0
100
AcDbLine
 10
4.002947999999999
 20
8.227911
 30
0.0
 11
4.044406999999999
 21
8.26937
 31
0.0
  0
LINE
  5
248
330
212
100
AcDbEntity
  8
0
100
AcDbLine
 10
4.003905
 20
8.237707
 30
0.0
 11
4.044438999999999
 21
8.27824
 31
0.0
  0
LINE
  5
249
330
212
100
AcDbEntity
  8
0
100
AcDbLine
 10
4.004861
 20
8.247502
 30
0.0
 11
4.044469999999999
 21
8.287110999999999
 31
0.0
  0
LINE
  5
24A
330
212
100
AcDbEntity
  8
0
100
AcDbLine
 10
4.005817999999999
 20
8.257296999999999
 30
0.0
 11
4.044501999999999
 21
8.295982
 31
0.0
  0
LINE
  5
24B
330
212
100
AcDbEntity
  8
0
100
AcDbLine
 10
4.006775
 20
8.267092999999999
 30
0.0
 11
4.044533999999999
 21
8.304852
 31
0.0
  0
LINE
  5
24C
330
212
100
AcDbEntity
  8
0
100
AcDbLine
 10
4.007730999999999
 20
8.276887999999999
 30
0.0
 11
4.044565
 21
8.313722999999999
 31
0.0
  0
LINE
  5
24D
330
212
100
AcDbEntity
  8
0
100
AcDbLine
 10
4.008687999999999
 20
8.286683999999999
 30
0.0
 11
4.044597
 21
8.322592999999999
 31
0.0
  0
LINE
  5
24E
330
212
100
AcDbEntity
  8
0
100
AcDbLine
 10
4.009644999999999
 20
8.296478999999999
 30
0.0
 11
4.044629
 21
8.331464
 31
0.0
  0
LINE
  5
24F
330
212
100
AcDbEntity
  8
0
100
AcDbLine
 10
4.010601
 20
8.306274999999999
 30
0.0
 11
4.044659999999999
 21
8.340334
 31
0.0
  0
LINE
  5
250
330
212
100
AcDbEntity
  8
0
100
AcDbLine
 10
4.011557999999999
 20
8.316069999999999
 30
0.0
 11
4.044691999999999
 21
8.349204999999999
 31
0.0
  0
LINE
  5
251
330
212
100
AcDbEntity
  8
0
100
AcDbLine
 10
4.012514
 20
8.325865999999999
 30
0.0
 11
4.044723999999999
 21
8.358074999999999
 31
0.0
  0
LINE
  5
252
330
212
100
AcDbEntity
  8
0
100
AcDbLine
 10
4.013471
 20
8.335660999999999
 30
0.0
 11
4.044755
 21
8.366946
 31
0.0
  0
LINE
  5
253
330
212
100
AcDbEntity
  8
0
100
AcDbLine
 10
4.014427999999999
 20
8.345457000000001
 30
0.0
 11
4.044787
 21
8.375816
 31
0.0
  0
LINE
  5
254
330
212
100
AcDbEntity
  8
0
100
AcDbLine
 10
4.015384
 20
8.355252
 30
0.0
 11
4.044819
 21
8.384686999999999
 31
0.0
  0
LINE
  5
255
330
212
100
AcDbEntity
  8
0
100
AcDbLine
 10
4.016341
 20
8.365047999999999
 30
0.0
 11
4.044851
 21
8.393557000000001
 31
0.0
  0
LINE
  5
256
330
212
100
AcDbEntity
  8
0
100
AcDbLine
 10
4.017298
 20
8.374842999999998
 30
0.0
 11
4.044882
 21
8.402428
 31
0.0
  0
LINE
  5
257
330
212
100
AcDbEntity
  8
0
100
AcDbLine
 10
4.018253999999999
 20
8.384638999999999
 30
0.0
 11
4.044914
 21
8.411298
 31
0.0
  0
LINE
  5
258
330
212
100
AcDbEntity
  8
0
100
AcDbLine
 10
4.019211
 20
8.394434
 30
0.0
 11
4.044945999999999
 21
8.420168999999999
 31
0.0
  0
LINE
  5
259
330
212
100
AcDbEntity
  8
0
100
AcDbLine
 10
4.020167999999999
 20
8.40423
 30
0.0
 11
4.044976999999999
 21
8.429038999999999
 31
0.0
  0
LINE
  5
25A
330
212
100
AcDbEntity
  8
0
100
AcDbLine
 10
4.021123999999999
 20
8.414025
 30
0.0
 11
4.045008999999999
 21
8.43791
 31
0.0
  0
LINE
  5
25B
330
212
100
AcDbEntity
  8
0
100
AcDbLine
 10
4.022081
 20
8.423821
 30
0.0
 11
4.045041
 21
8.44678
 31
0.0
  0
LINE
  5
25C
330
212
100
AcDbEntity
  8
0
100
AcDbLine
 10
4.023037999999999
 20
8.433616
 30
0.0
 11
4.045072
 21
8.455650999999999
 31
0.0
  0
LINE
  5
25D
330
212
100
AcDbEntity
  8
0
100
AcDbLine
 10
4.023994
 20
8.443412
 30
0.0
 11
4.045104
 21
8.464521000000001
 31
0.0
  0
LINE
  5
25E
330
212
100
AcDbEntity
  8
0
100
AcDbLine
 10
4.024951
 20
8.453207
 30
0.0
 11
4.045136
 21
8.473392
 31
0.0
  0
LINE
  5
25F
330
212
100
AcDbEntity
  8
0
100
AcDbLine
 10
4.025907
 20
8.463003
 30
0.0
 11
4.045167
 21
8.482262
 31
0.0
  0
LINE
  5
260
330
212
100
AcDbEntity
  8
0
100
AcDbLine
 10
4.026863999999999
 20
8.472797999999999
 30
0.0
 11
4.045199
 21
8.491132999999999
 31
0.0
  0
LINE
  5
261
330
212
100
AcDbEntity
  8
0
100
AcDbLine
 10
4.027821
 20
8.482592999999999
 30
0.0
 11
4.045230999999999
 21
8.500002999999999
 31
0.0
  0
LINE
  5
262
330
212
100
AcDbEntity
  8
0
100
AcDbLine
 10
4.028776999999999
 20
8.492388999999999
 30
0.0
 11
4.045262
 21
8.508874
 31
0.0
  0
LINE
  5
263
330
212
100
AcDbEntity
  8
0
100
AcDbLine
 10
4.029733999999999
 20
8.502183999999999
 30
0.0
 11
4.045294
 21
8.517744999999999
 31
0.0
  0
LINE
  5
264
330
212
100
AcDbEntity
  8
0
100
AcDbLine
 10
4.030691
 20
8.511979999999999
 30
0.0
 11
4.045326
 21
8.526614999999999
 31
0.0
  0
LINE
  5
265
330
212
100
AcDbEntity
  8
0
100
AcDbLine
 10
4.031647
 20
8.521774999999999
 30
0.0
 11
4.045358
 21
8.535486
 31
0.0
  0
LINE
  5
266
330
212
100
AcDbEntity
  8
0
100
AcDbLine
 10
4.032604
 20
8.531571000000001
 30
0.0
 11
4.045389
 21
8.544356
 31
0.0
  0
LINE
  5
267
330
212
100
AcDbEntity
  8
0
100
AcDbLine
 10
4.033560999999999
 20
8.541366
 30
0.0
 11
4.045421
 21
8.553226999999999
 31
0.0
  0
LINE
  5
268
330
212
100
AcDbEntity
  8
0
100
AcDbLine
 10
4.034517
 20
8.551161999999999
 30
0.0
 11
4.045453
 21
8.562096999999999
 31
0.0
  0
LINE
  5
269
330
212
100
AcDbEntity
  8
0
100
AcDbLine
 10
4.035473999999999
 20
8.560957
 30
0.0
 11
4.045484
 21
8.570967999999998
 31
0.0
  0
LINE
  5
26A
330
212
100
AcDbEntity
  8
0
100
AcDbLine
 10
4.036430999999999
 20
8.570752999999999
 30
0.0
 11
4.045516
 21
8.579838
 31
0.0
  0
LINE
  5
26B
330
212
100
AcDbEntity
  8
0
100
AcDbLine
 10
4.037386999999999
 20
8.580548
 30
0.0
 11
4.045548
 21
8.588708999999999
 31
0.0
  0
LINE
  5
26C
330
212
100
AcDbEntity
  8
0
100
AcDbLine
 10
4.038344
 20
8.590343999999999
 30
0.0
 11
4.045579
 21
8.597578999999999
 31
0.0
  0
LINE
  5
26D
330
212
100
AcDbEntity
  8
0
100
AcDbLine
 10
4.039299999999999
 20
8.600139
 30
0.0
 11
4.045611
 21
8.60645
 31
0.0
  0
LINE
  5
26E
330
212
100
AcDbEntity
  8
0
100
AcDbLine
 10
4.040256999999999
 20
8.609935
 30
0.0
 11
4.045643
 21
8.61532
 31
0.0
  0
LINE
  5
26F
330
212
100
AcDbEntity
  8
0
100
AcDbLine
 10
4.041214
 20
8.61973
 30
0.0
 11
4.045673999999999
 21
8.624190999999999
 31
0.0
  0
LINE
  5
270
330
212
100
AcDbEntity
  8
0
100
AcDbLine
 10
4.042169999999999
 20
8.629526
 30
0.0
 11
4.045706
 21
8.633060999999999
 31
0.0
  0
LINE
  5
271
330
212
100
AcDbEntity
  8
0
100
AcDbLine
 10
4.043126999999999
 20
8.639321
 30
0.0
 11
4.045738
 21
8.641932
 31
0.0
  0
LINE
  5
272
330
212
100
AcDbEntity
  8
0
100
AcDbLine
 10
4.044083999999999
 20
8.649117
 30
0.0
 11
4.045768999999999
 21
8.650802
 31
0.0
  0
LINE
  5
273
330
212
100
AcDbEntity
  8
0
100
AcDbLine
 10
4.04504
 20
8.658911999999999
 30
0.0
 11
4.045800999999999
 21
8.659672999999999
 31
0.0
  0
LINE
  5
274
330
212
100
AcDbEntity
  8
0
100
AcDbLine
 10
3.952245999999999
 20
7.708750999999999
 30
0.0
 11
4.042728
 21
7.799232
 31
0.0
  0
LINE
  5
275
330
212
100
AcDbEntity
  8
0
100
AcDbLine
 10
3.951289
 20
7.698955
 30
0.0
 11
4.042696
 21
7.790361999999999
 31
0.0
  0
LINE
  5
276
330
212
100
AcDbEntity
  8
0
100
AcDbLine
 10
3.950333
 20
7.68916
 30
0.0
 11
4.042664
 21
7.781490999999999
 31
0.0
  0
LINE
  5
277
330
212
100
AcDbEntity
  8
0
100
AcDbLine
 10
3.949375999999999
 20
7.679363999999999
 30
0.0
 11
4.042632
 21
7.772621
 31
0.0
  0
LINE
  5
278
330
212
100
AcDbEntity
  8
0
100
AcDbLine
 10
3.948419
 20
7.669569
 30
0.0
 11
4.042601
 21
7.763749999999999
 31
0.0
  0
LINE
  5
279
330
212
100
AcDbEntity
  8
0
100
AcDbLine
 10
3.947462999999999
 20
7.659772999999999
 30
0.0
 11
4.042569
 21
7.754879999999999
 31
0.0
  0
LINE
  5
27A
330
212
100
AcDbEntity
  8
0
100
AcDbLine
 10
3.946505999999999
 20
7.649977999999999
 30
0.0
 11
4.042537
 21
7.746008999999999
 31
0.0
  0
LINE
  5
27B
330
212
100
AcDbEntity
  8
0
100
AcDbLine
 10
3.945548999999999
 20
7.640182000000001
 30
0.0
 11
4.042505999999999
 21
7.737138999999999
 31
0.0
  0
LINE
  5
27C
330
212
100
AcDbEntity
  8
0
100
AcDbLine
 10
3.944593
 20
7.630386999999999
 30
0.0
 11
4.042473999999999
 21
7.728267999999999
 31
0.0
  0
LINE
  5
27D
330
212
100
AcDbEntity
  8
0
100
AcDbLine
 10
3.943636
 20
7.620591
 30
0.0
 11
4.042441999999999
 21
7.719397999999999
 31
0.0
  0
LINE
  5
27E
330
212
100
AcDbEntity
  8
0
100
AcDbLine
 10
3.942679
 20
7.610796
 30
0.0
 11
4.042411
 21
7.710527
 31
0.0
  0
LINE
  5
27F
330
212
100
AcDbEntity
  8
0
100
AcDbLine
 10
3.941723
 20
7.600999999999999
 30
0.0
 11
4.042379
 21
7.701657
 31
0.0
  0
LINE
  5
280
330
212
100
AcDbEntity
  8
0
100
AcDbLine
 10
3.940766
 20
7.591205
 30
0.0
 11
4.042347
 21
7.692785999999999
 31
0.0
  0
LINE
  5
281
330
212
100
AcDbEntity
  8
0
100
AcDbLine
 10
3.939809999999999
 20
7.581408999999999
 30
0.0
 11
4.042316
 21
7.683915999999999
 31
0.0
  0
LINE
  5
282
330
212
100
AcDbEntity
  8
0
100
AcDbLine
 10
3.938852999999999
 20
7.571614
 30
0.0
 11
4.042283999999999
 21
7.675044999999999
 31
0.0
  0
LINE
  5
283
330
212
100
AcDbEntity
  8
0
100
AcDbLine
 10
3.937895999999999
 20
7.561818999999999
 30
0.0
 11
4.042251999999999
 21
7.666174999999999
 31
0.0
  0
LINE
  5
284
330
212
100
AcDbEntity
  8
0
100
AcDbLine
 10
3.93694
 20
7.552022999999999
 30
0.0
 11
4.042220999999999
 21
7.657303999999999
 31
0.0
  0
LINE
  5
285
330
212
100
AcDbEntity
  8
0
100
AcDbLine
 10
3.935983
 20
7.542227999999999
 30
0.0
 11
4.042188999999999
 21
7.648432999999999
 31
0.0
  0
LINE
  5
286
330
212
100
AcDbEntity
  8
0
100
AcDbLine
 10
3.935026
 20
7.532432
 30
0.0
 11
4.042156999999999
 21
7.639563
 31
0.0
  0
LINE
  5
287
330
212
100
AcDbEntity
  8
0
100
AcDbLine
 10
3.934069999999999
 20
7.522636999999999
 30
0.0
 11
4.042126
 21
7.630691999999999
 31
0.0
  0
LINE
  5
288
330
212
100
AcDbEntity
  8
0
100
AcDbLine
 10
3.933112999999999
 20
7.512841
 30
0.0
 11
4.042094
 21
7.621821999999999
 31
0.0
  0
LINE
  5
289
330
212
100
AcDbEntity
  8
0
100
AcDbLine
 10
3.932155999999999
 20
7.503046
 30
0.0
 11
4.042062
 21
7.612950999999999
 31
0.0
  0
LINE
  5
28A
330
212
100
AcDbEntity
  8
0
100
AcDbLine
 10
3.9312
 20
7.493249999999999
 30
0.0
 11
4.04203
 21
7.604080999999999
 31
0.0
  0
LINE
  5
28B
330
212
100
AcDbEntity
  8
0
100
AcDbLine
 10
3.930242999999999
 20
7.483455
 30
0.0
 11
4.041998999999999
 21
7.59521
 31
0.0
  0
LINE
  5
28C
330
212
100
AcDbEntity
  8
0
100
AcDbLine
 10
3.929286
 20
7.473658999999999
 30
0.0
 11
4.041966999999999
 21
7.586339999999999
 31
0.0
  0
LINE
  5
28D
330
212
100
AcDbEntity
  8
0
100
AcDbLine
 10
3.92833
 20
7.463864
 30
0.0
 11
4.041934999999999
 21
7.577469
 31
0.0
  0
LINE
  5
28E
330
212
100
AcDbEntity
  8
0
100
AcDbLine
 10
3.927373
 20
7.454067999999999
 30
0.0
 11
4.041903999999999
 21
7.568599
 31
0.0
  0
LINE
  5
28F
330
212
100
AcDbEntity
  8
0
100
AcDbLine
 10
3.926416999999999
 20
7.444272999999999
 30
0.0
 11
4.041871999999999
 21
7.559727999999999
 31
0.0
  0
LINE
  5
290
330
212
100
AcDbEntity
  8
0
100
AcDbLine
 10
3.925459999999999
 20
7.434477
 30
0.0
 11
4.04184
 21
7.550857999999999
 31
0.0
  0
LINE
  5
291
330
212
100
AcDbEntity
  8
0
100
AcDbLine
 10
3.924502999999999
 20
7.424682
 30
0.0
 11
4.041808999999999
 21
7.541986999999999
 31
0.0
  0
LINE
  5
292
330
212
100
AcDbEntity
  8
0
100
AcDbLine
 10
3.923547
 20
7.414886
 30
0.0
 11
4.041776999999999
 21
7.533116999999999
 31
0.0
  0
LINE
  5
293
330
212
100
AcDbEntity
  8
0
100
AcDbLine
 10
3.922589999999999
 20
7.405091
 30
0.0
 11
4.041744999999999
 21
7.524246
 31
0.0
  0
LINE
  5
294
330
212
100
AcDbEntity
  8
0
100
AcDbLine
 10
3.921633
 20
7.395294999999999
 30
0.0
 11
4.041713999999999
 21
7.515375999999999
 31
0.0
  0
LINE
  5
295
330
212
100
AcDbEntity
  8
0
100
AcDbLine
 10
3.920676999999999
 20
7.3855
 30
0.0
 11
4.041681999999999
 21
7.506505
 31
0.0
  0
LINE
  5
296
330
212
100
AcDbEntity
  8
0
100
AcDbLine
 10
3.919719999999999
 20
7.375703999999998
 30
0.0
 11
4.041649999999999
 21
7.497635
 31
0.0
  0
LINE
  5
297
330
212
100
AcDbEntity
  8
0
100
AcDbLine
 10
3.918762999999999
 20
7.365908999999999
 30
0.0
 11
4.041618999999999
 21
7.488763999999999
 31
0.0
  0
LINE
  5
298
330
212
100
AcDbEntity
  8
0
100
AcDbLine
 10
3.917806999999999
 20
7.356113
 30
0.0
 11
4.041586999999999
 21
7.479893999999999
 31
0.0
  0
LINE
  5
299
330
212
100
AcDbEntity
  8
0
100
AcDbLine
 10
3.91685
 20
7.346317999999999
 30
0.0
 11
4.041555
 21
7.471022999999999
 31
0.0
  0
LINE
  5
29A
330
212
100
AcDbEntity
  8
0
100
AcDbLine
 10
3.915893
 20
7.336522999999999
 30
0.0
 11
4.041523
 21
7.462152999999999
 31
0.0
  0
LINE
  5
29B
330
212
100
AcDbEntity
  8
0
100
AcDbLine
 10
3.914937
 20
7.326726999999999
 30
0.0
 11
4.041491999999999
 21
7.453282
 31
0.0
  0
LINE
  5
29C
330
212
100
AcDbEntity
  8
0
100
AcDbLine
 10
3.91398
 20
7.316932
 30
0.0
 11
4.041459999999999
 21
7.444410999999999
 31
0.0
  0
LINE
  5
29D
330
212
100
AcDbEntity
  8
0
100
AcDbLine
 10
3.913023999999999
 20
7.307135999999999
 30
0.0
 11
4.041427999999999
 21
7.435541
 31
0.0
  0
LINE
  5
29E
330
212
100
AcDbEntity
  8
0
100
AcDbLine
 10
3.912067
 20
7.297341
 30
0.0
 11
4.041396999999999
 21
7.426669999999999
 31
0.0
  0
LINE
  5
29F
330
212
100
AcDbEntity
  8
0
100
AcDbLine
 10
3.911109999999999
 20
7.287544999999999
 30
0.0
 11
4.041364999999999
 21
7.417799999999999
 31
0.0
  0
LINE
  5
2A0
330
212
100
AcDbEntity
  8
0
100
AcDbLine
 10
3.910153999999999
 20
7.27775
 30
0.0
 11
4.041332999999999
 21
7.408928999999999
 31
0.0
  0
LINE
  5
2A1
330
212
100
AcDbEntity
  8
0
100
AcDbLine
 10
3.909197
 20
7.267953999999999
 30
0.0
 11
4.041301999999999
 21
7.400058999999999
 31
0.0
  0
LINE
  5
2A2
330
212
100
AcDbEntity
  8
0
100
AcDbLine
 10
3.90824
 20
7.258159
 30
0.0
 11
4.041269999999999
 21
7.391188
 31
0.0
  0
LINE
  5
2A3
330
212
100
AcDbEntity
  8
0
100
AcDbLine
 10
3.907283999999999
 20
7.248363
 30
0.0
 11
4.041237999999999
 21
7.382317999999999
 31
0.0
  0
LINE
  5
2A4
330
212
100
AcDbEntity
  8
0
100
AcDbLine
 10
3.906326999999999
 20
7.238567999999999
 30
0.0
 11
4.041206999999999
 21
7.373447
 31
0.0
  0
LINE
  5
2A5
330
212
100
AcDbEntity
  8
0
100
AcDbLine
 10
3.905369999999999
 20
7.228772
 30
0.0
 11
4.041174999999999
 21
7.364577
 31
0.0
  0
LINE
  5
2A6
330
212
100
AcDbEntity
  8
0
100
AcDbLine
 10
3.904414
 20
7.218977
 30
0.0
 11
4.041142999999999
 21
7.355705999999999
 31
0.0
  0
LINE
  5
2A7
330
212
100
AcDbEntity
  8
0
100
AcDbLine
 10
3.903456999999999
 20
7.209181
 30
0.0
 11
4.041112
 21
7.346835999999999
 31
0.0
  0
LINE
  5
2A8
330
212
100
AcDbEntity
  8
0
100
AcDbLine
 10
3.902499999999999
 20
7.199385999999999
 30
0.0
 11
4.04108
 21
7.337964999999999
 31
0.0
  0
LINE
  5
2A9
330
212
100
AcDbEntity
  8
0
100
AcDbLine
 10
3.901544
 20
7.189589999999999
 30
0.0
 11
4.041047999999999
 21
7.329094999999999
 31
0.0
  0
LINE
  5
2AA
330
212
100
AcDbEntity
  8
0
100
AcDbLine
 10
3.900587
 20
7.179794999999999
 30
0.0
 11
4.041015999999999
 21
7.320224
 31
0.0
  0
LINE
  5
2AB
330
212
100
AcDbEntity
  8
0
100
AcDbLine
 10
3.899630999999999
 20
7.169999
 30
0.0
 11
4.040985
 21
7.311353999999999
 31
0.0
  0
LINE
  5
2AC
330
212
100
AcDbEntity
  8
0
100
AcDbLine
 10
3.898673999999999
 20
7.160203999999999
 30
0.0
 11
4.040953
 21
7.302483
 31
0.0
  0
LINE
  5
2AD
330
212
100
AcDbEntity
  8
0
100
AcDbLine
 10
3.897716999999999
 20
7.150408
 30
0.0
 11
4.040920999999999
 21
7.293613
 31
0.0
  0
LINE
  5
2AE
330
212
100
AcDbEntity
  8
0
100
AcDbLine
 10
3.896761
 20
7.140613
 30
0.0
 11
4.04089
 21
7.284741999999999
 31
0.0
  0
LINE
  5
2AF
330
212
100
AcDbEntity
  8
0
100
AcDbLine
 10
3.895804
 20
7.130816999999999
 30
0.0
 11
4.040858
 21
7.275871999999999
 31
0.0
  0
LINE
  5
2B0
330
212
100
AcDbEntity
  8
0
100
AcDbLine
 10
3.894847
 20
7.121021999999999
 30
0.0
 11
4.040826
 21
7.267000999999999
 31
0.0
  0
LINE
  5
2B1
330
212
100
AcDbEntity
  8
0
100
AcDbLine
 10
3.893891
 20
7.111227
 30
0.0
 11
4.040795
 21
7.258130999999999
 31
0.0
  0
LINE
  5
2B2
330
212
100
AcDbEntity
  8
0
100
AcDbLine
 10
3.892933999999999
 20
7.101430999999999
 30
0.0
 11
4.040763
 21
7.24926
 31
0.0
  0
LINE
  5
2B3
330
212
100
AcDbEntity
  8
0
100
AcDbLine
 10
3.891976999999999
 20
7.091636
 30
0.0
 11
4.040731
 21
7.240389999999999
 31
0.0
  0
LINE
  5
2B4
330
212
100
AcDbEntity
  8
0
100
AcDbLine
 10
3.891020999999999
 20
7.081839999999999
 30
0.0
 11
4.0407
 21
7.231519
 31
0.0
  0
LINE
  5
2B5
330
212
100
AcDbEntity
  8
0
100
AcDbLine
 10
3.890063999999999
 20
7.072045
 30
0.0
 11
4.040668
 21
7.222647999999999
 31
0.0
  0
LINE
  5
2B6
330
212
100
AcDbEntity
  8
0
100
AcDbLine
 10
3.889107
 20
7.062249
 30
0.0
 11
4.040636
 21
7.213777999999999
 31
0.0
  0
LINE
  5
2B7
330
212
100
AcDbEntity
  8
0
100
AcDbLine
 10
3.888151
 20
7.052453999999999
 30
0.0
 11
4.040605
 21
7.204907
 31
0.0
  0
LINE
  5
2B8
330
212
100
AcDbEntity
  8
0
100
AcDbLine
 10
3.887194
 20
7.042658
 30
0.0
 11
4.040573
 21
7.196036999999999
 31
0.0
  0
LINE
  5
2B9
330
212
100
AcDbEntity
  8
0
100
AcDbLine
 10
3.886237999999999
 20
7.032863
 30
0.0
 11
4.040541
 21
7.187166
 31
0.0
  0
LINE
  5
2BA
330
212
100
AcDbEntity
  8
0
100
AcDbLine
 10
3.885280999999999
 20
7.023067
 30
0.0
 11
4.04051
 21
7.178296
 31
0.0
  0
LINE
  5
2BB
330
212
100
AcDbEntity
  8
0
100
AcDbLine
 10
3.884323999999999
 20
7.013271999999999
 30
0.0
 11
4.040478
 21
7.169425
 31
0.0
  0
LINE
  5
2BC
330
212
100
AcDbEntity
  8
0
100
AcDbLine
 10
3.883367999999999
 20
7.003475999999999
 30
0.0
 11
4.040446
 21
7.160555
 31
0.0
  0
LINE
  5
2BD
330
212
100
AcDbEntity
  8
0
100
AcDbLine
 10
3.882411
 20
6.993680999999999
 30
0.0
 11
4.040414
 21
7.151683999999999
 31
0.0
  0
LINE
  5
2BE
330
212
100
AcDbEntity
  8
0
100
AcDbLine
 10
3.881454
 20
6.983885
 30
0.0
 11
4.040383
 21
7.142813999999999
 31
0.0
  0
LINE
  5
2BF
330
212
100
AcDbEntity
  8
0
100
AcDbLine
 10
3.880498
 20
6.974089999999999
 30
0.0
 11
4.040351
 21
7.133942999999999
 31
0.0
  0
LINE
  5
2C0
330
212
100
AcDbEntity
  8
0
100
AcDbLine
 10
3.879541
 20
6.964294
 30
0.0
 11
4.040319
 21
7.125072999999999
 31
0.0
  0
LINE
  5
2C1
330
212
100
AcDbEntity
  8
0
100
AcDbLine
 10
3.878583999999999
 20
6.954499
 30
0.0
 11
4.040287999999999
 21
7.116202
 31
0.0
  0
LINE
  5
2C2
330
212
100
AcDbEntity
  8
0
100
AcDbLine
 10
3.877627999999999
 20
6.944702999999999
 30
0.0
 11
4.040255999999999
 21
7.107332
 31
0.0
  0
LINE
  5
2C3
330
212
100
AcDbEntity
  8
0
100
AcDbLine
 10
3.876670999999999
 20
6.934908
 30
0.0
 11
4.040223999999999
 21
7.098461
 31
0.0
  0
LINE
  5
2C4
330
212
100
AcDbEntity
  8
0
100
AcDbLine
 10
3.875713999999999
 20
6.925111999999999
 30
0.0
 11
4.040193
 21
7.089591
 31
0.0
  0
LINE
  5
2C5
330
212
100
AcDbEntity
  8
0
100
AcDbLine
 10
3.874758
 20
6.915316999999999
 30
0.0
 11
4.040161
 21
7.080719999999999
 31
0.0
  0
LINE
  5
2C6
330
212
100
AcDbEntity
  8
0
100
AcDbLine
 10
3.873801
 20
6.905521
 30
0.0
 11
4.040129
 21
7.07185
 31
0.0
  0
LINE
  5
2C7
330
212
100
AcDbEntity
  8
0
100
AcDbLine
 10
3.872844
 20
6.895725999999999
 30
0.0
 11
4.040098
 21
7.062978999999999
 31
0.0
  0
LINE
  5
2C8
330
212
100
AcDbEntity
  8
0
100
AcDbLine
 10
3.871887999999999
 20
6.885930999999999
 30
0.0
 11
4.040066
 21
7.054108999999999
 31
0.0
  0
LINE
  5
2C9
330
212
100
AcDbEntity
  8
0
100
AcDbLine
 10
3.870930999999999
 20
6.876135
 30
0.0
 11
4.040033999999999
 21
7.045238
 31
0.0
  0
LINE
  5
2CA
330
212
100
AcDbEntity
  8
0
100
AcDbLine
 10
3.869975
 20
6.866339999999999
 30
0.0
 11
4.040002999999999
 21
7.036367999999999
 31
0.0
  0
LINE
  5
2CB
330
212
100
AcDbEntity
  8
0
100
AcDbLine
 10
3.869018
 20
6.856544
 30
0.0
 11
4.039970999999999
 21
7.027497
 31
0.0
  0
LINE
  5
2CC
330
212
100
AcDbEntity
  8
0
100
AcDbLine
 10
3.868060999999999
 20
6.846749
 30
0.0
 11
4.039938999999999
 21
7.018625999999999
 31
0.0
  0
LINE
  5
2CD
330
212
100
AcDbEntity
  8
0
100
AcDbLine
 10
3.867105
 20
6.836953
 30
0.0
 11
4.039907
 21
7.009755999999999
 31
0.0
  0
LINE
  5
2CE
330
212
100
AcDbEntity
  8
0
100
AcDbLine
 10
3.866148
 20
6.827157999999999
 30
0.0
 11
4.027426999999999
 21
6.988436999999999
 31
0.0
  0
LINE
  5
2CF
330
212
100
AcDbEntity
  8
0
100
AcDbLine
 10
3.865191
 20
6.817361999999999
 30
0.0
 11
3.997798999999999
 21
6.949969999999999
 31
0.0
  0
LINE
  5
2D0
330
212
100
AcDbEntity
  8
0
100
AcDbLine
 10
3.864234999999999
 20
6.807566999999999
 30
0.0
 11
3.968170999999999
 21
6.911502999999999
 31
0.0
  0
LINE
  5
2D1
330
212
100
AcDbEntity
  8
0
100
AcDbLine
 10
3.863277999999999
 20
6.797771
 30
0.0
 11
3.938543
 21
6.873035999999999
 31
0.0
  0
LINE
  5
2D2
330
212
100
AcDbEntity
  8
0
100
AcDbLine
 10
3.862321
 20
6.787975999999999
 30
0.0
 11
3.908913999999999
 21
6.834569
 31
0.0
  0
LINE
  5
2D3
330
212
100
AcDbEntity
  8
0
100
AcDbLine
 10
3.861365
 20
6.778179999999999
 30
0.0
 11
3.879286
 21
6.796102
 31
0.0
  0
ENDBLK
  5
2D5
330
212
100
AcDbEntity
  8
1
100
AcDbBlockEnd
  0
BLOCK
  5
2E1
330
2D9
100
AcDbEntity
  8
0
100
AcDbBlockBegin
  2
ARROW2
 70
     0
 10
0.0
 20
0.0
 30
0.0
  3
ARROW2
  1

  0
LWPOLYLINE
  5
2DA
330
2D9
100
AcDbEntity
  8
SCALE
100
AcDbPolyline
 90
        4
 70
     0
 43
0.0
 10
4.747743999999999
 20
20.684593
 10
6.75
 20
20.684593
 10
6.75
 20
20.74709299999999
 10
4.747743999999999
 20
20.74709299999999
  0
TEXT
  5
2DB
330
2D9
100
AcDbEntity
  8
SCALE
100
AcDbText
 10
5.289824476190475
 20
20.443504
 30
0.0
 40
0.125
  1
2 meters
  7
COMPLEX
 72
     1
 11
5.751133999999999
 21
20.443504
 31
0.0
100
AcDbText
  0
INSERT
  5
2DC
330
2D9
100
AcDbEntity
  8
SCALE
100
AcDbBlockReference
  2
NORTH
 10
5.756901
 20
21.196338
 30
0.0
 41
0.33275
 42
0.33275
 43
0.33275
  0
SOLID
  5
2DD
330
2D9
100
AcDbEntity
  8
SCALE
100
AcDbTrace
 10
4.747743999999999
 20
20.74709299999999
 30
0.0
 11
4.997743999999999
 21
20.74709299999999
 31
0.0
 12
4.747743999999999
 22
20.684593
 32
0.0
 13
4.997743999999999
 23
20.684593
 33
0.0
  0
SOLID
  5
2DE
330
2D9
100
AcDbEntity
  8
SCALE
100
AcDbTrace
 10
5.247743999999999
 20
20.74709299999999
 30
0.0
 11
5.497743999999999
 21
20.74709299999999
 31
0.0
 12
5.247743999999999
 22
20.684593
 32
0.0
 13
5.497743999999999
 23
20.684593
 33
0.0
  0
SOLID
  5
2DF
330
2D9
100
AcDbEntity
  8
SCALE
100
AcDbTrace
 10
5.747743999999999
 20
20.74709299999999
 30
0.0
 11
5.997743999999999
 21
20.74709299999999
 31
0.0
 12
5.747743999999999
 22
20.684593
 32
0.0
 13
5.997743999999999
 23
20.684593
 33
0.0
  0
SOLID
  5
2E0
330
2D9
100
AcDbEntity
  8
SCALE
100
AcDbTrace
 10
6.247743999999999
 20
20.74709299999999
 30
0.0
 11
6.497743999999999
 21
20.74709299999999
 31
0.0
 12
6.247743999999999
 22
20.684593
 32
0.0
 13
6.497743999999999
 23
20.684593
 33
0.0
  0
ENDBLK
  5
2E2
330
2D9
100
AcDbEntity
  8
0
100
AcDbBlockEnd
  0
ENDSEC
  0
SECTION
  2
ENTITIES
  0
LWPOLYLINE
  5
24
330
17
100
AcDbEntity
  8
TOPO
100
AcDbPolyline
 90
       39
 70
     0
 43
0.0
 10
0.0
 20
32.354024
 10
0.461591
 20
32.874483
 10
1.247371
 20
33.988137
 10
1.914718999999999
 20
35.14364699999999
 10
2.641132999999999
 20
36.22778499999999
 10
3.527580999999999
 20
37.305565
 10
4.474028999999999
 20
38.626511
 10
5.474319999999999
 20
40.113487
 10
6.486167
 20
41.49954199999999
 10
7.777518999999999
 20
43.18753
 10
9.003225999999999
 20
44.72732399999999
 10
10.20944299999999
 20
45.691502
 10
11.27275899999999
 20
46.44240599999999
 10
12.90495299999999
 20
47.12652799999999
 10
14.70173599999999
 20
47.341374
 10
16.942967
 20
47.507569
 10
19.384741
 20
47.334956
 10
21.791317
 20
47.287065
 10
23.628311
 20
47.06857
 10
25.940113
 20
47.044668
 10
28.399565
 20
46.836401
 10
30.50322299999999
 20
46.58752899999999
 10
33.47231
 20
46.32450399999999
 10
35.7769
 20
45.867387
 10
37.40343
 20
44.640545
 10
38.42423099999999
 20
43.047348
 10
38.646076
 20
41.895427
 10
37.89799
 20
39.499775
 10
36.829802
 20
37.10496599999999
 10
36.165199
 20
34.87526499999999
 10
35.41882
 20
33.055275
 10
34.36414099999999
 20
31.218294
 10
33.558079
 20
29.261964
 10
32.811929
 20
27.519124
 10
32.105866
 20
25.30140199999999
 10
31.33554699999999
 20
23.404324
 10
30.58341599999999
 20
21.64369699999999
 10
29.950334
 20
20.04892799999999
 10
29.927395
 20
20.0
  0
LWPOLYLINE
  5
58
330
17
100
AcDbEntity
  8
TOPO
100
AcDbPolyline
 90
       30
 70
     0
 43
0.0
 10
0.0
 20
30.961908
 10
1.433245
 20
32.69981299999999
 10
2.730559999999999
 20
34.399656
 10
4.283916
 20
36.48457899999999
 10
6.111394
 20
39.055427
 10
7.231631
 20
41.010929
 10
8.440099999999999
 20
42.734744
 10
9.920315999999999
 20
44.143303
 10
11.387586
 20
45.18394299999999
 10
13.34595199999999
 20
45.914683
 10
15.386515
 20
46.378143
 10
17.716135
 20
46.366064
 10
20.60302399999999
 20
46.37031799999999
 10
23.050884
 20
46.251102
 10
25.090023
 20
46.233854
 10
27.448526
 20
45.966506
 10
29.487788
 20
45.99079999999999
 10
31.497252
 20
45.961761
 10
33.74796299999999
 20
45.326745
 10
35.913908
 20
44.092545
 10
36.95972199999999
 20
42.938451
 10
36.729434
 20
41.241729
 10
35.689196
 20
38.277114
 10
34.516277
 20
34.54727
 10
33.67246699999999
 20
31.855134
 10
33.00133799999999
 20
29.423669
 10
32.039974
 20
27.07012199999999
 10
30.72870999999999
 20
24.664085
 10
29.275125
 20
22.24061999999999
 10
28.09036799999999
 20
20.0
  0
LWPOLYLINE
  5
7E
330
17
100
AcDbEntity
  8
TOPO
100
AcDbPolyline
 90
       31
 70
     0
 43
0.0
 10
0.0
 20
27.32155
 10
1.368461
 20
28.84241799999999
 10
2.743224999999999
 20
30.672619
 10
4.464301999999999
 20
33.344638
 10
6.350459999999999
 20
35.71355
 10
7.642305
 20
37.567709
 10
8.281824999999999
 20
39.334568
 10
9.393917999999999
 20
40.54231699999999
 10
10.327701
 20
41.5903
 10
11.96900599999999
 20
43.348582
 10
12.93093299999999
 20
43.89203799999999
 10
14.900626
 20
44.444707
 10
18.481037
 20
44.435263
 10
22.369729
 20
44.436875
 10
24.21363599999999
 20
44.55070599999999
 10
26.774371
 20
44.514278
 10
29.00865399999999
 20
44.336278
 10
31.396532
 20
43.979831
 10
33.783794
 20
43.415671
 10
35.068076
 20
42.717921
 10
35.320439
 20
41.862656
 10
35.072262
 20
40.13037299999999
 10
34.52021699999999
 20
37.876636
 10
33.693434
 20
34.929262
 10
32.61266899999999
 20
32.29116299999999
 10
31.52013699999999
 20
29.682769
 10
30.374377
 20
27.116058
 10
29.099682
 20
25.048204
 10
27.724759
 20
23.16459
 10
26.390962
 20
21.156239
 10
25.518556
 20
20.0
  0
LWPOLYLINE
  5
A5
330
17
100
AcDbEntity
  8
PRUEBAS
100
AcDbPolyline
 90
        4
 70
     1
 43
0.0
 10
7.0
 20
27.75
 10
7.5
 20
27.75
 10
7.5
 20
28.25
 10
7.0
 20
28.25
  0
LWPOLYLINE
  5
AB
330
17
100
AcDbEntity
  8
PRUEBAS
100
AcDbPolyline
 90
        4
 70
     1
 43
0.0
 10
2.0
 20
27.75
 10
2.5
 20
27.75
 10
2.5
 20
28.25
 10
2.0
 20
28.25
  0
LWPOLYLINE
  5
B1
330
17
100
AcDbEntity
  8
PRUEBAS
100
AcDbPolyline
 90
        4
 70
     1
 43
0.0
 10
12.0
 20
27.75
 10
12.5
 20
27.75
 10
12.5
 20
28.25
 10
12.0
 20
28.25
  0
LWPOLYLINE
  5
B7
330
17
100
AcDbEntity
  8
PRUEBAS
100
AcDbPolyline
 90
        4
 70
     1
 43
0.0
 10
17.0
 20
27.75
 10
17.5
 20
27.75
 10
17.5
 20
28.25
 10
17.0
 20
28.25
  0
LWPOLYLINE
  5
BD
330
17
100
AcDbEntity
  8
PRUEBAS
100
AcDbPolyline
 90
        4
 70
     1
 43
0.0
 10
22.0
 20
27.75
 10
22.5
 20
27.75
 10
22.5
 20
28.25
 10
22.0
 20
28.25
  0
LWPOLYLINE
  5
C3
330
17
100
AcDbEntity
  8
PRUEBAS
100
AcDbPolyline
 90
        4
 70
     1
 43
0.0
 10
27.0
 20
27.75
 10
27.5
 20
27.75
 10
27.5
 20
28.25
 10
27.0
 20
28.25
  0
LWPOLYLINE
  5
C9
330
17
100
AcDbEntity
  8
PRUEBAS
100
AcDbPolyline
 90
        4
 70
     1
 43
0.0
 10
17.0
 20
22.74999999999999
 10
17.5
 20
22.74999999999999
 10
17.5
 20
23.25
 10
17.0
 20
23.25
  0
LWPOLYLINE
  5
CF
330
17
100
AcDbEntity
  8
PRUEBAS
100
AcDbPolyline
 90
        4
 70
     1
 43
0.0
 10
7.0
 20
32.75
 10
7.5
 20
32.75
 10
7.5
 20
33.25
 10
7.0
 20
33.25
  0
LWPOLYLINE
  5
D5
330
17
100
AcDbEntity
  8
PRUEBAS
100
AcDbPolyline
 90
        4
 70
     1
 43
0.0
 10
12.0
 20
32.75
 10
12.5
 20
32.75
 10
12.5
 20
33.25
 10
12.0
 20
33.25
  0
LWPOLYLINE
  5
DB
330
17
100
AcDbEntity
  8
PRUEBAS
100
AcDbPolyline
 90
        4
 70
     1
 43
0.0
 10
17.0
 20
32.75
 10
17.5
 20
32.75
 10
17.5
 20
33.25
 10
17.0
 20
33.25
  0
LWPOLYLINE
  5
E1
330
17
100
AcDbEntity
  8
PRUEBAS
100
AcDbPolyline
 90
        4
 70
     1
 43
0.0
 10
22.0
 20
32.75
 10
22.5
 20
32.75
 10
22.5
 20
33.25
 10
22.0
 20
33.25
  0
LWPOLYLINE
  5
E7
330
17
100
AcDbEntity
  8
PRUEBAS
100
AcDbPolyline
 90
        4
 70
     1
 43
0.0
 10
27.0
 20
32.75
 10
27.5
 20
32.75
 10
27.5
 20
33.25
 10
27.0
 20
33.25
  0
LWPOLYLINE
  5
ED
330
17
100
AcDbEntity
  8
PRUEBAS
100
AcDbPolyline
 90
        4
 70
     1
 43
0.0
 10
12.0
 20
37.75
 10
12.5
 20
37.75
 10
12.5
 20
38.25
 10
12.0
 20
38.25
  0
LWPOLYLINE
  5
F3
330
17
100
AcDbEntity
  8
PRUEBAS
100
AcDbPolyline
 90
        4
 70
     1
 43
0.0
 10
17.0
 20
37.75
 10
17.5
 20
37.75
 10
17.5
 20
38.25
 10
17.0
 20
38.25
  0
LWPOLYLINE
  5
F9
330
17
100
AcDbEntity
  8
PRUEBAS
100
AcDbPolyline
 90
        4
 70
     1
 43
0.0
 10
22.0
 20
37.75
 10
22.5
 20
37.75
 10
22.5
 20
38.25
 10
22.0
 20
38.25
  0
LWPOLYLINE
  5
FF
330
17
100
AcDbEntity
  8
PRUEBAS
100
AcDbPolyline
 90
        4
 70
     1
 43
0.0
 10
27.0
 20
37.75
 10
27.5
 20
37.75
 10
27.5
 20
38.25
 10
27.0
 20
38.25
  0
LWPOLYLINE
  5
105
330
17
100
AcDbEntity
  8
PRUEBAS
100
AcDbPolyline
 90
        4
 70
     1
 43
0.0
 10
17.0
 20
42.75
 10
17.5
 20
42.75
 10
17.5
 20
43.25
 10
17.0
 20
43.25
  0
LWPOLYLINE
  5
10B
330
17
100
AcDbEntity
  8
PRUEBAS
100
AcDbPolyline
 90
        4
 70
     1
 43
0.0
 10
22.0
 20
42.75
 10
22.5
 20
42.75
 10
22.5
 20
43.25
 10
22.0
 20
43.25
  0
LWPOLYLINE
  5
111
330
17
100
AcDbEntity
  8
PRUEBAS
100
AcDbPolyline
 90
        4
 70
     1
 43
0.0
 10
32.0
 20
37.75
 10
32.5
 20
37.75
 10
32.5
 20
38.25
 10
32.0
 20
38.25
  0
LWPOLYLINE
  5
11E
330
17
100
AcDbEntity
  8
BORDER
100
AcDbPolyline
 90
        4
 70
     1
 43
0.0
 10
0.0
 20
20.0
 10
0.0
 20
50.0
 10
40.0
 20
50.0
 10
40.0
 20
20.0
  0
TEXT
  5
11F
330
17
100
AcDbEntity
  8
TEXT
100
AcDbText
 10
1.35
 20
28.5
 30
0.0
 40
0.4
  1
QT260
 72
     1
 11
2.25
 21
28.5
 31
0.0
100
AcDbText
  0
TEXT
  5
120
330
17
100
AcDbEntity
  8
TEXT
100
AcDbText
 10
6.316666666666666
 20
28.5
 30
0.0
 40
0.4
  1
QT255
 72
     1
 11
7.25
 21
28.5
 31
0.0
100
AcDbText
  0
TEXT
  5
121
330
17
100
AcDbEntity
  8
TEXT
100
AcDbText
 10
11.31666666666666
 20
28.5
 30
0.0
 40
0.4
  1
QT244
 72
     1
 11
12.25
 21
28.5
 31
0.0
100
AcDbText
  0
TEXT
  5
122
330
17
100
AcDbEntity
  8
TEXT
100
AcDbText
 10
16.31666666666666
 20
28.5
 30
0.0
 40
0.4
  1
QT263
 72
     1
 11
17.25
 21
28.5
 31
0.0
100
AcDbText
  0
TEXT
  5
123
330
17
100
AcDbEntity
  8
TEXT
100
AcDbText
 10
21.31666666666666
 20
28.5
 30
0.0
 40
0.4
  1
QT259
 72
     1
 11
22.25
 21
28.5
 31
0.0
100
AcDbText
  0
TEXT
  5
124
330
17
100
AcDbEntity
  8
TEXT
100
AcDbText
 10
26.31666666666666
 20
28.5
 30
0.0
 40
0.4
  1
QT239
 72
     1
 11
27.25
 21
28.5
 31
0.0
100
AcDbText
  0
TEXT
  5
128
330
17
100
AcDbEntity
  8
TEXT
100
AcDbText
 10
16.31666666666666
 20
23.5
 30
0.0
 40
0.4
  1
QT264
 72
     1
 11
17.25
 21
23.5
 31
0.0
100
AcDbText
  0
TEXT
  5
12C
330
17
100
AcDbEntity
  8
TEXT
100
AcDbText
 10
6.316666666666666
 20
33.5
 30
0.0
 40
0.4
  1
QT245
 72
     1
 11
7.25
 21
33.5
 31
0.0
100
AcDbText
  0
TEXT
  5
12D
330
17
100
AcDbEntity
  8
TEXT
100
AcDbText
 10
11.31666666666666
 20
33.5
 30
0.0
 40
0.4
  1
QT243
 72
     1
 11
12.25
 21
33.5
 31
0.0
100
AcDbText
  0
TEXT
  5
12E
330
17
100
AcDbEntity
  8
TEXT
100
AcDbText
 10
16.31666666666666
 20
33.5
 30
0.0
 40
0.4
  1
QT254
 72
     1
 11
17.25
 21
33.5
 31
0.0
100
AcDbText
  0
TEXT
  5
12F
330
17
100
AcDbEntity
  8
TEXT
100
AcDbText
 10
21.31666666666666
 20
33.5
 30
0.0
 40
0.4
  1
QT262
 72
     1
 11
22.25
 21
33.5
 31
0.0
100
AcDbText
  0
TEXT
  5
130
330
17
100
AcDbEntity
  8
TEXT
100
AcDbText
 10
26.31666666666666
 20
33.5
 30
0.0
 40
0.4
  1
QT247
 72
     1
 11
27.25
 21
33.5
 31
0.0
100
AcDbText
  0
TEXT
  5
133
330
17
100
AcDbEntity
  8
TEXT
100
AcDbText
 10
11.31666666666666
 20
38.5
 30
0.0
 40
0.4
  1
QT242
 72
     1
 11
12.25
 21
38.5
 31
0.0
100
AcDbText
  0
TEXT
  5
134
330
17
100
AcDbEntity
  8
TEXT
100
AcDbText
 10
16.31666666666666
 20
38.5
 30
0.0
 40
0.4
  1
QT253
 72
     1
 11
17.25
 21
38.5
 31
0.0
100
AcDbText
  0
TEXT
  5
135
330
17
100
AcDbEntity
  8
TEXT
100
AcDbText
 10
21.31666666666666
 20
38.5
 30
0.0
 40
0.4
  1
QT258
 72
     1
 11
22.25
 21
38.5
 31
0.0
100
AcDbText
  0
TEXT
  5
136
330
17
100
AcDbEntity
  8
TEXT
100
AcDbText
 10
26.31666666666666
 20
38.5
 30
0.0
 40
0.4
  1
QT235
 72
     1
 11
27.25
 21
38.5
 31
0.0
100
AcDbText
  0
TEXT
  5
13A
330
17
100
AcDbEntity
  8
TEXT
100
AcDbText
 10
16.31666666666666
 20
43.5
 30
0.0
 40
0.4
  1
QT252
 72
     1
 11
17.25
 21
43.5
 31
0.0
100
AcDbText
  0
TEXT
  5
13B
330
17
100
AcDbEntity
  8
TEXT
100
AcDbText
 10
21.31666666666666
 20
43.5
 30
0.0
 40
0.4
  1
QT257
 72
     1
 11
22.25
 21
43.5
 31
0.0
100
AcDbText
  0
TEXT
  5
13D
330
17
100
AcDbEntity
  8
TEXT
100
AcDbText
 10
31.35
 20
38.5
 30
0.0
 40
0.4
  1
QT230
 72
     1
 11
32.25
 21
38.5
 31
0.0
100
AcDbText
  0
LWPOLYLINE
  5
2E5
330
17
100
AcDbEntity
  8
SCALE
100
AcDbPolyline
 90
        4
 70
     0
 43
0.0
 10
0.7454880000000001
 20
21.61918599999999
 10
4.75
 20
21.61918599999999
 10
4.75
 20
21.744186
 10
0.7454880000000001
 20
21.744186
  0
TEXT
  5
2E6
330
17
100
AcDbEntity
  8
SCALE
100
AcDbText
 10
1.823696571428571
 20
21.13700899999999
 30
0.0
 40
0.25
  1
4 meters
  7
COMPLEX
 72
     1
 11
2.752267999999999
 21
21.13700899999999
 31
0.0
100
AcDbText
  0
INSERT
  5
2E7
330
17
100
AcDbEntity
  8
SCALE
100
AcDbBlockReference
  2
NORTH
 10
2.763802
 20
22.642676
 30
0.0
 41
0.6655
 42
0.6655
 43
0.6655
  0
SOLID
  5
2E8
330
17
100
AcDbEntity
  8
SCALE
100
AcDbTrace
 10
0.7454880000000001
 20
21.744186
 30
0.0
 11
1.245487999999999
 21
21.744186
 31
0.0
 12
0.7454880000000001
 22
21.61918599999999
 32
0.0
 13
1.245487999999999
 23
21.61918599999999
 33
0.0
  0
SOLID
  5
2E9
330
17
100
AcDbEntity
  8
SCALE
100
AcDbTrace
 10
1.745488
 20
21.744186
 30
0.0
 11
2.245487999999999
 21
21.744186
 31
0.0
 12
1.745488
 22
21.61918599999999
 32
0.0
 13
2.245487999999999
 23
21.61918599999999
 33
0.0
  0
SOLID
  5
2EA
330
17
100
AcDbEntity
  8
SCALE
100
AcDbTrace
 10
2.745487999999999
 20
21.744186
 30
0.0
 11
3.245487999999999
 21
21.744186
 31
0.0
 12
2.745487999999999
 22
21.61918599999999
 32
0.0
 13
3.245487999999999
 23
21.61918599999999
 33
0.0
  0
SOLID
  5
2EB
330
17
100
AcDbEntity
  8
SCALE
100
AcDbTrace
 10
3.745487999999999
 20
21.744186
 30
0.0
 11
4.245487999999999
 21
21.744186
 31
0.0
 12
3.745487999999999
 22
21.61918599999999
 32
0.0
 13
4.245487999999999
 23
21.61918599999999
 33
0.0
  0
LWPOLYLINE
  5
2EC
330
17
100
AcDbEntity
  8
BORDER
100
AcDbPolyline
 90
        3
 70
     0
 43
0.0
 10
5.5
 20
20.0
 10
5.5
 20
26.5
 10
0.0
 20
26.5
  0
TEXT
  5
2ED
330
17
100
AcDbEntity
  8
TEXT
100
AcDbText
 10
3.0
 20
47.75
 30
0.0
 40
0.6
  1
Quebrada Las Aguilas
100
AcDbText
  0
LWPOLYLINE
  5
2EE
330
17
100
AcDbEntity
  8
TEXT
100
AcDbPolyline
 90
        2
 70
     0
 43
0.0
 10
3.0
 20
46.25
 10
5.75
 20
46.25
  0
LWPOLYLINE
  5
2F2
330
17
100
AcDbEntity
  8
TEXT
100
AcDbPolyline
 90
        5
 70
     1
 43
0.0
 10
3.0
 20
46.25
 10
3.0
 20
46.5
 10
2.25
 20
46.25
 10
3.0
 20
46.0
 10
3.0
 20
46.25
  0
HATCH
  5
2F5
330
17
100
AcDbEntity
  8
TEXT
100
AcDbHatch
 10
0.0
 20
0.0
 30
0.0
210
0.0
220
0.0
230
1.0
  2
U
 70
     0
 71
     0
 91
        1
 92
        1
 93
        4
 72
     1
 10
3.0
 20
46.25
 11
3.0
 21
46.5
 72
     1
 10
3.0
 20
46.5
 11
2.25
 21
46.25
 72
     1
 10
2.25
 20
46.25
 11
3.0
 21
46.0
 72
     1
 10
3.0
 20
46.0
 11
3.0
 21
46.25
 97
        0
 75
     0
 76
     0
 52
0.0
 41
0.05
 77
     0
 78
     1
 53
0.0
 43
0.0
 44
0.0
 45
0.0
 46
0.05
 79
     0
 98
        1
 10
0.0
 20
0.0
  0
HATCH
  5
2FB
330
17
100
AcDbEntity
  8
TEXT
100
AcDbHatch
 10
0.0
 20
0.0
 30
0.0
210
0.0
220
0.0
230
1.0
  2
U
 70
     0
 71
     0
 91
        1
 92
        1
 93
        4
 72
     1
 10
3.0
 20
46.25
 11
3.0
 21
46.5
 72
     1
 10
3.0
 20
46.5
 11
2.25
 21
46.25
 72
     1
 10
2.25
 20
46.25
 11
3.0
 21
46.0
 72
     1
 10
3.0
 20
46.0
 11
3.0
 21
46.25
 97
        0
 75
     0
 76
     0
 52
0.0
 41
0.01
 77
     0
 78
     1
 53
0.0
 43
0.0
 44
0.0
 45
0.0
 46
0.01
 79
     0
 98
        1
 10
0.0
 20
0.0
  0
TEXT
  5
30D
330
17
100
AcDbEntity
  8
TEXT
100
AcDbText
 10
33.1
 20
20.75
 30
0.0
 40
1.0
  1
VP 618
100
AcDbText
  0
ENDSEC
  0
SECTION
  2
OBJECTS
  0
DICTIONARY
  5
C
330
0
100
AcDbDictionary
  3
ACAD_GROUP
350
D
  3
ACAD_MLINESTYLE
350
1A
  3
ACDBVARIABLEDICTIONARY
350
22
  3
ACAD_PLOTSTYLENAME
350
306
  3
ACAD_LAYOUT
350
308
  3
ACAD_PLOTSETTINGS
350
309
  3
ACDBHEADERROUNDTRIPXREC
350
30F
  0
DICTIONARY
  5
331
330
17
100
AcDbDictionary
280
     1
  3
ACAD_LAYOUTSELFREF
360
332
  0
DICTIONARY
  5
32F
330
14
100
AcDbDictionary
280
     1
  3
ACAD_LAYOUTSELFREF
360
330
  0
DICTIONARY
  5
D
102
{ACAD_REACTORS
330
C
102
}
330
C
100
AcDbDictionary
  0
DICTIONARY
  5
1A
102
{ACAD_REACTORS
330
C
102
}
330
C
100
AcDbDictionary
  3
STANDARD
350
1B
  0
DICTIONARY
  5
22
102
{ACAD_REACTORS
330
C
102
}
330
C
100
AcDbDictionary
  3
DIMADEC
350
23
  3
SORTENTS
350
2F1
  0
ACDBDICTIONARYWDFLT
  5
306
102
{ACAD_REACTORS
330
C
102
}
330
C
100
AcDbDictionary
281
     1
  3
Normal
350
307
100
AcDbDictionaryWithDefault
340
307
  0
DICTIONARY
  5
308
102
{ACAD_REACTORS
330
C
102
}
330
C
100
AcDbDictionary
  0
DICTIONARY
  5
309
102
{ACAD_REACTORS
330
C
102
}
330
C
100
AcDbDictionary
  0
DICTIONARY
  5
30F
102
{ACAD_REACTORS
330
C
102
}
330
C
100
AcDbDictionary
  3
TSTACKALIGN
350
310
  3
TSTACKSIZE
350
311
  3
HYPERLINKBASE
350
312
  3
STYLESHEET
350
313
  3
LAYOUTDICT
350
314
  3
PLOTSETDICT
350
315
  3
PLOTSTYLNAMDICT
350
316
  3
LWETCUNION
350
317
  3
INSUNITS
350
318
  3
CEPSNTYPE
350
319
  3
FINGERPRINTGUID
350
31A
  3
VERSIONGUID
350
31B
  3
PSVPSCALE
350
31C
  3
PUCSORTHOREF
350
31D
  3
PUCSORTHOVIEW
350
31E
  3
PUCSBASE
350
31F
  3
PUCSORGTOP
350
320
  3
PUCSORGBOTTOM
350
321
  3
PUCSORGLEFT
350
322
  3
PUCSORGRIGHT
350
323
  3
PUCSORGFRONT
350
324
  3
PUCSORGBACK
350
325
  3
UCSORTHOREF
350
326
  3
UCSORTHOVIEW
350
327
  3
UCSBASE
350
328
  3
UCSORGTOP
350
329
  3
UCSORGBOTTOM
350
32A
  3
UCSORGLEFT
350
32B
  3
UCSORGRIGHT
350
32C
  3
UCSORGFRONT
350
32D
  3
UCSORGBACK
350
32E
  0
XRECORD
  5
332
102
{ACAD_REACTORS
330
331
102
}
330
331
100
AcDbXrecord
340
17
  0
XRECORD
  5
330
102
{ACAD_REACTORS
330
32F
102
}
330
32F
100
AcDbXrecord
340
14
  0
MLINESTYLE
  5
1B
102
{ACAD_REACTORS
330
1A
102
}
330
1A
100
AcDbMlineStyle
  2
STANDARD
 70
     0
  3

 62
   256
 51
90.0
 52
90.0
 71
     2
 49
0.5
 62
   256
  6
BYLAYER
 49
-0.5
 62
   256
  6
BYLAYER
  0
DICTIONARYVAR
  5
23
102
{ACAD_REACTORS
330
22
102
}
330
22
100
DictionaryVariables
280
     0
  1
0
  0
DICTIONARYVAR
  5
2F1
102
{ACAD_REACTORS
330
22
102
}
330
22
100
DictionaryVariables
280
     0
  1
96
  0
ACDBPLACEHOLDER
  5
307
102
{ACAD_REACTORS
330
306
102
}
330
306
100
AcDbPlaceHolder
280
     0
  0
XRECORD
  5
310
102
{ACAD_REACTORS
330
30F
102
}
330
30F
100
AcDbXrecord
 90
        1
  0
XRECORD
  5
311
102
{ACAD_REACTORS
330
30F
102
}
330
30F
100
AcDbXrecord
 90
       70
  0
XRECORD
  5
312
102
{ACAD_REACTORS
330
30F
102
}
330
30F
100
AcDbXrecord
  1

  0
XRECORD
  5
313
102
{ACAD_REACTORS
330
30F
102
}
330
30F
100
AcDbXrecord
  1

  0
XRECORD
  5
314
102
{ACAD_REACTORS
330
30F
102
}
330
30F
100
AcDbXrecord
340
308
  0
XRECORD
  5
315
102
{ACAD_REACTORS
330
30F
102
}
330
30F
100
AcDbXrecord
340
309
  0
XRECORD
  5
316
102
{ACAD_REACTORS
330
30F
102
}
330
30F
100
AcDbXrecord
340
306
  0
XRECORD
  5
317
102
{ACAD_REACTORS
330
30F
102
}
330
30F
100
AcDbXrecord
 90
    10781
  0
XRECORD
  5
318
102
{ACAD_REACTORS
330
30F
102
}
330
30F
100
AcDbXrecord
 90
        0
  0
XRECORD
  5
319
102
{ACAD_REACTORS
330
30F
102
}
330
30F
100
AcDbXrecord
 90
        0
  0
XRECORD
  5
31A
102
{ACAD_REACTORS
330
30F
102
}
330
30F
100
AcDbXrecord
  1
{7750D4A0-3CB9-11D5-99B7-872527FF174A}
  0
XRECORD
  5
31B
102
{ACAD_REACTORS
330
30F
102
}
330
30F
100
AcDbXrecord
  1
{7750D4A2-3CB9-11D5-99B7-872527FF174A}
  0
XRECORD
  5
31C
102
{ACAD_REACTORS
330
30F
102
}
330
30F
100
AcDbXrecord
 40
0.0
  0
XRECORD
  5
31D
102
{ACAD_REACTORS
330
30F
102
}
330
30F
100
AcDbXrecord
340
0
  0
XRECORD
  5
31E
102
{ACAD_REACTORS
330
30F
102
}
330
30F
100
AcDbXrecord
 70
     0
  0
XRECORD
  5
31F
102
{ACAD_REACTORS
330
30F
102
}
330
30F
100
AcDbXrecord
340
0
  0
XRECORD
  5
320
102
{ACAD_REACTORS
330
30F
102
}
330
30F
100
AcDbXrecord
 10
0.0
 20
0.0
 30
0.0
  0
XRECORD
  5
321
102
{ACAD_REACTORS
330
30F
102
}
330
30F
100
AcDbXrecord
 10
0.0
 20
0.0
 30
0.0
  0
XRECORD
  5
322
102
{ACAD_REACTORS
330
30F
102
}
330
30F
100
AcDbXrecord
 10
0.0
 20
0.0
 30
0.0
  0
XRECORD
  5
323
102
{ACAD_REACTORS
330
30F
102
}
330
30F
100
AcDbXrecord
 10
0.0
 20
0.0
 30
0.0
  0
XRECORD
  5
324
102
{ACAD_REACTORS
330
30F
102
}
330
30F
100
AcDbXrecord
 10
0.0
 20
0.0
 30
0.0
  0
XRECORD
  5
325
102
{ACAD_REACTORS
330
30F
102
}
330
30F
100
AcDbXrecord
 10
0.0
 20
0.0
 30
0.0
  0
XRECORD
  5
326
102
{ACAD_REACTORS
330
30F
102
}
330
30F
100
AcDbXrecord
340
0
  0
XRECORD
  5
327
102
{ACAD_REACTORS
330
30F
102
}
330
30F
100
AcDbXrecord
 70
     0
  0
XRECORD
  5
328
102
{ACAD_REACTORS
330
30F
102
}
330
30F
100
AcDbXrecord
340
0
  0
XRECORD
  5
329
102
{ACAD_REACTORS
330
30F
102
}
330
30F
100
AcDbXrecord
 10
0.0
 20
0.0
 30
0.0
  0
XRECORD
  5
32A
102
{ACAD_REACTORS
330
30F
102
}
330
30F
100
AcDbXrecord
 10
0.0
 20
0.0
 30
0.0
  0
XRECORD
  5
32B
102
{ACAD_REACTORS
330
30F
102
}
330
30F
100
AcDbXrecord
 10
0.0
 20
0.0
 30
0.0
  0
XRECORD
  5
32C
102
{ACAD_REACTORS
330
30F
102
}
330
30F
100
AcDbXrecord
 10
0.0
 20
0.0
 30
0.0
  0
XRECORD
  5
32D
102
{ACAD_REACTORS
330
30F
102
}
330
30F
100
AcDbXrecord
 10
0.0
 20
0.0
 30
0.0
  0
XRECORD
  5
32E
102
{ACAD_REACTORS
330
30F
102
}
330
30F
100
AcDbXrecord
 10
0.0
 20
0.0
 30
0.0
  0
ENDSEC
  0
EOF
