  0
SECTION
  2
HEADER
  9
$ACADVER
  1
AC1009
  9
$INSBASE
 10
0.0
 20
0.0
 30
0.0
  9
$EXTMIN
 10
474219.33848188899
 20
220513.72848028759
 30
0.0
  9
$EXTMAX
 10
499962.14827584848
 20
242727.64875778349
 30
0.0
  9
$LIMMIN
 10
0.0
 20
0.0
  9
$LIMMAX
 10
12.0
 20
9.0
  9
$ORTHOMODE
 70
     0
  9
$REGENMODE
 70
     1
  9
$FILLMODE
 70
     1
  9
$QTEXTMODE
 70
     0
  9
$MIRRTEXT
 70
     1
  9
$DRAGMODE
 70
     2
  9
$LTSCALE
 40
1.0
  9
$OSMODE
 70
    37
  9
$ATTMODE
 70
     1
  9
$TEXTSIZE
 40
0.1
  9
$TRACEWID
 40
0.05
  9
$TEXTSTYLE
  7
STANDARD
  9
$CLAYER
  8
VOLCANO-TECTONIC_COLLAPSED
  9
$CELTYPE
  6
BYLAYER
  9
$CECOLOR
 62
   256
  9
$DIMSCALE
 40
1.0
  9
$DIMASZ
 40
0.18
  9
$DIMEXO
 40
0.0625
  9
$DIMDLI
 40
0.38
  9
$DIMRND
 40
0.0
  9
$DIMDLE
 40
0.0
  9
$DIMEXE
 40
0.18
  9
$DIMTP
 40
0.0
  9
$DIMTM
 40
0.0
  9
$DIMTXT
 40
0.18
  9
$DIMCEN
 40
0.09
  9
$DIMTSZ
 40
0.0
  9
$DIMTOL
 70
     0
  9
$DIMLIM
 70
     0
  9
$DIMTIH
 70
     1
  9
$DIMTOH
 70
     1
  9
$DIMSE1
 70
     0
  9
$DIMSE2
 70
     0
  9
$DIMTAD
 70
     0
  9
$DIMZIN
 70
     0
  9
$DIMBLK
  1

  9
$DIMASO
 70
     1
  9
$DIMSHO
 70
     1
  9
$DIMPOST
  1

  9
$DIMAPOST
  1

  9
$DIMALT
 70
     0
  9
$DIMALTD
 70
     2
  9
$DIMALTF
 40
25.399999999999999
  9
$DIMLFAC
 40
1.0
  9
$DIMTOFL
 70
     0
  9
$DIMTVP
 40
0.0
  9
$DIMTIX
 70
     0
  9
$DIMSOXD
 70
     0
  9
$DIMSAH
 70
     0
  9
$DIMBLK1
  1

  9
$DIMBLK2
  1

  9
$DIMSTYLE
  2
STANDARD
  9
$DIMCLRD
 70
     0
  9
$DIMCLRE
 70
     0
  9
$DIMCLRT
 70
     0
  9
$DIMTFAC
 40
1.0
  9
$DIMGAP
 40
0.09
  9
$LUNITS
 70
     2
  9
$LUPREC
 70
     4
  9
$SKETCHINC
 40
0.1
  9
$FILLETRAD
 40
0.5
  9
$AUNITS
 70
     0
  9
$AUPREC
 70
     0
  9
$MENU
  1
.
  9
$ELEVATION
 40
0.0
  9
$PELEVATION
 40
0.0
  9
$THICKNESS
 40
0.0
  9
$LIMCHECK
 70
     0
  9
$BLIPMODE
 70
     0
  9
$CHAMFERA
 40
0.5
  9
$CHAMFERB
 40
0.5
  9
$SKPOLY
 70
     0
  9
$TDCREATE
 40
2453708.458591389
  9
$TDUPDATE
 40
2455967.595794607
  9
$TDINDWG
 40
4.2662073147999999
  9
$TDUSRTIMER
 40
4.2662054745000004
  9
$USRTIMER
 70
     1
  9
$ANGBASE
 50
0.0
  9
$ANGDIR
 70
     0
  9
$PDMODE
 70
     0
  9
$PDSIZE
 40
0.0
  9
$PLINEWID
 40
0.0
  9
$COORDS
 70
     1
  9
$SPLFRAME
 70
     0
  9
$SPLINETYPE
 70
     6
  9
$SPLINESEGS
 70
     8
  9
$ATTDIA
 70
     0
  9
$ATTREQ
 70
     1
  9
$HANDLING
 70
     1
  9
$HANDSEED
  5
5B2
  9
$SURFTAB1
 70
     6
  9
$SURFTAB2
 70
     6
  9
$SURFTYPE
 70
     6
  9
$SURFU
 70
     6
  9
$SURFV
 70
     6
  9
$UCSNAME
  2

  9
$UCSORG
 10
0.0
 20
0.0
 30
0.0
  9
$UCSXDIR
 10
1.0
 20
0.0
 30
0.0
  9
$UCSYDIR
 10
0.0
 20
1.0
 30
0.0
  9
$PUCSNAME
  2

  9
$PUCSORG
 10
0.0
 20
0.0
 30
0.0
  9
$PUCSXDIR
 10
1.0
 20
0.0
 30
0.0
  9
$PUCSYDIR
 10
0.0
 20
1.0
 30
0.0
  9
$USERI1
 70
     0
  9
$USERI2
 70
     0
  9
$USERI3
 70
     0
  9
$USERI4
 70
     0
  9
$USERI5
 70
     0
  9
$USERR1
 40
0.0
  9
$USERR2
 40
0.0
  9
$USERR3
 40
0.0
  9
$USERR4
 40
0.0
  9
$USERR5
 40
0.0
  9
$WORLDVIEW
 70
     1
  9
$SHADEDGE
 70
     3
  9
$SHADEDIF
 70
    70
  9
$TILEMODE
 70
     1
  9
$MAXACTVP
 70
    64
  9
$PLIMCHECK
 70
     0
  9
$PEXTMIN
 10
0.0
 20
0.0
 30
0.0
  9
$PEXTMAX
 10
0.0
 20
0.0
 30
0.0
  9
$PLIMMIN
 10
0.0
 20
0.0
  9
$PLIMMAX
 10
12.0
 20
9.0
  9
$UNITMODE
 70
     0
  9
$VISRETAIN
 70
     1
  9
$PLINEGEN
 70
     0
  9
$PSLTSCALE
 70
     1
  0
ENDSEC
  0
SECTION
  2
TABLES
  0
TABLE
  2
VPORT
 70
     1
  0
VPORT
  2
*ACTIVE
 70
     0
 10
0.0
 20
0.0
 11
1.0
 21
1.0
 12
492071.3713759266
 22
231983.7722964407
 13
0.0
 23
0.0
 14
0.5
 24
0.5
 15
0.5
 25
0.5
 16
0.0
 26
0.0
 36
1.0
 17
0.0
 27
0.0
 37
0.0
 40
27232.14627955504
 41
1.922872340425531
 42
50.0
 43
0.0
 44
0.0
 50
0.0
 51
0.0
 71
     0
 72
   100
 73
     1
 74
     2
 75
     0
 76
     0
 77
     0
 78
     0
  0
ENDTAB
  0
TABLE
  2
LTYPE
 70
     1
  0
LTYPE
  2
CONTINUOUS
 70
     0
  3
Solid line
 72
    65
 73
     0
 40
0.0
  0
ENDTAB
  0
TABLE
  2
LAYER
 70
     9
  0
LAYER
  2
0
 70
     0
 62
     7
  6
CONTINUOUS
  0
LAYER
  2
VOLCANO-TECTONIC_COLLAPSED
 70
     0
 62
   252
  6
CONTINUOUS
  0
LAYER
  2
MIOCENE_VULCANISM
 70
     0
 62
    10
  6
CONTINUOUS
  0
LAYER
  2
PLIO-PLEISTOCENE_LAVAS
 70
     0
 62
     6
  6
CONTINUOUS
  0
LAYER
  2
PLEISTOCENE_VULCANISM
 70
     0
 62
     3
  6
CONTINUOUS
  0
LAYER
  2
PLIO-PLEISTOCENE_DIATOMITE
 70
     0
 62
     4
  6
CONTINUOUS
  0
LAYER
  2
PLEISTOCENE_IGNIMBRITES_AN
 70
     0
 62
    34
  6
CONTINUOUS
  0
LAYER
  2
RIVERS
 70
     0
 62
     5
  6
CONTINUOUS
  0
LAYER
  2
STUDY_AREA
 70
     0
 62
     7
  6
CONTINUOUS
  0
ENDTAB
  0
TABLE
  2
STYLE
 70
     1
  0
STYLE
  2
STANDARD
 70
     0
 40
0.0
 41
1.0
 50
0.0
 71
     0
 42
0.1
  3
txt
  4

  0
ENDTAB
  0
TABLE
  2
VIEW
 70
     0
  0
ENDTAB
  0
TABLE
  2
UCS
 70
     0
  0
ENDTAB
  0
TABLE
  2
APPID
 70
     1
  0
APPID
  2
ACAD
 70
     0
  0
ENDTAB
  0
TABLE
  2
DIMSTYLE
 70
     1
  0
DIMSTYLE
  2
STANDARD
 70
     0
  3

  4

  5

  6

  7

 40
1.0
 41
0.18
 42
0.0625
 43
0.38
 44
0.18
 45
0.0
 46
0.0
 47
0.0
 48
0.0
140
0.18
141
0.09
142
0.0
143
25.399999999999999
144
1.0
145
0.0
146
1.0
147
0.09
 71
     0
 72
     0
 73
     1
 74
     1
 75
     0
 76
     0
 77
     0
 78
     0
170
     0
171
     2
172
     0
173
     0
174
     0
175
     0
176
     0
177
     0
178
     0
  0
ENDTAB
  0
ENDSEC
  0
SECTION
  2
BLOCKS
  0
BLOCK
  8
0
  2
$MODEL_SPACE
 70
     0
 10
0.0
 20
0.0
 30
0.0
  3
$MODEL_SPACE
  1

  0
ENDBLK
  5
14
  8
0
  0
BLOCK
 67
     1
  8
0
  2
$PAPER_SPACE
 70
     0
 10
0.0
 20
0.0
 30
0.0
  3
$PAPER_SPACE
  1

  0
ENDBLK
  5
19
 67
     1
  8
0
  0
ENDSEC
  0
SECTION
  2
ENTITIES
  0
POLYLINE
  5
6A
  8
RIVERS
 66
     1
 10
0.0
 20
0.0
 30
0.0
 40
50.593790830059127
 41
50.593790830059127
  0
VERTEX
  5
9E
  8
RIVERS
 10
474235.85377180303
 20
225477.3214836868
 30
0.0
  0
VERTEX
  5
9F
  8
RIVERS
 10
474464.60397609102
 20
225646.78130801741
 30
0.0
  0
VERTEX
  5
A0
  8
RIVERS
 10
474969.7300154671
 20
225796.53274016641
 30
0.0
  0
VERTEX
  5
A1
  8
RIVERS
 10
475351.28276248422
 20
225862.6572681726
 30
0.0
  0
VERTEX
  5
A2
  8
RIVERS
 10
476051.28298195283
 20
226425.55828009869
 30
0.0
  0
VERTEX
  5
A3
  8
RIVERS
 10
476463.98704457039
 20
226420.1506499704
 30
0.0
  0
VERTEX
  5
A4
  8
RIVERS
 10
477391.90470480738
 20
226646.7839329564
 30
0.0
  0
VERTEX
  5
A5
  8
RIVERS
 10
477792.85859078058
 20
227154.80407540529
 30
0.0
  0
VERTEX
  5
A6
  8
RIVERS
 10
477822.46195131837
 20
227637.90522229209
 30
0.0
  0
VERTEX
  5
A7
  8
RIVERS
 10
477852.89662105608
 20
227823.14774240769
 30
0.0
  0
VERTEX
  5
A8
  8
RIVERS
 10
477749.2117868397
 20
228006.8096714986
 30
0.0
  0
VERTEX
  5
A9
  8
RIVERS
 10
477623.83254690788
 20
228570.2549565493
 30
0.0
  0
VERTEX
  5
AA
  8
RIVERS
 10
477498.45330697577
 20
229133.7002416006
 30
0.0
  0
VERTEX
  5
AB
  8
RIVERS
 10
477868.59986736299
 20
229590.00069662489
 30
0.0
  0
VERTEX
  5
AC
  8
RIVERS
 10
478321.62549712072
 20
229924.02197748781
 30
0.0
  0
VERTEX
  5
AD
  8
RIVERS
 10
478979.5268677104
 20
230784.29528048381
 30
0.0
  0
VERTEX
  5
AE
  8
RIVERS
 10
478885.58560172358
 20
231173.4985361009
 30
0.0
  0
VERTEX
  5
AF
  8
RIVERS
 10
478967.06004520389
 20
231554.497731312
 30
0.0
  0
VERTEX
  5
B0
  8
RIVERS
 10
479120.49469061091
 20
232028.7868981692
 30
0.0
  0
VERTEX
  5
B1
  8
RIVERS
 10
479088.85605582438
 20
232274.92583751591
 30
0.0
  0
VERTEX
  5
B2
  8
RIVERS
 10
479604.21298261679
 20
232455.6118149781
 30
0.0
  0
VERTEX
  5
B3
  8
RIVERS
 10
480614.20706885861
 20
232847.5535634449
 30
0.0
  0
VERTEX
  5
B4
  8
RIVERS
 10
481191.72329767892
 20
232936.53016028809
 30
0.0
  0
VERTEX
  5
B5
  8
RIVERS
 10
481614.5435843743
 20
233003.1410239957
 30
0.0
  0
VERTEX
  5
B6
  8
RIVERS
 10
482500.47705907113
 20
233486.06264953219
 30
0.0
  0
VERTEX
  5
B7
  8
RIVERS
 10
483871.16079581511
 20
234026.05365519639
 30
0.0
  0
VERTEX
  5
B8
  8
RIVERS
 10
484499.00015251542
 20
234567.5616053867
 30
0.0
  0
VERTEX
  5
B9
  8
RIVERS
 10
484662.80901451118
 20
235021.43038190861
 30
0.0
  0
VERTEX
  5
BA
  8
RIVERS
 10
484651.25949870847
 20
235462.9612445755
 30
0.0
  0
VERTEX
  5
BB
  8
RIVERS
 10
485031.46495150437
 20
236011.82216769431
 30
0.0
  0
VERTEX
  5
BC
  8
RIVERS
 10
485412.61637683882
 20
236221.74051552219
 30
0.0
  0
VERTEX
  5
BD
  8
RIVERS
 10
486442.90024290618
 20
236737.17727739969
 30
0.0
  0
VERTEX
  5
BE
  8
RIVERS
 10
487195.40219367621
 20
236972.0146207893
 30
0.0
  0
VERTEX
  5
BF
  8
RIVERS
 10
487998.39926733339
 20
237597.75739474551
 30
0.0
  0
VERTEX
  5
C0
  8
RIVERS
 10
488614.94710074138
 20
238488.3573234326
 30
0.0
  0
VERTEX
  5
C1
  8
RIVERS
 10
489027.33583917929
 20
238595.93055173449
 30
0.0
  0
VERTEX
  5
C2
  8
RIVERS
 10
489368.02236820111
 20
238517.77492422119
 30
0.0
  0
VERTEX
  5
C3
  8
RIVERS
 10
489646.75025603641
 20
238459.43176741811
 30
0.0
  0
VERTEX
  5
C4
  8
RIVERS
 10
490121.52762317838
 20
238393.12771805961
 30
0.0
  0
VERTEX
  5
C5
  8
RIVERS
 10
490328.15197991469
 20
238292.84952525981
 30
0.0
  0
VERTEX
  5
C6
  8
RIVERS
 10
490441.75237736799
 20
238253.10299991511
 30
0.0
  0
VERTEX
  5
C7
  8
RIVERS
 10
490586.30342958
 20
238213.72122634601
 30
0.0
  0
VERTEX
  5
C8
  8
RIVERS
 10
491091.74479313567
 20
238250.49180006469
 30
0.0
  0
VERTEX
  5
C9
  8
RIVERS
 10
491515.0810648519
 20
238132.2248954309
 30
0.0
  0
VERTEX
  5
CA
  8
RIVERS
 10
491783.40607026417
 20
238104.57311609201
 30
0.0
  0
VERTEX
  5
CB
  8
RIVERS
 10
492134.23748919863
 20
238088.16499528449
 30
0.0
  0
VERTEX
  5
CC
  8
RIVERS
 10
492454.1755850435
 20
238050.8501484411
 30
0.0
  0
VERTEX
  5
CD
  8
RIVERS
 10
493238.63149477908
 20
237926.56769405451
 30
0.0
  0
VERTEX
  5
CE
  8
RIVERS
 10
493682.11421714822
 20
237983.1507384821
 30
0.0
  0
VERTEX
  5
CF
  8
RIVERS
 10
494352.253083569
 20
238155.38948769079
 30
0.0
  0
VERTEX
  5
D0
  8
RIVERS
 10
495031.9348573772
 20
238605.06647333669
 30
0.0
  0
VERTEX
  5
D1
  8
RIVERS
 10
495598.53221875383
 20
238909.61221598549
 30
0.0
  0
SEQEND
  5
D2
  8
RIVERS
  0
POLYLINE
  5
6C
  8
RIVERS
 66
     1
 10
0.0
 20
0.0
 30
0.0
 40
50.593790830059127
 41
50.593790830059127
  0
VERTEX
  5
D3
  8
RIVERS
 10
491910.67226381728
 20
235935.72388441369
 30
0.0
  0
VERTEX
  5
D4
  8
RIVERS
 10
491581.07659724628
 20
235736.6844433416
 30
0.0
  0
VERTEX
  5
D5
  8
RIVERS
 10
491457.35997571511
 20
235704.41247485121
 30
0.0
  0
VERTEX
  5
D6
  8
RIVERS
 10
491127.85030664731
 20
235474.56007238929
 30
0.0
  0
VERTEX
  5
D7
  8
RIVERS
 10
490746.03956711979
 20
235500.87442855211
 30
0.0
  0
VERTEX
  5
D8
  8
RIVERS
 10
490529.70030798833
 20
235385.34030769451
 30
0.0
  0
VERTEX
  5
D9
  8
RIVERS
 10
490003.45317958639
 20
235409.95248890741
 30
0.0
  0
VERTEX
  5
DA
  8
RIVERS
 10
489704.52150942921
 20
235313.9876709104
 30
0.0
  0
VERTEX
  5
DB
  8
RIVERS
 10
489446.65671810898
 20
235290.40609852411
 30
0.0
  0
VERTEX
  5
DC
  8
RIVERS
 10
489219.7139157129
 20
235277.46026504319
 30
0.0
  0
VERTEX
  5
DD
  8
RIVERS
 10
488788.29669416719
 20
234594.46858960841
 30
0.0
  0
VERTEX
  5
DE
  8
RIVERS
 10
488777.97980924742
 20
234594.34700568381
 30
0.0
  0
VERTEX
  5
DF
  8
RIVERS
 10
488779.58509597922
 20
234019.17172640091
 30
0.0
  0
VERTEX
  5
E0
  8
RIVERS
 10
488821.56928151939
 20
233762.8833838506
 30
0.0
  0
VERTEX
  5
E1
  8
RIVERS
 10
489049.74471479887
 20
233334.17677074001
 30
0.0
  0
VERTEX
  5
E2
  8
RIVERS
 10
489391.4918796969
 20
232875.9946194154
 30
0.0
  0
VERTEX
  5
E3
  8
RIVERS
 10
489660.04621178517
 20
232766.17494303689
 30
0.0
  0
VERTEX
  5
E4
  8
RIVERS
 10
489835.80591126619
 20
232634.7190370727
 30
0.0
  0
VERTEX
  5
E5
  8
RIVERS
 10
489990.75984590122
 20
232564.6458860375
 30
0.0
  0
VERTEX
  5
E6
  8
RIVERS
 10
490135.39689561678
 20
232494.4511510779
 30
0.0
  0
VERTEX
  5
E7
  8
RIVERS
 10
490290.55149109301
 20
232352.48109013381
 30
0.0
  0
VERTEX
  5
E8
  8
RIVERS
 10
490558.9911598434
 20
232283.74536227511
 30
0.0
  0
VERTEX
  5
E9
  8
RIVERS
 10
490775.53107981622
 20
232327.3825732214
 30
0.0
  0
VERTEX
  5
EA
  8
RIVERS
 10
490951.03278678737
 20
232288.3655514266
 30
0.0
  0
VERTEX
  5
EB
  8
RIVERS
 10
491157.71447519271
 20
232167.5453843677
 30
0.0
  0
VERTEX
  5
EC
  8
RIVERS
 10
491189.12378330302
 20
232003.57434206229
 30
0.0
  0
VERTEX
  5
ED
  8
RIVERS
 10
491158.43112105457
 20
231910.77070611651
 30
0.0
  0
VERTEX
  5
EE
  8
RIVERS
 10
491097.0457965582
 20
231725.1634342249
 30
0.0
  0
VERTEX
  5
EF
  8
RIVERS
 10
491160.26573446218
 20
231253.4275297944
 30
0.0
  0
VERTEX
  5
F0
  8
RIVERS
 10
491232.94258225092
 20
231089.94282318931
 30
0.0
  0
VERTEX
  5
F1
  8
RIVERS
 10
491223.74366487662
 20
230689.2527411925
 30
0.0
  0
VERTEX
  5
F2
  8
RIVERS
 10
491328.54646663822
 20
230105.0223140312
 30
0.0
  0
VERTEX
  5
F3
  8
RIVERS
 10
491442.20419576071
 20
230044.7338144267
 30
0.0
  0
VERTEX
  5
F4
  8
RIVERS
 10
491556.09125155851
 20
229902.2774177813
 30
0.0
  0
VERTEX
  5
F5
  8
RIVERS
 10
491711.47517371108
 20
229678.13945979701
 30
0.0
  0
VERTEX
  5
F6
  8
RIVERS
 10
491774.35112160147
 20
229329.65540092631
 30
0.0
  0
VERTEX
  5
F7
  8
RIVERS
 10
491774.49445077352
 20
229278.300465276
 30
0.0
  0
VERTEX
  5
F8
  8
RIVERS
 10
491755.35130432801
 20
228743.96596666399
 30
0.0
  0
VERTEX
  5
F9
  8
RIVERS
 10
491859.0074727101
 20
228570.57502470369
 30
0.0
  0
VERTEX
  5
FA
  8
RIVERS
 10
491983.8420617868
 20
228202.27849512291
 30
0.0
  0
VERTEX
  5
FB
  8
RIVERS
 10
492119.19419662422
 20
227762.2066395572
 30
0.0
  0
VERTEX
  5
FC
  8
RIVERS
 10
492160.7483946475
 20
227659.98310395741
 30
0.0
  0
VERTEX
  5
FD
  8
RIVERS
 10
492254.60366313061
 20
227301.59280973161
 30
0.0
  0
VERTEX
  5
FE
  8
RIVERS
 10
492317.07828933821
 20
227096.90257068141
 30
0.0
  0
VERTEX
  5
FF
  8
RIVERS
 10
492328.11182011972
 20
226840.2494763548
 30
0.0
  0
VERTEX
  5
100
  8
RIVERS
 10
492329.2297876649
 20
226439.68097828471
 30
0.0
  0
VERTEX
  5
101
  8
RIVERS
 10
492216.11670939822
 20
226304.8207224182
 30
0.0
  0
VERTEX
  5
102
  8
RIVERS
 10
492103.11829446879
 20
226128.87651803161
 30
0.0
  0
VERTEX
  5
103
  8
RIVERS
 10
492031.0434292045
 20
226076.6704949064
 30
0.0
  0
VERTEX
  5
104
  8
RIVERS
 10
491897.69790278142
 20
225797.77325136939
 30
0.0
  0
VERTEX
  5
105
  8
RIVERS
 10
491743.4319481742
 20
225621.34271128359
 30
0.0
  0
VERTEX
  5
106
  8
RIVERS
 10
491671.70107292361
 20
225445.88484259741
 30
0.0
  0
VERTEX
  5
107
  8
RIVERS
 10
491640.9224131715
 20
225383.89416804211
 30
0.0
  0
VERTEX
  5
108
  8
RIVERS
 10
491652.38593147078
 20
224973.17626676621
 30
0.0
  0
VERTEX
  5
109
  8
RIVERS
 10
491662.76014805923
 20
224952.75587643031
 30
0.0
  0
VERTEX
  5
10A
  8
RIVERS
 10
491889.96094296611
 20
224873.26282574169
 30
0.0
  0
VERTEX
  5
10B
  8
RIVERS
 10
492137.73817604291
 20
224814.5549171626
 30
0.0
  0
VERTEX
  5
10C
  8
RIVERS
 10
492663.72731193388
 20
224882.38162012029
 30
0.0
  0
VERTEX
  5
10D
  8
RIVERS
 10
492694.53463752021
 20
224934.10130754509
 30
0.0
  0
VERTEX
  5
10E
  8
RIVERS
 10
493168.68135630322
 20
225093.75897504881
 30
0.0
  0
VERTEX
  5
10F
  8
RIVERS
 10
493415.77060935221
 20
225281.5547575909
 30
0.0
  0
VERTEX
  5
110
  8
RIVERS
 10
493786.83447644272
 20
225409.18362445291
 30
0.0
  0
VERTEX
  5
111
  8
RIVERS
 10
493910.60842964309
 20
225420.9136186839
 30
0.0
  0
VERTEX
  5
112
  8
RIVERS
 10
494189.76630499569
 20
225208.5056549297
 30
0.0
  0
VERTEX
  5
113
  8
RIVERS
 10
494417.13909490942
 20
225067.38668146011
 30
0.0
  0
VERTEX
  5
114
  8
RIVERS
 10
494737.39251493319
 20
224917.09097618659
 30
0.0
  0
VERTEX
  5
115
  8
RIVERS
 10
494861.33846314071
 20
224867.19504763701
 30
0.0
  0
VERTEX
  5
116
  8
RIVERS
 10
495408.21936138172
 20
224842.82603427491
 30
0.0
  0
VERTEX
  5
117
  8
RIVERS
 10
495470.12067089882
 20
224843.55553782501
 30
0.0
  0
VERTEX
  5
118
  8
RIVERS
 10
495810.57787324482
 20
224847.5678073517
 30
0.0
  0
VERTEX
  5
119
  8
RIVERS
 10
496027.5477807353
 20
224737.14021134819
 30
0.0
  0
VERTEX
  5
11A
  8
RIVERS
 10
496224.31390590401
 20
224472.40464054281
 30
0.0
  0
VERTEX
  5
11B
  8
RIVERS
 10
496256.0672040286
 20
224185.18175267731
 30
0.0
  0
VERTEX
  5
11C
  8
RIVERS
 10
496215.91763189522
 20
223784.12691890591
 30
0.0
  0
VERTEX
  5
11D
  8
RIVERS
 10
496340.58022596472
 20
223477.45631210509
 30
0.0
  0
VERTEX
  5
11E
  8
RIVERS
 10
496672.66982013662
 20
222782.91987286441
 30
0.0
  0
VERTEX
  5
11F
  8
RIVERS
 10
496786.4135467622
 20
222691.8184118697
 30
0.0
  0
VERTEX
  5
120
  8
RIVERS
 10
496880.21148357639
 20
222353.97009190379
 30
0.0
  0
VERTEX
  5
121
  8
RIVERS
 10
497045.9696223177
 20
222109.41174358391
 30
0.0
  0
VERTEX
  5
122
  8
RIVERS
 10
497149.74045403779
 20
221894.93685310381
 30
0.0
  0
VERTEX
  5
123
  8
RIVERS
 10
497191.4953129022
 20
221720.8164075932
 30
0.0
  0
VERTEX
  5
124
  8
RIVERS
 10
497347.10856173059
 20
221414.5105525681
 30
0.0
  0
VERTEX
  5
125
  8
RIVERS
 10
497823.03256225202
 20
220937.3670180091
 30
0.0
  0
VERTEX
  5
126
  8
RIVERS
 10
497905.8829657879
 20
220825.3588309793
 30
0.0
  0
VERTEX
  5
127
  8
RIVERS
 10
498092.36087187118
 20
220550.2306891192
 30
0.0
  0
VERTEX
  5
128
  8
RIVERS
 10
498133.00392075698
 20
220537.94289873561
 30
0.0
  0
SEQEND
  5
129
  8
RIVERS
  0
POLYLINE
  5
6D
  8
RIVERS
 66
     1
 10
0.0
 20
0.0
 30
0.0
 40
50.593790830059127
 41
50.593790830059127
  0
VERTEX
  5
12A
  8
RIVERS
 10
496577.85317696439
 20
223048.9648669649
 30
0.0
  0
VERTEX
  5
12B
  8
RIVERS
 10
496773.07134707063
 20
223338.8626011826
 30
0.0
  0
VERTEX
  5
12C
  8
RIVERS
 10
496824.16845248232
 20
223514.07730201801
 30
0.0
  0
VERTEX
  5
12D
  8
RIVERS
 10
496936.93754073529
 20
223772.18940344409
 30
0.0
  0
VERTEX
  5
12E
  8
RIVERS
 10
496977.51710038597
 20
224019.17943026501
 30
0.0
  0
VERTEX
  5
12F
  8
RIVERS
 10
497039.0170882204
 20
224163.70275363611
 30
0.0
  0
VERTEX
  5
130
  8
RIVERS
 10
496976.1124744956
 20
224522.45779963699
 30
0.0
  0
VERTEX
  5
131
  8
RIVERS
 10
496882.40053518512
 20
224829.49315821219
 30
0.0
  0
VERTEX
  5
132
  8
RIVERS
 10
496809.12170487188
 20
225208.66859454801
 30
0.0
  0
VERTEX
  5
133
  8
RIVERS
 10
496808.34772734047
 20
225485.98524705949
 30
0.0
  0
VERTEX
  5
134
  8
RIVERS
 10
496786.91131413542
 20
225773.32971885061
 30
0.0
  0
VERTEX
  5
135
  8
RIVERS
 10
496806.57044560183
 20
226122.78644912131
 30
0.0
  0
VERTEX
  5
136
  8
RIVERS
 10
496929.42709209857
 20
226463.18803151371
 30
0.0
  0
VERTEX
  5
137
  8
RIVERS
 10
497042.22484618612
 20
226711.0291458104
 30
0.0
  0
VERTEX
  5
138
  8
RIVERS
 10
497237.7870063064
 20
226877.67503446669
 30
0.0
  0
VERTEX
  5
139
  8
RIVERS
 10
497360.61498696828
 20
227228.3476039886
 30
0.0
  0
VERTEX
  5
13A
  8
RIVERS
 10
497535.28538473858
 20
227487.18920896581
 30
0.0
  0
VERTEX
  5
13B
  8
RIVERS
 10
497627.3920373182
 20
227755.3291296722
 30
0.0
  0
VERTEX
  5
13C
  8
RIVERS
 10
497884.59751444519
 20
228015.1434060492
 30
0.0
  0
VERTEX
  5
13D
  8
RIVERS
 10
498049.78233649622
 20
227976.00480033021
 30
0.0
  0
VERTEX
  5
13E
  8
RIVERS
 10
498410.38598949497
 20
228154.8670189174
 30
0.0
  0
VERTEX
  5
13F
  8
RIVERS
 10
498760.61542590527
 20
228354.14962784009
 30
0.0
  0
VERTEX
  5
140
  8
RIVERS
 10
499038.71266538178
 20
228521.76818789609
 30
0.0
  0
VERTEX
  5
141
  8
RIVERS
 10
499203.1808415706
 20
228739.40426042801
 30
0.0
  0
VERTEX
  5
142
  8
RIVERS
 10
499275.22704100062
 20
228801.8812706841
 30
0.0
  0
VERTEX
  5
143
  8
RIVERS
 10
499429.66499061498
 20
228916.68588799049
 30
0.0
  0
VERTEX
  5
144
  8
RIVERS
 10
499501.13787335512
 20
229184.5826408467
 30
0.0
  0
VERTEX
  5
145
  8
RIVERS
 10
499593.04386509332
 20
229524.6194714639
 30
0.0
  0
VERTEX
  5
146
  8
RIVERS
 10
499932.92775074922
 20
229734.05148358989
 30
0.0
  0
SEQEND
  5
147
  8
RIVERS
  0
POLYLINE
  5
6E
  8
PLEISTOCENE_IGNIMBRITES_AN
 66
     1
 10
0.0
 20
0.0
 30
0.0
 70
     1
  0
VERTEX
  5
148
  8
PLEISTOCENE_IGNIMBRITES_AN
 10
482489.58679877588
 20
226176.87563239111
 30
0.0
  0
VERTEX
  5
149
  8
PLEISTOCENE_IGNIMBRITES_AN
 10
482490.12472704961
 20
226218.10242946749
 30
0.0
  0
VERTEX
  5
14A
  8
PLEISTOCENE_IGNIMBRITES_AN
 10
482473.00773129752
 20
226301.31907368099
 30
0.0
  0
VERTEX
  5
14B
  8
PLEISTOCENE_IGNIMBRITES_AN
 10
482483.98690640321
 20
226445.23133841809
 30
0.0
  0
VERTEX
  5
14C
  8
PLEISTOCENE_IGNIMBRITES_AN
 10
482502.85216904263
 20
226496.00178470209
 30
0.0
  0
VERTEX
  5
14D
  8
PLEISTOCENE_IGNIMBRITES_AN
 10
482549.94808460801
 20
226617.77455077929
 30
0.0
  0
VERTEX
  5
14E
  8
PLEISTOCENE_IGNIMBRITES_AN
 10
482569.62023965741
 20
226730.38519267761
 30
0.0
  0
VERTEX
  5
14F
  8
PLEISTOCENE_IGNIMBRITES_AN
 10
482597.85089258262
 20
226801.3875124699
 30
0.0
  0
VERTEX
  5
150
  8
PLEISTOCENE_IGNIMBRITES_AN
 10
482599.19571326609
 20
226904.4545051615
 30
0.0
  0
VERTEX
  5
151
  8
PLEISTOCENE_IGNIMBRITES_AN
 10
482583.28905612929
 20
227080.43144279721
 30
0.0
  0
VERTEX
  5
152
  8
PLEISTOCENE_IGNIMBRITES_AN
 10
482583.42353819747
 20
227090.7381420655
 30
0.0
  0
VERTEX
  5
153
  8
PLEISTOCENE_IGNIMBRITES_AN
 10
482566.57550658227
 20
227194.56818481741
 30
0.0
  0
VERTEX
  5
154
  8
PLEISTOCENE_IGNIMBRITES_AN
 10
482566.57550658227
 20
227194.56818481741
 30
0.0
  0
VERTEX
  5
155
  8
PLEISTOCENE_IGNIMBRITES_AN
 10
482486.18697399233
 20
227311.37560205261
 30
0.0
  0
VERTEX
  5
156
  8
PLEISTOCENE_IGNIMBRITES_AN
 10
482268.54515675647
 20
227372.0656991305
 30
0.0
  0
VERTEX
  5
157
  8
PLEISTOCENE_IGNIMBRITES_AN
 10
482178.25330560771
 20
227427.41444578141
 30
0.0
  0
VERTEX
  5
158
  8
PLEISTOCENE_IGNIMBRITES_AN
 10
482070.44101250177
 20
227535.05973883811
 30
0.0
  0
VERTEX
  5
159
  8
PLEISTOCENE_IGNIMBRITES_AN
 10
482070.44101250177
 20
227535.05973883811
 30
0.0
  0
VERTEX
  5
15A
  8
PLEISTOCENE_IGNIMBRITES_AN
 10
482071.51686904812
 20
227617.5133329916
 30
0.0
  0
VERTEX
  5
15B
  8
PLEISTOCENE_IGNIMBRITES_AN
 10
482063.76526358241
 20
227720.96185071251
 30
0.0
  0
VERTEX
  5
15C
  8
PLEISTOCENE_IGNIMBRITES_AN
 10
482110.72669707908
 20
227832.42791752049
 30
0.0
  0
VERTEX
  5
15D
  8
PLEISTOCENE_IGNIMBRITES_AN
 10
482503.62128837698
 20
227950.0094317068
 30
0.0
  0
VERTEX
  5
15E
  8
PLEISTOCENE_IGNIMBRITES_AN
 10
482651.18133778661
 20
228098.50552025461
 30
0.0
  0
VERTEX
  5
15F
  8
PLEISTOCENE_IGNIMBRITES_AN
 10
482797.39656651311
 20
228143.93461611171
 30
0.0
  0
VERTEX
  5
160
  8
PLEISTOCENE_IGNIMBRITES_AN
 10
482907.898500985
 20
228242.42330843629
 30
0.0
  0
VERTEX
  5
161
  8
PLEISTOCENE_IGNIMBRITES_AN
 10
482972.38037643873
 20
228301.59282883731
 30
0.0
  0
VERTEX
  5
162
  8
PLEISTOCENE_IGNIMBRITES_AN
 10
483202.34618946281
 20
228487.8819891871
 30
0.0
  0
VERTEX
  5
163
  8
PLEISTOCENE_IGNIMBRITES_AN
 10
483266.69358284812
 20
228536.7448103198
 30
0.0
  0
VERTEX
  5
164
  8
PLEISTOCENE_IGNIMBRITES_AN
 10
483461.88747609622
 20
228848.24046201981
 30
0.0
  0
VERTEX
  5
165
  8
PLEISTOCENE_IGNIMBRITES_AN
 10
483580.27549810242
 20
228853.58733589301
 30
0.0
  0
VERTEX
  5
166
  8
PLEISTOCENE_IGNIMBRITES_AN
 10
483617.73705924512
 20
228934.5148299232
 30
0.0
  0
VERTEX
  5
167
  8
PLEISTOCENE_IGNIMBRITES_AN
 10
483683.16030917678
 20
229065.8312452086
 30
0.0
  0
VERTEX
  5
168
  8
PLEISTOCENE_IGNIMBRITES_AN
 10
483711.65992623859
 20
229157.44696353911
 30
0.0
  0
VERTEX
  5
169
  8
PLEISTOCENE_IGNIMBRITES_AN
 10
483787.25545886601
 20
229370.8354479454
 30
0.0
  0
VERTEX
  5
16A
  8
PLEISTOCENE_IGNIMBRITES_AN
 10
483823.91012759862
 20
229389.92274636199
 30
0.0
  0
VERTEX
  5
16B
  8
PLEISTOCENE_IGNIMBRITES_AN
 10
483824.7170200086
 20
229451.76294197541
 30
0.0
  0
VERTEX
  5
16C
  8
PLEISTOCENE_IGNIMBRITES_AN
 10
483798.77256224432
 20
229555.9745097589
 30
0.0
  0
VERTEX
  5
16D
  8
PLEISTOCENE_IGNIMBRITES_AN
 10
483754.3662880456
 20
229640.3357290641
 30
0.0
  0
VERTEX
  5
16E
  8
PLEISTOCENE_IGNIMBRITES_AN
 10
483554.11043069803
 20
229638.42258046611
 30
0.0
  0
VERTEX
  5
16F
  8
PLEISTOCENE_IGNIMBRITES_AN
 10
483471.4357029465
 20
229580.01611012599
 30
0.0
  0
VERTEX
  5
170
  8
PLEISTOCENE_IGNIMBRITES_AN
 10
483352.7787168037
 20
229554.05583771531
 30
0.0
  0
VERTEX
  5
171
  8
PLEISTOCENE_IGNIMBRITES_AN
 10
483224.48737623863
 20
229487.2502932598
 30
0.0
  0
VERTEX
  5
172
  8
PLEISTOCENE_IGNIMBRITES_AN
 10
483114.52337004
 20
229429.9883980111
 30
0.0
  0
VERTEX
  5
173
  8
PLEISTOCENE_IGNIMBRITES_AN
 10
483031.84864228847
 20
229371.58192767069
 30
0.0
  0
VERTEX
  5
174
  8
PLEISTOCENE_IGNIMBRITES_AN
 10
482940.21197045641
 20
229323.8636816307
 30
0.0
  0
VERTEX
  5
175
  8
PLEISTOCENE_IGNIMBRITES_AN
 10
482885.63341356203
 20
229326.15283181399
 30
0.0
  0
VERTEX
  5
176
  8
PLEISTOCENE_IGNIMBRITES_AN
 10
482803.76557822031
 20
229329.58655708889
 30
0.0
  0
VERTEX
  5
177
  8
PLEISTOCENE_IGNIMBRITES_AN
 10
482739.95611310872
 20
229321.95053303291
 30
0.0
  0
VERTEX
  5
178
  8
PLEISTOCENE_IGNIMBRITES_AN
 10
482703.97385471739
 20
229354.39673096241
 30
0.0
  0
VERTEX
  5
179
  8
PLEISTOCENE_IGNIMBRITES_AN
 10
482640.29887167382
 20
229357.0674061756
 30
0.0
  0
VERTEX
  5
17A
  8
PLEISTOCENE_IGNIMBRITES_AN
 10
482559.64137494721
 20
229453.26142487279
 30
0.0
  0
VERTEX
  5
17B
  8
PLEISTOCENE_IGNIMBRITES_AN
 10
482579.44801206491
 20
229576.1787660413
 30
0.0
  0
VERTEX
  5
17C
  8
PLEISTOCENE_IGNIMBRITES_AN
 10
482599.12016711471
 20
229688.7894079393
 30
0.0
  0
VERTEX
  5
17D
  8
PLEISTOCENE_IGNIMBRITES_AN
 10
482628.02323038148
 20
229811.32522407809
 30
0.0
  0
VERTEX
  5
17E
  8
PLEISTOCENE_IGNIMBRITES_AN
 10
482638.19551307702
 20
229893.39729319981
 30
0.0
  0
VERTEX
  5
17F
  8
PLEISTOCENE_IGNIMBRITES_AN
 10
482675.38811008353
 20
229953.71138869249
 30
0.0
  0
VERTEX
  5
180
  8
PLEISTOCENE_IGNIMBRITES_AN
 10
482759.13869438122
 20
230094.57145318581
 30
0.0
  0
VERTEX
  5
181
  8
PLEISTOCENE_IGNIMBRITES_AN
 10
482814.79310782219
 20
230174.73589715501
 30
0.0
  0
VERTEX
  5
182
  8
PLEISTOCENE_IGNIMBRITES_AN
 10
482942.94996631908
 20
230231.2347423418
 30
0.0
  0
VERTEX
  5
183
  8
PLEISTOCENE_IGNIMBRITES_AN
 10
483034.31767401431
 20
230258.33958984399
 30
0.0
  0
VERTEX
  5
184
  8
PLEISTOCENE_IGNIMBRITES_AN
 10
483171.16751245537
 20
230283.53681219369
 30
0.0
  0
VERTEX
  5
185
  8
PLEISTOCENE_IGNIMBRITES_AN
 10
483308.68976123782
 20
230360.26753088841
 30
0.0
  0
VERTEX
  5
186
  8
PLEISTOCENE_IGNIMBRITES_AN
 10
483769.56276176497
 20
230804.99274647149
 30
0.0
  0
VERTEX
  5
187
  8
PLEISTOCENE_IGNIMBRITES_AN
 10
483899.06444094487
 20
230964.55858435019
 30
0.0
  0
VERTEX
  5
188
  8
PLEISTOCENE_IGNIMBRITES_AN
 10
484038.33495661558
 20
231175.27639354361
 30
0.0
  0
VERTEX
  5
189
  8
PLEISTOCENE_IGNIMBRITES_AN
 10
484076.33444603172
 20
231297.4306846509
 30
0.0
  0
VERTEX
  5
18A
  8
PLEISTOCENE_IGNIMBRITES_AN
 10
484178.27788262779
 20
231437.52769908239
 30
0.0
  0
VERTEX
  5
18B
  8
PLEISTOCENE_IGNIMBRITES_AN
 10
484180.02614951582
 20
231571.5147895808
 30
0.0
  0
VERTEX
  5
18C
  8
PLEISTOCENE_IGNIMBRITES_AN
 10
484146.46456835442
 20
231789.48157435379
 30
0.0
  0
VERTEX
  5
18D
  8
PLEISTOCENE_IGNIMBRITES_AN
 10
484148.4817993787
 20
231944.0820633902
 30
0.0
  0
VERTEX
  5
18E
  8
PLEISTOCENE_IGNIMBRITES_AN
 10
484178.0572729875
 20
232118.15137587351
 30
0.0
  0
VERTEX
  5
18F
  8
PLEISTOCENE_IGNIMBRITES_AN
 10
484252.71143113647
 20
232259.3929653964
 30
0.0
  0
VERTEX
  5
190
  8
PLEISTOCENE_IGNIMBRITES_AN
 10
484310.7865218072
 20
232525.07799620999
 30
0.0
  0
VERTEX
  5
191
  8
PLEISTOCENE_IGNIMBRITES_AN
 10
484414.07477908622
 20
232768.24200333279
 30
0.0
  0
VERTEX
  5
192
  8
PLEISTOCENE_IGNIMBRITES_AN
 10
484524.98015976261
 20
232897.65079346509
 30
0.0
  0
VERTEX
  5
193
  8
PLEISTOCENE_IGNIMBRITES_AN
 10
484572.61400360119
 20
233060.65035661819
 30
0.0
  0
VERTEX
  5
194
  8
PLEISTOCENE_IGNIMBRITES_AN
 10
484673.21261951409
 20
233097.68037835881
 30
0.0
  0
VERTEX
  5
195
  8
PLEISTOCENE_IGNIMBRITES_AN
 10
484745.58058250148
 20
233063.70808030671
 30
0.0
  0
VERTEX
  5
196
  8
PLEISTOCENE_IGNIMBRITES_AN
 10
484862.75826589298
 20
232976.2946607575
 30
0.0
  0
VERTEX
  5
197
  8
PLEISTOCENE_IGNIMBRITES_AN
 10
484879.74077957618
 20
232882.7713172746
 30
0.0
  0
VERTEX
  5
198
  8
PLEISTOCENE_IGNIMBRITES_AN
 10
484896.72329325951
 20
232789.24797379179
 30
0.0
  0
VERTEX
  5
199
  8
PLEISTOCENE_IGNIMBRITES_AN
 10
484940.59163918521
 20
232663.65995741019
 30
0.0
  0
VERTEX
  5
19A
  8
PLEISTOCENE_IGNIMBRITES_AN
 10
485022.32499245851
 20
232649.91953286581
 30
0.0
  0
VERTEX
  5
19B
  8
PLEISTOCENE_IGNIMBRITES_AN
 10
485134.17174761352
 20
232851.4752178826
 30
0.0
  0
VERTEX
  5
19C
  8
PLEISTOCENE_IGNIMBRITES_AN
 10
485217.51888570649
 20
232961.41518456701
 30
0.0
  0
VERTEX
  5
19D
  8
PLEISTOCENE_IGNIMBRITES_AN
 10
485319.19335816591
 20
233080.89880046051
 30
0.0
  0
VERTEX
  5
19E
  8
PLEISTOCENE_IGNIMBRITES_AN
 10
485438.38827258209
 20
233148.08586994751
 30
0.0
  0
VERTEX
  5
19F
  8
PLEISTOCENE_IGNIMBRITES_AN
 10
485556.64181251993
 20
233143.1260445512
 30
0.0
  0
VERTEX
  5
1A0
  8
PLEISTOCENE_IGNIMBRITES_AN
 10
485803.0522109546
 20
233194.66506434159
 30
0.0
  0
VERTEX
  5
1A1
  8
PLEISTOCENE_IGNIMBRITES_AN
 10
485821.51402738912
 20
233214.5154128182
 30
0.0
  0
VERTEX
  5
1A2
  8
PLEISTOCENE_IGNIMBRITES_AN
 10
485968.6706305939
 20
233332.09140355911
 30
0.0
  0
VERTEX
  5
1A3
  8
PLEISTOCENE_IGNIMBRITES_AN
 10
486115.96171586699
 20
233459.9740935697
 30
0.0
  0
VERTEX
  5
1A4
  8
PLEISTOCENE_IGNIMBRITES_AN
 10
486152.88534873642
 20
233499.6747905238
 30
0.0
  0
VERTEX
  5
1A5
  8
PLEISTOCENE_IGNIMBRITES_AN
 10
486243.88475096773
 20
233529.39833819031
 30
0.0
  0
VERTEX
  5
1A6
  8
PLEISTOCENE_IGNIMBRITES_AN
 10
486147.51230714918
 20
233304.59138166881
 30
0.0
  0
VERTEX
  5
1A7
  8
PLEISTOCENE_IGNIMBRITES_AN
 10
486097.03624263289
 20
233150.89897846919
 30
0.0
  0
VERTEX
  5
1A8
  8
PLEISTOCENE_IGNIMBRITES_AN
 10
486019.02838040079
 20
232916.9187468052
 30
0.0
  0
VERTEX
  5
1A9
  8
PLEISTOCENE_IGNIMBRITES_AN
 10
485871.28476849332
 20
232597.9900672138
 30
0.0
  0
VERTEX
  5
1AA
  8
PLEISTOCENE_IGNIMBRITES_AN
 10
485840.91040160111
 20
232557.2384442137
 30
0.0
  0
VERTEX
  5
1AB
  8
PLEISTOCENE_IGNIMBRITES_AN
 10
485743.55664859759
 20
232417.46287550661
 30
0.0
  0
VERTEX
  5
1AC
  8
PLEISTOCENE_IGNIMBRITES_AN
 10
485682.2330536216
 20
232326.38588426099
 30
0.0
  0
VERTEX
  5
1AD
  8
PLEISTOCENE_IGNIMBRITES_AN
 10
485626.91489043279
 20
232214.08059670709
 30
0.0
  0
VERTEX
  5
1AE
  8
PLEISTOCENE_IGNIMBRITES_AN
 10
485577.26063666772
 20
232127.64242021021
 30
0.0
  0
VERTEX
  5
1AF
  8
PLEISTOCENE_IGNIMBRITES_AN
 10
485514.4250244897
 20
232000.22700077249
 30
0.0
  0
VERTEX
  5
1B0
  8
PLEISTOCENE_IGNIMBRITES_AN
 10
485494.88735150878
 20
231897.92305814219
 30
0.0
  0
VERTEX
  5
1B1
  8
PLEISTOCENE_IGNIMBRITES_AN
 10
485492.6011563472
 20
231722.7091705674
 30
0.0
  0
VERTEX
  5
1B2
  8
PLEISTOCENE_IGNIMBRITES_AN
 10
485499.2117328571
 20
231425.15760429809
 30
0.0
  0
VERTEX
  5
1B3
  8
PLEISTOCENE_IGNIMBRITES_AN
 10
485474.16345175059
 20
231399.85341762731
 30
0.0
  0
VERTEX
  5
1B4
  8
PLEISTOCENE_IGNIMBRITES_AN
 10
485237.86821071792
 20
231220.12173875311
 30
0.0
  0
VERTEX
  5
1B5
  8
PLEISTOCENE_IGNIMBRITES_AN
 10
485154.6217109572
 20
231159.45624509011
 30
0.0
  0
VERTEX
  5
1B6
  8
PLEISTOCENE_IGNIMBRITES_AN
 10
485037.68633437419
 20
231084.448904372
 30
0.0
  0
VERTEX
  5
1B7
  8
PLEISTOCENE_IGNIMBRITES_AN
 10
484979.61330798402
 20
231050.0858873048
 30
0.0
  0
VERTEX
  5
1B8
  8
PLEISTOCENE_IGNIMBRITES_AN
 10
484927.23236446403
 20
231015.7793914075
 30
0.0
  0
VERTEX
  5
1B9
  8
PLEISTOCENE_IGNIMBRITES_AN
 10
484868.85177118401
 20
230973.1699253454
 30
0.0
  0
VERTEX
  5
1BA
  8
PLEISTOCENE_IGNIMBRITES_AN
 10
484811.59153961111
 20
230930.7016145915
 30
0.0
  0
VERTEX
  5
1BB
  8
PLEISTOCENE_IGNIMBRITES_AN
 10
484770.9584049487
 20
230876.2364183504
 30
0.0
  0
VERTEX
  5
1BC
  8
PLEISTOCENE_IGNIMBRITES_AN
 10
484794.06044738891
 20
230798.70439439031
 30
0.0
  0
VERTEX
  5
1BD
  8
PLEISTOCENE_IGNIMBRITES_AN
 10
484850.9616169568
 20
230677.13767368789
 30
0.0
  0
VERTEX
  5
1BE
  8
PLEISTOCENE_IGNIMBRITES_AN
 10
484909.43995383522
 20
230586.27970279829
 30
0.0
  0
VERTEX
  5
1BF
  8
PLEISTOCENE_IGNIMBRITES_AN
 10
485000.41278607282
 20
230478.3810940136
 30
0.0
  0
VERTEX
  5
1C0
  8
PLEISTOCENE_IGNIMBRITES_AN
 10
485029.19472594169
 20
230443.05842520579
 30
0.0
  0
VERTEX
  5
1C1
  8
PLEISTOCENE_IGNIMBRITES_AN
 10
485054.28622761858
 20
230380.531227845
 30
0.0
  0
VERTEX
  5
1C2
  8
PLEISTOCENE_IGNIMBRITES_AN
 10
485067.51424975437
 20
230302.89421205781
 30
0.0
  0
VERTEX
  5
1C3
  8
PLEISTOCENE_IGNIMBRITES_AN
 10
484895.85746493272
 20
229932.7661761292
 30
0.0
  0
VERTEX
  5
1C4
  8
PLEISTOCENE_IGNIMBRITES_AN
 10
484886.62655671558
 20
229922.84100189109
 30
0.0
  0
VERTEX
  5
1C5
  8
PLEISTOCENE_IGNIMBRITES_AN
 10
484830.83766120637
 20
229832.3698586516
 30
0.0
  0
VERTEX
  5
1C6
  8
PLEISTOCENE_IGNIMBRITES_AN
 10
484811.70343443012
 20
229760.98601382901
 30
0.0
  0
VERTEX
  5
1C7
  8
PLEISTOCENE_IGNIMBRITES_AN
 10
484823.99585843028
 20
229610.41527964181
 30
0.0
  0
VERTEX
  5
1C8
  8
PLEISTOCENE_IGNIMBRITES_AN
 10
484996.66622443742
 20
229365.77128116001
 30
0.0
  0
VERTEX
  5
1C9
  8
PLEISTOCENE_IGNIMBRITES_AN
 10
484988.33316736389
 20
229268.4450988388
 30
0.0
  0
VERTEX
  5
1CA
  8
PLEISTOCENE_IGNIMBRITES_AN
 10
484982.77845457592
 20
229195.4512149627
 30
0.0
  0
VERTEX
  5
1CB
  8
PLEISTOCENE_IGNIMBRITES_AN
 10
484938.73608188378
 20
229033.79418953441
 30
0.0
  0
VERTEX
  5
1CC
  8
PLEISTOCENE_IGNIMBRITES_AN
 10
484901.14003867289
 20
228942.55999623419
 30
0.0
  0
VERTEX
  5
1CD
  8
PLEISTOCENE_IGNIMBRITES_AN
 10
484869.70103646698
 20
228716.8188213025
 30
0.0
  0
VERTEX
  5
1CE
  8
PLEISTOCENE_IGNIMBRITES_AN
 10
484973.71716487379
 20
228529.7479028003
 30
0.0
  0
VERTEX
  5
1CF
  8
PLEISTOCENE_IGNIMBRITES_AN
 10
485022.03416073287
 20
228466.44249173891
 30
0.0
  0
VERTEX
  5
1D0
  8
PLEISTOCENE_IGNIMBRITES_AN
 10
485071.14444220962
 20
228403.13632460361
 30
0.0
  0
VERTEX
  5
1D1
  8
PLEISTOCENE_IGNIMBRITES_AN
 10
485164.09362843062
 20
228263.27415258251
 30
0.0
  0
VERTEX
  5
1D2
  8
PLEISTOCENE_IGNIMBRITES_AN
 10
485227.29527523502
 20
228187.75750315309
 30
0.0
  0
VERTEX
  5
1D3
  8
PLEISTOCENE_IGNIMBRITES_AN
 10
485275.0183434682
 20
228119.90886854861
 30
0.0
  0
VERTEX
  5
1D4
  8
PLEISTOCENE_IGNIMBRITES_AN
 10
485359.59388067952
 20
227962.91385665099
 30
0.0
  0
VERTEX
  5
1D5
  8
PLEISTOCENE_IGNIMBRITES_AN
 10
485413.80524573539
 20
227776.38792559481
 30
0.0
  0
VERTEX
  5
1D6
  8
PLEISTOCENE_IGNIMBRITES_AN
 10
485448.7116475802
 20
227661.4881335122
 30
0.0
  0
VERTEX
  5
1D7
  8
PLEISTOCENE_IGNIMBRITES_AN
 10
485455.65636063652
 20
227496.19942017601
 30
0.0
  0
VERTEX
  5
1D8
  8
PLEISTOCENE_IGNIMBRITES_AN
 10
485463.67693023907
 20
227413.3643009931
 30
0.0
  0
VERTEX
  5
1D9
  8
PLEISTOCENE_IGNIMBRITES_AN
 10
485462.06314541918
 20
227289.68390976379
 30
0.0
  0
VERTEX
  5
1DA
  8
PLEISTOCENE_IGNIMBRITES_AN
 10
485388.21587968012
 20
227210.2825158551
 30
0.0
  0
VERTEX
  5
1DB
  8
PLEISTOCENE_IGNIMBRITES_AN
 10
485259.11764670513
 20
227081.6367757837
 30
0.0
  0
VERTEX
  5
1DC
  8
PLEISTOCENE_IGNIMBRITES_AN
 10
485167.74993900949
 20
227054.53192828179
 30
0.0
  0
VERTEX
  5
1DD
  8
PLEISTOCENE_IGNIMBRITES_AN
 10
485030.22769022721
 20
226977.8012095874
 30
0.0
  0
VERTEX
  5
1DE
  8
PLEISTOCENE_IGNIMBRITES_AN
 10
484865.81960920262
 20
226933.13516379031
 30
0.0
  0
VERTEX
  5
1DF
  8
PLEISTOCENE_IGNIMBRITES_AN
 10
484728.43184248829
 20
226866.71114436511
 30
0.0
  0
VERTEX
  5
1E0
  8
PLEISTOCENE_IGNIMBRITES_AN
 10
484416.73267619062
 20
226694.16240855871
 30
0.0
  0
VERTEX
  5
1E1
  8
PLEISTOCENE_IGNIMBRITES_AN
 10
484041.49300891778
 20
226534.5910472353
 30
0.0
  0
VERTEX
  5
1E2
  8
PLEISTOCENE_IGNIMBRITES_AN
 10
483986.51100581838
 20
226505.9600996112
 30
0.0
  0
VERTEX
  5
1E3
  8
PLEISTOCENE_IGNIMBRITES_AN
 10
483803.64110835892
 20
226441.44370533849
 30
0.0
  0
VERTEX
  5
1E4
  8
PLEISTOCENE_IGNIMBRITES_AN
 10
483703.44593865093
 20
226435.33378140471
 30
0.0
  0
VERTEX
  5
1E5
  8
PLEISTOCENE_IGNIMBRITES_AN
 10
483521.51741566957
 20
226442.9642820154
 30
0.0
  0
VERTEX
  5
1E6
  8
PLEISTOCENE_IGNIMBRITES_AN
 10
483347.8784264276
 20
226388.37306198041
 30
0.0
  0
VERTEX
  5
1E7
  8
PLEISTOCENE_IGNIMBRITES_AN
 10
483220.25949620397
 20
226373.10101386861
 30
0.0
  0
VERTEX
  5
1E8
  8
PLEISTOCENE_IGNIMBRITES_AN
 10
483174.9118475272
 20
226385.31533829079
 30
0.0
  0
VERTEX
  5
1E9
  8
PLEISTOCENE_IGNIMBRITES_AN
 10
483038.46545529098
 20
226391.03821374869
 30
0.0
  0
VERTEX
  5
1EA
  8
PLEISTOCENE_IGNIMBRITES_AN
 10
482910.84652506741
 20
226375.76616563791
 30
0.0
  0
VERTEX
  5
1EB
  8
PLEISTOCENE_IGNIMBRITES_AN
 10
482864.69198398059
 20
226326.14029444571
 30
0.0
  0
VERTEX
  5
1EC
  8
PLEISTOCENE_IGNIMBRITES_AN
 10
482827.36490490608
 20
226255.51949968329
 30
0.0
  0
VERTEX
  5
1ED
  8
PLEISTOCENE_IGNIMBRITES_AN
 10
482789.09645135351
 20
226112.75181003771
 30
0.0
  0
VERTEX
  5
1EE
  8
PLEISTOCENE_IGNIMBRITES_AN
 10
482725.55595037818
 20
226125.72918452069
 30
0.0
  0
VERTEX
  5
1EF
  8
PLEISTOCENE_IGNIMBRITES_AN
 10
482552.05144320457
 20
226081.4446637558
 30
0.0
  0
SEQEND
  5
1F0
  8
PLEISTOCENE_IGNIMBRITES_AN
  0
POLYLINE
  5
70
  8
PLIO-PLEISTOCENE_DIATOMITE
 66
     1
 10
0.0
 20
0.0
 30
0.0
 70
     1
1001
ACAD
1000
ASC_BOUNDS
1002
{
1070
    19
1005
0
1002
}
  0
VERTEX
  5
1F1
  8
PLIO-PLEISTOCENE_DIATOMITE
 10
485414.47765607713
 20
227827.9214219393
 30
0.0
  0
VERTEX
  5
1F2
  8
PLIO-PLEISTOCENE_DIATOMITE
 10
485624.0989037106
 20
227850.0664440454
 30
0.0
  0
VERTEX
  5
1F3
  8
PLIO-PLEISTOCENE_DIATOMITE
 10
485670.118962729
 20
227889.38561596931
 30
0.0
  0
VERTEX
  5
1F4
  8
PLIO-PLEISTOCENE_DIATOMITE
 10
485908.77775569761
 20
228044.37315348099
 30
0.0
  0
VERTEX
  5
1F5
  8
PLIO-PLEISTOCENE_DIATOMITE
 10
485957.08400987758
 20
228258.90621297969
 30
0.0
  0
VERTEX
  5
1F6
  8
PLIO-PLEISTOCENE_DIATOMITE
 10
486003.91096130619
 20
228360.06558051801
 30
0.0
  0
VERTEX
  5
1F7
  8
PLIO-PLEISTOCENE_DIATOMITE
 10
486016.234957095
 20
228607.04483794561
 30
0.0
  0
VERTEX
  5
1F8
  8
PLIO-PLEISTOCENE_DIATOMITE
 10
486035.1002197346
 20
228657.81528423051
 30
0.0
  0
VERTEX
  5
1F9
  8
PLIO-PLEISTOCENE_DIATOMITE
 10
486064.40672920638
 20
228811.27119817521
 30
0.0
  0
VERTEX
  5
1FA
  8
PLIO-PLEISTOCENE_DIATOMITE
 10
486075.7893505168
 20
228986.10356071941
 30
0.0
  0
VERTEX
  5
1FB
  8
PLIO-PLEISTOCENE_DIATOMITE
 10
486114.32676820608
 20
229149.48464890241
 30
0.0
  0
VERTEX
  5
1FC
  8
PLIO-PLEISTOCENE_DIATOMITE
 10
486124.63353296992
 20
229241.86341729391
 30
0.0
  0
VERTEX
  5
1FD
  8
PLIO-PLEISTOCENE_DIATOMITE
 10
486162.90198652248
 20
229384.6311069392
 30
0.0
  0
VERTEX
  5
1FE
  8
PLIO-PLEISTOCENE_DIATOMITE
 10
486210.80479449761
 20
229568.2440686312
 30
0.0
  0
VERTEX
  5
1FF
  8
PLIO-PLEISTOCENE_DIATOMITE
 10
486239.16992949141
 20
229649.55308769271
 30
0.0
  0
VERTEX
  5
200
  8
PLIO-PLEISTOCENE_DIATOMITE
 10
486279.18664993212
 20
229926.30786783571
 30
0.0
  0
VERTEX
  5
201
  8
PLIO-PLEISTOCENE_DIATOMITE
 10
486289.62789676408
 20
230028.99333549599
 30
0.0
  0
VERTEX
  5
202
  8
PLIO-PLEISTOCENE_DIATOMITE
 10
486319.47233450948
 20
230223.67604651721
 30
0.0
  0
VERTEX
  5
203
  8
PLIO-PLEISTOCENE_DIATOMITE
 10
486331.12391995679
 20
230419.1218076004
 30
0.0
  0
VERTEX
  5
204
  8
PLIO-PLEISTOCENE_DIATOMITE
 10
486297.02441052138
 20
230595.86179529689
 30
0.0
  0
VERTEX
  5
205
  8
PLIO-PLEISTOCENE_DIATOMITE
 10
486091.84107114282
 20
230913.83784907151
 30
0.0
  0
VERTEX
  5
206
  8
PLIO-PLEISTOCENE_DIATOMITE
 10
485887.1956600367
 20
231273.040699923
 30
0.0
  0
VERTEX
  5
207
  8
PLIO-PLEISTOCENE_DIATOMITE
 10
485950.8706430801
 20
231270.37002470929
 30
0.0
  0
VERTEX
  5
208
  8
PLIO-PLEISTOCENE_DIATOMITE
 10
486042.64179698058
 20
231328.39497001891
 30
0.0
  0
VERTEX
  5
209
  8
PLIO-PLEISTOCENE_DIATOMITE
 10
486053.88993622258
 20
231492.92063329369
 30
0.0
  0
VERTEX
  5
20A
  8
PLIO-PLEISTOCENE_DIATOMITE
 10
486073.96553747711
 20
231636.4513729999
 30
0.0
  0
VERTEX
  5
20B
  8
PLIO-PLEISTOCENE_DIATOMITE
 10
486120.25456063251
 20
231696.38394346161
 30
0.0
  0
VERTEX
  5
20C
  8
PLIO-PLEISTOCENE_DIATOMITE
 10
486213.370535216
 20
231857.47588146251
 30
0.0
  0
VERTEX
  5
20D
  8
PLIO-PLEISTOCENE_DIATOMITE
 10
486268.21805624722
 20
231875.8001298169
 30
0.0
  0
VERTEX
  5
20E
  8
PLIO-PLEISTOCENE_DIATOMITE
 10
486350.08589158888
 20
231872.36640454319
 30
0.0
  0
VERTEX
  5
20F
  8
PLIO-PLEISTOCENE_DIATOMITE
 10
486440.91567101132
 20
231858.24445496869
 30
0.0
  0
VERTEX
  5
210
  8
PLIO-PLEISTOCENE_DIATOMITE
 10
486647.30934900499
 20
231633.0286946159
 30
0.0
  0
VERTEX
  5
211
  8
PLIO-PLEISTOCENE_DIATOMITE
 10
486710.71536791191
 20
231609.74462086381
 30
0.0
  0
VERTEX
  5
212
  8
PLIO-PLEISTOCENE_DIATOMITE
 10
486854.50991940859
 20
231469.65312987749
 30
0.0
  0
VERTEX
  5
213
  8
PLIO-PLEISTOCENE_DIATOMITE
 10
486962.4566945823
 20
231372.31453608809
 30
0.0
  0
VERTEX
  5
214
  8
PLIO-PLEISTOCENE_DIATOMITE
 10
487061.57600774412
 20
231295.9708658687
 30
0.0
  0
VERTEX
  5
215
  8
PLIO-PLEISTOCENE_DIATOMITE
 10
487188.11908142088
 20
231228.78931982751
 30
0.0
  0
VERTEX
  5
216
  8
PLIO-PLEISTOCENE_DIATOMITE
 10
487287.23839458253
 20
231152.4456496085
 30
0.0
  0
VERTEX
  5
217
  8
PLIO-PLEISTOCENE_DIATOMITE
 10
487322.6827247006
 20
231078.7726546028
 30
0.0
  0
VERTEX
  5
218
  8
PLIO-PLEISTOCENE_DIATOMITE
 10
487547.40373706107
 20
230863.10054345729
 30
0.0
  0
VERTEX
  5
219
  8
PLIO-PLEISTOCENE_DIATOMITE
 10
487627.92675171921
 20
230756.59982549169
 30
0.0
  0
VERTEX
  5
21A
  8
PLIO-PLEISTOCENE_DIATOMITE
 10
487762.4903949991
 20
230606.58316026669
 30
0.0
  0
VERTEX
  5
21B
  8
PLIO-PLEISTOCENE_DIATOMITE
 10
487834.05146557657
 20
230510.7706666007
 30
0.0
  0
VERTEX
  5
21C
  8
PLIO-PLEISTOCENE_DIATOMITE
 10
487985.3286584029
 20
230246.6172593543
 30
0.0
  0
VERTEX
  5
21D
  8
PLIO-PLEISTOCENE_DIATOMITE
 10
488020.10057817918
 20
230121.4107680028
 30
0.0
  0
VERTEX
  5
21E
  8
PLIO-PLEISTOCENE_DIATOMITE
 10
488089.91338186897
 20
229891.61118383869
 30
0.0
  0
VERTEX
  5
21F
  8
PLIO-PLEISTOCENE_DIATOMITE
 10
488086.28236602398
 20
229613.33030357331
 30
0.0
  0
VERTEX
  5
220
  8
PLIO-PLEISTOCENE_DIATOMITE
 10
488066.0722827015
 20
229459.49286459771
 30
0.0
  0
VERTEX
  5
221
  8
PLIO-PLEISTOCENE_DIATOMITE
 10
488018.70740300009
 20
229317.1066999819
 30
0.0
  0
VERTEX
  5
222
  8
PLIO-PLEISTOCENE_DIATOMITE
 10
487953.82208134141
 20
229227.01708177431
 30
0.0
  0
VERTEX
  5
223
  8
PLIO-PLEISTOCENE_DIATOMITE
 10
487889.34020588809
 20
229167.8475613734
 30
0.0
  0
VERTEX
  5
224
  8
PLIO-PLEISTOCENE_DIATOMITE
 10
487785.2450561992
 20
228862.8433586364
 30
0.0
  0
VERTEX
  5
225
  8
PLIO-PLEISTOCENE_DIATOMITE
 10
487784.97609206208
 20
228842.2299600977
 30
0.0
  0
VERTEX
  5
226
  8
PLIO-PLEISTOCENE_DIATOMITE
 10
487638.0884529943
 20
228745.2673678952
 30
0.0
  0
VERTEX
  5
227
  8
PLIO-PLEISTOCENE_DIATOMITE
 10
487480.35612088902
 20
228514.69921022491
 30
0.0
  0
VERTEX
  5
228
  8
PLIO-PLEISTOCENE_DIATOMITE
 10
487258.14191333042
 20
228224.96153215319
 30
0.0
  0
VERTEX
  5
229
  8
PLIO-PLEISTOCENE_DIATOMITE
 10
487101.48543777142
 20
228076.84696863571
 30
0.0
  0
VERTEX
  5
22A
  8
PLIO-PLEISTOCENE_DIATOMITE
 10
486980.00432819431
 20
227834.44601157421
 30
0.0
  0
VERTEX
  5
22B
  8
PLIO-PLEISTOCENE_DIATOMITE
 10
486879.40571228112
 20
227797.41598983319
 30
0.0
  0
VERTEX
  5
22C
  8
PLIO-PLEISTOCENE_DIATOMITE
 10
486491.4386030148
 20
227359.94527327479
 30
0.0
  0
VERTEX
  5
22D
  8
PLIO-PLEISTOCENE_DIATOMITE
 10
486388.95723814517
 20
227178.6214617673
 30
0.0
  0
VERTEX
  5
22E
  8
PLIO-PLEISTOCENE_DIATOMITE
 10
486230.01456742501
 20
226855.29301067509
 30
0.0
  0
VERTEX
  5
22F
  8
PLIO-PLEISTOCENE_DIATOMITE
 10
486145.18812658038
 20
226631.97935202881
 30
0.0
  0
VERTEX
  5
230
  8
PLIO-PLEISTOCENE_DIATOMITE
 10
486125.78493566788
 20
226539.98210866889
 30
0.0
  0
VERTEX
  5
231
  8
PLIO-PLEISTOCENE_DIATOMITE
 10
486021.82426804688
 20
226245.2846052002
 30
0.0
  0
VERTEX
  5
232
  8
PLIO-PLEISTOCENE_DIATOMITE
 10
486002.28659506573
 20
226142.98066257039
 30
0.0
  0
VERTEX
  5
233
  8
PLIO-PLEISTOCENE_DIATOMITE
 10
485998.65557922109
 20
225864.6997823049
 30
0.0
  0
VERTEX
  5
234
  8
PLIO-PLEISTOCENE_DIATOMITE
 10
486231.12819704751
 20
225545.5791534379
 30
0.0
  0
VERTEX
  5
235
  8
PLIO-PLEISTOCENE_DIATOMITE
 10
486304.03408830852
 20
225552.83365246261
 30
0.0
  0
VERTEX
  5
236
  8
PLIO-PLEISTOCENE_DIATOMITE
 10
486495.32800157531
 20
225565.43502536049
 30
0.0
  0
VERTEX
  5
237
  8
PLIO-PLEISTOCENE_DIATOMITE
 10
486577.96023152
 20
225592.56871182431
 30
0.0
  0
VERTEX
  5
238
  8
PLIO-PLEISTOCENE_DIATOMITE
 10
486518.77115557302
 20
225782.81235826391
 30
0.0
  0
VERTEX
  5
239
  8
PLIO-PLEISTOCENE_DIATOMITE
 10
486455.02946765471
 20
226126.9920080658
 30
0.0
  0
VERTEX
  5
23A
  8
PLIO-PLEISTOCENE_DIATOMITE
 10
486463.27836844663
 20
226277.99857391979
 30
0.0
  0
VERTEX
  5
23B
  8
PLIO-PLEISTOCENE_DIATOMITE
 10
486474.06562846061
 20
226410.97568800699
 30
0.0
  0
VERTEX
  5
23C
  8
PLIO-PLEISTOCENE_DIATOMITE
 10
486489.81394433923
 20
226536.2406260627
 30
0.0
  0
VERTEX
  5
23D
  8
PLIO-PLEISTOCENE_DIATOMITE
 10
486536.97971361037
 20
226676.46937206879
 30
0.0
  0
VERTEX
  5
23E
  8
PLIO-PLEISTOCENE_DIATOMITE
 10
486639.66820084309
 20
226824.7079564317
 30
0.0
  0
VERTEX
  5
23F
  8
PLIO-PLEISTOCENE_DIATOMITE
 10
486789.67683641397
 20
226964.5964195756
 30
0.0
  0
VERTEX
  5
240
  8
PLIO-PLEISTOCENE_DIATOMITE
 10
486930.6041837146
 20
227108.2225250467
 30
0.0
  0
VERTEX
  5
241
  8
PLIO-PLEISTOCENE_DIATOMITE
 10
487071.22586330608
 20
227230.41663761181
 30
0.0
  0
VERTEX
  5
242
  8
PLIO-PLEISTOCENE_DIATOMITE
 10
487179.39711627038
 20
227335.6685266472
 30
0.0
  0
VERTEX
  5
243
  8
PLIO-PLEISTOCENE_DIATOMITE
 10
487331.2908693254
 20
227503.98233544271
 30
0.0
  0
VERTEX
  5
244
  8
PLIO-PLEISTOCENE_DIATOMITE
 10
487410.02435412689
 20
227581.62650458279
 30
0.0
  0
VERTEX
  5
245
  8
PLIO-PLEISTOCENE_DIATOMITE
 10
487569.24850526662
 20
227730.33102719701
 30
0.0
  0
VERTEX
  5
246
  8
PLIO-PLEISTOCENE_DIATOMITE
 10
487692.2239759005
 20
227872.4279829739
 30
0.0
  0
VERTEX
  5
247
  8
PLIO-PLEISTOCENE_DIATOMITE
 10
487801.7757691812
 20
228037.16284201681
 30
0.0
  0
VERTEX
  5
248
  8
PLIO-PLEISTOCENE_DIATOMITE
 10
487909.18799655401
 20
228129.4067597322
 30
0.0
  0
VERTEX
  5
249
  8
PLIO-PLEISTOCENE_DIATOMITE
 10
488144.47238394752
 20
228376.4393993197
 30
0.0
  0
VERTEX
  5
24A
  8
PLIO-PLEISTOCENE_DIATOMITE
 10
488248.29363357689
 20
228470.5599737126
 30
0.0
  0
VERTEX
  5
24B
  8
PLIO-PLEISTOCENE_DIATOMITE
 10
488337.27067064121
 20
228487.1526322155
 30
0.0
  0
VERTEX
  5
24C
  8
PLIO-PLEISTOCENE_DIATOMITE
 10
488418.3837190175
 20
228481.93535498061
 30
0.0
  0
VERTEX
  5
24D
  8
PLIO-PLEISTOCENE_DIATOMITE
 10
488525.89205951238
 20
228456.70944375551
 30
0.0
  0
VERTEX
  5
24E
  8
PLIO-PLEISTOCENE_DIATOMITE
 10
488710.75261220918
 20
228420.89314830629
 30
0.0
  0
VERTEX
  5
24F
  8
PLIO-PLEISTOCENE_DIATOMITE
 10
488812.44986199751
 20
228362.28739080441
 30
0.0
  0
VERTEX
  5
250
  8
PLIO-PLEISTOCENE_DIATOMITE
 10
488872.17427535029
 20
228296.84260375399
 30
0.0
  0
VERTEX
  5
251
  8
PLIO-PLEISTOCENE_DIATOMITE
 10
488896.09180417209
 20
228203.13033738991
 30
0.0
  0
VERTEX
  5
252
  8
PLIO-PLEISTOCENE_DIATOMITE
 10
488794.56492133002
 20
228129.5003420955
 30
0.0
  0
VERTEX
  5
253
  8
PLIO-PLEISTOCENE_DIATOMITE
 10
488651.21515694098
 20
228143.4067625546
 30
0.0
  0
VERTEX
  5
254
  8
PLIO-PLEISTOCENE_DIATOMITE
 10
488553.17749446491
 20
228135.66147410171
 30
0.0
  0
VERTEX
  5
255
  8
PLIO-PLEISTOCENE_DIATOMITE
 10
488412.29803057329
 20
228041.62172498761
 30
0.0
  0
VERTEX
  5
256
  8
PLIO-PLEISTOCENE_DIATOMITE
 10
488309.50178330491
 20
227941.14786770081
 30
0.0
  0
VERTEX
  5
257
  8
PLIO-PLEISTOCENE_DIATOMITE
 10
488193.62741901848
 20
227493.0480917141
 30
0.0
  0
VERTEX
  5
258
  8
PLIO-PLEISTOCENE_DIATOMITE
 10
488166.66647913749
 20
227322.78532516171
 30
0.0
  0
VERTEX
  5
259
  8
PLIO-PLEISTOCENE_DIATOMITE
 10
488394.77806713647
 20
226834.83990315461
 30
0.0
  0
VERTEX
  5
25A
  8
PLIO-PLEISTOCENE_DIATOMITE
 10
488658.13165962422
 20
226848.1112478094
 30
0.0
  0
VERTEX
  5
25B
  8
PLIO-PLEISTOCENE_DIATOMITE
 10
488824.56452065718
 20
226877.59686065279
 30
0.0
  0
VERTEX
  5
25C
  8
PLIO-PLEISTOCENE_DIATOMITE
 10
489016.04414698418
 20
226911.07481701719
 30
0.0
  0
VERTEX
  5
25D
  8
PLIO-PLEISTOCENE_DIATOMITE
 10
489099.17685970571
 20
226912.78219963051
 30
0.0
  0
VERTEX
  5
25E
  8
PLIO-PLEISTOCENE_DIATOMITE
 10
489208.42550993263
 20
226902.601984768
 30
0.0
  0
VERTEX
  5
25F
  8
PLIO-PLEISTOCENE_DIATOMITE
 10
489330.95132903609
 20
226898.04777380239
 30
0.0
  0
VERTEX
  5
260
  8
PLIO-PLEISTOCENE_DIATOMITE
 10
489535.41456528357
 20
226831.65167231829
 30
0.0
  0
VERTEX
  5
261
  8
PLIO-PLEISTOCENE_DIATOMITE
 10
489632.07794717501
 20
226712.6026492599
 30
0.0
  0
VERTEX
  5
262
  8
PLIO-PLEISTOCENE_DIATOMITE
 10
489666.50000008621
 20
226593.07747846781
 30
0.0
  0
VERTEX
  5
263
  8
PLIO-PLEISTOCENE_DIATOMITE
 10
489645.01575856318
 20
226453.7880394228
 30
0.0
  0
VERTEX
  5
264
  8
PLIO-PLEISTOCENE_DIATOMITE
 10
489566.43907516531
 20
226338.0903253204
 30
0.0
  0
VERTEX
  5
265
  8
PLIO-PLEISTOCENE_DIATOMITE
 10
489305.75006028061
 20
226045.97774245779
 30
0.0
  0
VERTEX
  5
266
  8
PLIO-PLEISTOCENE_DIATOMITE
 10
489181.25713908661
 20
225933.3665781075
 30
0.0
  0
VERTEX
  5
267
  8
PLIO-PLEISTOCENE_DIATOMITE
 10
488998.13885688782
 20
225747.76520017441
 30
0.0
  0
VERTEX
  5
268
  8
PLIO-PLEISTOCENE_DIATOMITE
 10
488846.4719785176
 20
225553.65649610179
 30
0.0
  0
VERTEX
  5
269
  8
PLIO-PLEISTOCENE_DIATOMITE
 10
488846.48698931863
 20
225449.4402199008
 30
0.0
  0
VERTEX
  5
26A
  8
PLIO-PLEISTOCENE_DIATOMITE
 10
488924.71449430392
 20
225357.64180523841
 30
0.0
  0
VERTEX
  5
26B
  8
PLIO-PLEISTOCENE_DIATOMITE
 10
489160.17741704569
 20
225422.72809360991
 30
0.0
  0
VERTEX
  5
26C
  8
PLIO-PLEISTOCENE_DIATOMITE
 10
489377.11721079529
 20
225427.0429118546
 30
0.0
  0
VERTEX
  5
26D
  8
PLIO-PLEISTOCENE_DIATOMITE
 10
489503.7702787139
 20
225420.19770870221
 30
0.0
  0
VERTEX
  5
26E
  8
PLIO-PLEISTOCENE_DIATOMITE
 10
489503.7702787139
 20
225420.19770870221
 30
0.0
  0
VERTEX
  5
26F
  8
PLIO-PLEISTOCENE_DIATOMITE
 10
489578.86465820263
 20
225347.70804957629
 30
0.0
  0
VERTEX
  5
270
  8
PLIO-PLEISTOCENE_DIATOMITE
 10
489620.86758100841
 20
225155.9095345957
 30
0.0
  0
VERTEX
  5
271
  8
PLIO-PLEISTOCENE_DIATOMITE
 10
489639.46258098609
 20
225043.64594426489
 30
0.0
  0
VERTEX
  5
272
  8
PLIO-PLEISTOCENE_DIATOMITE
 10
489767.25339286868
 20
225022.38035834979
 30
0.0
  0
VERTEX
  5
273
  8
PLIO-PLEISTOCENE_DIATOMITE
 10
489880.00083484122
 20
225351.21447855889
 30
0.0
  0
VERTEX
  5
274
  8
PLIO-PLEISTOCENE_DIATOMITE
 10
490078.3349251654
 20
225782.93428087121
 30
0.0
  0
VERTEX
  5
275
  8
PLIO-PLEISTOCENE_DIATOMITE
 10
490237.469356952
 20
226077.0017997745
 30
0.0
  0
VERTEX
  5
276
  8
PLIO-PLEISTOCENE_DIATOMITE
 10
490277.44242417108
 20
226310.20630843239
 30
0.0
  0
VERTEX
  5
277
  8
PLIO-PLEISTOCENE_DIATOMITE
 10
490311.12394158478
 20
226534.82146534181
 30
0.0
  0
VERTEX
  5
278
  8
PLIO-PLEISTOCENE_DIATOMITE
 10
490273.98894542048
 20
226654.115264975
 30
0.0
  0
VERTEX
  5
279
  8
PLIO-PLEISTOCENE_DIATOMITE
 10
490122.67039625481
 20
227066.0394614136
 30
0.0
  0
VERTEX
  5
27A
  8
PLIO-PLEISTOCENE_DIATOMITE
 10
490124.24595640751
 20
227450.2307622121
 30
0.0
  0
VERTEX
  5
27B
  8
PLIO-PLEISTOCENE_DIATOMITE
 10
490157.81856761
 20
227762.40400914589
 30
0.0
  0
VERTEX
  5
27C
  8
PLIO-PLEISTOCENE_DIATOMITE
 10
490209.29924149218
 20
228125.61006729171
 30
0.0
  0
VERTEX
  5
27D
  8
PLIO-PLEISTOCENE_DIATOMITE
 10
490070.41689614218
 20
228220.44398968271
 30
0.0
  0
VERTEX
  5
27E
  8
PLIO-PLEISTOCENE_DIATOMITE
 10
489908.16052821052
 20
228340.68513219271
 30
0.0
  0
VERTEX
  5
27F
  8
PLIO-PLEISTOCENE_DIATOMITE
 10
489700.69099367032
 20
228483.44729839271
 30
0.0
  0
VERTEX
  5
280
  8
PLIO-PLEISTOCENE_DIATOMITE
 10
489575.89618688112
 20
228684.6159349324
 30
0.0
  0
VERTEX
  5
281
  8
PLIO-PLEISTOCENE_DIATOMITE
 10
489425.02244025999
 20
228979.6894399861
 30
0.0
  0
VERTEX
  5
282
  8
PLIO-PLEISTOCENE_DIATOMITE
 10
489228.26311668818
 20
229245.7504723845
 30
0.0
  0
VERTEX
  5
283
  8
PLIO-PLEISTOCENE_DIATOMITE
 10
488940.13608542149
 20
229484.7066572819
 30
0.0
  0
VERTEX
  5
284
  8
PLIO-PLEISTOCENE_DIATOMITE
 10
488686.37752772582
 20
229567.53625301999
 30
0.0
  0
VERTEX
  5
285
  8
PLIO-PLEISTOCENE_DIATOMITE
 10
488434.0982727817
 20
229763.739540718
 30
0.0
  0
VERTEX
  5
286
  8
PLIO-PLEISTOCENE_DIATOMITE
 10
488299.80359363859
 20
229934.36960448229
 30
0.0
  0
VERTEX
  5
287
  8
PLIO-PLEISTOCENE_DIATOMITE
 10
488267.72131522838
 20
230265.7100812151
 30
0.0
  0
VERTEX
  5
288
  8
PLIO-PLEISTOCENE_DIATOMITE
 10
488168.8709662038
 20
230362.6671499729
 30
0.0
  0
VERTEX
  5
289
  8
PLIO-PLEISTOCENE_DIATOMITE
 10
488044.74856975651
 20
230615.36928285871
 30
0.0
  0
VERTEX
  5
28A
  8
PLIO-PLEISTOCENE_DIATOMITE
 10
487964.76348337118
 20
230763.0967979008
 30
0.0
  0
VERTEX
  5
28B
  8
PLIO-PLEISTOCENE_DIATOMITE
 10
487839.16178417252
 20
230902.4252388259
 30
0.0
  0
VERTEX
  5
28C
  8
PLIO-PLEISTOCENE_DIATOMITE
 10
487713.02215670038
 20
231000.52688267551
 30
0.0
  0
VERTEX
  5
28D
  8
PLIO-PLEISTOCENE_DIATOMITE
 10
487597.3237760606
 20
231201.3139941846
 30
0.0
  0
VERTEX
  5
28E
  8
PLIO-PLEISTOCENE_DIATOMITE
 10
487427.71924886783
 20
231455.9237522239
 30
0.0
  0
VERTEX
  5
28F
  8
PLIO-PLEISTOCENE_DIATOMITE
 10
487383.0440105322
 20
231519.6715729904
 30
0.0
  0
VERTEX
  5
290
  8
PLIO-PLEISTOCENE_DIATOMITE
 10
487313.50017097942
 20
231770.0845556932
 30
0.0
  0
VERTEX
  5
291
  8
PLIO-PLEISTOCENE_DIATOMITE
 10
487455.05688181159
 20
232156.01625246141
 30
0.0
  0
VERTEX
  5
292
  8
PLIO-PLEISTOCENE_DIATOMITE
 10
487529.57655789179
 20
232286.9511427148
 30
0.0
  0
VERTEX
  5
293
  8
PLIO-PLEISTOCENE_DIATOMITE
 10
487621.88564006583
 20
232386.20288510149
 30
0.0
  0
VERTEX
  5
294
  8
PLIO-PLEISTOCENE_DIATOMITE
 10
487722.88770218368
 20
232454.1530046491
 30
0.0
  0
VERTEX
  5
295
  8
PLIO-PLEISTOCENE_DIATOMITE
 10
487833.25515458721
 20
232542.33499770451
 30
0.0
  0
VERTEX
  5
296
  8
PLIO-PLEISTOCENE_DIATOMITE
 10
488099.74115427647
 20
232737.404757201
 30
0.0
  0
VERTEX
  5
297
  8
PLIO-PLEISTOCENE_DIATOMITE
 10
488201.68459087249
 20
232877.50177163331
 30
0.0
  0
VERTEX
  5
298
  8
PLIO-PLEISTOCENE_DIATOMITE
 10
488149.39222913899
 20
233055.00480939029
 30
0.0
  0
VERTEX
  5
299
  8
PLIO-PLEISTOCENE_DIATOMITE
 10
487977.63598885399
 20
233144.7073791232
 30
0.0
  0
VERTEX
  5
29A
  8
PLIO-PLEISTOCENE_DIATOMITE
 10
487849.3446482888
 20
233077.90183466719
 30
0.0
  0
VERTEX
  5
29B
  8
PLIO-PLEISTOCENE_DIATOMITE
 10
487400.12323320837
 20
232828.62238016611
 30
0.0
  0
VERTEX
  5
29C
  8
PLIO-PLEISTOCENE_DIATOMITE
 10
487242.39090110292
 20
232598.0542224955
 30
0.0
  0
VERTEX
  5
29D
  8
PLIO-PLEISTOCENE_DIATOMITE
 10
487104.59968818392
 20
232500.71010526299
 30
0.0
  0
VERTEX
  5
29E
  8
PLIO-PLEISTOCENE_DIATOMITE
 10
486967.48088560638
 20
232454.89948437459
 30
0.0
  0
VERTEX
  5
29F
  8
PLIO-PLEISTOCENE_DIATOMITE
 10
486921.46082658798
 20
232415.58031245091
 30
0.0
  0
VERTEX
  5
2A0
  8
PLIO-PLEISTOCENE_DIATOMITE
 10
486767.22502825857
 20
232452.986335778
 30
0.0
  0
VERTEX
  5
2A1
  8
PLIO-PLEISTOCENE_DIATOMITE
 10
486694.85706527112
 20
232486.9586338287
 30
0.0
  0
VERTEX
  5
2A2
  8
PLIO-PLEISTOCENE_DIATOMITE
 10
486532.06276906631
 20
232565.9729792611
 30
0.0
  0
VERTEX
  5
2A3
  8
PLIO-PLEISTOCENE_DIATOMITE
 10
486498.63566997298
 20
232794.24646330351
 30
0.0
  0
VERTEX
  5
2A4
  8
PLIO-PLEISTOCENE_DIATOMITE
 10
486535.424820774
 20
232823.64046098871
 30
0.0
  0
VERTEX
  5
2A5
  8
PLIO-PLEISTOCENE_DIATOMITE
 10
486599.63773209101
 20
232862.19658285149
 30
0.0
  0
VERTEX
  5
2A6
  8
PLIO-PLEISTOCENE_DIATOMITE
 10
486637.63722150709
 20
232984.35087395881
 30
0.0
  0
VERTEX
  5
2A7
  8
PLIO-PLEISTOCENE_DIATOMITE
 10
486678.7297984942
 20
233343.55924825559
 30
0.0
  0
VERTEX
  5
2A8
  8
PLIO-PLEISTOCENE_DIATOMITE
 10
486607.97562032653
 20
233501.21193753631
 30
0.0
  0
VERTEX
  5
2A9
  8
PLIO-PLEISTOCENE_DIATOMITE
 10
486508.3183788915
 20
233536.32881067879
 30
0.0
  0
VERTEX
  5
2AA
  8
PLIO-PLEISTOCENE_DIATOMITE
 10
486426.58502561849
 20
233550.06923522329
 30
0.0
  0
VERTEX
  5
2AB
  8
PLIO-PLEISTOCENE_DIATOMITE
 10
486278.31362228439
 20
233531.69749481021
 30
0.0
  0
VERTEX
  5
2AC
  8
PLIO-PLEISTOCENE_DIATOMITE
 10
486230.12376610748
 20
233444.5258385629
 30
0.0
  0
VERTEX
  5
2AD
  8
PLIO-PLEISTOCENE_DIATOMITE
 10
486003.49486609432
 20
232796.61995949881
 30
0.0
  0
VERTEX
  5
2AE
  8
PLIO-PLEISTOCENE_DIATOMITE
 10
485955.15002636018
 20
232703.0452414192
 30
0.0
  0
VERTEX
  5
2AF
  8
PLIO-PLEISTOCENE_DIATOMITE
 10
485876.08718174172
 20
232566.8310986748
 30
0.0
  0
VERTEX
  5
2B0
  8
PLIO-PLEISTOCENE_DIATOMITE
 10
485705.89227372297
 20
232328.14040191309
 30
0.0
  0
VERTEX
  5
2B1
  8
PLIO-PLEISTOCENE_DIATOMITE
 10
485635.48327577859
 20
232173.86113426299
 30
0.0
  0
VERTEX
  5
2B2
  8
PLIO-PLEISTOCENE_DIATOMITE
 10
485576.41252232518
 20
232062.60492774099
 30
0.0
  0
VERTEX
  5
2B3
  8
PLIO-PLEISTOCENE_DIATOMITE
 10
485537.08757182461
 20
231977.70611734869
 30
0.0
  0
VERTEX
  5
2B4
  8
PLIO-PLEISTOCENE_DIATOMITE
 10
485525.07105425518
 20
231815.34290450069
 30
0.0
  0
VERTEX
  5
2B5
  8
PLIO-PLEISTOCENE_DIATOMITE
 10
485517.84844604548
 20
231606.5777106141
 30
0.0
  0
VERTEX
  5
2B6
  8
PLIO-PLEISTOCENE_DIATOMITE
 10
485522.6034534513
 20
231416.3975910584
 30
0.0
  0
VERTEX
  5
2B7
  8
PLIO-PLEISTOCENE_DIATOMITE
 10
485392.82246849139
 20
231321.49519989689
 30
0.0
  0
VERTEX
  5
2B8
  8
PLIO-PLEISTOCENE_DIATOMITE
 10
485323.86571286671
 20
231261.48538450411
 30
0.0
  0
VERTEX
  5
2B9
  8
PLIO-PLEISTOCENE_DIATOMITE
 10
485212.4463401864
 20
231177.59316095221
 30
0.0
  0
VERTEX
  5
2BA
  8
PLIO-PLEISTOCENE_DIATOMITE
 10
484918.67106204992
 20
230983.6679765468
 30
0.0
  0
VERTEX
  5
2BB
  8
PLIO-PLEISTOCENE_DIATOMITE
 10
484819.9081789013
 20
230908.5502279182
 30
0.0
  0
VERTEX
  5
2BC
  8
PLIO-PLEISTOCENE_DIATOMITE
 10
484796.8214926325
 20
230868.85623879969
 30
0.0
  0
VERTEX
  5
2BD
  8
PLIO-PLEISTOCENE_DIATOMITE
 10
484881.56507922721
 20
230680.6110762257
 30
0.0
  0
VERTEX
  5
2BE
  8
PLIO-PLEISTOCENE_DIATOMITE
 10
485047.28786048258
 20
230450.77740318119
 30
0.0
  0
VERTEX
  5
2BF
  8
PLIO-PLEISTOCENE_DIATOMITE
 10
485083.74677551148
 20
230303.04450671349
 30
0.0
  0
VERTEX
  5
2C0
  8
PLIO-PLEISTOCENE_DIATOMITE
 10
485012.58182039059
 20
230144.28987815281
 30
0.0
  0
VERTEX
  5
2C1
  8
PLIO-PLEISTOCENE_DIATOMITE
 10
484913.051358025
 20
229920.60345560481
 30
0.0
  0
VERTEX
  5
2C2
  8
PLIO-PLEISTOCENE_DIATOMITE
 10
484847.07773923367
 20
229821.42734649801
 30
0.0
  0
VERTEX
  5
2C3
  8
PLIO-PLEISTOCENE_DIATOMITE
 10
484835.53373617021
 20
229689.43098864731
 30
0.0
  0
VERTEX
  5
2C4
  8
PLIO-PLEISTOCENE_DIATOMITE
 10
484845.31712706038
 20
229607.7551318279
 30
0.0
  0
VERTEX
  5
2C5
  8
PLIO-PLEISTOCENE_DIATOMITE
 10
484904.8520549988
 20
229520.7591329923
 30
0.0
  0
VERTEX
  5
2C6
  8
PLIO-PLEISTOCENE_DIATOMITE
 10
485016.14518075791
 20
229366.469482841
 30
0.0
  0
VERTEX
  5
2C7
  8
PLIO-PLEISTOCENE_DIATOMITE
 10
484996.11610316351
 20
229120.7629029993
 30
0.0
  0
VERTEX
  5
2C8
  8
PLIO-PLEISTOCENE_DIATOMITE
 10
484925.34332284302
 20
228966.4983786119
 30
0.0
  0
VERTEX
  5
2C9
  8
PLIO-PLEISTOCENE_DIATOMITE
 10
484884.48892040818
 20
228718.49808286989
 30
0.0
  0
VERTEX
  5
2CA
  8
PLIO-PLEISTOCENE_DIATOMITE
 10
484927.98801282753
 20
228645.3293648774
 30
0.0
  0
VERTEX
  5
2CB
  8
PLIO-PLEISTOCENE_DIATOMITE
 10
484969.20457547432
 20
228578.77332157179
 30
0.0
  0
VERTEX
  5
2CC
  8
PLIO-PLEISTOCENE_DIATOMITE
 10
485041.41571949609
 20
228485.40896799759
 30
0.0
  0
VERTEX
  5
2CD
  8
PLIO-PLEISTOCENE_DIATOMITE
 10
485186.65049535048
 20
228277.8137024848
 30
0.0
  0
VERTEX
  5
2CE
  8
PLIO-PLEISTOCENE_DIATOMITE
 10
485261.46210813138
 20
228184.07482366959
 30
0.0
  0
VERTEX
  5
2CF
  8
PLIO-PLEISTOCENE_DIATOMITE
 10
485379.93039784889
 20
227973.6767120772
 30
0.0
  0
SEQEND
  5
2D0
  8
PLIO-PLEISTOCENE_DIATOMITE
  0
POLYLINE
  5
72
  8
PLEISTOCENE_IGNIMBRITES_AN
 66
     1
 10
0.0
 20
0.0
 30
0.0
 70
     1
  0
VERTEX
  5
2D1
  8
PLEISTOCENE_IGNIMBRITES_AN
 10
486599.41584516858
 20
225591.0330535316
 30
0.0
  0
VERTEX
  5
2D2
  8
PLEISTOCENE_IGNIMBRITES_AN
 10
486564.30583744962
 20
225680.287603084
 30
0.0
  0
VERTEX
  5
2D3
  8
PLEISTOCENE_IGNIMBRITES_AN
 10
486527.00338473031
 20
225816.10377930989
 30
0.0
  0
VERTEX
  5
2D4
  8
PLEISTOCENE_IGNIMBRITES_AN
 10
486507.0134635545
 20
225903.42314554119
 30
0.0
  0
VERTEX
  5
2D5
  8
PLEISTOCENE_IGNIMBRITES_AN
 10
486497.78658662853
 20
225962.87426032199
 30
0.0
  0
VERTEX
  5
2D6
  8
PLEISTOCENE_IGNIMBRITES_AN
 10
486472.71537945338
 20
226107.3520111221
 30
0.0
  0
VERTEX
  5
2D7
  8
PLEISTOCENE_IGNIMBRITES_AN
 10
486466.3388107362
 20
226133.8295852826
 30
0.0
  0
VERTEX
  5
2D8
  8
PLEISTOCENE_IGNIMBRITES_AN
 10
486478.14461330121
 20
226329.90476128619
 30
0.0
  0
VERTEX
  5
2D9
  8
PLEISTOCENE_IGNIMBRITES_AN
 10
486500.25757999782
 20
226529.28033705059
 30
0.0
  0
VERTEX
  5
2DA
  8
PLEISTOCENE_IGNIMBRITES_AN
 10
486540.84391276841
 20
226632.7696409254
 30
0.0
  0
VERTEX
  5
2DB
  8
PLEISTOCENE_IGNIMBRITES_AN
 10
486553.69813484262
 20
226677.75726187509
 30
0.0
  0
VERTEX
  5
2DC
  8
PLEISTOCENE_IGNIMBRITES_AN
 10
486613.75809561671
 20
226755.26645076321
 30
0.0
  0
VERTEX
  5
2DD
  8
PLEISTOCENE_IGNIMBRITES_AN
 10
486679.63588823471
 20
226840.5772718502
 30
0.0
  0
VERTEX
  5
2DE
  8
PLEISTOCENE_IGNIMBRITES_AN
 10
486799.76878108841
 20
226958.59866814991
 30
0.0
  0
VERTEX
  5
2DF
  8
PLEISTOCENE_IGNIMBRITES_AN
 10
486877.74076049449
 20
227038.451632632
 30
0.0
  0
VERTEX
  5
2E0
  8
PLEISTOCENE_IGNIMBRITES_AN
 10
486972.88537666568
 20
227128.43774610761
 30
0.0
  0
VERTEX
  5
2E1
  8
PLEISTOCENE_IGNIMBRITES_AN
 10
487036.94971274561
 20
227186.5591046543
 30
0.0
  0
VERTEX
  5
2E2
  8
PLEISTOCENE_IGNIMBRITES_AN
 10
487202.91652888071
 20
227342.38740330559
 30
0.0
  0
VERTEX
  5
2E3
  8
PLEISTOCENE_IGNIMBRITES_AN
 10
487341.9171211755
 20
227502.59307394249
 30
0.0
  0
VERTEX
  5
2E4
  8
PLEISTOCENE_IGNIMBRITES_AN
 10
487432.59359813068
 20
227595.1303600581
 30
0.0
  0
VERTEX
  5
2E5
  8
PLEISTOCENE_IGNIMBRITES_AN
 10
487523.90714818169
 20
227667.26071997569
 30
0.0
  0
VERTEX
  5
2E6
  8
PLEISTOCENE_IGNIMBRITES_AN
 10
487665.72139969852
 20
227809.55392440621
 30
0.0
  0
VERTEX
  5
2E7
  8
PLEISTOCENE_IGNIMBRITES_AN
 10
487762.4610794473
 20
227936.0855481739
 30
0.0
  0
VERTEX
  5
2E8
  8
PLEISTOCENE_IGNIMBRITES_AN
 10
487813.94578403002
 20
228027.23335990819
 30
0.0
  0
VERTEX
  5
2E9
  8
PLEISTOCENE_IGNIMBRITES_AN
 10
487875.43304525258
 20
228085.6554824647
 30
0.0
  0
VERTEX
  5
2EA
  8
PLEISTOCENE_IGNIMBRITES_AN
 10
487921.96342259517
 20
228127.18838048811
 30
0.0
  0
VERTEX
  5
2EB
  8
PLEISTOCENE_IGNIMBRITES_AN
 10
488026.43106862961
 20
228232.99152716401
 30
0.0
  0
VERTEX
  5
2EC
  8
PLEISTOCENE_IGNIMBRITES_AN
 10
488075.80908784398
 20
228284.66508454041
 30
0.0
  0
VERTEX
  5
2ED
  8
PLEISTOCENE_IGNIMBRITES_AN
 10
488144.47482756048
 20
228359.4739994884
 30
0.0
  0
VERTEX
  5
2EE
  8
PLEISTOCENE_IGNIMBRITES_AN
 10
488248.29589291289
 20
228454.87396329039
 30
0.0
  0
VERTEX
  5
2EF
  8
PLEISTOCENE_IGNIMBRITES_AN
 10
488343.37746202771
 20
228473.20816695859
 30
0.0
  0
VERTEX
  5
2F0
  8
PLEISTOCENE_IGNIMBRITES_AN
 10
488415.76895545371
 20
228467.98963351399
 30
0.0
  0
VERTEX
  5
2F1
  8
PLEISTOCENE_IGNIMBRITES_AN
 10
488523.13591785613
 20
228437.40854328781
 30
0.0
  0
VERTEX
  5
2F2
  8
PLEISTOCENE_IGNIMBRITES_AN
 10
488614.18710044719
 20
228422.25784687651
 30
0.0
  0
VERTEX
  5
2F3
  8
PLEISTOCENE_IGNIMBRITES_AN
 10
488728.69053681853
 20
228391.94497676709
 30
0.0
  0
VERTEX
  5
2F4
  8
PLEISTOCENE_IGNIMBRITES_AN
 10
488776.97931899142
 20
228354.7295324663
 30
0.0
  0
VERTEX
  5
2F5
  8
PLEISTOCENE_IGNIMBRITES_AN
 10
488851.76475630439
 20
228292.18174231099
 30
0.0
  0
VERTEX
  5
2F6
  8
PLEISTOCENE_IGNIMBRITES_AN
 10
488860.18877211207
 20
228240.26672093521
 30
0.0
  0
VERTEX
  5
2F7
  8
PLEISTOCENE_IGNIMBRITES_AN
 10
488868.8817520559
 20
228208.96509809731
 30
0.0
  0
VERTEX
  5
2F8
  8
PLEISTOCENE_IGNIMBRITES_AN
 10
488795.30345045368
 20
228150.17710272619
 30
0.0
  0
VERTEX
  5
2F9
  8
PLEISTOCENE_IGNIMBRITES_AN
 10
488713.57009718032
 20
228163.91752727079
 30
0.0
  0
VERTEX
  5
2FA
  8
PLEISTOCENE_IGNIMBRITES_AN
 10
488631.70226183877
 20
228167.3512525456
 30
0.0
  0
VERTEX
  5
2FB
  8
PLEISTOCENE_IGNIMBRITES_AN
 10
488540.60351828003
 20
228160.85980358109
 30
0.0
  0
VERTEX
  5
2FC
  8
PLEISTOCENE_IGNIMBRITES_AN
 10
488448.69788231119
 20
228092.5281590024
 30
0.0
  0
VERTEX
  5
2FD
  8
PLEISTOCENE_IGNIMBRITES_AN
 10
488375.2540627768
 20
228044.04686290049
 30
0.0
  0
VERTEX
  5
2FE
  8
PLEISTOCENE_IGNIMBRITES_AN
 10
488292.31037088903
 20
227965.02699402301
 30
0.0
  0
VERTEX
  5
2FF
  8
PLEISTOCENE_IGNIMBRITES_AN
 10
488245.75238359702
 20
227884.48102502199
 30
0.0
  0
VERTEX
  5
300
  8
PLEISTOCENE_IGNIMBRITES_AN
 10
488226.08022854739
 20
227771.87038312439
 30
0.0
  0
VERTEX
  5
301
  8
PLEISTOCENE_IGNIMBRITES_AN
 10
488216.445874125
 20
227731.0251110777
 30
0.0
  0
VERTEX
  5
302
  8
PLEISTOCENE_IGNIMBRITES_AN
 10
488207.08048383938
 20
227710.7932375714
 30
0.0
  0
VERTEX
  5
303
  8
PLEISTOCENE_IGNIMBRITES_AN
 10
488149.81228557881
 20
227506.94840237149
 30
0.0
  0
VERTEX
  5
304
  8
PLEISTOCENE_IGNIMBRITES_AN
 10
488139.42686012888
 20
227431.8637115834
 30
0.0
  0
VERTEX
  5
305
  8
PLEISTOCENE_IGNIMBRITES_AN
 10
488134.79672112491
 20
227359.99269038319
 30
0.0
  0
VERTEX
  5
306
  8
PLEISTOCENE_IGNIMBRITES_AN
 10
488133.473653036
 20
227302.74722040011
 30
0.0
  0
VERTEX
  5
307
  8
PLEISTOCENE_IGNIMBRITES_AN
 10
488166.89213941002
 20
227220.52645810461
 30
0.0
  0
VERTEX
  5
308
  8
PLEISTOCENE_IGNIMBRITES_AN
 10
488199.41794027347
 20
227149.25261507
 30
0.0
  0
VERTEX
  5
309
  8
PLEISTOCENE_IGNIMBRITES_AN
 10
488253.97576994472
 20
227043.39230301161
 30
0.0
  0
VERTEX
  5
30A
  8
PLEISTOCENE_IGNIMBRITES_AN
 10
488290.36137915257
 20
226969.5149797411
 30
0.0
  0
VERTEX
  5
30B
  8
PLEISTOCENE_IGNIMBRITES_AN
 10
488318.4710234392
 20
226911.30680919369
 30
0.0
  0
VERTEX
  5
30C
  8
PLEISTOCENE_IGNIMBRITES_AN
 10
488338.09987043781
 20
226868.87133149011
 30
0.0
  0
VERTEX
  5
30D
  8
PLEISTOCENE_IGNIMBRITES_AN
 10
488360.81044795242
 20
226824.36838657621
 30
0.0
  0
VERTEX
  5
30E
  8
PLEISTOCENE_IGNIMBRITES_AN
 10
488392.25076589658
 20
226797.32035601861
 30
0.0
  0
VERTEX
  5
30F
  8
PLEISTOCENE_IGNIMBRITES_AN
 10
488485.97682240262
 20
226792.6488535926
 30
0.0
  0
VERTEX
  5
310
  8
PLEISTOCENE_IGNIMBRITES_AN
 10
488588.31705430982
 20
226801.26596504889
 30
0.0
  0
VERTEX
  5
311
  8
PLEISTOCENE_IGNIMBRITES_AN
 10
488685.87450829282
 20
226810.8380131966
 30
0.0
  0
VERTEX
  5
312
  8
PLEISTOCENE_IGNIMBRITES_AN
 10
488805.84637715679
 20
226837.05057446851
 30
0.0
  0
VERTEX
  5
313
  8
PLEISTOCENE_IGNIMBRITES_AN
 10
488899.15872399521
 20
226850.0572153223
 30
0.0
  0
VERTEX
  5
314
  8
PLEISTOCENE_IGNIMBRITES_AN
 10
488983.72934567649
 20
226865.14443347719
 30
0.0
  0
VERTEX
  5
315
  8
PLEISTOCENE_IGNIMBRITES_AN
 10
489070.21927334153
 20
226872.9211313035
 30
0.0
  0
VERTEX
  5
316
  8
PLEISTOCENE_IGNIMBRITES_AN
 10
489194.19545684621
 20
226869.55513371719
 30
0.0
  0
VERTEX
  5
317
  8
PLEISTOCENE_IGNIMBRITES_AN
 10
489375.3969057682
 20
226854.2851314992
 30
0.0
  0
VERTEX
  5
318
  8
PLEISTOCENE_IGNIMBRITES_AN
 10
489506.1517931837
 20
226809.46005957251
 30
0.0
  0
VERTEX
  5
319
  8
PLEISTOCENE_IGNIMBRITES_AN
 10
489569.73725829693
 20
226754.00289924469
 30
0.0
  0
VERTEX
  5
31A
  8
PLEISTOCENE_IGNIMBRITES_AN
 10
489622.1746286155
 20
226651.14397867559
 30
0.0
  0
VERTEX
  5
31B
  8
PLEISTOCENE_IGNIMBRITES_AN
 10
489629.92623408179
 20
226547.6954609543
 30
0.0
  0
VERTEX
  5
31C
  8
PLEISTOCENE_IGNIMBRITES_AN
 10
489619.75395138632
 20
226465.62339183249
 30
0.0
  0
VERTEX
  5
31D
  8
PLEISTOCENE_IGNIMBRITES_AN
 10
489554.59966559109
 20
226354.9203750857
 30
0.0
  0
VERTEX
  5
31E
  8
PLEISTOCENE_IGNIMBRITES_AN
 10
489434.95494093292
 20
226224.8323669415
 30
0.0
  0
VERTEX
  5
31F
  8
PLEISTOCENE_IGNIMBRITES_AN
 10
489207.7503925566
 20
225986.68263888289
 30
0.0
  0
VERTEX
  5
320
  8
PLEISTOCENE_IGNIMBRITES_AN
 10
489068.23486248782
 20
225846.5702708789
 30
0.0
  0
VERTEX
  5
321
  8
PLEISTOCENE_IGNIMBRITES_AN
 10
489010.24504490232
 20
225789.9484935475
 30
0.0
  0
VERTEX
  5
322
  8
PLEISTOCENE_IGNIMBRITES_AN
 10
488892.13844872289
 20
225650.4092843339
 30
0.0
  0
VERTEX
  5
323
  8
PLEISTOCENE_IGNIMBRITES_AN
 10
488820.40037282498
 20
225554.8929653285
 30
0.0
  0
VERTEX
  5
324
  8
PLEISTOCENE_IGNIMBRITES_AN
 10
488815.44932473509
 20
225450.67597384151
 30
0.0
  0
VERTEX
  5
325
  8
PLEISTOCENE_IGNIMBRITES_AN
 10
488830.35393455531
 20
225406.01437432991
 30
0.0
  0
VERTEX
  5
326
  8
PLEISTOCENE_IGNIMBRITES_AN
 10
488857.67310612032
 20
225360.11346816481
 30
0.0
  0
VERTEX
  5
327
  8
PLEISTOCENE_IGNIMBRITES_AN
 10
488931.42194263602
 20
225329.1992266828
 30
0.0
  0
VERTEX
  5
328
  8
PLEISTOCENE_IGNIMBRITES_AN
 10
489114.29184009577
 20
225393.71562095571
 30
0.0
  0
VERTEX
  5
329
  8
PLEISTOCENE_IGNIMBRITES_AN
 10
489206.56960125081
 20
225408.56902915289
 30
0.0
  0
VERTEX
  5
32A
  8
PLEISTOCENE_IGNIMBRITES_AN
 10
489280.14357320848
 20
225407.31851394239
 30
0.0
  0
VERTEX
  5
32B
  8
PLEISTOCENE_IGNIMBRITES_AN
 10
489341.97145795892
 20
225404.79089373161
 30
0.0
  0
VERTEX
  5
32C
  8
PLEISTOCENE_IGNIMBRITES_AN
 10
489410.81581378367
 20
225405.69414672299
 30
0.0
  0
VERTEX
  5
32D
  8
PLEISTOCENE_IGNIMBRITES_AN
 10
489500.380201719
 20
225398.20738811241
 30
0.0
  0
VERTEX
  5
32E
  8
PLEISTOCENE_IGNIMBRITES_AN
 10
489561.57382589381
 20
225341.05969668721
 30
0.0
  0
VERTEX
  5
32F
  8
PLEISTOCENE_IGNIMBRITES_AN
 10
489596.36280922702
 20
225177.81200453429
 30
0.0
  0
VERTEX
  5
330
  8
PLEISTOCENE_IGNIMBRITES_AN
 10
489628.81641229359
 20
225024.13415711679
 30
0.0
  0
VERTEX
  5
331
  8
PLEISTOCENE_IGNIMBRITES_AN
 10
489775.2422995675
 20
225004.64499385611
 30
0.0
  0
VERTEX
  5
332
  8
PLEISTOCENE_IGNIMBRITES_AN
 10
489825.80108974432
 20
225157.037131544
 30
0.0
  0
VERTEX
  5
333
  8
PLEISTOCENE_IGNIMBRITES_AN
 10
489989.626316807
 20
225536.94278355641
 30
0.0
  0
VERTEX
  5
334
  8
PLEISTOCENE_IGNIMBRITES_AN
 10
490102.08514692693
 20
225764.778888423
 30
0.0
  0
VERTEX
  5
335
  8
PLEISTOCENE_IGNIMBRITES_AN
 10
490202.20794341073
 20
225954.6113718792
 30
0.0
  0
VERTEX
  5
336
  8
PLEISTOCENE_IGNIMBRITES_AN
 10
490252.3020080764
 20
226065.00726682271
 30
0.0
  0
VERTEX
  5
337
  8
PLEISTOCENE_IGNIMBRITES_AN
 10
490336.41599376593
 20
226491.30672014761
 30
0.0
  0
VERTEX
  5
338
  8
PLEISTOCENE_IGNIMBRITES_AN
 10
490335.00120299257
 20
226561.497128074
 30
0.0
  0
VERTEX
  5
339
  8
PLEISTOCENE_IGNIMBRITES_AN
 10
490190.59095811198
 20
226967.6105026631
 30
0.0
  0
VERTEX
  5
33A
  8
PLEISTOCENE_IGNIMBRITES_AN
 10
490161.71930140082
 20
227072.4124416842
 30
0.0
  0
VERTEX
  5
33B
  8
PLEISTOCENE_IGNIMBRITES_AN
 10
490162.81126807362
 20
227386.42437545161
 30
0.0
  0
VERTEX
  5
33C
  8
PLEISTOCENE_IGNIMBRITES_AN
 10
490179.04054427712
 20
227600.150023761
 30
0.0
  0
VERTEX
  5
33D
  8
PLEISTOCENE_IGNIMBRITES_AN
 10
490204.49133009568
 20
227738.6288838177
 30
0.0
  0
VERTEX
  5
33E
  8
PLEISTOCENE_IGNIMBRITES_AN
 10
490219.92518664693
 20
227871.6641091528
 30
0.0
  0
VERTEX
  5
33F
  8
PLEISTOCENE_IGNIMBRITES_AN
 10
490229.8391862798
 20
227944.3957803676
 30
0.0
  0
VERTEX
  5
340
  8
PLEISTOCENE_IGNIMBRITES_AN
 10
490309.22927491122
 20
227984.0787318277
 30
0.0
  0
VERTEX
  5
341
  8
PLEISTOCENE_IGNIMBRITES_AN
 10
490378.73192951141
 20
227755.9796986038
 30
0.0
  0
VERTEX
  5
342
  8
PLEISTOCENE_IGNIMBRITES_AN
 10
490382.0715818489
 20
227544.40049895999
 30
0.0
  0
VERTEX
  5
343
  8
PLEISTOCENE_IGNIMBRITES_AN
 10
490352.33243999461
 20
227306.36972747679
 30
0.0
  0
VERTEX
  5
344
  8
PLEISTOCENE_IGNIMBRITES_AN
 10
490332.50063146051
 20
227187.3531918322
 30
0.0
  0
VERTEX
  5
345
  8
PLEISTOCENE_IGNIMBRITES_AN
 10
490368.90792598831
 20
227058.42731263189
 30
0.0
  0
VERTEX
  5
346
  8
PLEISTOCENE_IGNIMBRITES_AN
 10
490418.55696819461
 20
226873.30246083441
 30
0.0
  0
VERTEX
  5
347
  8
PLEISTOCENE_IGNIMBRITES_AN
 10
490505.06589334831
 20
226655.36284779251
 30
0.0
  0
VERTEX
  5
348
  8
PLEISTOCENE_IGNIMBRITES_AN
 10
490637.47782353457
 20
226340.4389942612
 30
0.0
  0
VERTEX
  5
349
  8
PLEISTOCENE_IGNIMBRITES_AN
 10
490659.92574752279
 20
225968.25324548199
 30
0.0
  0
VERTEX
  5
34A
  8
PLEISTOCENE_IGNIMBRITES_AN
 10
490687.0805439016
 20
225956.80197112079
 30
0.0
  0
VERTEX
  5
34B
  8
PLEISTOCENE_IGNIMBRITES_AN
 10
490685.60124114982
 20
225843.42827916131
 30
0.0
  0
VERTEX
  5
34C
  8
PLEISTOCENE_IGNIMBRITES_AN
 10
490691.06665145443
 20
225564.76587386429
 30
0.0
  0
VERTEX
  5
34D
  8
PLEISTOCENE_IGNIMBRITES_AN
 10
490690.66320525011
 20
225533.84577605769
 30
0.0
  0
VERTEX
  5
34E
  8
PLEISTOCENE_IGNIMBRITES_AN
 10
490643.29832554801
 20
225391.4596114431
 30
0.0
  0
VERTEX
  5
34F
  8
PLEISTOCENE_IGNIMBRITES_AN
 10
490539.6066220639
 20
225117.37550651279
 30
0.0
  0
VERTEX
  5
350
  8
PLEISTOCENE_IGNIMBRITES_AN
 10
490427.0874565671
 20
224864.286325152
 30
0.0
  0
VERTEX
  5
351
  8
PLEISTOCENE_IGNIMBRITES_AN
 10
490352.29881634982
 20
224712.73803635989
 30
0.0
  0
VERTEX
  5
352
  8
PLEISTOCENE_IGNIMBRITES_AN
 10
490343.20239020092
 20
224713.11956139069
 30
0.0
  0
VERTEX
  5
353
  8
PLEISTOCENE_IGNIMBRITES_AN
 10
490232.29700952407
 20
224583.71077125761
 30
0.0
  0
VERTEX
  5
354
  8
PLEISTOCENE_IGNIMBRITES_AN
 10
490257.8380210835
 20
224448.5791056685
 30
0.0
  0
VERTEX
  5
355
  8
PLEISTOCENE_IGNIMBRITES_AN
 10
490280.95835541282
 20
224127.92685323491
 30
0.0
  0
VERTEX
  5
356
  8
PLEISTOCENE_IGNIMBRITES_AN
 10
490242.68990186002
 20
223985.15916358921
 30
0.0
  0
VERTEX
  5
357
  8
PLEISTOCENE_IGNIMBRITES_AN
 10
490242.01749151852
 20
223933.62566724329
 30
0.0
  0
VERTEX
  5
358
  8
PLEISTOCENE_IGNIMBRITES_AN
 10
490166.95988716459
 20
223761.46397991339
 30
0.0
  0
VERTEX
  5
359
  8
PLEISTOCENE_IGNIMBRITES_AN
 10
490064.20955815841
 20
223559.5267698665
 30
0.0
  0
VERTEX
  5
35A
  8
PLEISTOCENE_IGNIMBRITES_AN
 10
489990.09332828323
 20
223459.51197742001
 30
0.0
  0
VERTEX
  5
35B
  8
PLEISTOCENE_IGNIMBRITES_AN
 10
489796.51321985462
 20
223271.696716948
 30
0.0
  0
VERTEX
  5
35C
  8
PLEISTOCENE_IGNIMBRITES_AN
 10
489414.1943574574
 20
223267.1073696923
 30
0.0
  0
VERTEX
  5
35D
  8
PLEISTOCENE_IGNIMBRITES_AN
 10
489286.03749896091
 20
223210.60852450461
 30
0.0
  0
VERTEX
  5
35E
  8
PLEISTOCENE_IGNIMBRITES_AN
 10
489130.32239787991
 20
223134.6408558707
 30
0.0
  0
VERTEX
  5
35F
  8
PLEISTOCENE_IGNIMBRITES_AN
 10
488876.02591191122
 20
223176.24365453291
 30
0.0
  0
VERTEX
  5
360
  8
PLEISTOCENE_IGNIMBRITES_AN
 10
488721.1177032406
 20
223162.11618151239
 30
0.0
  0
VERTEX
  5
361
  8
PLEISTOCENE_IGNIMBRITES_AN
 10
488510.28611699218
 20
223047.2108659861
 30
0.0
  0
VERTEX
  5
362
  8
PLEISTOCENE_IGNIMBRITES_AN
 10
488382.66718676873
 20
223031.93881787479
 30
0.0
  0
VERTEX
  5
363
  8
PLEISTOCENE_IGNIMBRITES_AN
 10
488199.3938431046
 20
222936.5023257937
 30
0.0
  0
VERTEX
  5
364
  8
PLEISTOCENE_IGNIMBRITES_AN
 10
488006.08269881259
 20
222769.30046386039
 30
0.0
  0
VERTEX
  5
365
  8
PLEISTOCENE_IGNIMBRITES_AN
 10
487794.17525601789
 20
222571.94155418061
 30
0.0
  0
VERTEX
  5
366
  8
PLEISTOCENE_IGNIMBRITES_AN
 10
487748.42416113609
 20
222553.2357807942
 30
0.0
  0
VERTEX
  5
367
  8
PLEISTOCENE_IGNIMBRITES_AN
 10
487593.78491660208
 20
222559.72170631311
 30
0.0
  0
VERTEX
  5
368
  8
PLEISTOCENE_IGNIMBRITES_AN
 10
487447.70416994393
 20
222524.5993097249
 30
0.0
  0
VERTEX
  5
369
  8
PLEISTOCENE_IGNIMBRITES_AN
 10
487211.8695004097
 20
222586.05245686509
 30
0.0
  0
VERTEX
  5
36A
  8
PLEISTOCENE_IGNIMBRITES_AN
 10
487159.71162074502
 20
222773.86219389181
 30
0.0
  0
VERTEX
  5
36B
  8
PLEISTOCENE_IGNIMBRITES_AN
 10
487143.53599947161
 20
222929.22573298891
 30
0.0
  0
VERTEX
  5
36C
  8
PLEISTOCENE_IGNIMBRITES_AN
 10
487146.09115876962
 20
223125.0530191024
 30
0.0
  0
VERTEX
  5
36D
  8
PLEISTOCENE_IGNIMBRITES_AN
 10
487121.08807548363
 20
223301.41148176789
 30
0.0
  0
VERTEX
  5
36E
  8
PLEISTOCENE_IGNIMBRITES_AN
 10
487105.18141834671
 20
223477.38841940369
 30
0.0
  0
VERTEX
  5
36F
  8
PLEISTOCENE_IGNIMBRITES_AN
 10
487043.9271125333
 20
223665.57968146101
 30
0.0
  0
VERTEX
  5
370
  8
PLEISTOCENE_IGNIMBRITES_AN
 10
486972.90397022862
 20
223802.61897220349
 30
0.0
  0
VERTEX
  5
371
  8
PLEISTOCENE_IGNIMBRITES_AN
 10
486865.49512332812
 20
223941.18436306799
 30
0.0
  0
VERTEX
  5
372
  8
PLEISTOCENE_IGNIMBRITES_AN
 10
486710.58691465721
 20
223927.05689004861
 30
0.0
  0
VERTEX
  5
373
  8
PLEISTOCENE_IGNIMBRITES_AN
 10
486546.58227983757
 20
223913.31094206011
 30
0.0
  0
VERTEX
  5
374
  8
PLEISTOCENE_IGNIMBRITES_AN
 10
486429.53907851462
 20
224011.0310608788
 30
0.0
  0
VERTEX
  5
375
  8
PLEISTOCENE_IGNIMBRITES_AN
 10
486404.53599522851
 20
224187.38952354481
 30
0.0
  0
VERTEX
  5
376
  8
PLEISTOCENE_IGNIMBRITES_AN
 10
486388.09140981862
 20
224322.1396641045
 30
0.0
  0
VERTEX
  5
377
  8
PLEISTOCENE_IGNIMBRITES_AN
 10
486554.3822398
 20
224511.0994996682
 30
0.0
  0
VERTEX
  5
378
  8
PLEISTOCENE_IGNIMBRITES_AN
 10
486618.3261869796
 20
224529.04222299301
 30
0.0
  0
VERTEX
  5
379
  8
PLEISTOCENE_IGNIMBRITES_AN
 10
486801.46504857589
 20
224614.17201580439
 30
0.0
  0
VERTEX
  5
37A
  8
PLEISTOCENE_IGNIMBRITES_AN
 10
486895.92584384262
 20
224878.33094649599
 30
0.0
  0
VERTEX
  5
37B
  8
PLEISTOCENE_IGNIMBRITES_AN
 10
486899.15341348213
 20
225125.6917289531
 30
0.0
  0
VERTEX
  5
37C
  8
PLEISTOCENE_IGNIMBRITES_AN
 10
486854.07472894201
 20
225158.5194519138
 30
0.0
  0
VERTEX
  5
37D
  8
PLEISTOCENE_IGNIMBRITES_AN
 10
486773.95516048849
 20
225295.9402676863
 30
0.0
  0
VERTEX
  5
37E
  8
PLEISTOCENE_IGNIMBRITES_AN
 10
486702.66305404733
 20
225412.36615989119
 30
0.0
  0
VERTEX
  5
37F
  8
PLEISTOCENE_IGNIMBRITES_AN
 10
486602.15671139577
 20
225535.98488926151
 30
0.0
  0
SEQEND
  5
380
  8
PLEISTOCENE_IGNIMBRITES_AN
  0
POLYLINE
  5
73
  8
PLEISTOCENE_VULCANISM
 66
     1
 10
0.0
 20
0.0
 30
0.0
1001
ACAD
1000
ASC_BOUNDS
1002
{
1070
    19
1005
0
1002
}
  0
VERTEX
  5
381
  8
PLEISTOCENE_VULCANISM
 10
499962.14827584848
 20
242727.64875778349
 30
0.0
  0
VERTEX
  5
382
  8
PLEISTOCENE_VULCANISM
 10
499962.14827584848
 20
242727.64875778349
 30
0.0
  0
VERTEX
  5
383
  8
PLEISTOCENE_VULCANISM
 10
499953.95563605911
 20
228609.29254902111
 30
0.0
  0
VERTEX
  5
384
  8
PLEISTOCENE_VULCANISM
 10
499953.95563605911
 20
228609.29254902111
 30
0.0
  0
VERTEX
  5
385
  8
PLEISTOCENE_VULCANISM
 10
499953.95563605911
 20
228609.29254902111
 30
0.0
  0
VERTEX
  5
386
  8
PLEISTOCENE_VULCANISM
 10
499953.95563605911
 20
228609.29254902111
 30
0.0
  0
VERTEX
  5
387
  8
PLEISTOCENE_VULCANISM
 10
499802.98443061608
 20
228332.7302796233
 30
0.0
  0
VERTEX
  5
388
  8
PLEISTOCENE_VULCANISM
 10
499536.29377233528
 20
228198.28943096619
 30
0.0
  0
VERTEX
  5
389
  8
PLEISTOCENE_VULCANISM
 10
499209.24426048959
 20
227951.18264643339
 30
0.0
  0
VERTEX
  5
38A
  8
PLEISTOCENE_VULCANISM
 10
499056.05090910889
 20
227827.69748574711
 30
0.0
  0
VERTEX
  5
38B
  8
PLEISTOCENE_VULCANISM
 10
498842.05427497579
 20
227622.16181092861
 30
0.0
  0
VERTEX
  5
38C
  8
PLEISTOCENE_VULCANISM
 10
498327.70619381033
 20
227465.6731231646
 30
0.0
  0
VERTEX
  5
38D
  8
PLEISTOCENE_VULCANISM
 10
498172.1425534297
 20
227505.47021177181
 30
0.0
  0
VERTEX
  5
38E
  8
PLEISTOCENE_VULCANISM
 10
498195.43332780572
 20
228036.34221671871
 30
0.0
  0
VERTEX
  5
38F
  8
PLEISTOCENE_VULCANISM
 10
498274.82541676657
 20
228261.4011621454
 30
0.0
  0
VERTEX
  5
390
  8
PLEISTOCENE_VULCANISM
 10
498488.82205089991
 20
228466.93683696329
 30
0.0
  0
VERTEX
  5
391
  8
PLEISTOCENE_VULCANISM
 10
498586.35851688287
 20
228865.61963542641
 30
0.0
  0
VERTEX
  5
392
  8
PLEISTOCENE_VULCANISM
 10
498573.9531094656
 20
229008.42337197601
 30
0.0
  0
VERTEX
  5
393
  8
PLEISTOCENE_VULCANISM
 10
498428.72087362711
 20
229048.28869216589
 30
0.0
  0
VERTEX
  5
394
  8
PLEISTOCENE_VULCANISM
 10
498098.11592828122
 20
229046.10528157221
 30
0.0
  0
VERTEX
  5
395
  8
PLEISTOCENE_VULCANISM
 10
497952.58740631741
 20
229106.38088292209
 30
0.0
  0
VERTEX
  5
396
  8
PLEISTOCENE_VULCANISM
 10
498064.01071034238
 20
229260.20853902641
 30
0.0
  0
VERTEX
  5
397
  8
PLEISTOCENE_VULCANISM
 10
498214.98191578552
 20
229536.7708084246
 30
0.0
  0
VERTEX
  5
398
  8
PLEISTOCENE_VULCANISM
 10
498240.19854997413
 20
229934.9759858202
 30
0.0
  0
VERTEX
  5
399
  8
PLEISTOCENE_VULCANISM
 10
497826.94236829173
 20
229932.246722579
 30
0.0
  0
VERTEX
  5
39A
  8
PLEISTOCENE_VULCANISM
 10
497650.5677757645
 20
229982.11248860529
 30
0.0
  0
VERTEX
  5
39B
  8
PLEISTOCENE_VULCANISM
 10
497555.06670282339
 20
230154.98579424969
 30
0.0
  0
VERTEX
  5
39C
  8
PLEISTOCENE_VULCANISM
 10
497706.03790826647
 20
230431.5480636477
 30
0.0
  0
VERTEX
  5
39D
  8
PLEISTOCENE_VULCANISM
 10
497926.66237037891
 20
230892.28048456769
 30
0.0
  0
VERTEX
  5
39E
  8
PLEISTOCENE_VULCANISM
 10
498129.58688465762
 20
231148.77363070959
 30
0.0
  0
VERTEX
  5
39F
  8
PLEISTOCENE_VULCANISM
 10
498501.62698140048
 20
231855.45289928489
 30
0.0
  0
VERTEX
  5
3A0
  8
PLEISTOCENE_VULCANISM
 10
498652.00561459368
 20
232172.83573100649
 30
0.0
  0
VERTEX
  5
3A1
  8
PLEISTOCENE_VULCANISM
 10
498689.77579926181
 20
232418.03203126951
 30
0.0
  0
VERTEX
  5
3A2
  8
PLEISTOCENE_VULCANISM
 10
498457.44803521142
 20
232763.5057162361
 30
0.0
  0
VERTEX
  5
3A3
  8
PLEISTOCENE_VULCANISM
 10
498488.73853496258
 20
232743.3001298169
 30
0.0
  0
VERTEX
  5
3A4
  8
PLEISTOCENE_VULCANISM
 10
498535.21055048512
 20
233100.82120805071
 30
0.0
  0
VERTEX
  5
3A5
  8
PLEISTOCENE_VULCANISM
 10
498458.00199762807
 20
233437.11322615109
 30
0.0
  0
VERTEX
  5
3A6
  8
PLEISTOCENE_VULCANISM
 10
498493.69817942131
 20
233825.18149454711
 30
0.0
  0
VERTEX
  5
3A7
  8
PLEISTOCENE_VULCANISM
 10
498547.98316742352
 20
234356.25819423661
 30
0.0
  0
VERTEX
  5
3A8
  8
PLEISTOCENE_VULCANISM
 10
498332.50510266522
 20
234252.77392522639
 30
0.0
  0
VERTEX
  5
3A9
  8
PLEISTOCENE_VULCANISM
 10
497830.74918181292
 20
233228.84828809139
 30
0.0
  0
VERTEX
  5
3AA
  8
PLEISTOCENE_VULCANISM
 10
497729.10331991292
 20
232401.4813536529
 30
0.0
  0
VERTEX
  5
3AB
  8
PLEISTOCENE_VULCANISM
 10
497656.08138263971
 20
231737.60136325029
 30
0.0
  0
VERTEX
  5
3AC
  8
PLEISTOCENE_VULCANISM
 10
497560.1744903443
 20
231226.66201839919
 30
0.0
  0
VERTEX
  5
3AD
  8
PLEISTOCENE_VULCANISM
 10
497377.91278514959
 20
230970.30533541911
 30
0.0
  0
VERTEX
  5
3AE
  8
PLEISTOCENE_VULCANISM
 10
496989.0229891144
 20
230712.58402081931
 30
0.0
  0
VERTEX
  5
3AF
  8
PLEISTOCENE_VULCANISM
 10
496799.50227385719
 20
230956.27922630051
 30
0.0
  0
VERTEX
  5
3B0
  8
PLEISTOCENE_VULCANISM
 10
496587.68917582842
 20
231312.09451500929
 30
0.0
  0
VERTEX
  5
3B1
  8
PLEISTOCENE_VULCANISM
 10
496365.69281631988
 20
231657.63643155579
 30
0.0
  0
VERTEX
  5
3B2
  8
PLEISTOCENE_VULCANISM
 10
496133.21690920729
 20
232013.31525710199
 30
0.0
  0
VERTEX
  5
3B3
  8
PLEISTOCENE_VULCANISM
 10
496086.85442691389
 20
232360.0171105256
 30
0.0
  0
VERTEX
  5
3B4
  8
PLEISTOCENE_VULCANISM
 10
496119.43960439443
 20
232962.39333111889
 30
0.0
  0
VERTEX
  5
3B5
  8
PLEISTOCENE_VULCANISM
 10
496020.53124101559
 20
233369.98487012231
 30
0.0
  0
VERTEX
  5
3B6
  8
PLEISTOCENE_VULCANISM
 10
496082.48105843453
 20
234084.82233184809
 30
0.0
  0
VERTEX
  5
3B7
  8
PLEISTOCENE_VULCANISM
 10
496276.96141815023
 20
234923.00849109661
 30
0.0
  0
VERTEX
  5
3B8
  8
PLEISTOCENE_VULCANISM
 10
496243.74505858641
 20
235075.88090506659
 30
0.0
  0
VERTEX
  5
3B9
  8
PLEISTOCENE_VULCANISM
 10
496151.65127608302
 20
235014.03597735151
 30
0.0
  0
VERTEX
  5
3BA
  8
PLEISTOCENE_VULCANISM
 10
495762.31705085997
 20
234786.9300844933
 30
0.0
  0
VERTEX
  5
3BB
  8
PLEISTOCENE_VULCANISM
 10
495819.30722382048
 20
234419.8861814889
 30
0.0
  0
VERTEX
  5
3BC
  8
PLEISTOCENE_VULCANISM
 10
495813.27196809108
 20
234123.8688730642
 30
0.0
  0
VERTEX
  5
3BD
  8
PLEISTOCENE_VULCANISM
 10
495517.36481293407
 20
233866.76164269331
 30
0.0
  0
VERTEX
  5
3BE
  8
PLEISTOCENE_VULCANISM
 10
495441.19326151442
 20
234131.6176767275
 30
0.0
  0
VERTEX
  5
3BF
  8
PLEISTOCENE_VULCANISM
 10
495407.2361866383
 20
234335.51579360111
 30
0.0
  0
VERTEX
  5
3C0
  8
PLEISTOCENE_VULCANISM
 10
495425.38056366
 20
234509.13964663699
 30
0.0
  0
VERTEX
  5
3C1
  8
PLEISTOCENE_VULCANISM
 10
495381.98094261641
 20
234651.73868844539
 30
0.0
  0
VERTEX
  5
3C2
  8
PLEISTOCENE_VULCANISM
 10
495266.40963284147
 20
234783.65496860471
 30
0.0
  0
VERTEX
  5
3C3
  8
PLEISTOCENE_VULCANISM
 10
495215.49332544341
 20
234732.28810779541
 30
0.0
  0
VERTEX
  5
3C4
  8
PLEISTOCENE_VULCANISM
 10
495075.00166760501
 20
234445.58892939711
 30
0.0
  0
VERTEX
  5
3C5
  8
PLEISTOCENE_VULCANISM
 10
495070.00341331313
 20
234078.1356369064
 30
0.0
  0
VERTEX
  5
3C6
  8
PLEISTOCENE_VULCANISM
 10
495075.78099275101
 20
233680.1351542538
 30
0.0
  0
VERTEX
  5
3C7
  8
PLEISTOCENE_VULCANISM
 10
494881.70645238931
 20
233525.76164550171
 30
0.0
  0
VERTEX
  5
3C8
  8
PLEISTOCENE_VULCANISM
 10
494426.3839372262
 20
233573.7851588405
 30
0.0
  0
VERTEX
  5
3C9
  8
PLEISTOCENE_VULCANISM
 10
494089.26069713052
 20
234020.62793380371
 30
0.0
  0
VERTEX
  5
3CA
  8
PLEISTOCENE_VULCANISM
 10
494167.91207077907
 20
234296.71258213441
 30
0.0
  0
VERTEX
  5
3CB
  8
PLEISTOCENE_VULCANISM
 10
494327.14067788899
 20
234716.21505124541
 30
0.0
  0
VERTEX
  5
3CC
  8
PLEISTOCENE_VULCANISM
 10
494281.96334009612
 20
234981.27578002191
 30
0.0
  0
VERTEX
  5
3CD
  8
PLEISTOCENE_VULCANISM
 10
493625.19774127938
 20
234670.75474141049
 30
0.0
  0
VERTEX
  5
3CE
  8
PLEISTOCENE_VULCANISM
 10
493474.81910808641
 20
234353.37190969029
 30
0.0
  0
VERTEX
  5
3CF
  8
PLEISTOCENE_VULCANISM
 10
493479.70782914921
 20
234016.60227052291
 30
0.0
  0
VERTEX
  5
3D0
  8
PLEISTOCENE_VULCANISM
 10
493659.93414130178
 20
233701.4028493941
 30
0.0
  0
VERTEX
  5
3D1
  8
PLEISTOCENE_VULCANISM
 10
493963.69287877152
 20
233417.63762898141
 30
0.0
  0
VERTEX
  5
3D2
  8
PLEISTOCENE_VULCANISM
 10
494038.97557181609
 20
233214.01243843159
 30
0.0
  0
VERTEX
  5
3D3
  8
PLEISTOCENE_VULCANISM
 10
493875.45081589289
 20
233090.45904616531
 30
0.0
  0
VERTEX
  5
3D4
  8
PLEISTOCENE_VULCANISM
 10
493584.98634421569
 20
233170.1896865427
 30
0.0
  0
VERTEX
  5
3D5
  8
PLEISTOCENE_VULCANISM
 10
493327.44194597658
 20
233117.4581941122
 30
0.0
  0
VERTEX
  5
3D6
  8
PLEISTOCENE_VULCANISM
 10
493025.64767815289
 20
232554.1285147361
 30
0.0
  0
VERTEX
  5
3D7
  8
PLEISTOCENE_VULCANISM
 10
492706.41113878659
 20
232480.5773516584
 30
0.0
  0
VERTEX
  5
3D8
  8
PLEISTOCENE_VULCANISM
 10
492567.23076776857
 20
232011.57330406061
 30
0.0
  0
VERTEX
  5
3D9
  8
PLEISTOCENE_VULCANISM
 10
492073.58618791372
 20
231935.08284922771
 30
0.0
  0
VERTEX
  5
3DA
  8
PLEISTOCENE_VULCANISM
 10
491837.16567250527
 20
232140.23537647311
 30
0.0
  0
VERTEX
  5
3DB
  8
PLEISTOCENE_VULCANISM
 10
490943.78491981828
 20
232285.95094179519
 30
0.0
  0
VERTEX
  5
3DC
  8
PLEISTOCENE_VULCANISM
 10
490796.40416829189
 20
232435.29683824099
 30
0.0
  0
VERTEX
  5
3DD
  8
PLEISTOCENE_VULCANISM
 10
490760.37126098818
 20
232865.12349051519
 30
0.0
  0
VERTEX
  5
3DE
  8
PLEISTOCENE_VULCANISM
 10
490654.41273073852
 20
233220.80146629579
 30
0.0
  0
VERTEX
  5
3DF
  8
PLEISTOCENE_VULCANISM
 10
489707.80666810711
 20
233606.80701710659
 30
0.0
  0
VERTEX
  5
3E0
  8
PLEISTOCENE_VULCANISM
 10
489590.15145975573
 20
233865.1520534528
 30
0.0
  0
VERTEX
  5
3E1
  8
PLEISTOCENE_VULCANISM
 10
488994.4280715374
 20
234012.5142478997
 30
0.0
  0
VERTEX
  5
3E2
  8
PLEISTOCENE_VULCANISM
 10
488965.3419129558
 20
234201.80372759519
 30
0.0
  0
VERTEX
  5
3E3
  8
PLEISTOCENE_VULCANISM
 10
489192.06900103157
 20
234316.17148946549
 30
0.0
  0
VERTEX
  5
3E4
  8
PLEISTOCENE_VULCANISM
 10
489469.8608887
 20
234455.04782713231
 30
0.0
  0
VERTEX
  5
3E5
  8
PLEISTOCENE_VULCANISM
 10
489666.50920384529
 20
234533.8603503952
 30
0.0
  0
VERTEX
  5
3E6
  8
PLEISTOCENE_VULCANISM
 10
489731.78363689681
 20
234579.25932734419
 30
0.0
  0
VERTEX
  5
3E7
  8
PLEISTOCENE_VULCANISM
 10
489711.90555711352
 20
234650.17746511291
 30
0.0
  0
VERTEX
  5
3E8
  8
PLEISTOCENE_VULCANISM
 10
489675.00213592488
 20
234684.21433108021
 30
0.0
  0
VERTEX
  5
3E9
  8
PLEISTOCENE_VULCANISM
 10
489575.66036099917
 20
234701.22069256401
 30
0.0
  0
VERTEX
  5
3EA
  8
PLEISTOCENE_VULCANISM
 10
489070.44506996969
 20
234729.51682878591
 30
0.0
  0
VERTEX
  5
3EB
  8
PLEISTOCENE_VULCANISM
 10
488675.89458145603
 20
234684.2133917677
 30
0.0
  0
VERTEX
  5
3EC
  8
PLEISTOCENE_VULCANISM
 10
488361.83847041847
 20
234694.38610927091
 30
0.0
  0
VERTEX
  5
3ED
  8
PLEISTOCENE_VULCANISM
 10
488221.9065399922
 20
234808.89364465521
 30
0.0
  0
VERTEX
  5
3EE
  8
PLEISTOCENE_VULCANISM
 10
488186.31147108471
 20
234957.25991739749
 30
0.0
  0
VERTEX
  5
3EF
  8
PLEISTOCENE_VULCANISM
 10
488228.84356519987
 20
235076.78917750021
 30
0.0
  0
VERTEX
  5
3F0
  8
PLEISTOCENE_VULCANISM
 10
488343.74829302682
 20
235221.19086450341
 30
0.0
  0
VERTEX
  5
3F1
  8
PLEISTOCENE_VULCANISM
 10
488360.31962754618
 20
235344.16441873409
 30
0.0
  0
VERTEX
  5
3F2
  8
PLEISTOCENE_VULCANISM
 10
488368.67514053581
 20
235453.94091352311
 30
0.0
  0
VERTEX
  5
3F3
  8
PLEISTOCENE_VULCANISM
 10
488307.61068835459
 20
235619.104691207
 30
0.0
  0
VERTEX
  5
3F4
  8
PLEISTOCENE_VULCANISM
 10
488217.46703656681
 20
235771.43255035611
 30
0.0
  0
VERTEX
  5
3F5
  8
PLEISTOCENE_VULCANISM
 10
488033.76993676601
 20
235898.50648913349
 30
0.0
  0
VERTEX
  5
3F6
  8
PLEISTOCENE_VULCANISM
 10
487727.32088253781
 20
236128.78593419961
 30
0.0
  0
VERTEX
  5
3F7
  8
PLEISTOCENE_VULCANISM
 10
487403.30971090088
 20
236398.44023199359
 30
0.0
  0
VERTEX
  5
3F8
  8
PLEISTOCENE_VULCANISM
 10
487304.11366024811
 20
236644.4607872479
 30
0.0
  0
VERTEX
  5
3F9
  8
PLEISTOCENE_VULCANISM
 10
487073.14108526788
 20
236996.7105674984
 30
0.0
  0
VERTEX
  5
3FA
  8
PLEISTOCENE_VULCANISM
 10
487270.92310231831
 20
237064.53996688931
 30
0.0
  0
VERTEX
  5
3FB
  8
PLEISTOCENE_VULCANISM
 10
487874.87384282111
 20
237220.7751153931
 30
0.0
  0
VERTEX
  5
3FC
  8
PLEISTOCENE_VULCANISM
 10
487933.4640629284
 20
237334.9938084544
 30
0.0
  0
VERTEX
  5
3FD
  8
PLEISTOCENE_VULCANISM
 10
488140.90447132301
 20
237587.8642558982
 30
0.0
  0
VERTEX
  5
3FE
  8
PLEISTOCENE_VULCANISM
 10
488300.38962016121
 20
237777.72257661869
 30
0.0
  0
VERTEX
  5
3FF
  8
PLEISTOCENE_VULCANISM
 10
488390.97782190511
 20
237952.7291053457
 30
0.0
  0
VERTEX
  5
400
  8
PLEISTOCENE_VULCANISM
 10
488428.95613096037
 20
238121.7102647326
 30
0.0
  0
VERTEX
  5
401
  8
PLEISTOCENE_VULCANISM
 10
488349.02146670333
 20
238319.96640717011
 30
0.0
  0
VERTEX
  5
402
  8
PLEISTOCENE_VULCANISM
 10
488204.62170122698
 20
238517.03879455201
 30
0.0
  0
VERTEX
  5
403
  8
PLEISTOCENE_VULCANISM
 10
488049.35205461609
 20
238582.03178385441
 30
0.0
  0
VERTEX
  5
404
  8
PLEISTOCENE_VULCANISM
 10
487858.4539770931
 20
238738.81660597469
 30
0.0
  0
VERTEX
  5
405
  8
PLEISTOCENE_VULCANISM
 10
487670.01636638038
 20
238880.61867503909
 30
0.0
  0
VERTEX
  5
406
  8
PLEISTOCENE_VULCANISM
 10
487424.69671576592
 20
239072.8105054356
 30
0.0
  0
VERTEX
  5
407
  8
PLEISTOCENE_VULCANISM
 10
487206.3734769774
 20
239249.29674464141
 30
0.0
  0
VERTEX
  5
408
  8
PLEISTOCENE_VULCANISM
 10
486980.87530391233
 20
239380.13063643291
 30
0.0
  0
VERTEX
  5
409
  8
PLEISTOCENE_VULCANISM
 10
486716.85619319213
 20
239408.81373397869
 30
0.0
  0
VERTEX
  5
40A
  8
PLEISTOCENE_VULCANISM
 10
486412.24330719898
 20
239611.31924341919
 30
0.0
  0
VERTEX
  5
40B
  8
PLEISTOCENE_VULCANISM
 10
486157.66472535138
 20
239639.7758687216
 30
0.0
  0
VERTEX
  5
40C
  8
PLEISTOCENE_VULCANISM
 10
485961.36300377129
 20
239795.13154873179
 30
0.0
  0
VERTEX
  5
40D
  8
PLEISTOCENE_VULCANISM
 10
485746.24404143251
 20
239938.40437751019
 30
0.0
  0
VERTEX
  5
40E
  8
PLEISTOCENE_VULCANISM
 10
485511.39487842459
 20
240155.11698034729
 30
0.0
  0
VERTEX
  5
40F
  8
PLEISTOCENE_VULCANISM
 10
485306.38316284539
 20
240364.1304685495
 30
0.0
  0
VERTEX
  5
410
  8
PLEISTOCENE_VULCANISM
 10
485160.36349289928
 20
240614.02518035559
 30
0.0
  0
VERTEX
  5
411
  8
PLEISTOCENE_VULCANISM
 10
485078.32033871242
 20
240741.23862605271
 30
0.0
  0
VERTEX
  5
412
  8
PLEISTOCENE_VULCANISM
 10
484952.42118322232
 20
240996.03420382479
 30
0.0
  0
VERTEX
  5
413
  8
PLEISTOCENE_VULCANISM
 10
484873.1241605815
 20
241144.3548734551
 30
0.0
  0
VERTEX
  5
414
  8
PLEISTOCENE_VULCANISM
 10
484788.76706093451
 20
241294.36043486281
 30
0.0
  0
VERTEX
  5
415
  8
PLEISTOCENE_VULCANISM
 10
484736.97178414708
 20
241557.5678865494
 30
0.0
  0
VERTEX
  5
416
  8
PLEISTOCENE_VULCANISM
 10
484704.67634037789
 20
241788.61347918661
 30
0.0
  0
VERTEX
  5
417
  8
PLEISTOCENE_VULCANISM
 10
484642.81271498621
 20
241992.78913113361
 30
0.0
  0
VERTEX
  5
418
  8
PLEISTOCENE_VULCANISM
 10
484570.19098858751
 20
242231.88878806349
 30
0.0
  0
VERTEX
  5
419
  8
PLEISTOCENE_VULCANISM
 10
484500.8010524172
 20
242462.0185504526
 30
0.0
  0
VERTEX
  5
41A
  8
PLEISTOCENE_VULCANISM
 10
484436.41380951041
 20
242637.83337730571
 30
0.0
  0
VERTEX
  5
41B
  8
PLEISTOCENE_VULCANISM
 10
484400.7588687432
 20
242726.36914216189
 30
0.0
  0
VERTEX
  5
41C
  8
PLEISTOCENE_VULCANISM
 10
499962.14827584848
 20
242727.64875778349
 30
0.0
  0
SEQEND
  5
41D
  8
PLEISTOCENE_VULCANISM
  0
POLYLINE
  5
75
  8
PLIO-PLEISTOCENE_LAVAS
 66
     1
 10
0.0
 20
0.0
 30
0.0
1001
ACAD
1000
ASC_BOUNDS
1002
{
1070
    19
1005
0
1002
}
  0
VERTEX
  5
41E
  8
PLIO-PLEISTOCENE_LAVAS
 10
474228.25236444169
 20
232874.05389379381
 30
0.0
  0
VERTEX
  5
41F
  8
PLIO-PLEISTOCENE_LAVAS
 10
474228.25236444169
 20
232874.05389379381
 30
0.0
  0
VERTEX
  5
420
  8
PLIO-PLEISTOCENE_LAVAS
 10
474228.25236444169
 20
232874.05389379381
 30
0.0
  0
VERTEX
  5
421
  8
PLIO-PLEISTOCENE_LAVAS
 10
474228.25236444169
 20
232874.05389379381
 30
0.0
  0
VERTEX
  5
422
  8
PLIO-PLEISTOCENE_LAVAS
 10
474341.3537283754
 20
232747.9962508262
 30
0.0
  0
VERTEX
  5
423
  8
PLIO-PLEISTOCENE_LAVAS
 10
474390.14910665201
 20
232255.33565369021
 30
0.0
  0
VERTEX
  5
424
  8
PLIO-PLEISTOCENE_LAVAS
 10
474506.51912381739
 20
231937.19480539529
 30
0.0
  0
VERTEX
  5
425
  8
PLIO-PLEISTOCENE_LAVAS
 10
474563.74733408401
 20
231858.33727383771
 30
0.0
  0
VERTEX
  5
426
  8
PLIO-PLEISTOCENE_LAVAS
 10
474675.09187332651
 20
231874.6498945317
 30
0.0
  0
VERTEX
  5
427
  8
PLIO-PLEISTOCENE_LAVAS
 10
474762.25810781278
 20
231936.9356145029
 30
0.0
  0
VERTEX
  5
428
  8
PLIO-PLEISTOCENE_LAVAS
 10
474960.06907624169
 20
231798.8635564186
 30
0.0
  0
VERTEX
  5
429
  8
PLIO-PLEISTOCENE_LAVAS
 10
475032.15432632132
 20
231675.3536941612
 30
0.0
  0
VERTEX
  5
42A
  8
PLIO-PLEISTOCENE_LAVAS
 10
475132.4268885089
 20
231522.87928079051
 30
0.0
  0
VERTEX
  5
42B
  8
PLIO-PLEISTOCENE_LAVAS
 10
475223.79496585077
 20
231257.4922651423
 30
0.0
  0
VERTEX
  5
42C
  8
PLIO-PLEISTOCENE_LAVAS
 10
475421.35648258502
 20
231281.91345470209
 30
0.0
  0
VERTEX
  5
42D
  8
PLIO-PLEISTOCENE_LAVAS
 10
475669.86836033268
 20
231315.29089102219
 30
0.0
  0
VERTEX
  5
42E
  8
PLIO-PLEISTOCENE_LAVAS
 10
476001.77710417297
 20
231330.3418476904
 30
0.0
  0
VERTEX
  5
42F
  8
PLIO-PLEISTOCENE_LAVAS
 10
476113.49526130612
 20
231552.07741873019
 30
0.0
  0
VERTEX
  5
430
  8
PLIO-PLEISTOCENE_LAVAS
 10
476081.57771516591
 20
231875.251945136
 30
0.0
  0
VERTEX
  5
431
  8
PLIO-PLEISTOCENE_LAVAS
 10
476059.80791496608
 20
232057.25535441999
 30
0.0
  0
VERTEX
  5
432
  8
PLIO-PLEISTOCENE_LAVAS
 10
475956.29728654382
 20
232326.70845952959
 30
0.0
  0
VERTEX
  5
433
  8
PLIO-PLEISTOCENE_LAVAS
 10
475924.49587062042
 20
232428.10129016131
 30
0.0
  0
VERTEX
  5
434
  8
PLIO-PLEISTOCENE_LAVAS
 10
475837.30235612812
 20
232801.3114341191
 30
0.0
  0
VERTEX
  5
435
  8
PLIO-PLEISTOCENE_LAVAS
 10
475846.23188009427
 20
232945.4649044736
 30
0.0
  0
VERTEX
  5
436
  8
PLIO-PLEISTOCENE_LAVAS
 10
475868.17944996519
 20
233241.6793633257
 30
0.0
  0
VERTEX
  5
437
  8
PLIO-PLEISTOCENE_LAVAS
 10
475817.20214744081
 20
233253.7932032845
 30
0.0
  0
VERTEX
  5
438
  8
PLIO-PLEISTOCENE_LAVAS
 10
475748.82427937433
 20
233264.17026116961
 30
0.0
  0
VERTEX
  5
439
  8
PLIO-PLEISTOCENE_LAVAS
 10
475603.92463911581
 20
233271.0454573138
 30
0.0
  0
VERTEX
  5
43A
  8
PLIO-PLEISTOCENE_LAVAS
 10
475450.78989954642
 20
233224.24536122091
 30
0.0
  0
VERTEX
  5
43B
  8
PLIO-PLEISTOCENE_LAVAS
 10
475242.0797091843
 20
233153.35989545149
 30
0.0
  0
VERTEX
  5
43C
  8
PLIO-PLEISTOCENE_LAVAS
 10
475076.66595577192
 20
233237.72794873829
 30
0.0
  0
VERTEX
  5
43D
  8
PLIO-PLEISTOCENE_LAVAS
 10
474979.67358831211
 20
233431.91478775811
 30
0.0
  0
VERTEX
  5
43E
  8
PLIO-PLEISTOCENE_LAVAS
 10
474974.54304197768
 20
233593.4745966664
 30
0.0
  0
VERTEX
  5
43F
  8
PLIO-PLEISTOCENE_LAVAS
 10
475081.8389225665
 20
233684.01101930629
 30
0.0
  0
VERTEX
  5
440
  8
PLIO-PLEISTOCENE_LAVAS
 10
475563.3227159314
 20
233660.36126857321
 30
0.0
  0
VERTEX
  5
441
  8
PLIO-PLEISTOCENE_LAVAS
 10
475831.5502186403
 20
233730.51860067071
 30
0.0
  0
VERTEX
  5
442
  8
PLIO-PLEISTOCENE_LAVAS
 10
475984.27862594638
 20
233788.76947302459
 30
0.0
  0
VERTEX
  5
443
  8
PLIO-PLEISTOCENE_LAVAS
 10
476012.93049003743
 20
233897.3521713189
 30
0.0
  0
VERTEX
  5
444
  8
PLIO-PLEISTOCENE_LAVAS
 10
475742.7697029378
 20
234110.615622588
 30
0.0
  0
VERTEX
  5
445
  8
PLIO-PLEISTOCENE_LAVAS
 10
475488.55323645822
 20
234213.29815351969
 30
0.0
  0
VERTEX
  5
446
  8
PLIO-PLEISTOCENE_LAVAS
 10
475225.63454763289
 20
234420.54680052961
 30
0.0
  0
VERTEX
  5
447
  8
PLIO-PLEISTOCENE_LAVAS
 10
475228.53007821483
 20
234589.87929634011
 30
0.0
  0
VERTEX
  5
448
  8
PLIO-PLEISTOCENE_LAVAS
 10
475397.94496675598
 20
234607.42054862951
 30
0.0
  0
VERTEX
  5
449
  8
PLIO-PLEISTOCENE_LAVAS
 10
475856.55933487759
 20
234479.02801882449
 30
0.0
  0
VERTEX
  5
44A
  8
PLIO-PLEISTOCENE_LAVAS
 10
476020.14909037331
 20
234373.94879592309
 30
0.0
  0
VERTEX
  5
44B
  8
PLIO-PLEISTOCENE_LAVAS
 10
476715.0609477851
 20
234515.1432548803
 30
0.0
  0
VERTEX
  5
44C
  8
PLIO-PLEISTOCENE_LAVAS
 10
477588.36898991861
 20
234253.5094846978
 30
0.0
  0
VERTEX
  5
44D
  8
PLIO-PLEISTOCENE_LAVAS
 10
477764.82767886447
 20
234125.7625573152
 30
0.0
  0
VERTEX
  5
44E
  8
PLIO-PLEISTOCENE_LAVAS
 10
478033.49017030798
 20
234000.8016339528
 30
0.0
  0
VERTEX
  5
44F
  8
PLIO-PLEISTOCENE_LAVAS
 10
478135.44717315852
 20
233781.78125977609
 30
0.0
  0
VERTEX
  5
450
  8
PLIO-PLEISTOCENE_LAVAS
 10
478217.04016113799
 20
233551.78647841839
 30
0.0
  0
VERTEX
  5
451
  8
PLIO-PLEISTOCENE_LAVAS
 10
478314.14144859457
 20
233196.1307744298
 30
0.0
  0
VERTEX
  5
452
  8
PLIO-PLEISTOCENE_LAVAS
 10
478459.49613925838
 20
232962.6155681822
 30
0.0
  0
VERTEX
  5
453
  8
PLIO-PLEISTOCENE_LAVAS
 10
478712.61176884721
 20
232759.3576590654
 30
0.0
  0
VERTEX
  5
454
  8
PLIO-PLEISTOCENE_LAVAS
 10
479025.6295927235
 20
232759.40274461691
 30
0.0
  0
VERTEX
  5
455
  8
PLIO-PLEISTOCENE_LAVAS
 10
479383.98418632481
 20
232735.71927578171
 30
0.0
  0
VERTEX
  5
456
  8
PLIO-PLEISTOCENE_LAVAS
 10
479761.76325313991
 20
232755.19284507469
 30
0.0
  0
VERTEX
  5
457
  8
PLIO-PLEISTOCENE_LAVAS
 10
480022.28669462813
 20
232801.81330067851
 30
0.0
  0
VERTEX
  5
458
  8
PLIO-PLEISTOCENE_LAVAS
 10
480693.6941057301
 20
232986.4016588004
 30
0.0
  0
VERTEX
  5
459
  8
PLIO-PLEISTOCENE_LAVAS
 10
480889.81544992729
 20
233114.4124967205
 30
0.0
  0
VERTEX
  5
45A
  8
PLIO-PLEISTOCENE_LAVAS
 10
481080.45706300042
 20
233234.00850291361
 30
0.0
  0
VERTEX
  5
45B
  8
PLIO-PLEISTOCENE_LAVAS
 10
481320.5919726133
 20
233347.5834663345
 30
0.0
  0
VERTEX
  5
45C
  8
PLIO-PLEISTOCENE_LAVAS
 10
481606.79160502861
 20
233407.9232242452
 30
0.0
  0
VERTEX
  5
45D
  8
PLIO-PLEISTOCENE_LAVAS
 10
481877.29506017797
 20
233472.99798283959
 30
0.0
  0
VERTEX
  5
45E
  8
PLIO-PLEISTOCENE_LAVAS
 10
482146.94584128319
 20
233530.3373958192
 30
0.0
  0
VERTEX
  5
45F
  8
PLIO-PLEISTOCENE_LAVAS
 10
482445.22328544001
 20
233624.162376897
 30
0.0
  0
VERTEX
  5
460
  8
PLIO-PLEISTOCENE_LAVAS
 10
482698.79016554751
 20
233705.13363272839
 30
0.0
  0
VERTEX
  5
461
  8
PLIO-PLEISTOCENE_LAVAS
 10
483052.25504041812
 20
233780.89158352651
 30
0.0
  0
VERTEX
  5
462
  8
PLIO-PLEISTOCENE_LAVAS
 10
483416.9266079808
 20
233982.24282123311
 30
0.0
  0
VERTEX
  5
463
  8
PLIO-PLEISTOCENE_LAVAS
 10
483865.1236438335
 20
234092.7394769495
 30
0.0
  0
VERTEX
  5
464
  8
PLIO-PLEISTOCENE_LAVAS
 10
484050.0323102221
 20
234341.79149148049
 30
0.0
  0
VERTEX
  5
465
  8
PLIO-PLEISTOCENE_LAVAS
 10
484194.2062792583
 20
234707.47283456431
 30
0.0
  0
VERTEX
  5
466
  8
PLIO-PLEISTOCENE_LAVAS
 10
484265.94753819739
 20
235024.45246744019
 30
0.0
  0
VERTEX
  5
467
  8
PLIO-PLEISTOCENE_LAVAS
 10
484317.4088195709
 20
235239.2025581568
 30
0.0
  0
VERTEX
  5
468
  8
PLIO-PLEISTOCENE_LAVAS
 10
484464.49177234242
 20
235393.7006849958
 30
0.0
  0
VERTEX
  5
469
  8
PLIO-PLEISTOCENE_LAVAS
 10
484645.55195916549
 20
235660.2109679319
 30
0.0
  0
VERTEX
  5
46A
  8
PLIO-PLEISTOCENE_LAVAS
 10
484827.785177076
 20
235780.82671729781
 30
0.0
  0
VERTEX
  5
46B
  8
PLIO-PLEISTOCENE_LAVAS
 10
485006.2977638595
 20
235964.40049749569
 30
0.0
  0
VERTEX
  5
46C
  8
PLIO-PLEISTOCENE_LAVAS
 10
485200.11224389909
 20
236153.0745252159
 30
0.0
  0
VERTEX
  5
46D
  8
PLIO-PLEISTOCENE_LAVAS
 10
485320.47306365758
 20
236244.4226970186
 30
0.0
  0
VERTEX
  5
46E
  8
PLIO-PLEISTOCENE_LAVAS
 10
485450.5063538407
 20
236336.06828828019
 30
0.0
  0
VERTEX
  5
46F
  8
PLIO-PLEISTOCENE_LAVAS
 10
485544.30174281471
 20
236404.26876083529
 30
0.0
  0
VERTEX
  5
470
  8
PLIO-PLEISTOCENE_LAVAS
 10
485800.1260587764
 20
236457.57688339101
 30
0.0
  0
VERTEX
  5
471
  8
PLIO-PLEISTOCENE_LAVAS
 10
485958.12854710402
 20
236454.92699492589
 30
0.0
  0
VERTEX
  5
472
  8
PLIO-PLEISTOCENE_LAVAS
 10
486471.94859584951
 20
236641.44037330919
 30
0.0
  0
VERTEX
  5
473
  8
PLIO-PLEISTOCENE_LAVAS
 10
486567.88031263981
 20
236653.75189626921
 30
0.0
  0
VERTEX
  5
474
  8
PLIO-PLEISTOCENE_LAVAS
 10
486829.84191091801
 20
236929.28385160791
 30
0.0
  0
VERTEX
  5
475
  8
PLIO-PLEISTOCENE_LAVAS
 10
487138.00633042969
 20
237053.79248600849
 30
0.0
  0
VERTEX
  5
476
  8
PLIO-PLEISTOCENE_LAVAS
 10
487199.69847155683
 20
237074.6121566573
 30
0.0
  0
VERTEX
  5
477
  8
PLIO-PLEISTOCENE_LAVAS
 10
487858.53807324829
 20
237242.26122713691
 30
0.0
  0
VERTEX
  5
478
  8
PLIO-PLEISTOCENE_LAVAS
 10
487908.86180839618
 20
237334.4486502691
 30
0.0
  0
VERTEX
  5
479
  8
PLIO-PLEISTOCENE_LAVAS
 10
488091.567942778
 20
237560.1899115064
 30
0.0
  0
VERTEX
  5
47A
  8
PLIO-PLEISTOCENE_LAVAS
 10
488203.28753292828
 20
237693.60728644859
 30
0.0
  0
VERTEX
  5
47B
  8
PLIO-PLEISTOCENE_LAVAS
 10
488284.60548170202
 20
237785.99940432399
 30
0.0
  0
VERTEX
  5
47C
  8
PLIO-PLEISTOCENE_LAVAS
 10
488365.1827151631
 20
237929.41722510391
 30
0.0
  0
VERTEX
  5
47D
  8
PLIO-PLEISTOCENE_LAVAS
 10
488414.46944887319
 20
238093.04063230261
 30
0.0
  0
VERTEX
  5
47E
  8
PLIO-PLEISTOCENE_LAVAS
 10
488414.02501968609
 20
238123.65605404461
 30
0.0
  0
VERTEX
  5
47F
  8
PLIO-PLEISTOCENE_LAVAS
 10
488338.89046970417
 20
238317.07610401401
 30
0.0
  0
VERTEX
  5
480
  8
PLIO-PLEISTOCENE_LAVAS
 10
488201.76749246957
 20
238510.08676449579
 30
0.0
  0
VERTEX
  5
481
  8
PLIO-PLEISTOCENE_LAVAS
 10
488045.9075659638
 20
238570.29413426461
 30
0.0
  0
VERTEX
  5
482
  8
PLIO-PLEISTOCENE_LAVAS
 10
487878.67923347832
 20
238701.86925651951
 30
0.0
  0
VERTEX
  5
483
  8
PLIO-PLEISTOCENE_LAVAS
 10
487523.411616361
 20
238975.08817844649
 30
0.0
  0
VERTEX
  5
484
  8
PLIO-PLEISTOCENE_LAVAS
 10
487199.28635593189
 20
239238.3066545357
 30
0.0
  0
VERTEX
  5
485
  8
PLIO-PLEISTOCENE_LAVAS
 10
486980.4010007357
 20
239369.54061888461
 30
0.0
  0
VERTEX
  5
486
  8
PLIO-PLEISTOCENE_LAVAS
 10
486711.34005345509
 20
239398.3820195201
 30
0.0
  0
VERTEX
  5
487
  8
PLIO-PLEISTOCENE_LAVAS
 10
486408.91460354789
 20
239590.30097470741
 30
0.0
  0
VERTEX
  5
488
  8
PLIO-PLEISTOCENE_LAVAS
 10
486150.18506080919
 20
239619.2106069224
 30
0.0
  0
VERTEX
  5
489
  8
PLIO-PLEISTOCENE_LAVAS
 10
485951.66622857249
 20
239770.99131559531
 30
0.0
  0
VERTEX
  5
48A
  8
PLIO-PLEISTOCENE_LAVAS
 10
485711.67363510502
 20
239932.70423852489
 30
0.0
  0
VERTEX
  5
48B
  8
PLIO-PLEISTOCENE_LAVAS
 10
485502.08268301398
 20
240135.4424185208
 30
0.0
  0
VERTEX
  5
48C
  8
PLIO-PLEISTOCENE_LAVAS
 10
485281.86404025537
 20
240358.52264809699
 30
0.0
  0
VERTEX
  5
48D
  8
PLIO-PLEISTOCENE_LAVAS
 10
485059.57139462233
 20
240724.4748458055
 30
0.0
  0
VERTEX
  5
48E
  8
PLIO-PLEISTOCENE_LAVAS
 10
484878.60436715692
 20
241090.6999698382
 30
0.0
  0
VERTEX
  5
48F
  8
PLIO-PLEISTOCENE_LAVAS
 10
484762.14419900661
 20
241283.8470934814
 30
0.0
  0
VERTEX
  5
490
  8
PLIO-PLEISTOCENE_LAVAS
 10
484717.85571958881
 20
241487.67697877419
 30
0.0
  0
VERTEX
  5
491
  8
PLIO-PLEISTOCENE_LAVAS
 10
484661.90254806582
 20
241783.28489771351
 30
0.0
  0
VERTEX
  5
492
  8
PLIO-PLEISTOCENE_LAVAS
 10
484553.55163851997
 20
242129.5773616512
 30
0.0
  0
VERTEX
  5
493
  8
PLIO-PLEISTOCENE_LAVAS
 10
484402.09739405598
 20
242598.05858623539
 30
0.0
  0
VERTEX
  5
494
  8
PLIO-PLEISTOCENE_LAVAS
 10
484347.48639317858
 20
242725.21894616191
 30
0.0
  0
VERTEX
  5
495
  8
PLIO-PLEISTOCENE_LAVAS
 10
474219.33848188899
 20
242723.94088976199
 30
0.0
  0
VERTEX
  5
496
  8
PLIO-PLEISTOCENE_LAVAS
 10
474228.25236444169
 20
232874.05389379381
 30
0.0
  0
SEQEND
  5
497
  8
PLIO-PLEISTOCENE_LAVAS
  0
POLYLINE
  5
77
  8
MIOCENE_VULCANISM
 66
     1
 10
0.0
 20
0.0
 30
0.0
 70
     1
1001
ACAD
1000
ASC_BOUNDS
1002
{
1070
    19
1005
0
1002
}
  0
VERTEX
  5
498
  8
MIOCENE_VULCANISM
 10
474229.0222825206
 20
232857.2045242991
 30
0.0
  0
VERTEX
  5
499
  8
MIOCENE_VULCANISM
 10
474240.5869952967
 20
220534.5015522246
 30
0.0
  0
VERTEX
  5
49A
  8
MIOCENE_VULCANISM
 10
474240.5869952967
 20
220534.5015522246
 30
0.0
  0
VERTEX
  5
49B
  8
MIOCENE_VULCANISM
 10
492201.73250639008
 20
220536.96668476469
 30
0.0
  0
VERTEX
  5
49C
  8
MIOCENE_VULCANISM
 10
491958.8144301725
 20
221170.43751555329
 30
0.0
  0
VERTEX
  5
49D
  8
MIOCENE_VULCANISM
 10
492230.3623939614
 20
221055.92477194639
 30
0.0
  0
VERTEX
  5
49E
  8
MIOCENE_VULCANISM
 10
492730.12790388637
 20
220993.71409819159
 30
0.0
  0
VERTEX
  5
49F
  8
MIOCENE_VULCANISM
 10
492923.70801231492
 20
221181.52935866389
 30
0.0
  0
VERTEX
  5
4A0
  8
MIOCENE_VULCANISM
 10
493018.03432551341
 20
221435.38159008601
 30
0.0
  0
VERTEX
  5
4A1
  8
MIOCENE_VULCANISM
 10
493111.82271043857
 20
221648.0070244314
 30
0.0
  0
VERTEX
  5
4A2
  8
MIOCENE_VULCANISM
 10
493162.41515977978
 20
222037.75397150571
 30
0.0
  0
VERTEX
  5
4A3
  8
MIOCENE_VULCANISM
 10
493065.98548798461
 20
222320.23162710681
 30
0.0
  0
VERTEX
  5
4A4
  8
MIOCENE_VULCANISM
 10
493133.42596894101
 20
222606.14853142761
 30
0.0
  0
VERTEX
  5
4A5
  8
MIOCENE_VULCANISM
 10
493198.98370094039
 20
222747.77164598141
 30
0.0
  0
VERTEX
  5
4A6
  8
MIOCENE_VULCANISM
 10
493609.31260662322
 20
223503.9869898209
 30
0.0
  0
VERTEX
  5
4A7
  8
MIOCENE_VULCANISM
 10
493601.29203702032
 20
223586.82210900469
 30
0.0
  0
VERTEX
  5
4A8
  8
MIOCENE_VULCANISM
 10
493404.8016775857
 20
223873.49653994149
 30
0.0
  0
VERTEX
  5
4A9
  8
MIOCENE_VULCANISM
 10
493298.06524102652
 20
224063.595427152
 30
0.0
  0
VERTEX
  5
4AA
  8
MIOCENE_VULCANISM
 10
493209.252692629
 20
224232.31786576219
 30
0.0
  0
VERTEX
  5
4AB
  8
MIOCENE_VULCANISM
 10
493174.34629078407
 20
224347.2176578443
 30
0.0
  0
VERTEX
  5
4AC
  8
MIOCENE_VULCANISM
 10
493368.59880955401
 20
224586.5664146615
 30
0.0
  0
VERTEX
  5
4AD
  8
MIOCENE_VULCANISM
 10
493740.3902975471
 20
225179.40067031799
 30
0.0
  0
VERTEX
  5
4AE
  8
MIOCENE_VULCANISM
 10
494051.55153557181
 20
225310.72260904781
 30
0.0
  0
VERTEX
  5
4AF
  8
MIOCENE_VULCANISM
 10
494284.74491823593
 20
225744.3725518561
 30
0.0
  0
VERTEX
  5
4B0
  8
MIOCENE_VULCANISM
 10
494307.77912499302
 20
226114.65067548209
 30
0.0
  0
VERTEX
  5
4B1
  8
MIOCENE_VULCANISM
 10
494386.46774519171
 20
226565.09324307839
 30
0.0
  0
VERTEX
  5
4B2
  8
MIOCENE_VULCANISM
 10
494484.02162802959
 20
227066.30625695901
 30
0.0
  0
VERTEX
  5
4B3
  8
MIOCENE_VULCANISM
 10
494645.51945804781
 20
227585.4619941648
 30
0.0
  0
VERTEX
  5
4B4
  8
MIOCENE_VULCANISM
 10
494650.89874078007
 20
227997.729964928
 30
0.0
  0
VERTEX
  5
4B5
  8
MIOCENE_VULCANISM
 10
494265.93859151291
 20
228488.24370761911
 30
0.0
  0
VERTEX
  5
4B6
  8
MIOCENE_VULCANISM
 10
494005.36980282958
 20
228746.6687159627
 30
0.0
  0
VERTEX
  5
4B7
  8
MIOCENE_VULCANISM
 10
493754.43536856858
 20
229045.93899635249
 30
0.0
  0
VERTEX
  5
4B8
  8
MIOCENE_VULCANISM
 10
493556.06226017763
 20
229188.31963752231
 30
0.0
  0
VERTEX
  5
4B9
  8
MIOCENE_VULCANISM
 10
493294.8210611525
 20
229395.2111495196
 30
0.0
  0
VERTEX
  5
4BA
  8
MIOCENE_VULCANISM
 10
493125.2165339599
 20
229649.82090755759
 30
0.0
  0
VERTEX
  5
4BB
  8
MIOCENE_VULCANISM
 10
492895.4335574999
 20
230175.07552180649
 30
0.0
  0
VERTEX
  5
4BC
  8
MIOCENE_VULCANISM
 10
492790.57986989722
 20
230509.4681987837
 30
0.0
  0
VERTEX
  5
4BD
  8
MIOCENE_VULCANISM
 10
492457.64311822649
 20
230801.86550517869
 30
0.0
  0
VERTEX
  5
4BE
  8
MIOCENE_VULCANISM
 10
492036.02830022608
 20
231273.29194945429
 30
0.0
  0
VERTEX
  5
4BF
  8
MIOCENE_VULCANISM
 10
492045.8495217929
 20
231901.8053319699
 30
0.0
  0
VERTEX
  5
4C0
  8
MIOCENE_VULCANISM
 10
491823.04035756021
 20
232108.16999534841
 30
0.0
  0
VERTEX
  5
4C1
  8
MIOCENE_VULCANISM
 10
491502.44900889462
 20
232157.66280792281
 30
0.0
  0
VERTEX
  5
4C2
  8
MIOCENE_VULCANISM
 10
491168.41400438378
 20
232220.89367670179
 30
0.0
  0
VERTEX
  5
4C3
  8
MIOCENE_VULCANISM
 10
491000.68597370398
 20
232253.32728594271
 30
0.0
  0
VERTEX
  5
4C4
  8
MIOCENE_VULCANISM
 10
490915.14934383961
 20
232279.61925550571
 30
0.0
  0
VERTEX
  5
4C5
  8
MIOCENE_VULCANISM
 10
490766.62309647782
 20
232445.21363406049
 30
0.0
  0
VERTEX
  5
4C6
  8
MIOCENE_VULCANISM
 10
490738.41547509888
 20
232872.04835227269
 30
0.0
  0
VERTEX
  5
4C7
  8
MIOCENE_VULCANISM
 10
490634.92072563741
 20
233205.57685282611
 30
0.0
  0
VERTEX
  5
4C8
  8
MIOCENE_VULCANISM
 10
490071.77711184678
 20
233436.06068720599
 30
0.0
  0
VERTEX
  5
4C9
  8
MIOCENE_VULCANISM
 10
489874.99910959438
 20
233519.34103586551
 30
0.0
  0
VERTEX
  5
4CA
  8
MIOCENE_VULCANISM
 10
489692.70520113071
 20
233594.49536276629
 30
0.0
  0
VERTEX
  5
4CB
  8
MIOCENE_VULCANISM
 10
489572.32650952582
 20
233842.56234438479
 30
0.0
  0
VERTEX
  5
4CC
  8
MIOCENE_VULCANISM
 10
489174.17066299962
 20
233952.00780853609
 30
0.0
  0
VERTEX
  5
4CD
  8
MIOCENE_VULCANISM
 10
488980.26138733851
 20
234001.0596906452
 30
0.0
  0
VERTEX
  5
4CE
  8
MIOCENE_VULCANISM
 10
488959.24766640092
 20
234112.0942718478
 30
0.0
  0
VERTEX
  5
4CF
  8
MIOCENE_VULCANISM
 10
488943.89405540522
 20
234209.70588563269
 30
0.0
  0
VERTEX
  5
4D0
  8
MIOCENE_VULCANISM
 10
489694.88307597849
 20
234593.43804435269
 30
0.0
  0
VERTEX
  5
4D1
  8
MIOCENE_VULCANISM
 10
489635.26967542979
 20
234661.5138206422
 30
0.0
  0
VERTEX
  5
4D2
  8
MIOCENE_VULCANISM
 10
489083.32001671271
 20
234695.86251341831
 30
0.0
  0
VERTEX
  5
4D3
  8
MIOCENE_VULCANISM
 10
488775.27370929671
 20
234664.22658924179
 30
0.0
  0
VERTEX
  5
4D4
  8
MIOCENE_VULCANISM
 10
488607.81783820421
 20
234652.8550759347
 30
0.0
  0
VERTEX
  5
4D5
  8
MIOCENE_VULCANISM
 10
488351.08916850737
 20
234664.28827541001
 30
0.0
  0
VERTEX
  5
4D6
  8
MIOCENE_VULCANISM
 10
488208.61330858449
 20
234803.6784716752
 30
0.0
  0
VERTEX
  5
4D7
  8
MIOCENE_VULCANISM
 10
488174.9673459825
 20
234955.2466503068
 30
0.0
  0
VERTEX
  5
4D8
  8
MIOCENE_VULCANISM
 10
488216.77401212777
 20
235076.49729966591
 30
0.0
  0
VERTEX
  5
4D9
  8
MIOCENE_VULCANISM
 10
488325.06233759888
 20
235228.9899793505
 30
0.0
  0
VERTEX
  5
4DA
  8
MIOCENE_VULCANISM
 10
488338.2285277241
 20
235439.45310594159
 30
0.0
  0
VERTEX
  5
4DB
  8
MIOCENE_VULCANISM
 10
488269.29981329571
 20
235632.1142376638
 30
0.0
  0
VERTEX
  5
4DC
  8
MIOCENE_VULCANISM
 10
488177.13580912119
 20
235763.18089554089
 30
0.0
  0
VERTEX
  5
4DD
  8
MIOCENE_VULCANISM
 10
487940.54558049492
 20
235916.1226039769
 30
0.0
  0
VERTEX
  5
4DE
  8
MIOCENE_VULCANISM
 10
487738.14787135337
 20
236080.95570170679
 30
0.0
  0
VERTEX
  5
4DF
  8
MIOCENE_VULCANISM
 10
487546.1169038997
 20
236224.8346594437
 30
0.0
  0
VERTEX
  5
4E0
  8
MIOCENE_VULCANISM
 10
487374.92796245607
 20
236393.54582349909
 30
0.0
  0
VERTEX
  5
4E1
  8
MIOCENE_VULCANISM
 10
487279.8070707458
 20
236637.70923260841
 30
0.0
  0
VERTEX
  5
4E2
  8
MIOCENE_VULCANISM
 10
487052.88595054508
 20
236988.6089765029
 30
0.0
  0
VERTEX
  5
4E3
  8
MIOCENE_VULCANISM
 10
486842.79739023
 20
236920.36316020211
 30
0.0
  0
VERTEX
  5
4E4
  8
MIOCENE_VULCANISM
 10
486723.22786357912
 20
236790.4248808788
 30
0.0
  0
VERTEX
  5
4E5
  8
MIOCENE_VULCANISM
 10
486584.59865095437
 20
236637.96399334291
 30
0.0
  0
VERTEX
  5
4E6
  8
MIOCENE_VULCANISM
 10
486481.27452805737
 20
236631.50395505759
 30
0.0
  0
VERTEX
  5
4E7
  8
MIOCENE_VULCANISM
 10
485969.05054027541
 20
236436.42867211599
 30
0.0
  0
VERTEX
  5
4E8
  8
MIOCENE_VULCANISM
 10
485805.31486959232
 20
236443.29612266479
 30
0.0
  0
VERTEX
  5
4E9
  8
MIOCENE_VULCANISM
 10
485549.80804500863
 20
236392.13862790421
 30
0.0
  0
VERTEX
  5
4EA
  8
MIOCENE_VULCANISM
 10
485338.43853048712
 20
236236.00651530159
 30
0.0
  0
VERTEX
  5
4EB
  8
MIOCENE_VULCANISM
 10
485135.76199590962
 20
236048.57277985991
 30
0.0
  0
VERTEX
  5
4EC
  8
MIOCENE_VULCANISM
 10
484840.6418970903
 20
235751.58060276369
 30
0.0
  0
VERTEX
  5
4ED
  8
MIOCENE_VULCANISM
 10
484675.4269236559
 20
235645.07436135251
 30
0.0
  0
VERTEX
  5
4EE
  8
MIOCENE_VULCANISM
 10
484508.46368333302
 20
235404.5810294431
 30
0.0
  0
VERTEX
  5
4EF
  8
MIOCENE_VULCANISM
 10
484342.17285335198
 20
235215.62119388001
 30
0.0
  0
VERTEX
  5
4F0
  8
MIOCENE_VULCANISM
 10
484322.90414450743
 20
235133.93064978841
 30
0.0
  0
VERTEX
  5
4F1
  8
MIOCENE_VULCANISM
 10
484217.19520999852
 20
234705.24605582189
 30
0.0
  0
VERTEX
  5
4F2
  8
MIOCENE_VULCANISM
 10
484151.3685138619
 20
234543.0095427293
 30
0.0
  0
VERTEX
  5
4F3
  8
MIOCENE_VULCANISM
 10
484075.772981235
 20
234329.6210583233
 30
0.0
  0
VERTEX
  5
4F4
  8
MIOCENE_VULCANISM
 10
483890.21344240918
 20
234058.9706786685
 30
0.0
  0
VERTEX
  5
4F5
  8
MIOCENE_VULCANISM
 10
483716.70893523528
 20
234014.6861579025
 30
0.0
  0
VERTEX
  5
4F6
  8
MIOCENE_VULCANISM
 10
483424.54744191858
 20
233944.44136472579
 30
0.0
  0
VERTEX
  5
4F7
  8
MIOCENE_VULCANISM
 10
483067.2316628074
 20
233763.4935548038
 30
0.0
  0
VERTEX
  5
4F8
  8
MIOCENE_VULCANISM
 10
482747.78089104372
 20
233694.3933367189
 30
0.0
  0
VERTEX
  5
4F9
  8
MIOCENE_VULCANISM
 10
482409.59933870862
 20
233584.8293716193
 30
0.0
  0
VERTEX
  5
4FA
  8
MIOCENE_VULCANISM
 10
482162.91997613752
 20
233512.67695329059
 30
0.0
  0
VERTEX
  5
4FB
  8
MIOCENE_VULCANISM
 10
481825.00738793891
 20
233423.7263867287
 30
0.0
  0
VERTEX
  5
4FC
  8
MIOCENE_VULCANISM
 10
481304.6283484858
 20
233301.17952370021
 30
0.0
  0
VERTEX
  5
4FD
  8
MIOCENE_VULCANISM
 10
481121.3550048215
 20
233205.74303162031
 30
0.0
  0
VERTEX
  5
4FE
  8
MIOCENE_VULCANISM
 10
480846.1760251883
 20
233041.9748949607
 30
0.0
  0
VERTEX
  5
4FF
  8
MIOCENE_VULCANISM
 10
480726.71214663557
 20
232954.17442693611
 30
0.0
  0
VERTEX
  5
500
  8
MIOCENE_VULCANISM
 10
480425.0507809649
 20
232853.39106098309
 30
0.0
  0
VERTEX
  5
501
  8
MIOCENE_VULCANISM
 10
480169.27499224473
 20
232781.6201676843
 30
0.0
  0
VERTEX
  5
502
  8
MIOCENE_VULCANISM
 10
479767.95638513961
 20
232715.9536748745
 30
0.0
  0
VERTEX
  5
503
  8
MIOCENE_VULCANISM
 10
479367.44467044401
 20
232712.12737767951
 30
0.0
  0
VERTEX
  5
504
  8
MIOCENE_VULCANISM
 10
479058.30066344421
 20
232735.40592798591
 30
0.0
  0
VERTEX
  5
505
  8
MIOCENE_VULCANISM
 10
478703.40556156251
 20
232739.9787049072
 30
0.0
  0
VERTEX
  5
506
  8
MIOCENE_VULCANISM
 10
478577.40041615878
 20
232848.38704802611
 30
0.0
  0
VERTEX
  5
507
  8
MIOCENE_VULCANISM
 10
478442.29884460621
 20
232957.17691617389
 30
0.0
  0
VERTEX
  5
508
  8
MIOCENE_VULCANISM
 10
478290.75268764311
 20
233200.7169248827
 30
0.0
  0
VERTEX
  5
509
  8
MIOCENE_VULCANISM
 10
478195.39887239452
 20
233565.64817463749
 30
0.0
  0
VERTEX
  5
50A
  8
MIOCENE_VULCANISM
 10
478125.31710456789
 20
233774.8343602636
 30
0.0
  0
VERTEX
  5
50B
  8
MIOCENE_VULCANISM
 10
478018.8496321456
 20
233985.54664601109
 30
0.0
  0
VERTEX
  5
50C
  8
MIOCENE_VULCANISM
 10
477747.57063249341
 20
234120.67278815599
 30
0.0
  0
VERTEX
  5
50D
  8
MIOCENE_VULCANISM
 10
477576.21783841267
 20
234241.2954556956
 30
0.0
  0
VERTEX
  5
50E
  8
MIOCENE_VULCANISM
 10
476715.01595975459
 20
234504.2877175154
 30
0.0
  0
VERTEX
  5
50F
  8
MIOCENE_VULCANISM
 10
476386.33427977352
 20
234425.2623251921
 30
0.0
  0
VERTEX
  5
510
  8
MIOCENE_VULCANISM
 10
476021.2668951964
 20
234347.76303299179
 30
0.0
  0
VERTEX
  5
511
  8
MIOCENE_VULCANISM
 10
475840.68319289823
 20
234458.46052629291
 30
0.0
  0
VERTEX
  5
512
  8
MIOCENE_VULCANISM
 10
475559.6353567554
 20
234542.4346971226
 30
0.0
  0
VERTEX
  5
513
  8
MIOCENE_VULCANISM
 10
475405.53404049471
 20
234590.14741971789
 30
0.0
  0
VERTEX
  5
514
  8
MIOCENE_VULCANISM
 10
475241.52940567478
 20
234576.40147172939
 30
0.0
  0
VERTEX
  5
515
  8
MIOCENE_VULCANISM
 10
475239.78113878658
 20
234442.41438123069
 30
0.0
  0
VERTEX
  5
516
  8
MIOCENE_VULCANISM
 10
475491.92591166252
 20
234235.9043942634
 30
0.0
  0
VERTEX
  5
517
  8
MIOCENE_VULCANISM
 10
475736.18459700391
 20
234122.53622574871
 30
0.0
  0
VERTEX
  5
518
  8
MIOCENE_VULCANISM
 10
475907.67187315319
 20
234012.22025747719
 30
0.0
  0
VERTEX
  5
519
  8
MIOCENE_VULCANISM
 10
476033.54253648833
 20
233893.5052150898
 30
0.0
  0
VERTEX
  5
51A
  8
MIOCENE_VULCANISM
 10
475995.67752914078
 20
233781.6576232517
 30
0.0
  0
VERTEX
  5
51B
  8
MIOCENE_VULCANISM
 10
475831.00048397941
 20
233716.3781789171
 30
0.0
  0
VERTEX
  5
51C
  8
MIOCENE_VULCANISM
 10
475538.83899066318
 20
233646.13338574159
 30
0.0
  0
VERTEX
  5
51D
  8
MIOCENE_VULCANISM
 10
475156.92357447039
 20
233672.46413629199
 30
0.0
  0
VERTEX
  5
51E
  8
MIOCENE_VULCANISM
 10
475084.15216527792
 20
233675.5163365363
 30
0.0
  0
VERTEX
  5
51F
  8
MIOCENE_VULCANISM
 10
474982.88113902381
 20
233586.95281845049
 30
0.0
  0
VERTEX
  5
520
  8
MIOCENE_VULCANISM
 10
474989.96033414808
 20
233431.9708043838
 30
0.0
  0
VERTEX
  5
521
  8
MIOCENE_VULCANISM
 10
475087.6003445579
 20
233242.25344220409
 30
0.0
  0
VERTEX
  5
522
  8
MIOCENE_VULCANISM
 10
475241.29821461398
 20
233163.62062180089
 30
0.0
  0
VERTEX
  5
523
  8
MIOCENE_VULCANISM
 10
475451.59187258879
 20
233237.2991402522
 30
0.0
  0
VERTEX
  5
524
  8
MIOCENE_VULCANISM
 10
475606.9035274646
 20
233282.34671107921
 30
0.0
  0
VERTEX
  5
525
  8
MIOCENE_VULCANISM
 10
475752.44634584949
 20
233276.2423105904
 30
0.0
  0
VERTEX
  5
526
  8
MIOCENE_VULCANISM
 10
475879.52734779962
 20
233250.2875616246
 30
0.0
  0
VERTEX
  5
527
  8
MIOCENE_VULCANISM
 10
475860.50348539808
 20
232977.02487543321
 30
0.0
  0
VERTEX
  5
528
  8
MIOCENE_VULCANISM
 10
475857.43451552058
 20
232952.15633288241
 30
0.0
  0
VERTEX
  5
529
  8
MIOCENE_VULCANISM
 10
475846.32085834659
 20
232797.93736887589
 30
0.0
  0
VERTEX
  5
52A
  8
MIOCENE_VULCANISM
 10
475932.57824744651
 20
232433.38764415291
 30
0.0
  0
VERTEX
  5
52B
  8
MIOCENE_VULCANISM
 10
476073.27971137199
 20
232056.2420699764
 30
0.0
  0
VERTEX
  5
52C
  8
MIOCENE_VULCANISM
 10
476122.3445034654
 20
231631.37824975979
 30
0.0
  0
VERTEX
  5
52D
  8
MIOCENE_VULCANISM
 10
476130.36507306789
 20
231548.5431305774
 30
0.0
  0
VERTEX
  5
52E
  8
MIOCENE_VULCANISM
 10
476009.0184455592
 20
231316.44887278421
 30
0.0
  0
VERTEX
  5
52F
  8
MIOCENE_VULCANISM
 10
475653.8543795406
 20
231300.4082511671
 30
0.0
  0
VERTEX
  5
530
  8
MIOCENE_VULCANISM
 10
475216.28454990778
 20
231246.57455774891
 30
0.0
  0
VERTEX
  5
531
  8
MIOCENE_VULCANISM
 10
475119.72039604391
 20
231518.74551408089
 30
0.0
  0
VERTEX
  5
532
  8
MIOCENE_VULCANISM
 10
474941.2884068386
 20
231794.3501956877
 30
0.0
  0
VERTEX
  5
533
  8
MIOCENE_VULCANISM
 10
474760.97366867698
 20
231925.66108752761
 30
0.0
  0
VERTEX
  5
534
  8
MIOCENE_VULCANISM
 10
474678.29894092568
 20
231867.2546171876
 30
0.0
  0
VERTEX
  5
535
  8
MIOCENE_VULCANISM
 10
474559.77643685142
 20
231851.60104404701
 30
0.0
  0
VERTEX
  5
536
  8
MIOCENE_VULCANISM
 10
474497.1773103546
 20
231936.72531341249
 30
0.0
  0
VERTEX
  5
537
  8
MIOCENE_VULCANISM
 10
474373.99628838559
 20
232261.57434118181
 30
0.0
  0
VERTEX
  5
538
  8
MIOCENE_VULCANISM
 10
474325.73838870181
 20
232748.27835701249
 30
0.0
  0
SEQEND
  5
539
  8
MIOCENE_VULCANISM
  0
POLYLINE
  5
79
  8
PLEISTOCENE_IGNIMBRITES_AN
 66
     1
 10
0.0
 20
0.0
 30
0.0
 70
     1
  0
VERTEX
  5
53A
  8
PLEISTOCENE_IGNIMBRITES_AN
 10
487337.3586765154
 20
231806.3809013665
 30
0.0
  0
VERTEX
  5
53B
  8
PLEISTOCENE_IGNIMBRITES_AN
 10
487397.62929099612
 20
231969.91748034299
 30
0.0
  0
VERTEX
  5
53C
  8
PLEISTOCENE_IGNIMBRITES_AN
 10
487476.0094495957
 20
232171.19523300231
 30
0.0
  0
VERTEX
  5
53D
  8
PLEISTOCENE_IGNIMBRITES_AN
 10
487556.61163875688
 20
232301.53263840271
 30
0.0
  0
VERTEX
  5
53E
  8
PLEISTOCENE_IGNIMBRITES_AN
 10
487655.77337953582
 20
232394.82941771069
 30
0.0
  0
VERTEX
  5
53F
  8
PLEISTOCENE_IGNIMBRITES_AN
 10
487805.99516964011
 20
232504.38865091631
 30
0.0
  0
VERTEX
  5
540
  8
PLEISTOCENE_IGNIMBRITES_AN
 10
487950.9521699578
 20
232615.38305597851
 30
0.0
  0
VERTEX
  5
541
  8
PLEISTOCENE_IGNIMBRITES_AN
 10
488112.91811858898
 20
232732.67513640999
 30
0.0
  0
VERTEX
  5
542
  8
PLEISTOCENE_IGNIMBRITES_AN
 10
488167.68203985918
 20
232677.9621467265
 30
0.0
  0
VERTEX
  5
543
  8
PLEISTOCENE_IGNIMBRITES_AN
 10
488222.45490693918
 20
232550.28826841709
 30
0.0
  0
VERTEX
  5
544
  8
PLEISTOCENE_IGNIMBRITES_AN
 10
488243.62972716719
 20
232468.6484314159
 30
0.0
  0
VERTEX
  5
545
  8
PLEISTOCENE_IGNIMBRITES_AN
 10
488211.43008496368
 20
232149.77397672381
 30
0.0
  0
VERTEX
  5
546
  8
PLEISTOCENE_IGNIMBRITES_AN
 10
488057.75610543683
 20
231937.4107256248
 30
0.0
  0
VERTEX
  5
547
  8
PLEISTOCENE_IGNIMBRITES_AN
 10
487941.3931689997
 20
231837.70358831249
 30
0.0
  0
VERTEX
  5
548
  8
PLEISTOCENE_IGNIMBRITES_AN
 10
487827.79289895098
 20
231787.84245775969
 30
0.0
  0
VERTEX
  5
549
  8
PLEISTOCENE_IGNIMBRITES_AN
 10
487567.34928143269
 20
231635.50050574119
 30
0.0
  0
VERTEX
  5
54A
  8
PLEISTOCENE_IGNIMBRITES_AN
 10
487417.73133405508
 20
231555.17279515401
 30
0.0
  0
VERTEX
  5
54B
  8
PLEISTOCENE_IGNIMBRITES_AN
 10
487382.45981751499
 20
231542.5696974718
 30
0.0
  0
VERTEX
  5
54C
  8
PLEISTOCENE_IGNIMBRITES_AN
 10
487375.86247147428
 20
231571.12004966359
 30
0.0
  0
VERTEX
  5
54D
  8
PLEISTOCENE_IGNIMBRITES_AN
 10
487369.26753219689
 20
231593.8131858625
 30
0.0
  0
VERTEX
  5
54E
  8
PLEISTOCENE_IGNIMBRITES_AN
 10
487361.20628233679
 20
231617.23836799161
 30
0.0
  0
VERTEX
  5
54F
  8
PLEISTOCENE_IGNIMBRITES_AN
 10
487350.94570622791
 20
231651.64456817979
 30
0.0
  0
VERTEX
  5
550
  8
PLEISTOCENE_IGNIMBRITES_AN
 10
487340.6849192988
 20
231687.51444189181
 30
0.0
  0
VERTEX
  5
551
  8
PLEISTOCENE_IGNIMBRITES_AN
 10
487332.6221932114
 20
231721.18870151741
 30
0.0
  0
VERTEX
  5
552
  8
PLEISTOCENE_IGNIMBRITES_AN
 10
487323.09482513019
 20
231754.8627501812
 30
0.0
  0
VERTEX
  5
553
  8
PLEISTOCENE_IGNIMBRITES_AN
 10
487319.42908294947
 20
231767.3072305797
 30
0.0
  0
VERTEX
  5
554
  8
PLEISTOCENE_IGNIMBRITES_AN
 10
487325.26059313049
 20
231781.52613320711
 30
0.0
  0
VERTEX
  5
555
  8
PLEISTOCENE_IGNIMBRITES_AN
 10
487331.45712243591
 20
231790.10393416369
 30
0.0
  0
SEQEND
  5
556
  8
PLEISTOCENE_IGNIMBRITES_AN
  0
POLYLINE
  5
7A
  8
STUDY_AREA
 66
     1
 10
0.0
 20
0.0
 30
0.0
 70
     1
 40
12.0
 41
12.0
  0
VERTEX
  5
557
  8
STUDY_AREA
 10
490019.96398673201
 20
236172.76122018669
 30
0.0
  0
VERTEX
  5
558
  8
STUDY_AREA
 10
490019.96221148659
 20
230025.0052610579
 30
0.0
  0
VERTEX
  5
559
  8
STUDY_AREA
 10
486019.98702773609
 20
230025.03767258869
 30
0.0
  0
VERTEX
  5
55A
  8
STUDY_AREA
 10
486020.0052829918
 20
227970.00589036589
 30
0.0
  0
VERTEX
  5
55B
  8
STUDY_AREA
 10
477960.00767574733
 20
227970.00069300761
 30
0.0
  0
VERTEX
  5
55C
  8
STUDY_AREA
 10
477959.93579567882
 20
238089.95683132511
 30
0.0
  0
VERTEX
  5
55D
  8
STUDY_AREA
 10
488545.397371598
 20
238090.0263668689
 30
0.0
  0
VERTEX
  5
55E
  8
STUDY_AREA
 10
488545.45307561121
 20
236172.82210352769
 30
0.0
  0
SEQEND
  5
55F
  8
STUDY_AREA
  0
POLYLINE
  5
7C
  8
VOLCANO-TECTONIC_COLLAPSED
 66
     1
 10
0.0
 20
0.0
 30
0.0
  0
VERTEX
  5
560
  8
VOLCANO-TECTONIC_COLLAPSED
 10
481541.64504517987
 20
227081.61668527749
 30
0.0
  0
VERTEX
  5
561
  8
VOLCANO-TECTONIC_COLLAPSED
 10
481668.27600127552
 20
226790.55198021259
 30
0.0
  0
VERTEX
  5
562
  8
VOLCANO-TECTONIC_COLLAPSED
 10
481921.5379134668
 20
226423.55578688969
 30
0.0
  0
VERTEX
  5
563
  8
VOLCANO-TECTONIC_COLLAPSED
 10
482364.74625980208
 20
225980.63234054879
 30
0.0
  0
VERTEX
  5
564
  8
VOLCANO-TECTONIC_COLLAPSED
 10
482491.37721589778
 20
225892.04595718489
 30
0.0
  0
VERTEX
  5
565
  8
VOLCANO-TECTONIC_COLLAPSED
 10
482757.2981571937
 20
225740.1872159089
 30
0.0
  0
VERTEX
  5
566
  8
VOLCANO-TECTONIC_COLLAPSED
 10
483187.8434079187
 20
225575.67146190701
 30
0.0
  0
VERTEX
  5
567
  8
VOLCANO-TECTONIC_COLLAPSED
 10
483757.68271034863
 20
225499.742091269
 30
0.0
  0
VERTEX
  5
568
  8
VOLCANO-TECTONIC_COLLAPSED
 10
484074.25603408372
 20
225512.3969863753
 30
0.0
  0
VERTEX
  5
569
  8
VOLCANO-TECTONIC_COLLAPSED
 10
484720.07391017122
 20
225702.22041297029
 30
0.0
  0
VERTEX
  5
56A
  8
VOLCANO-TECTONIC_COLLAPSED
 10
485125.29296967678
 20
225942.66553760989
 30
0.0
  0
VERTEX
  5
56B
  8
VOLCANO-TECTONIC_COLLAPSED
 10
485783.7698748699
 20
226474.17748493471
 30
0.0
  0
VERTEX
  5
56C
  8
VOLCANO-TECTONIC_COLLAPSED
 10
486442.25084656657
 20
227296.75201970481
 30
0.0
  0
VERTEX
  5
56D
  8
VOLCANO-TECTONIC_COLLAPSED
 10
486986.7598912734
 20
228169.94825251991
 30
0.0
  0
VERTEX
  5
56E
  8
VOLCANO-TECTONIC_COLLAPSED
 10
487227.35870785452
 20
228802.69724307561
 30
0.0
  0
VERTEX
  5
56F
  8
VOLCANO-TECTONIC_COLLAPSED
 10
487442.63133321702
 20
229599.96410525261
 30
0.0
  0
VERTEX
  5
570
  8
VOLCANO-TECTONIC_COLLAPSED
 10
487543.9360980941
 20
230587.05439402469
 30
0.0
  0
VERTEX
  5
571
  8
VOLCANO-TECTONIC_COLLAPSED
 10
487543.9360980941
 20
230992.0152726665
 30
0.0
  0
VERTEX
  5
572
  8
VOLCANO-TECTONIC_COLLAPSED
 10
487455.29442882718
 20
231283.0799777314
 30
0.0
  0
VERTEX
  5
573
  8
VOLCANO-TECTONIC_COLLAPSED
 10
487012.08608249202
 20
231903.17407318091
 30
0.0
  0
VERTEX
  5
574
  8
VOLCANO-TECTONIC_COLLAPSED
 10
486619.53011859581
 20
232333.44474203509
 30
0.0
  0
VERTEX
  5
575
  8
VOLCANO-TECTONIC_COLLAPSED
 10
486150.9996475465
 20
232662.47625003901
 30
0.0
  0
VERTEX
  5
576
  8
VOLCANO-TECTONIC_COLLAPSED
 10
485758.44368365029
 20
232877.6094668466
 30
0.0
  0
VERTEX
  5
577
  8
VOLCANO-TECTONIC_COLLAPSED
 10
485213.93463894352
 20
233130.71160421221
 30
0.0
  0
VERTEX
  5
578
  8
VOLCANO-TECTONIC_COLLAPSED
 10
484897.357248705
 20
233181.3311846375
 30
0.0
  0
SEQEND
  5
579
  8
VOLCANO-TECTONIC_COLLAPSED
  0
POLYLINE
  5
7D
  8
VOLCANO-TECTONIC_COLLAPSED
 66
     1
 10
0.0
 20
0.0
 30
0.0
 70
     1
  0
VERTEX
  5
57A
  8
VOLCANO-TECTONIC_COLLAPSED
 10
484844.83834061318
 20
230223.941915164
 30
0.0
  0
VERTEX
  5
57B
  8
VOLCANO-TECTONIC_COLLAPSED
 10
484963.58027760673
 20
230049.06253053111
 30
0.0
  0
VERTEX
  5
57C
  8
VOLCANO-TECTONIC_COLLAPSED
 10
485126.07373857789
 20
229992.8503165757
 30
0.0
  0
VERTEX
  5
57D
  8
VOLCANO-TECTONIC_COLLAPSED
 10
485326.06443930982
 20
230017.83187574061
 30
0.0
  0
VERTEX
  5
57E
  8
VOLCANO-TECTONIC_COLLAPSED
 10
485376.06211449212
 20
230080.291067702
 30
0.0
  0
VERTEX
  5
57F
  8
VOLCANO-TECTONIC_COLLAPSED
 10
485413.55935425311
 20
230186.46851760679
 30
0.0
  0
VERTEX
  5
580
  8
VOLCANO-TECTONIC_COLLAPSED
 10
485419.80957196472
 20
230273.90926873291
 30
0.0
  0
VERTEX
  5
581
  8
VOLCANO-TECTONIC_COLLAPSED
 10
485401.06298533641
 20
230398.82341741631
 30
0.0
  0
VERTEX
  5
582
  8
VOLCANO-TECTONIC_COLLAPSED
 10
485369.81189678132
 20
230461.2804917582
 30
0.0
  0
VERTEX
  5
583
  8
VOLCANO-TECTONIC_COLLAPSED
 10
485238.56952436548
 20
230529.98454410589
 30
0.0
  0
VERTEX
  5
584
  8
VOLCANO-TECTONIC_COLLAPSED
 10
485176.071413761
 20
230536.2294044921
 30
0.0
  0
VERTEX
  5
585
  8
VOLCANO-TECTONIC_COLLAPSED
 10
485051.07925905578
 20
230536.2294044921
 30
0.0
  0
VERTEX
  5
586
  8
VOLCANO-TECTONIC_COLLAPSED
 10
484976.08071302902
 20
230505.00086732121
 30
0.0
  0
VERTEX
  5
587
  8
VOLCANO-TECTONIC_COLLAPSED
 10
484926.08303784579
 20
230448.7886533658
 30
0.0
  0
VERTEX
  5
588
  8
VOLCANO-TECTONIC_COLLAPSED
 10
484888.58579808479
 20
230405.06827780281
 30
0.0
  0
VERTEX
  5
589
  8
VOLCANO-TECTONIC_COLLAPSED
 10
484844.83834061318
 20
230305.1378059038
 30
0.0
  0
SEQEND
  5
58A
  8
VOLCANO-TECTONIC_COLLAPSED
  0
POLYLINE
  5
7E
  8
VOLCANO-TECTONIC_COLLAPSED
 66
     1
 10
0.0
 20
0.0
 30
0.0
  0
VERTEX
  5
58B
  8
VOLCANO-TECTONIC_COLLAPSED
 10
488463.18574964342
 20
229739.55124058129
 30
0.0
  0
VERTEX
  5
58C
  8
VOLCANO-TECTONIC_COLLAPSED
 10
488742.5708879726
 20
229605.53132734681
 30
0.0
  0
VERTEX
  5
58D
  8
VOLCANO-TECTONIC_COLLAPSED
 10
489077.82980076491
 20
229393.3352490119
 30
0.0
  0
VERTEX
  5
58E
  8
VOLCANO-TECTONIC_COLLAPSED
 10
489346.0401842026
 20
229203.47370526311
 30
0.0
  0
VERTEX
  5
58F
  8
VOLCANO-TECTONIC_COLLAPSED
 10
489681.29909699521
 20
228857.25771369369
 30
0.0
  0
VERTEX
  5
590
  8
VOLCANO-TECTONIC_COLLAPSED
 10
489871.2821296808
 20
228600.3883309474
 30
0.0
  0
VERTEX
  5
591
  8
VOLCANO-TECTONIC_COLLAPSED
 10
489983.03374510899
 20
228444.03388312671
 30
0.0
  0
VERTEX
  5
592
  8
VOLCANO-TECTONIC_COLLAPSED
 10
490206.54104247218
 20
227874.4534871197
 30
0.0
  0
VERTEX
  5
593
  8
VOLCANO-TECTONIC_COLLAPSED
 10
490240.0693736542
 20
227740.43357388521
 30
0.0
  0
VERTEX
  5
594
  8
VOLCANO-TECTONIC_COLLAPSED
 10
490262.4188834391
 20
227517.06916944761
 30
0.0
  0
VERTEX
  5
595
  8
VOLCANO-TECTONIC_COLLAPSED
 10
490307.1219695136
 20
227081.5065690552
 30
0.0
  0
VERTEX
  5
596
  8
VOLCANO-TECTONIC_COLLAPSED
 10
490295.94314811658
 20
226757.62722969151
 30
0.0
  0
VERTEX
  5
597
  8
VOLCANO-TECTONIC_COLLAPSED
 10
490295.94314811658
 20
226489.5895208423
 30
0.0
  0
VERTEX
  5
598
  8
VOLCANO-TECTONIC_COLLAPSED
 10
490195.3662875797
 20
226009.35573365819
 30
0.0
  0
VERTEX
  5
599
  8
VOLCANO-TECTONIC_COLLAPSED
 10
490083.61467215139
 20
225651.9714159859
 30
0.0
  0
VERTEX
  5
59A
  8
VOLCANO-TECTONIC_COLLAPSED
 10
489949.50948043261
 20
225406.26824172289
 30
0.0
  0
VERTEX
  5
59B
  8
VOLCANO-TECTONIC_COLLAPSED
 10
489815.40428871388
 20
225160.56718507921
 30
0.0
  0
VERTEX
  5
59C
  8
VOLCANO-TECTONIC_COLLAPSED
 10
489647.77483231761
 20
224926.03445453869
 30
0.0
  0
VERTEX
  5
59D
  8
VOLCANO-TECTONIC_COLLAPSED
 10
489491.32013081381
 20
224747.3433545125
 30
0.0
  0
VERTEX
  5
59E
  8
VOLCANO-TECTONIC_COLLAPSED
 10
489290.16234323569
 20
224613.3234412781
 30
0.0
  0
VERTEX
  5
59F
  8
VOLCANO-TECTONIC_COLLAPSED
 10
489033.13078119513
 20
224468.13520194049
 30
0.0
  0
VERTEX
  5
5A0
  8
VOLCANO-TECTONIC_COLLAPSED
 10
488720.22137818759
 20
224356.45405853141
 30
0.0
  0
VERTEX
  5
5A1
  8
VOLCANO-TECTONIC_COLLAPSED
 10
488384.9583988915
 20
224255.93912360561
 30
0.0
  0
VERTEX
  5
5A2
  8
VOLCANO-TECTONIC_COLLAPSED
 10
488016.1711549171
 20
224222.43414529719
 30
0.0
  0
VERTEX
  5
5A3
  8
VOLCANO-TECTONIC_COLLAPSED
 10
487625.03440115781
 20
224255.93912360561
 30
0.0
  0
SEQEND
  5
5A4
  8
VOLCANO-TECTONIC_COLLAPSED
  0
POLYLINE
  5
7F
  8
VOLCANO-TECTONIC_COLLAPSED
 66
     1
 10
0.0
 20
0.0
 30
0.0
 70
     1
  0
VERTEX
  5
5A5
  8
VOLCANO-TECTONIC_COLLAPSED
 10
488968.96540366678
 20
226266.19546972949
 30
0.0
  0
VERTEX
  5
5A6
  8
VOLCANO-TECTONIC_COLLAPSED
 10
489170.45257812541
 20
226335.89692093831
 30
0.0
  0
VERTEX
  5
5A7
  8
VOLCANO-TECTONIC_COLLAPSED
 10
489224.6997507104
 20
226421.08664236261
 30
0.0
  0
VERTEX
  5
5A8
  8
VOLCANO-TECTONIC_COLLAPSED
 10
489259.57409494562
 20
226568.2336798883
 30
0.0
  0
VERTEX
  5
5A9
  8
VOLCANO-TECTONIC_COLLAPSED
 10
489244.07257906161
 20
226715.38071741399
 30
0.0
  0
VERTEX
  5
5AA
  8
VOLCANO-TECTONIC_COLLAPSED
 10
489112.3300265689
 20
226816.0587090537
 30
0.0
  0
VERTEX
  5
5AB
  8
VOLCANO-TECTONIC_COLLAPSED
 10
488980.59154058062
 20
226866.3987636836
 30
0.0
  0
VERTEX
  5
5AC
  8
VOLCANO-TECTONIC_COLLAPSED
 10
488810.10333138611
 20
226823.80496178131
 30
0.0
  0
VERTEX
  5
5AD
  8
VOLCANO-TECTONIC_COLLAPSED
 10
488720.9818145652
 20
226715.38071741399
 30
0.0
  0
VERTEX
  5
5AE
  8
VOLCANO-TECTONIC_COLLAPSED
 10
488670.61002095038
 20
226572.1046886323
 30
0.0
  0
VERTEX
  5
5AF
  8
VOLCANO-TECTONIC_COLLAPSED
 10
488701.60898621468
 20
226428.8307774704
 30
0.0
  0
VERTEX
  5
5B0
  8
VOLCANO-TECTONIC_COLLAPSED
 10
488821.72540179448
 20
226312.66239799539
 30
0.0
  0
SEQEND
  5
5B1
  8
VOLCANO-TECTONIC_COLLAPSED
  0
ENDSEC
  0
EOF
