  0
SECTION
  2
HEADER
  9
$ACADVER
  1
AC1009
  9
$INSBASE
 10
0.0
 20
0.0
 30
0.0
  9
$EXTMIN
 10
719409.74073623738
 20
3413692.6531089768
 30
0.0066225165562914
  9
$EXTMAX
 10
730659.53900161386
 20
3423794.593125009
 30
11.699999999999999
  9
$LIMMIN
 10
0.0
 20
0.0
  9
$LIMMAX
 10
12.0
 20
9.0
  9
$ORTHOMODE
 70
     0
  9
$REGENMODE
 70
     1
  9
$FILLMODE
 70
     1
  9
$QTEXTMODE
 70
     0
  9
$MIRRTEXT
 70
     0
  9
$DRAGMODE
 70
     2
  9
$LTSCALE
 40
1.0
  9
$OSMODE
 70
    37
  9
$ATTMODE
 70
     1
  9
$TEXTSIZE
 40
0.2
  9
$TRACEWID
 40
0.05
  9
$TEXTSTYLE
  7
STANDARD
  9
$CLAYER
  8
WEI-JIN
  9
$CELTYPE
  6
BYLAYER
  9
$CECOLOR
 62
   256
  9
$DIMSCALE
 40
1.0
  9
$DIMASZ
 40
0.18
  9
$DIMEXO
 40
0.0625
  9
$DIMDLI
 40
0.38
  9
$DIMRND
 40
0.0
  9
$DIMDLE
 40
0.0
  9
$DIMEXE
 40
0.18
  9
$DIMTP
 40
0.0
  9
$DIMTM
 40
0.0
  9
$DIMTXT
 40
0.18
  9
$DIMCEN
 40
0.09
  9
$DIMTSZ
 40
0.0
  9
$DIMTOL
 70
     0
  9
$DIMLIM
 70
     0
  9
$DIMTIH
 70
     1
  9
$DIMTOH
 70
     1
  9
$DIMSE1
 70
     0
  9
$DIMSE2
 70
     0
  9
$DIMTAD
 70
     0
  9
$DIMZIN
 70
     0
  9
$DIMBLK
  1

  9
$DIMASO
 70
     1
  9
$DIMSHO
 70
     1
  9
$DIMPOST
  1

  9
$DIMAPOST
  1

  9
$DIMALT
 70
     0
  9
$DIMALTD
 70
     2
  9
$DIMALTF
 40
25.399999999999999
  9
$DIMLFAC
 40
1.0
  9
$DIMTOFL
 70
     0
  9
$DIMTVP
 40
0.0
  9
$DIMTIX
 70
     0
  9
$DIMSOXD
 70
     0
  9
$DIMSAH
 70
     0
  9
$DIMBLK1
  1

  9
$DIMBLK2
  1

  9
$DIMSTYLE
  2
STANDARD
  9
$DIMCLRD
 70
     0
  9
$DIMCLRE
 70
     0
  9
$DIMCLRT
 70
     0
  9
$DIMTFAC
 40
1.0
  9
$DIMGAP
 40
0.09
  9
$LUNITS
 70
     2
  9
$LUPREC
 70
     4
  9
$SKETCHINC
 40
0.1
  9
$FILLETRAD
 40
0.0
  9
$AUNITS
 70
     0
  9
$AUPREC
 70
     0
  9
$MENU
  1
.
  9
$ELEVATION
 40
0.0
  9
$PELEVATION
 40
0.0
  9
$THICKNESS
 40
0.0
  9
$LIMCHECK
 70
     0
  9
$BLIPMODE
 70
     0
  9
$CHAMFERA
 40
0.0
  9
$CHAMFERB
 40
0.0
  9
$SKPOLY
 70
     0
  9
$TDCREATE
 40
2457105.2334777541
  9
$TDUPDATE
 40
2457620.4974837271
  9
$TDINDWG
 40
0.0674412269
  9
$TDUSRTIMER
 40
0.0674359491
  9
$USRTIMER
 70
     1
  9
$ANGBASE
 50
0.0
  9
$ANGDIR
 70
     0
  9
$PDMODE
 70
     0
  9
$PDSIZE
 40
0.0
  9
$PLINEWID
 40
0.0
  9
$COORDS
 70
     1
  9
$SPLFRAME
 70
     0
  9
$SPLINETYPE
 70
     6
  9
$SPLINESEGS
 70
     8
  9
$ATTDIA
 70
     1
  9
$ATTREQ
 70
     1
  9
$HANDLING
 70
     1
  9
$HANDSEED
  5
4E4
  9
$SURFTAB1
 70
     6
  9
$SURFTAB2
 70
     6
  9
$SURFTYPE
 70
     6
  9
$SURFU
 70
     6
  9
$SURFV
 70
     6
  9
$UCSNAME
  2

  9
$UCSORG
 10
0.0
 20
0.0
 30
0.0
  9
$UCSXDIR
 10
1.0
 20
0.0
 30
0.0
  9
$UCSYDIR
 10
0.0
 20
1.0
 30
0.0
  9
$PUCSNAME
  2

  9
$PUCSORG
 10
0.0
 20
0.0
 30
0.0
  9
$PUCSXDIR
 10
1.0
 20
0.0
 30
0.0
  9
$PUCSYDIR
 10
0.0
 20
1.0
 30
0.0
  9
$USERI1
 70
     0
  9
$USERI2
 70
     0
  9
$USERI3
 70
     0
  9
$USERI4
 70
     0
  9
$USERI5
 70
     0
  9
$USERR1
 40
0.0
  9
$USERR2
 40
0.0
  9
$USERR3
 40
0.0
  9
$USERR4
 40
0.0
  9
$USERR5
 40
0.0
  9
$WORLDVIEW
 70
     1
  9
$SHADEDGE
 70
     3
  9
$SHADEDIF
 70
    70
  9
$TILEMODE
 70
     1
  9
$MAXACTVP
 70
    64
  9
$PLIMCHECK
 70
     0
  9
$PEXTMIN
 10
0.0
 20
0.0
 30
0.0
  9
$PEXTMAX
 10
0.0
 20
0.0
 30
0.0
  9
$PLIMMIN
 10
0.0
 20
0.0
  9
$PLIMMAX
 10
12.0
 20
9.0
  9
$UNITMODE
 70
     0
  9
$VISRETAIN
 70
     1
  9
$PLINEGEN
 70
     0
  9
$PSLTSCALE
 70
     1
  0
ENDSEC
  0
SECTION
  2
TABLES
  0
TABLE
  2
VPORT
 70
     1
  0
VPORT
  2
*ACTIVE
 70
     0
 10
0.0
 20
0.0
 11
1.0
 21
1.0
 12
721965.73298006167
 22
3418082.1702937749
 13
0.0
 23
0.0
 14
0.5
 24
0.5
 15
0.5
 25
0.5
 16
0.0
 26
0.0
 36
1.0
 17
5.1181586671325601
 27
7.0859848490330393
 37
-0.8446473595225725
 40
30818.663582624871
 41
1.1002570694087399
 42
50.0
 43
0.0
 44
0.0
 50
0.0
 51
0.0
 71
     0
 72
  1000
 73
     1
 74
     3
 75
     0
 76
     0
 77
     0
 78
     0
  0
ENDTAB
  0
TABLE
  2
LTYPE
 70
     1
  0
LTYPE
  2
CONTINUOUS
 70
     0
  3
Solid line
 72
    65
 73
     0
 40
0.0
  0
ENDTAB
  0
TABLE
  2
LAYER
 70
     2
  0
LAYER
  2
0
 70
     0
 62
    -7
  6
CONTINUOUS
  0
LAYER
  2
WEI-JIN
 70
     0
 62
    18
  6
CONTINUOUS
  0
ENDTAB
  0
TABLE
  2
STYLE
 70
     1
  0
STYLE
  2
STANDARD
 70
     0
 40
0.0
 41
1.0
 50
0.0
 71
     0
 42
0.2
  3
txt
  4

  0
ENDTAB
  0
TABLE
  2
VIEW
 70
     0
  0
ENDTAB
  0
TABLE
  2
UCS
 70
     0
  0
ENDTAB
  0
TABLE
  2
APPID
 70
     6
  0
APPID
  2
ACAD
 70
     0
  0
APPID
  2
ACAD_NAV_VCDISPLAY
 70
     0
  0
APPID
  2
ADE
 70
     0
  0
APPID
  2
DCO15
 70
     0
  0
APPID
  2
IRD
 70
     0
  0
APPID
  2
ADE_PROJECTION
 70
     0
  0
ENDTAB
  0
TABLE
  2
DIMSTYLE
 70
     1
  0
DIMSTYLE
  2
STANDARD
 70
     0
  3

  4

  5

  6

  7

 40
1.0
 41
0.18
 42
0.0625
 43
0.38
 44
0.18
 45
0.0
 46
0.0
 47
0.0
 48
0.0
140
0.18
141
0.09
142
0.0
143
25.399999999999999
144
1.0
145
0.0
146
1.0
147
0.09
 71
     0
 72
     0
 73
     1
 74
     1
 75
     0
 76
     0
 77
     0
 78
     0
170
     0
171
     2
172
     0
173
     0
174
     0
175
     0
176
     0
177
     0
178
     0
  0
ENDTAB
  0
ENDSEC
  0
SECTION
  2
BLOCKS
  0
BLOCK
  8
0
  2
$MODEL_SPACE
 70
     0
 10
0.0
 20
0.0
 30
0.0
  3
$MODEL_SPACE
  1

  0
ENDBLK
  5
17
  8
0
  0
BLOCK
 67
     1
  8
0
  2
$PAPER_SPACE
 70
     0
 10
0.0
 20
0.0
 30
0.0
  3
$PAPER_SPACE
  1

  0
ENDBLK
  5
1C
 67
     1
  8
0
  0
ENDSEC
  0
SECTION
  2
ENTITIES
  0
POLYLINE
  5
60
  8
WEI-JIN
 66
     1
 10
0.0
 20
0.0
 30
4.0999999999999988
 70
     1
1001
ADE
1011
-33.715441551059492
1021
-6.1299850862440881E+054
1031
-0.0
1021
0.5886212205514312
1031
0.0
1001
IRD
1002
{
1000
TPMLINK_Unit_topology-_-ade
1070
   515
1071
        5
1004
010098040000580100005801000000000000F30DE7021E817740F30DE7021E8177408302000000000000
1002
}
1001
DCO15
1071
        5
1071
        5
1000
unitlink
1004
074132343800
1071
        4
1000
Link
1004
074132343800
  0
VERTEX
  5
FF
  8
WEI-JIN
 10
721597.17280864343
 20
3414640.8121526092
 30
4.0999999999999988
  0
VERTEX
  5
100
  8
WEI-JIN
 10
721695.49203605566
 20
3414642.4483200712
 30
4.0999999999999988
  0
VERTEX
  5
101
  8
WEI-JIN
 10
721695.13969752565
 20
3414730.6816433929
 30
4.0999999999999988
  0
VERTEX
  5
102
  8
WEI-JIN
 10
721596.45135356113
 20
3414731.619446693
 30
4.0999999999999988
  0
VERTEX
  5
103
  8
WEI-JIN
 10
721597.17280864343
 20
3414640.8121526092
 30
4.0999999999999988
  0
SEQEND
  5
104
  8
WEI-JIN
  0
POLYLINE
  5
63
  8
WEI-JIN
 66
     1
 10
0.0
 20
0.0
 30
0.1090909090909091
 70
     1
1001
ADE
1011
-20.488275369862091
1021
-6.1299850861992212E+054
1031
-0.0
1021
6.0818436597473911
1031
0.0
1001
IRD
1002
{
1000
TPMLINK_Unit_topology-_-ade
1070
   515
1071
        5
1004
01009D040000AD010000AD01000000000000E94EC73C2A5E7C40E94EC73C2A5E7C407F02000000000000
1002
}
1001
DCO15
1071
        5
1071
        5
1000
unitlink
1004
074132343300
1071
        4
1000
Link
1004
074132343300
  0
VERTEX
  5
105
  8
WEI-JIN
 10
721506.68891897786
 20
3414249.8978256369
 30
0.1090909090909091
  0
VERTEX
  5
106
  8
WEI-JIN
 10
721508.28283137095
 20
3414128.6418541712
 30
0.1090909090909091
  0
VERTEX
  5
107
  8
WEI-JIN
 10
721608.97237363912
 20
3414118.9723245669
 30
0.1090909090909091
  0
VERTEX
  5
108
  8
WEI-JIN
 10
721608.68583319895
 20
3414248.4306318839
 30
0.1090909090909091
  0
VERTEX
  5
109
  8
WEI-JIN
 10
721506.68891897786
 20
3414249.8978256369
 30
0.1090909090909091
  0
SEQEND
  5
10A
  8
WEI-JIN
  0
POLYLINE
  5
64
  8
WEI-JIN
 66
     1
 10
0.0
 20
0.0
 30
0.8
 70
     1
1001
ADE
1011
-26.794506171834659
1021
-6.1299850861992212E+054
1031
-0.0
1021
1.8506650258786961
1031
0.0
1001
IRD
1002
{
1000
TPMLINK_Unit_topology-_-ade
1070
   515
1071
        5
1004
01009E040000350100003501000000000000FA9CE762300E7E40FA9CE762300E7E407102000000000000
1002
}
1001
DCO15
1071
        5
1071
        5
1000
unitlink
1004
074132323800
1071
        4
1000
Link
1004
074132323800
  0
VERTEX
  5
10B
  8
WEI-JIN
 10
721408.85625429824
 20
3414834.1792119299
 30
0.8
  0
VERTEX
  5
10C
  8
WEI-JIN
 10
721519.62477637455
 20
3414842.5994883762
 30
0.8
  0
VERTEX
  5
10D
  8
WEI-JIN
 10
721519.62477637455
 20
3414965.2621647939
 30
0.8
  0
VERTEX
  5
10E
  8
WEI-JIN
 10
721399.22566785652
 20
3414960.4534287192
 30
0.8
  0
VERTEX
  5
10F
  8
WEI-JIN
 10
721408.85625429824
 20
3414834.1792119299
 30
0.8
  0
SEQEND
  5
110
  8
WEI-JIN
  0
POLYLINE
  5
65
  8
WEI-JIN
 66
     1
 10
0.0
 20
0.0
 30
0.9
 70
     1
1001
ADE
1011
-35.770749633898959
1021
-6.1299850861992212E+054
1031
-0.0
1021
-0.6597594120539725
1031
0.0
1001
IRD
1002
{
1000
TPMLINK_Unit_topology-_-ade
1070
   515
1071
        5
1004
01009F0400004E0100004E01000000000000E284428B94557E40E284428B94557E407202000000000000
1002
}
1001
DCO15
1071
        5
1071
        5
1000
unitlink
1004
074132323900
1071
        4
1000
Link
1004
074132323900
  0
VERTEX
  5
111
  8
WEI-JIN
 10
721407.57939756045
 20
3414696.214987325
 30
0.9
  0
VERTEX
  5
112
  8
WEI-JIN
 10
721523.45222820644
 20
3414696.289206557
 30
0.9
  0
VERTEX
  5
113
  8
WEI-JIN
 10
721524.49040367058
 20
3414821.0798956119
 30
0.9
  0
VERTEX
  5
114
  8
WEI-JIN
 10
721400.90347037464
 20
3414817.0593133769
 30
0.9
  0
VERTEX
  5
115
  8
WEI-JIN
 10
721407.57939756045
 20
3414696.214987325
 30
0.9
  0
SEQEND
  5
116
  8
WEI-JIN
  0
POLYLINE
  5
66
  8
WEI-JIN
 66
     1
 10
0.0
 20
0.0
 30
0.7
 70
     1
1001
ADE
1011
-48.79888616502285
1021
-6.1299850861992212E+054
1031
-0.0
1021
-6.8090505609288812
1031
0.0
1001
IRD
1002
{
1000
TPMLINK_Unit_topology-_-ade
1070
   515
1071
        5
1004
0100A004000061010000610100000000000001FB3362138F7C4001FB3362138F7C400000000073020000
1002
}
1001
DCO15
1071
        5
1071
        5
1000
unitlink
1004
074132333000
1071
        4
1000
Link
1004
074132333000
  0
VERTEX
  5
117
  8
WEI-JIN
 10
721410.24883038551
 20
3414580.174190246
 30
0.7
  0
VERTEX
  5
118
  8
WEI-JIN
 10
721407.69857056066
 20
3414691.0345123559
 30
0.7
  0
VERTEX
  5
119
  8
WEI-JIN
 10
721523.80250463623
 20
3414691.8825259809
 30
0.7
  0
VERTEX
  5
11A
  8
WEI-JIN
 10
721532.34251944348
 20
3414584.4441882521
 30
0.7
  0
VERTEX
  5
11B
  8
WEI-JIN
 10
721410.24883038551
 20
3414580.174190246
 30
0.7
  0
SEQEND
  5
11C
  8
WEI-JIN
  0
POLYLINE
  5
67
  8
WEI-JIN
 66
     1
 10
0.0
 20
0.0
 30
0.2692307692307692
 70
     1
1001
ADE
1011
-25.359985021874309
1021
-6.1299850861992212E+054
1031
-0.0
1021
2.359473198652267
1031
0.0
1001
IRD
1002
{
1000
TPMLINK_Unit_topology-_-ade
1070
   515
1071
        5
1004
0100A10400008C0100008C010000000000002281B4F51BAC79402281B4F51BAC79407502000000000000
1002
}
1001
DCO15
1071
        5
1071
        5
1000
unitlink
1004
074132333200
1071
        4
1000
Link
1004
074132333200
  0
VERTEX
  5
11D
  8
WEI-JIN
 10
721509.60829535499
 20
3414408.0673312861
 30
0.2692307692307692
  0
VERTEX
  5
11E
  8
WEI-JIN
 10
721598.90094523504
 20
3414410.2123069209
 30
0.2692307692307692
  0
VERTEX
  5
11F
  8
WEI-JIN
 10
721601.97132383659
 20
3414519.7158072349
 30
0.2692307692307692
  0
VERTEX
  5
120
  8
WEI-JIN
 10
721505.48090116703
 20
3414523.3273476069
 30
0.2692307692307692
  0
VERTEX
  5
121
  8
WEI-JIN
 10
721509.60829535499
 20
3414408.0673312861
 30
0.2692307692307692
  0
SEQEND
  5
122
  8
WEI-JIN
  0
POLYLINE
  5
68
  8
WEI-JIN
 66
     1
 10
0.0
 20
0.0
 30
0.217948717948718
 70
     1
1001
ADE
1011
-22.339940493926409
1021
-6.1299850861992212E+054
1031
-0.0
1021
1.4466114747337979
1031
0.0
1001
IRD
1002
{
1000
TPMLINK_Unit_topology-_-ade
1070
   515
1071
        5
1004
0100A20400008E0100008E010000000000009A783454E1847C409A783454E1847C407402000000000000
1002
}
1001
DCO15
1071
        5
1071
        5
1000
unitlink
1004
074132333100
1071
        4
1000
Link
1004
074132333100
  0
VERTEX
  5
123
  8
WEI-JIN
 10
721398.75588315364
 20
3414401.792030476
 30
0.217948717948718
  0
VERTEX
  5
124
  8
WEI-JIN
 10
721503.76954260084
 20
3414409.5538492841
 30
0.217948717948718
  0
VERTEX
  5
125
  8
WEI-JIN
 10
721500.86694424984
 20
3414525.6419259659
 30
0.217948717948718
  0
VERTEX
  5
126
  8
WEI-JIN
 10
721393.45402720582
 20
3414529.0938402428
 30
0.217948717948718
  0
VERTEX
  5
127
  8
WEI-JIN
 10
721398.75588315364
 20
3414401.792030476
 30
0.217948717948718
  0
SEQEND
  5
128
  8
WEI-JIN
  0
POLYLINE
  5
69
  8
WEI-JIN
 66
     1
 10
0.0
 20
0.0
 30
0.0425531914893617
 70
     1
1001
ADE
1011
-22.532887783017941
1021
-6.1299850861992212E+054
1031
-0.0
1021
-0.1346845175139606
1031
0.0
1001
IRD
1002
{
1000
TPMLINK_Unit_topology-_-ade
1070
   515
1071
        5
1004
0100A3040000A7010000A701000000000000C95FB811B7D47940C95FB811B7D479408002000000000000
1002
}
1001
DCO15
1071
        5
1071
        5
1000
unitlink
1004
074132343400
1071
        4
1000
Link
1004
074132343400
  0
VERTEX
  5
129
  8
WEI-JIN
 10
721399.41022613633
 20
3414282.2719927789
 30
0.0425531914893617
  0
VERTEX
  5
12A
  8
WEI-JIN
 10
721497.31000291952
 20
3414282.2719927789
 30
0.0425531914893617
  0
VERTEX
  5
12B
  8
WEI-JIN
 10
721503.23264579847
 20
3414387.9544434738
 30
0.0425531914893617
  0
VERTEX
  5
12C
  8
WEI-JIN
 10
721397.43041916576
 20
3414385.9790705629
 30
0.0425531914893617
  0
VERTEX
  5
12D
  8
WEI-JIN
 10
721399.41022613633
 20
3414282.2719927789
 30
0.0425531914893617
  0
SEQEND
  5
12E
  8
WEI-JIN
  0
POLYLINE
  5
6A
  8
WEI-JIN
 66
     1
 10
0.0
 20
0.0
 30
0.1132075471698113
 70
     1
1001
ADE
1011
-43.220192801323719
1021
-6.1299850861992212E+054
1031
-0.0
1021
1.3967283191159361
1031
0.0
1001
IRD
1002
{
1000
TPMLINK_Unit_topology-_-ade
1070
   515
1071
        5
1004
0100A4040000BF010000BF01000000000000F14452D6ED987D40F14452D6ED987D407E02000000000000
1002
}
1001
DCO15
1071
        5
1071
        5
1000
unitlink
1004
074132343200
1071
        4
1000
Link
1004
074132343200
  0
VERTEX
  5
12F
  8
WEI-JIN
 10
721386.96093146864
 20
3414010.4487083768
 30
0.1132075471698113
  0
VERTEX
  5
130
  8
WEI-JIN
 10
721501.8904037847
 20
3414007.375906073
 30
0.1132075471698113
  0
VERTEX
  5
131
  8
WEI-JIN
 10
721504.96078239032
 20
3414128.3026487208
 30
0.1132075471698113
  0
VERTEX
  5
132
  8
WEI-JIN
 10
721386.50792479143
 20
3414129.6095873639
 30
0.1132075471698113
  0
VERTEX
  5
133
  8
WEI-JIN
 10
721386.96093146864
 20
3414010.4487083768
 30
0.1132075471698113
  0
SEQEND
  5
134
  8
WEI-JIN
  0
POLYLINE
  5
6B
  8
WEI-JIN
 66
     1
 10
0.0
 20
0.0
 30
0.3
 70
     1
1001
ADE
1011
-13.388864075881431
1021
-6.1299850861992212E+054
1031
-0.0
1021
2.5041343457996841
1031
0.0
1001
IRD
1002
{
1000
TPMLINK_Unit_topology-_-ade
1070
   515
1071
        5
1004
0100A50400005001000050010000000000003EB973384E6A76403EB973384E6A76400000000069020000
1002
}
1001
DCO15
1071
        5
1071
        5
1000
unitlink
1004
074132313600
1071
        4
1000
Link
1004
074132313600
  0
VERTEX
  5
135
  8
WEI-JIN
 10
721391.82655876526
 20
3414671.819521321
 30
0.3
  0
VERTEX
  5
136
  8
WEI-JIN
 10
721300.58765796933
 20
3414661.5535681662
 30
0.3
  0
VERTEX
  5
137
  8
WEI-JIN
 10
721303.03393999545
 20
3414752.2140639978
 30
0.3
  0
VERTEX
  5
138
  8
WEI-JIN
 10
721396.32306950563
 20
3414754.5158145172
 30
0.3
  0
VERTEX
  5
139
  8
WEI-JIN
 10
721391.82655876526
 20
3414671.819521321
 30
0.3
  0
SEQEND
  5
13A
  8
WEI-JIN
  0
POLYLINE
  5
6C
  8
WEI-JIN
 66
     1
 10
0.0
 20
0.0
 30
0.3670886075949367
 70
     1
1001
ADE
1011
-26.69383802078665
1021
-6.1299850861992212E+054
1031
-0.0
1021
2.6088889711536449
1031
0.0
1001
IRD
1002
{
1000
TPMLINK_Unit_topology-_-ade
1070
   515
1071
        5
1004
0100A60400004001000040010000000000009097847F905D79409097847F905D79406F02000000000000
1002
}
1001
DCO15
1071
        5
1071
        5
1000
unitlink
1004
074132323600
1071
        4
1000
Link
1004
074132323600
  0
VERTEX
  5
13B
  8
WEI-JIN
 10
721284.71564617031
 20
3414761.6091990569
 30
0.3670886075949367
  0
VERTEX
  5
13C
  8
WEI-JIN
 10
721384.49456177279
 20
3414764.6321182079
 30
0.3670886075949367
  0
VERTEX
  5
13D
  8
WEI-JIN
 10
721387.64883049962
 20
3414863.1613245779
 30
0.3670886075949367
  0
VERTEX
  5
13E
  8
WEI-JIN
 10
721280.4036937058
 20
3414861.7047364712
 30
0.3670886075949367
  0
VERTEX
  5
13F
  8
WEI-JIN
 10
721284.71564617031
 20
3414761.6091990569
 30
0.3670886075949367
  0
SEQEND
  5
140
  8
WEI-JIN
  0
POLYLINE
  5
6D
  8
WEI-JIN
 66
     1
 10
0.0
 20
0.0
 30
0.0227272727272727
 70
     1
1001
ADE
1011
-18.25449136854149
1021
-6.1299850861992212E+054
1031
-0.0
1021
-1.7409220845438531
1031
0.0
1001
IRD
1002
{
1000
TPMLINK_Unit_topology-_-ade
1070
   515
1071
        5
1004
0100A70400002A0100002A01000000000000F68411B096517440F68411B096517440000000006E020000
1002
}
1001
DCO15
1071
        5
1071
        5
1000
unitlink
1004
074132323500
1071
        4
1000
Link
1004
074132323500
  0
VERTEX
  5
141
  8
WEI-JIN
 10
721291.44363425684
 20
3414956.4128932208
 30
0.0227272727272727
  0
VERTEX
  5
142
  8
WEI-JIN
 10
721322.28164449346
 20
3414961.680554315
 30
0.0227272727272727
  0
VERTEX
  5
143
  8
WEI-JIN
 10
721370.43457669031
 20
3414949.6587141319
 30
0.0227272727272727
  0
VERTEX
  5
144
  8
WEI-JIN
 10
721374.19285432633
 20
3414869.6361580039
 30
0.0227272727272727
  0
VERTEX
  5
145
  8
WEI-JIN
 10
721298.03739814425
 20
3414868.7482378581
 30
0.0227272727272727
  0
VERTEX
  5
146
  8
WEI-JIN
 10
721291.44363425684
 20
3414956.4128932208
 30
0.0227272727272727
  0
SEQEND
  5
147
  8
WEI-JIN
  0
POLYLINE
  5
6E
  8
WEI-JIN
 66
     1
 10
0.0
 20
0.0
 30
0.0454545454545455
 70
     1
1001
ADE
1011
-26.24922035261989
1021
-6.1299850861992212E+054
1031
-0.0
1021
8.0710943648591655
1031
0.0
1001
IRD
1002
{
1000
TPMLINK_Unit_topology-_-ade
1070
   515
1071
        5
1004
0100A80400002B0100002B01000000000000725B34DF3BD87240725B34DF3BD87240000000006D020000
1002
}
1001
DCO15
1071
        5
1071
        5
1000
unitlink
1004
074132323400
1071
        4
1000
Link
1004
074132323400
  0
VERTEX
  5
148
  8
WEI-JIN
 10
721221.74771776062
 20
3414954.1980811711
 30
0.0454545454545455
  0
VERTEX
  5
149
  8
WEI-JIN
 10
721284.9505385235
 20
3414954.1980811711
 30
0.0454545454545455
  0
VERTEX
  5
14A
  8
WEI-JIN
 10
721294.9837975651
 20
3414871.3920450369
 30
0.0454545454545455
  0
VERTEX
  5
14B
  8
WEI-JIN
 10
721223.50941040355
 20
3414870.7934471858
 30
0.0454545454545455
  0
VERTEX
  5
14C
  8
WEI-JIN
 10
721221.74771776062
 20
3414954.1980811711
 30
0.0454545454545455
  0
SEQEND
  5
14D
  8
WEI-JIN
  0
POLYLINE
  5
6F
  8
WEI-JIN
 66
     1
 10
0.0
 20
0.0
 30
1.5
 70
     1
1001
ADE
1011
-25.00764649559278
1021
-6.1299850861992212E+054
1031
-0.0
1021
-5.9910560459829849
1031
0.0
1001
IRD
1002
{
1000
TPMLINK_Unit_topology-_-ade
1070
   515
1071
        5
1004
0100A90400002901000029010000000000004E895CB0BC8074404E895CB0BC807440000000006C020000
1002
}
1001
DCO15
1071
        5
1071
        5
1000
unitlink
1004
07413232323100
1071
        4
1000
Link
1004
07413232323100
  0
VERTEX
  5
14E
  8
WEI-JIN
 10
721138.44779953163
 20
3414957.2710619061
 30
1.5
  0
VERTEX
  5
14F
  8
WEI-JIN
 10
721205.18780693435
 20
3414954.267917587
 30
1.5
  0
VERTEX
  5
150
  8
WEI-JIN
 10
721210.79166733485
 20
3414864.7376322532
 30
1.5
  0
VERTEX
  5
151
  8
WEI-JIN
 10
721136.91802257695
 20
3414859.7892233469
 30
1.5
  0
VERTEX
  5
152
  8
WEI-JIN
 10
721138.44779953163
 20
3414957.2710619061
 30
1.5
  0
SEQEND
  5
153
  8
WEI-JIN
  0
POLYLINE
  5
70
  8
WEI-JIN
 66
     1
 10
0.0
 20
0.0
 30
1.6000000000000001
 70
     1
1001
ADE
1011
-28.42197461228352
1021
-6.1299850861992212E+054
1031
-0.0
1021
-3.1875335606746358
1031
0.0
1001
IRD
1002
{
1000
TPMLINK_Unit_topology-_-ade
1070
   515
1071
        5
1004
0100AA0400003F0100003F0100000000000053F3F5421BBF764053F3F5421BBF76408702000000000000
1002
}
1001
DCO15
1071
        5
1071
        5
1000
unitlink
1004
07413232323200
1071
        4
1000
Link
1004
07413232323200
  0
VERTEX
  5
154
  8
WEI-JIN
 10
721191.74860878312
 20
3414765.8991503268
 30
1.6000000000000001
  0
VERTEX
  5
155
  8
WEI-JIN
 10
721280.18557937816
 20
3414762.9660208542
 30
1.6000000000000001
  0
VERTEX
  5
156
  8
WEI-JIN
 10
721275.30317405984
 20
3414861.0462788339
 30
1.6000000000000001
  0
VERTEX
  5
157
  8
WEI-JIN
 10
721191.26204605412
 20
3414859.090859185
 30
1.6000000000000001
  0
VERTEX
  5
158
  8
WEI-JIN
 10
721191.74860878312
 20
3414765.8991503268
 30
1.6000000000000001
  0
SEQEND
  5
159
  8
WEI-JIN
  0
POLYLINE
  5
71
  8
WEI-JIN
 66
     1
 10
0.0
 20
0.0
 30
4.5999999999999979
 70
     1
1001
ADE
1011
-24.344914503279139
1021
-6.1299850861992212E+054
1031
-0.0
1021
3.1077205142937601
1031
0.0
1001
IRD
1002
{
1000
TPMLINK_Unit_topology-_-ade
1070
   515
1071
        5
1004
0100AB040000410100004101000000000000473D82D9AEFB7340473D82D9AEFB7340000000006B020000
1002
}
1001
DCO15
1071
        5
1071
        5
1000
unitlink
1004
074132323100
1071
        4
1000
Link
1004
074132323100
  0
VERTEX
  5
15A
  8
WEI-JIN
 10
721192.00027916185
 20
3414754.1566558052
 30
4.5999999999999979
  0
VERTEX
  5
15B
  8
WEI-JIN
 10
721281.52782139182
 20
3414752.5903247599
 30
4.5999999999999979
  0
VERTEX
  5
15C
  8
WEI-JIN
 10
721284.27941751864
 20
3414686.305589329
 30
4.5999999999999979
  0
VERTEX
  5
15D
  8
WEI-JIN
 10
721193.96330810338
 20
3414680.8184423568
 30
4.5999999999999979
  0
VERTEX
  5
15E
  8
WEI-JIN
 10
721192.00027916185
 20
3414754.1566558052
 30
4.5999999999999979
  0
SEQEND
  5
15F
  8
WEI-JIN
  0
POLYLINE
  5
72
  8
WEI-JIN
 66
     1
 10
0.0
 20
0.0
 30
2.399999999999999
 70
     1
1001
ADE
1011
-20.98930946923792
1021
-6.1299850861992212E+054
1031
-0.0
1021
1.5613427292555571
1031
0.0
1001
IRD
1002
{
1000
TPMLINK_Unit_topology-_-ade
1070
   515
1071
        5
1004
0100AC0400006201000062010000000000003F8809C5A9A275403F8809C5A9A275400000000067020000
1002
}
1001
DCO15
1071
        5
1071
        5
1000
unitlink
1004
074132313400
1071
        4
1000
Link
1004
074132313400
  0
VERTEX
  5
160
  8
WEI-JIN
 10
721300.18498536584
 20
3414580.0045875199
 30
2.399999999999999
  0
VERTEX
  5
161
  8
WEI-JIN
 10
721301.47689330205
 20
3414659.4085925319
 30
2.399999999999999
  0
VERTEX
  5
162
  8
WEI-JIN
 10
721390.97087948013
 20
3414668.6669059689
 30
2.399999999999999
  0
VERTEX
  5
163
  8
WEI-JIN
 10
721391.52455431235
 20
3414583.286899073
 30
2.399999999999999
  0
VERTEX
  5
164
  8
WEI-JIN
 10
721300.18498536584
 20
3414580.0045875199
 30
2.399999999999999
  0
SEQEND
  5
165
  8
WEI-JIN
  0
POLYLINE
  5
73
  8
WEI-JIN
 66
     1
 10
0.0
 20
0.0
 30
1.8999999999999999
 70
     1
1001
ADE
1011
-15.41900511656422
1021
-6.1299850861992212E+054
1031
-0.0
1021
-6.5845763650722802
1031
0.0
1001
IRD
1002
{
1000
TPMLINK_Unit_topology-_-ade
1070
   515
1071
        5
1004
0100AD0400005201000052010000000000009C3A2729750974409C3A2729750974400000000068020000
1002
}
1001
DCO15
1071
        5
1071
        5
1000
unitlink
1004
074132313500
1071
        4
1000
Link
1004
074132313500
  0
VERTEX
  5
166
  8
WEI-JIN
 10
721218.22433247813
 20
3414663.2895019348
 30
1.8999999999999999
  0
VERTEX
  5
167
  8
WEI-JIN
 10
721298.37295864942
 20
3414661.134549669
 30
1.8999999999999999
  0
VERTEX
  5
168
  8
WEI-JIN
 10
721299.02730162814
 20
3414583.6360811531
 30
1.8999999999999999
  0
VERTEX
  5
169
  8
WEI-JIN
 10
721218.15722037863
 20
3414581.281596269
 30
1.8999999999999999
  0
VERTEX
  5
16A
  8
WEI-JIN
 10
721218.22433247813
 20
3414663.2895019348
 30
1.8999999999999999
  0
SEQEND
  5
16B
  8
WEI-JIN
  0
POLYLINE
  5
74
  8
WEI-JIN
 66
     1
 10
0.0
 20
0.0
 30
5.5999999999999979
 70
     1
1001
ADE
1011
-16.064959084847931
1021
-6.1299850861992212E+054
1031
-0.0
1021
-2.115045741666107
1031
0.0
1001
IRD
1002
{
1000
TPMLINK_Unit_topology-_-ade
1070
   515
1071
        5
1004
0100AE04000053010000530100000000000064FAD8043305724064FAD804330572406A02000000000000
1002
}
1001
DCO15
1071
        5
1071
        5
1000
unitlink
1004
074132313700
1071
        4
1000
Link
1004
074132313700
  0
VERTEX
  5
16C
  8
WEI-JIN
 10
721217.13376084354
 20
3414658.4209060762
 30
5.5999999999999979
  0
VERTEX
  5
16D
  8
WEI-JIN
 10
721158.29322662205
 20
3414653.731889572
 30
5.5999999999999979
  0
VERTEX
  5
16E
  8
WEI-JIN
 10
721154.30005663645
 20
3414566.9950608811
 30
5.5999999999999979
  0
VERTEX
  5
16F
  8
WEI-JIN
 10
721216.27808156225
 20
3414579.1066907421
 30
5.5999999999999979
  0
VERTEX
  5
170
  8
WEI-JIN
 10
721217.13376084354
 20
3414658.4209060762
 30
5.5999999999999979
  0
SEQEND
  5
171
  8
WEI-JIN
  0
POLYLINE
  5
75
  8
WEI-JIN
 66
     1
 10
0.0
 20
0.0
 30
0.6526315789473685
 70
     1
1001
ADE
1011
-3.2046028038021159
1021
-6.1299850861992212E+054
1031
-0.0
1021
12.914748648181551
1031
0.0
1001
IRD
1002
{
1000
TPMLINK_Unit_topology-_-ade
1070
   515
1071
        5
1004
0100AF0400008D0100008D01000000000000CA654386C7D97940CA654386C7D979407602000000000000
1002
}
1001
DCO15
1071
        5
1071
        5
1000
unitlink
1004
074132333300
1071
        4
1000
Link
1004
074132333300
  0
VERTEX
  5
172
  8
WEI-JIN
 10
721320.53672987968
 20
3414403.148852272
 30
0.6526315789473685
  0
VERTEX
  5
173
  8
WEI-JIN
 10
721379.88060485199
 20
3414395.3171970481
 30
0.6526315789473685
  0
VERTEX
  5
174
  8
WEI-JIN
 10
721390.18231229845
 20
3414466.819710419
 30
0.6526315789473685
  0
VERTEX
  5
175
  8
WEI-JIN
 10
721387.22937987
 20
3414506.9856262598
 30
0.6526315789473685
  0
VERTEX
  5
176
  8
WEI-JIN
 10
721292.65165206802
 20
3414511.8143155952
 30
0.6526315789473685
  0
VERTEX
  5
177
  8
WEI-JIN
 10
721288.07125120214
 20
3414480.477718065
 30
0.6526315789473685
  0
VERTEX
  5
178
  8
WEI-JIN
 10
721324.99968456873
 20
3414480.9565963461
 30
0.6526315789473685
  0
VERTEX
  5
179
  8
WEI-JIN
 10
721320.53672987968
 20
3414403.148852272
 30
0.6526315789473685
  0
SEQEND
  5
17A
  8
WEI-JIN
  0
POLYLINE
  5
76
  8
WEI-JIN
 66
     1
 10
0.0
 20
0.0
 30
0.3773584905660377
 70
     1
1001
ADE
1011
-34.730512069654651
1021
-6.1299850861992212E+054
1031
-0.0
1021
3.631493632681666
1031
0.0
1001
IRD
1002
{
1000
TPMLINK_Unit_topology-_-ade
1070
   515
1071
        5
1004
0100B0040000A9010000A9010000000000006A9CADDFAB267A406A9CADDFAB267A407702000000000000
1002
}
1001
DCO15
1071
        5
1071
        5
1000
unitlink
1004
074132333400
1071
        4
1000
Link
1004
074132333400
  0
VERTEX
  5
17B
  8
WEI-JIN
 10
721286.14177830913
 20
3414276.8646588512
 30
0.3773584905660377
  0
VERTEX
  5
17C
  8
WEI-JIN
 10
721385.65224550664
 20
3414278.5307562058
 30
0.3773584905660377
  0
VERTEX
  5
17D
  8
WEI-JIN
 10
721385.09857067838
 20
3414386.248439597
 30
0.3773584905660377
  0
VERTEX
  5
17E
  8
WEI-JIN
 10
721282.80295130238
 20
3414385.6897482681
 30
0.3773584905660377
  0
VERTEX
  5
17F
  8
WEI-JIN
 10
721286.14177830913
 20
3414276.8646588512
 30
0.3773584905660377
  0
SEQEND
  5
180
  8
WEI-JIN
  0
POLYLINE
  5
77
  8
WEI-JIN
 66
     1
 10
0.0
 20
0.0
 30
0.1081081081081081
 70
     1
1001
ADE
1011
-44.176540236803689
1021
-6.1299850861992212E+054
1031
-0.0
1021
10.9742939453572
1031
0.0
1001
IRD
1002
{
1000
TPMLINK_Unit_topology-_-ade
1070
   515
1071
        5
1004
0100B1040000B8010000B80100000000000017B2D027E29E7C4017B2D027E29E7C407802000000000000
1002
}
1001
DCO15
1071
        5
1071
        5
1000
unitlink
1004
074132333500
1071
        4
1000
Link
1004
074132333500
  0
VERTEX
  5
181
  8
WEI-JIN
 10
721267.71950668842
 20
3414144.843902688
 30
0.1081081081081081
  0
VERTEX
  5
182
  8
WEI-JIN
 10
721382.54831085366
 20
3414147.0786680002
 30
0.1081081081081081
  0
VERTEX
  5
183
  8
WEI-JIN
 10
721384.7965662257
 20
3414259.6948771421
 30
0.1081081081081081
  0
VERTEX
  5
184
  8
WEI-JIN
 10
721268.79330029711
 20
3414259.2758586458
 30
0.1081081081081081
  0
VERTEX
  5
185
  8
WEI-JIN
 10
721267.71950668842
 20
3414144.843902688
 30
0.1081081081081081
  0
SEQEND
  5
186
  8
WEI-JIN
  0
POLYLINE
  5
78
  8
WEI-JIN
 66
     1
 10
0.0
 20
0.0
 30
0.6
 70
     1
1001
ADE
1011
-40.183370249345899
1021
-6.1299850861992212E+054
1031
-0.0
1021
3.6564352107234281
1031
0.0
1001
IRD
1002
{
1000
TPMLINK_Unit_topology-_-ade
1070
   515
1071
        5
1004
0100B2040000BE010000BE0100000000000022CF26A569227D4022CF26A569227D407902000000000000
1002
}
1001
DCO15
1071
        5
1071
        5
1000
unitlink
1004
074132333600
1071
        4
1000
Link
1004
074132333600
  0
VERTEX
  5
187
  8
WEI-JIN
 10
721267.45105828706
 20
3414018.1805972941
 30
0.6
  0
VERTEX
  5
188
  8
WEI-JIN
 10
721382.06174812454
 20
3414011.3964883089
 30
0.6
  0
VERTEX
  5
189
  8
WEI-JIN
 10
721381.6087414436
 20
3414132.0837918171
 30
0.6
  0
VERTEX
  5
18A
  8
WEI-JIN
 10
721265.32024909183
 20
3414132.522763575
 30
0.6
  0
VERTEX
  5
18B
  8
WEI-JIN
 10
721267.45105828706
 20
3414018.1805972941
 30
0.6
  0
SEQEND
  5
18C
  8
WEI-JIN
  0
POLYLINE
  5
79
  8
WEI-JIN
 66
     1
 10
0.0
 20
0.0
 30
1.1000000000000001
 70
     1
1001
ADE
1011
-37.993837965768762
1021
-6.1299850861992212E+054
1031
-0.0
1021
10.0015724375844
1031
0.0
1001
IRD
1002
{
1000
TPMLINK_Unit_topology-_-ade
1070
   515
1071
        5
1004
0100B3040000C2010000C2010000000000003D6194CDF72F79403D6194CDF72F7940000000007D020000
1002
}
1001
DCO15
1071
        5
1071
        5
1000
unitlink
1004
074132343100
1071
        4
1000
Link
1004
074132343100
  0
VERTEX
  5
18D
  8
WEI-JIN
 10
721263.40755422437
 20
3413924.9290286489
 30
1.1000000000000001
  0
VERTEX
  5
18E
  8
WEI-JIN
 10
721268.74296622386
 20
3414007.824854461
 30
1.1000000000000001
  0
VERTEX
  5
18F
  8
WEI-JIN
 10
721387.31326999865
 20
3414003.0560249109
 30
1.1000000000000001
  0
VERTEX
  5
190
  8
WEI-JIN
 10
721376.10554919392
 20
3413915.5909021641
 30
1.1000000000000001
  0
VERTEX
  5
191
  8
WEI-JIN
 10
721263.40755422437
 20
3413924.9290286489
 30
1.1000000000000001
  0
SEQEND
  5
192
  8
WEI-JIN
  0
POLYLINE
  5
7A
  8
WEI-JIN
 66
     1
 10
0.0
 20
0.0
 30
1.0147959183673461
 70
     1
1001
ADE
1011
-38.311049125390127
1021
-6.1299850861992212E+054
1031
-0.0
1021
18.795334957540032
1031
0.0
1001
IRD
1002
{
1000
TPMLINK_Unit_topology-_-ade
1070
   515
1071
        5
1004
0100B40400006C0100006C01000000000000F908306237957540F9083062379575400000000046020000
1002
}
1001
DCO15
1071
        5
1071
        5
1000
unitlink
1004
074131383100
1071
        4
1000
Link
1004
074131383100
  0
VERTEX
  5
193
  8
WEI-JIN
 10
721180.1854068212
 20
3414515.4869909179
 30
1.0147959183673461
  0
VERTEX
  5
194
  8
WEI-JIN
 10
721277.16553485033
 20
3414514.7574216989
 30
1.0147959183673461
  0
VERTEX
  5
195
  8
WEI-JIN
 10
721287.1484598181
 20
3414509.4099475569
 30
1.0147959183673461
  0
VERTEX
  5
196
  8
WEI-JIN
 10
721281.09159273666
 20
3414429.2676718631
 30
1.0147959183673461
  0
VERTEX
  5
197
  8
WEI-JIN
 10
721253.97830408451
 20
3414444.2226415221
 30
1.0147959183673461
  0
VERTEX
  5
198
  8
WEI-JIN
 10
721232.44134868577
 20
3414456.101853915
 30
1.0147959183673461
  0
VERTEX
  5
199
  8
WEI-JIN
 10
721205.82537189161
 20
3414465.2434027418
 30
1.0147959183673461
  0
VERTEX
  5
19A
  8
WEI-JIN
 10
721180.66518385825
 20
3414467.8377781441
 30
1.0147959183673461
  0
VERTEX
  5
19B
  8
WEI-JIN
 10
721180.1854068212
 20
3414515.4869909179
 30
1.0147959183673461
  0
SEQEND
  5
19C
  8
WEI-JIN
  0
POLYLINE
  5
7B
  8
WEI-JIN
 66
     1
 10
0.0
 20
0.0
 30
0.0921052631578947
 70
     1
1001
ADE
1011
-39.87297678401228
1021
-6.1299850861992212E+054
1031
-0.0
1021
5.551995074376463
1031
0.0
1001
IRD
1002
{
1000
TPMLINK_Unit_topology-_-ade
1070
   515
1071
        5
1004
0100B50400008F0100008F0100000000000053A8B0B96985734053A8B0B9698573400000000045020000
1002
}
1001
DCO15
1071
        5
1071
        5
1000
unitlink
1004
074131383000
1071
        4
1000
Link
1004
074131383000
  0
VERTEX
  5
19D
  8
WEI-JIN
 10
721276.59508199629
 20
3414389.121709283
 30
0.0921052631578947
  0
VERTEX
  5
19E
  8
WEI-JIN
 10
721176.98394664773
 20
3414386.8669907101
 30
0.0921052631578947
  0
VERTEX
  5
19F
  8
WEI-JIN
 10
721180.5576660037
 20
3414465.4728652518
 30
0.0921052631578947
  0
VERTEX
  5
1A0
  8
WEI-JIN
 10
721213.17414690903
 20
3414457.8207893842
 30
0.0921052631578947
  0
VERTEX
  5
1A1
  8
WEI-JIN
 10
721246.91475549713
 20
3414435.163860702
 30
0.0921052631578947
  0
VERTEX
  5
1A2
  8
WEI-JIN
 10
721269.631896607
 20
3414419.9092263728
 30
0.0921052631578947
  0
VERTEX
  5
1A3
  8
WEI-JIN
 10
721276.4105237202
 20
3414407.3988970178
 30
0.0921052631578947
  0
VERTEX
  5
1A4
  8
WEI-JIN
 10
721276.59508199629
 20
3414389.121709283
 30
0.0921052631578947
  0
SEQEND
  5
1A5
  8
WEI-JIN
  0
POLYLINE
  5
7C
  8
WEI-JIN
 66
     1
 10
0.0
 20
0.0
 30
0.0161290322580645
 70
     1
1001
ADE
1011
-34.185226254048771
1021
-6.1299850861992212E+054
1031
-0.0
1021
5.7615043222904188
1031
0.0
1001
IRD
1002
{
1000
TPMLINK_Unit_topology-_-ade
1070
   515
1071
        5
1004
0100B6040000A1010000A101000000000000D31D604E68487640D31D604E684876404402000000000000
1002
}
1001
DCO15
1071
        5
1071
        5
1000
unitlink
1004
074131373900
1071
        4
1000
Link
1004
074131373900
  0
VERTEX
  5
1A6
  8
WEI-JIN
 10
721170.39018275973
 20
3414313.9777256488
 30
0.0161290322580645
  0
VERTEX
  5
1A7
  8
WEI-JIN
 10
721279.06145169225
 20
3414308.0915134419
 30
0.0161290322580645
  0
VERTEX
  5
1A8
  8
WEI-JIN
 10
721274.39716070145
 20
3414386.956780388
 30
0.0161290322580645
  0
VERTEX
  5
1A9
  8
WEI-JIN
 10
721176.17860144004
 20
3414384.173300378
 30
0.0161290322580645
  0
VERTEX
  5
1AA
  8
WEI-JIN
 10
721170.39018275973
 20
3414313.9777256488
 30
0.0161290322580645
  0
SEQEND
  5
1AB
  8
WEI-JIN
  0
POLYLINE
  5
7D
  8
WEI-JIN
 66
     1
 10
0.0
 20
0.0
 30
0.6
 70
     1
1001
ADE
1011
-26.571954802260741
1021
-6.1299850861992212E+054
1031
-0.0
1021
-6.0159084107726812
1031
0.0
1001
IRD
1002
{
1000
TPMLINK_Unit_topology-_-ade
1070
   515
1071
        5
1004
0100BA040000BD010000BD0100000000000064E0E1FA7B8D764064E0E1FA7B8D7640000000007A020000
1002
}
1001
DCO15
1071
        5
1071
        5
1000
unitlink
1004
074132333700
1071
        4
1000
Link
1004
074132333700
  0
VERTEX
  5
1AC
  8
WEI-JIN
 10
721143.0163496444
 20
3414073.327202417
 30
0.6
  0
VERTEX
  5
1AD
  8
WEI-JIN
 10
721253.29040505365
 20
3414079.8661058992
 30
0.6
  0
VERTEX
  5
1AE
  8
WEI-JIN
 10
721260.63918007177
 20
3414007.0766071482
 30
0.6
  0
VERTEX
  5
1AF
  8
WEI-JIN
 10
721145.63771364535
 20
3414011.2439750531
 30
0.6
  0
VERTEX
  5
1B0
  8
WEI-JIN
 10
721143.0163496444
 20
3414073.327202417
 30
0.6
  0
SEQEND
  5
1B1
  8
WEI-JIN
  0
POLYLINE
  5
7E
  8
WEI-JIN
 66
     1
 10
0.0
 20
0.0
 30
0.6
 70
     1
1001
ADE
1011
-36.01403099519667
1021
-6.1299850861992212E+054
1031
-0.0
1021
5.3125559338368467
1031
0.0
1001
IRD
1002
{
1000
TPMLINK_Unit_topology-_-ade
1070
   515
1071
        5
1004
0100BB040000C1010000C101000000000000906D67AC34217640906D67AC342176407B02000000000000
1002
}
1001
DCO15
1071
        5
1071
        5
1000
unitlink
1004
074132333800
1071
        4
1000
Link
1004
074132333800
  0
VERTEX
  5
1B2
  8
WEI-JIN
 10
721148.67941820994
 20
3413939.205587409
 30
0.6
  0
VERTEX
  5
1B3
  8
WEI-JIN
 10
721254.04541618738
 20
3413933.5189078189
 30
0.6
  0
VERTEX
  5
1B4
  8
WEI-JIN
 10
721257.6191355437
 20
3414002.497333583
 30
0.6
  0
VERTEX
  5
1B5
  8
WEI-JIN
 10
721145.82715393254
 20
3414006.7573549598
 30
0.6
  0
VERTEX
  5
1B6
  8
WEI-JIN
 10
721148.67941820994
 20
3413939.205587409
 30
0.6
  0
SEQEND
  5
1B7
  8
WEI-JIN
  0
POLYLINE
  5
7F
  8
WEI-JIN
 66
     1
 10
0.0
 20
0.0
 30
0.02
 70
     1
1001
ADE
1011
-22.54966580867767
1021
-6.1299850861992212E+054
1031
-0.0
1021
-3.3371830238029361
1031
0.0
1001
IRD
1002
{
1000
TPMLINK_Unit_topology-_-ade
1070
   515
1071
        5
1004
0100BF040000A0010000A001000000000000A4A0DFC2F5677140A4A0DFC2F56771400000000049020000
1002
}
1001
DCO15
1071
        5
1071
        5
1000
unitlink
1004
074131383400
1071
        4
1000
Link
1004
074131383400
  0
VERTEX
  5
1B8
  8
WEI-JIN
 10
721077.00369474653
 20
3414314.3468609918
 30
0.02
  0
VERTEX
  5
1B9
  8
WEI-JIN
 10
721081.24853510794
 20
3414366.9835654069
 30
0.02
  0
VERTEX
  5
1BA
  8
WEI-JIN
 10
721169.04794074979
 20
3414368.0710181701
 30
0.02
  0
VERTEX
  5
1BB
  8
WEI-JIN
 10
721161.36360522732
 20
3414315.1050849371
 30
0.02
  0
VERTEX
  5
1BC
  8
WEI-JIN
 10
721077.00369474653
 20
3414314.3468609918
 30
0.02
  0
SEQEND
  5
1BD
  8
WEI-JIN
  0
POLYLINE
  5
80
  8
WEI-JIN
 66
     1
 10
0.0
 20
0.0
 30
0.5
 70
     1
1001
ADE
1011
-25.880103800445792
1021
-6.1299850861992212E+054
1031
-0.0
1021
3.287299870047717
1031
0.0
1001
IRD
1002
{
1000
TPMLINK_Unit_topology-_-ade
1070
   515
1071
        5
1004
0100C0040000940100009401000000000000D857D918F7D07140D857D918F7D071400000000048020000
1002
}
1001
DCO15
1071
        5
1071
        5
1000
unitlink
1004
074131383300
1071
        4
1000
Link
1004
074131383300
  0
VERTEX
  5
1BE
  8
WEI-JIN
 10
721079.85595902056
 20
3414374.1168564721
 30
0.5
  0
VERTEX
  5
1BF
  8
WEI-JIN
 10
721081.71831981454
 20
3414427.0628364421
 30
0.5
  0
VERTEX
  5
1C0
  8
WEI-JIN
 10
721172.85655245953
 20
3414427.0628364421
 30
0.5
  0
VERTEX
  5
1C1
  8
WEI-JIN
 10
721170.07140028465
 20
3414376.4414114621
 30
0.5
  0
VERTEX
  5
1C2
  8
WEI-JIN
 10
721079.85595902056
 20
3414374.1168564721
 30
0.5
  0
SEQEND
  5
1C3
  8
WEI-JIN
  0
POLYLINE
  5
81
  8
WEI-JIN
 66
     1
 10
0.0
 20
0.0
 30
0.490909090909091
 70
     1
1001
ADE
1011
-21.02286552300211
1021
-6.1299850861992212E+054
1031
-0.0
1021
5.8213641070760769
1031
0.0
1001
IRD
1002
{
1000
TPMLINK_Unit_topology-_-ade
1070
   515
1071
        5
1004
0100C10400006F0100006F0100000000000007189BDCDE14754007189BDCDE1475400000000047020000
1002
}
1001
DCO15
1071
        5
1071
        5
1000
unitlink
1004
074131383200
1071
        4
1000
Link
1004
074131383200
  0
VERTEX
  5
1C4
  8
WEI-JIN
 10
721085.67793374904
 20
3414511.4950634092
 30
0.490909090909091
  0
VERTEX
  5
1C5
  8
WEI-JIN
 10
721178.32618866081
 20
3414512.2532873531
 30
0.490909090909091
  0
VERTEX
  5
1C6
  8
WEI-JIN
 10
721176.04437723744
 20
3414437.1591868741
 30
0.490909090909091
  0
VERTEX
  5
1C7
  8
WEI-JIN
 10
721079.60428864532
 20
3414438.6756347641
 30
0.490909090909091
  0
VERTEX
  5
1C8
  8
WEI-JIN
 10
721085.67793374904
 20
3414511.4950634092
 30
0.490909090909091
  0
SEQEND
  5
1C9
  8
WEI-JIN
  0
POLYLINE
  5
82
  8
WEI-JIN
 66
     1
 10
0.0
 20
0.0
 30
0.078125
 70
     1
1001
ADE
1011
-19.34506300301291
1021
-6.1299850861992212E+054
1031
-0.0
1021
-1.546377783641218
1031
0.0
1001
IRD
1002
{
1000
TPMLINK_Unit_topology-_-ade
1070
   515
1071
        5
1004
0100C2040000560100005601000000000000CF00C442272E7240CF00C442272E72406602000000000000
1002
}
1001
DCO15
1071
        5
1071
        5
1000
unitlink
1004
074132313300
1071
        4
1000
Link
1004
074132313300
  0
VERTEX
  5
1CA
  8
WEI-JIN
 10
721092.50658999023
 20
3414653.3428009711
 30
0.078125
  0
VERTEX
  5
1CB
  8
WEI-JIN
 10
721091.75157885626
 20
3414569.8982604598
 30
0.078125
  0
VERTEX
  5
1CC
  8
WEI-JIN
 10
721152.50480794546
 20
3414566.8653646782
 30
0.078125
  0
VERTEX
  5
1CD
  8
WEI-JIN
 10
721155.54163049906
 20
3414650.3099051882
 30
0.078125
  0
VERTEX
  5
1CE
  8
WEI-JIN
 10
721092.50658999023
 20
3414653.3428009711
 30
0.078125
  0
SEQEND
  5
1CF
  8
WEI-JIN
  0
POLYLINE
  5
83
  8
WEI-JIN
 66
     1
 10
0.0
 20
0.0
 30
1.399999999999999
 70
     1
1001
ADE
1011
-12.50143807579297
1021
-6.1299850861992212E+054
1031
-0.0
1021
-6.9587000231258571
1031
0.0
1001
IRD
1002
{
1000
TPMLINK_Unit_topology-_-ade
1070
   515
1071
        5
1004
0100C3040000420100004201000000000000A25CF597BFB17140A25CF597BFB171406502000000000000
1002
}
1001
DCO15
1071
        5
1071
        5
1000
unitlink
1004
074132313200
1071
        4
1000
Link
1004
074132313200
  0
VERTEX
  5
1D0
  8
WEI-JIN
 10
721069.50391750038
 20
3414745.86607556
 30
1.399999999999999
  0
VERTEX
  5
1D1
  8
WEI-JIN
 10
721135.12639255496
 20
3414750.7085129078
 30
1.399999999999999
  0
VERTEX
  5
1D2
  8
WEI-JIN
 10
721132.3879557848
 20
3414822.955502212
 30
1.399999999999999
  0
VERTEX
  5
1D3
  8
WEI-JIN
 10
721061.73569185287
 20
3414819.7430270761
 30
1.399999999999999
  0
VERTEX
  5
1D4
  8
WEI-JIN
 10
721069.50391750038
 20
3414745.86607556
 30
1.399999999999999
  0
SEQEND
  5
1D5
  8
WEI-JIN
  0
POLYLINE
  5
84
  8
WEI-JIN
 66
     1
 10
0.0
 20
0.0
 30
1.799999999999998
 70
     1
1001
ADE
1011
-24.646918954094868
1021
-6.1299850861992212E+054
1031
-0.0
1021
-1.4696571878157541
1031
0.0
1001
IRD
1002
{
1000
TPMLINK_Unit_topology-_-ade
1070
   515
1071
        5
1004
0100C40400003701000037010000000000001BD2FF51E8E870401BD2FF51E8E870400000000064020000
1002
}
1001
DCO15
1071
        5
1071
        5
1000
unitlink
1004
074132313100
1071
        4
1000
Link
1004
074132313100
  0
VERTEX
  5
1D6
  8
WEI-JIN
 10
721063.54375248426
 20
3414823.011570272
 30
1.799999999999998
  0
VERTEX
  5
1D7
  8
WEI-JIN
 10
721062.33970075846
 20
3414889.4297936298
 30
1.799999999999998
  0
VERTEX
  5
1D8
  8
WEI-JIN
 10
721135.15632993344
 20
3414888.1029017251
 30
1.799999999999998
  0
VERTEX
  5
1D9
  8
WEI-JIN
 10
721132.79062838841
 20
3414826.1679773498
 30
1.799999999999998
  0
VERTEX
  5
1DA
  8
WEI-JIN
 10
721063.54375248426
 20
3414823.011570272
 30
1.799999999999998
  0
SEQEND
  5
1DB
  8
WEI-JIN
  0
POLYLINE
  5
85
  8
WEI-JIN
 66
     1
 10
0.0
 20
0.0
 30
5.5999999999999988
 70
     1
1001
ADE
1011
-21.165478734299541
1021
-6.1299850861992212E+054
1031
-0.0
1021
-0.443960072938353
1031
0.0
1001
IRD
1002
{
1000
TPMLINK_Unit_topology-_-ade
1070
   515
1071
        5
1004
0100C5040000280100002801000000000000385614210B2D7140385614210B2D71407002000000000000
1002
}
1001
DCO15
1071
        5
1071
        5
1000
unitlink
1004
074132323300
1071
        4
1000
Link
1004
074132323300
  0
VERTEX
  5
1DC
  8
WEI-JIN
 10
721061.73569185287
 20
3414959.1863966011
 30
5.5999999999999988
  0
VERTEX
  5
1DD
  8
WEI-JIN
 10
721062.62492718559
 20
3414892.2132736412
 30
5.5999999999999988
  0
VERTEX
  5
1DE
  8
WEI-JIN
 10
721132.37117775914
 20
3414890.876405105
 30
5.5999999999999988
  0
VERTEX
  5
1DF
  8
WEI-JIN
 10
721133.26041309151
 20
3414957.400579676
 30
5.5999999999999988
  0
VERTEX
  5
1E0
  8
WEI-JIN
 10
721061.73569185287
 20
3414959.1863966011
 30
5.5999999999999988
  0
SEQEND
  5
1E1
  8
WEI-JIN
  0
POLYLINE
  5
86
  8
WEI-JIN
 66
     1
 10
0.0
 20
0.0
 30
4.5
 70
     1
1001
ADE
1011
-15.603563394513911
1021
-6.1299850861992212E+054
1031
-0.0
1021
-2.3744381447322662
1031
0.0
1001
IRD
1002
{
1000
TPMLINK_Unit_topology-_-ade
1070
   515
1071
        5
1004
0100C6040000330100003301000000000000F2F0C2E8D8F97140F2F0C2E8D8F971400000000063020000
1002
}
1001
DCO15
1071
        5
1071
        5
1000
unitlink
1004
074132313000
1071
        4
1000
Link
1004
074132313000
  0
VERTEX
  5
1E2
  8
WEI-JIN
 10
720975.27852822852
 20
3414884.5611977722
 30
4.5
  0
VERTEX
  5
1E3
  8
WEI-JIN
 10
721050.34341277194
 20
3414890.2478773608
 30
4.5
  0
VERTEX
  5
1E4
  8
WEI-JIN
 10
721051.28298218187
 20
3414821.997745649
 30
4.5
  0
VERTEX
  5
1E5
  8
WEI-JIN
 10
720971.5202505925
 20
3414820.3715548199
 30
4.5
  0
VERTEX
  5
1E6
  8
WEI-JIN
 10
720975.27852822852
 20
3414884.5611977722
 30
4.5
  0
SEQEND
  5
1E7
  8
WEI-JIN
  0
POLYLINE
  5
87
  8
WEI-JIN
 66
     1
 10
0.0
 20
0.0
 30
2.7000000000000002
 70
     1
1001
ADE
1011
-27.48240520618856
1021
-6.1299850861992212E+054
1031
-0.0
1021
6.7990739289671183
1031
0.0
1001
IRD
1002
{
1000
TPMLINK_Unit_topology-_-ade
1070
   515
1071
        5
1004
0100C70400003A0100003A01000000000000F8C702E90FEF7340F8C702E90FEF73406202000000000000
1002
}
1001
DCO15
1071
        5
1071
        5
1000
unitlink
1004
074132303900
1071
        4
1000
Link
1004
074132303900
  0
VERTEX
  5
1E8
  8
WEI-JIN
 10
720971.41958244145
 20
3414818.795247145
 30
2.7000000000000002
  0
VERTEX
  5
1E9
  8
WEI-JIN
 10
720971.82225504552
 20
3414740.917666656
 30
2.7000000000000002
  0
VERTEX
  5
1EA
  8
WEI-JIN
 10
721056.55128208175
 20
3414745.0280385688
 30
2.7000000000000002
  0
VERTEX
  5
1EB
  8
WEI-JIN
 10
721052.6923362948
 20
3414819.8826999092
 30
2.7000000000000002
  0
VERTEX
  5
1EC
  8
WEI-JIN
 10
720971.41958244145
 20
3414818.795247145
 30
2.7000000000000002
  0
SEQEND
  5
1ED
  8
WEI-JIN
  0
POLYLINE
  5
88
  8
WEI-JIN
 66
     1
 10
0.0
 20
0.0
 30
1.1999999999999991
 70
     1
1001
ADE
1011
-24.08485511131585
1021
-6.1299850861992212E+054
1031
-0.0
1021
-12.9347019107081
1031
0.0
1001
IRD
1002
{
1000
TPMLINK_Unit_topology-_-ade
1070
   515
1071
        5
1004
0100C8040000470100004701000000000000A770A2B124C77540A770A2B124C775406102000000000000
1002
}
1001
DCO15
1071
        5
1071
        5
1000
unitlink
1004
074132303800
1071
        4
1000
Link
1004
074132303800
  0
VERTEX
  5
1EE
  8
WEI-JIN
 10
720974.10406646505
 20
3414736.707528431
 30
1.1999999999999991
  0
VERTEX
  5
1EF
  8
WEI-JIN
 10
720969.55722164735
 20
3414652.2653248371
 30
1.1999999999999991
  0
VERTEX
  5
1F0
  8
WEI-JIN
 10
721058.83309350139
 20
3414653.9314221889
 30
1.1999999999999991
  0
VERTEX
  5
1F1
  8
WEI-JIN
 10
721060.44378391653
 20
3414742.0051194192
 30
1.1999999999999991
  0
VERTEX
  5
1F2
  8
WEI-JIN
 10
720974.10406646505
 20
3414736.707528431
 30
1.1999999999999991
  0
SEQEND
  5
1F3
  8
WEI-JIN
  0
POLYLINE
  5
89
  8
WEI-JIN
 66
     1
 10
0.0
 20
0.0
 30
2.2000000000000002
 70
     1
1001
ADE
1011
-34.009056991199031
1021
-6.1299850861992212E+054
1031
-0.0
1021
-6.1406162939965707
1031
0.0
1001
IRD
1002
{
1000
TPMLINK_Unit_topology-_-ade
1070
   515
1071
        5
1004
0100C9040000570100005701000000000000D302716AC6967540D302716AC69675400000000060020000
1002
}
1001
DCO15
1071
        5
1071
        5
1000
unitlink
1004
074132303700
1071
        4
1000
Link
1004
074132303700
  0
VERTEX
  5
1F4
  8
WEI-JIN
 10
720963.61012988165
 20
3414646.0468237582
 30
2.2000000000000002
  0
VERTEX
  5
1F5
  8
WEI-JIN
 10
721079.10094789066
 20
3414652.365091145
 30
2.2000000000000002
  0
VERTEX
  5
1F6
  8
WEI-JIN
 10
721083.48001245409
 20
3414624.6300573559
 30
2.2000000000000002
  0
VERTEX
  5
1F7
  8
WEI-JIN
 10
721051.33331625548
 20
3414616.3594303732
 30
2.2000000000000002
  0
VERTEX
  5
1F8
  8
WEI-JIN
 10
721053.61512767896
 20
3414593.3134130882
 30
2.2000000000000002
  0
VERTEX
  5
1F9
  8
WEI-JIN
 10
720961.77221797802
 20
3414592.5950956652
 30
2.2000000000000002
  0
VERTEX
  5
1FA
  8
WEI-JIN
 10
720963.61012988165
 20
3414646.0468237582
 30
2.2000000000000002
  0
SEQEND
  5
1FB
  8
WEI-JIN
  0
POLYLINE
  5
8A
  8
WEI-JIN
 66
     1
 10
0.0
 20
0.0
 30
0.5
 70
     1
1001
ADE
1011
-24.672085991129279
1021
-6.1299850861992212E+054
1031
-0.0
1021
0.1895559877157211
1031
0.0
1001
IRD
1002
{
1000
TPMLINK_Unit_topology-_-ade
1070
   515
1071
        5
1004
0100CA04000060010000600100000000000014D3F99750E3744014D3F99750E374405F02000000000000
1002
}
1001
DCO15
1071
        5
1071
        5
1000
unitlink
1004
074132303600
1071
        4
1000
Link
1004
074132303600
  0
VERTEX
  5
1FC
  8
WEI-JIN
 10
720962.84601158649
 20
3414589.5921297758
 30
0.5
  0
VERTEX
  5
1FD
  8
WEI-JIN
 10
720961.83933007705
 20
3414515.2163467179
 30
0.5
  0
VERTEX
  5
1FE
  8
WEI-JIN
 10
721054.30302670959
 20
3414517.1218832121
 30
0.5
  0
VERTEX
  5
1FF
  8
WEI-JIN
 10
721056.68550628051
 20
3414590.579816232
 30
0.5
  0
VERTEX
  5
200
  8
WEI-JIN
 10
720962.84601158649
 20
3414589.5921297758
 30
0.5
  0
SEQEND
  5
201
  8
WEI-JIN
  0
POLYLINE
  5
8B
  8
WEI-JIN
 66
     1
 10
0.0
 20
0.0
 30
0.3389830508474576
 70
     1
1001
ADE
1011
-31.727245568996299
1021
-6.1299850861992212E+054
1031
-0.0
1021
3.392054492142051
1031
0.0
1001
IRD
1002
{
1000
TPMLINK_Unit_topology-_-ade
1070
   515
1071
        5
1004
0100CB0400006D0100006D01000000000000FBC525C948EA7540FBC525C948EA75404C02000000000000
1002
}
1001
DCO15
1071
        5
1071
        5
1000
unitlink
1004
074131383700
1071
        4
1000
Link
1004
074131383700
  0
VERTEX
  5
202
  8
WEI-JIN
 10
720959.22195815295
 20
3414511.6447128709
 30
0.3389830508474576
  0
VERTEX
  5
203
  8
WEI-JIN
 10
720961.99033230555
 20
3414441.0001897542
 30
0.3389830508474576
  0
VERTEX
  5
204
  8
WEI-JIN
 10
721062.32292273268
 20
3414441.0001897542
 30
0.3389830508474576
  0
VERTEX
  5
205
  8
WEI-JIN
 10
721066.43353889894
 20
3414513.2709037019
 30
0.3389830508474576
  0
VERTEX
  5
206
  8
WEI-JIN
 10
720959.22195815295
 20
3414511.6447128709
 30
0.3389830508474576
  0
SEQEND
  5
207
  8
WEI-JIN
  0
POLYLINE
  5
8C
  8
WEI-JIN
 66
     1
 10
0.0
 20
0.0
 30
1.1999999999999991
 70
     1
1001
ADE
1011
-34.57950984488707
1021
-6.1299850861992212E+054
1031
-0.0
1021
-2.065162586979568
1031
0.0
1001
IRD
1002
{
1000
TPMLINK_Unit_topology-_-ade
1070
   515
1071
        5
1004
0100CC040000830100008301000000000000DD67D1341DA07440DD67D1341DA07440000000004B020000
1002
}
1001
DCO15
1071
        5
1071
        5
1000
unitlink
1004
074131383600
1071
        4
1000
Link
1004
074131383600
  0
VERTEX
  5
208
  8
WEI-JIN
 10
720962.92990171176
 20
3414439.1445364142
 30
1.1999999999999991
  0
VERTEX
  5
209
  8
WEI-JIN
 10
721061.38335332647
 20
3414439.1445364142
 30
1.1999999999999991
  0
VERTEX
  5
20A
  8
WEI-JIN
 10
721064.16850550089
 20
3414374.525898336
 30
1.1999999999999991
  0
VERTEX
  5
20B
  8
WEI-JIN
 10
720963.71846889344
 20
3414372.7400814132
 30
1.1999999999999991
  0
VERTEX
  5
20C
  8
WEI-JIN
 10
720962.92990171176
 20
3414439.1445364142
 30
1.1999999999999991
  0
SEQEND
  5
20D
  8
WEI-JIN
  0
POLYLINE
  5
8D
  8
WEI-JIN
 66
     1
 10
0.0
 20
0.0
 30
0.0833333333333333
 70
     1
1001
ADE
1011
-13.90898285235744
1021
-6.1299850861992212E+054
1031
-0.0
1021
3.45191427739337
1031
0.0
1001
IRD
1002
{
1000
TPMLINK_Unit_topology-_-ade
1070
   515
1071
        5
1004
0100CD0400009F0100009F01000000000000955EAE4107607340955EAE41076073404A02000000000000
1002
}
1001
DCO15
1071
        5
1071
        5
1000
unitlink
1004
074131383500
1071
        4
1000
Link
1004
074131383500
  0
VERTEX
  5
20E
  8
WEI-JIN
 10
720968.03042136133
 20
3414315.7136594192
 30
0.0833333333333333
  0
VERTEX
  5
20F
  8
WEI-JIN
 10
721065.22552108765
 20
3414316.7512290301
 30
0.0833333333333333
  0
VERTEX
  5
210
  8
WEI-JIN
 10
721066.26575864479
 20
3414372.3011096548
 30
0.0833333333333333
  0
VERTEX
  5
211
  8
WEI-JIN
 10
720964.25536569953
 20
3414370.8046150259
 30
0.0833333333333333
  0
VERTEX
  5
212
  8
WEI-JIN
 10
720968.03042136133
 20
3414315.7136594192
 30
0.0833333333333333
  0
SEQEND
  5
213
  8
WEI-JIN
  0
POLYLINE
  5
8E
  8
WEI-JIN
 66
     1
 10
0.0
 20
0.0
 30
0.0133333333333333
 70
     1
1001
ADE
1011
-34.411729593062773
1021
-6.1299850861992212E+054
1031
-0.0
1021
5.6567496969364566
1031
0.0
1001
IRD
1002
{
1000
TPMLINK_Unit_topology-_-ade
1070
   515
1071
        5
1004
0100CF040000B5010000B50100000000000075B8DB8F50EF744075B8DB8F50EF74403C02000000000000
1002
}
1001
DCO15
1071
        5
1071
        5
1000
unitlink
1004
074131373100
1071
        4
1000
Link
1004
074131373100
  0
VERTEX
  5
214
  8
WEI-JIN
 10
720929.57518770185
 20
3414180.9692830299
 30
0.0133333333333333
  0
VERTEX
  5
215
  8
WEI-JIN
 10
721020.79731047514
 20
3414173.3770669461
 30
0.0133333333333333
  0
VERTEX
  5
216
  8
WEI-JIN
 10
721034.60562517855
 20
3414248.5310272099
 30
0.0133333333333333
  0
VERTEX
  5
217
  8
WEI-JIN
 10
720936.10183949012
 20
3414249.1595549551
 30
0.0133333333333333
  0
VERTEX
  5
218
  8
WEI-JIN
 10
720929.57518770185
 20
3414180.9692830299
 30
0.0133333333333333
  0
SEQEND
  5
219
  8
WEI-JIN
  0
POLYLINE
  5
8F
  8
WEI-JIN
 66
     1
 10
0.0
 20
0.0
 30
0.0133333333333333
 70
     1
1001
ADE
1011
-31.584632353740751
1021
-6.1299850861992212E+054
1031
-0.0
1021
-0.2444274555891752
1031
0.0
1001
IRD
1002
{
1000
TPMLINK_Unit_topology-_-ade
1070
   515
1071
        5
1004
0100D1040000C0010000C0010000000000007BD181369F597C407BD181369F597C40000000007C020000
1002
}
1001
DCO15
1071
        5
1071
        5
1000
unitlink
1004
074132333900
1071
        4
1000
Link
1004
074132333900
  0
VERTEX
  5
21A
  8
WEI-JIN
 10
720880.51624214672
 20
3413974.7323699002
 30
0.0133333333333333
  0
VERTEX
  5
21B
  8
WEI-JIN
 10
720880.19745967165
 20
3414080.704142889
 30
0.0133333333333333
  0
VERTEX
  5
21C
  8
WEI-JIN
 10
720998.7174293698
 20
3414076.8631400098
 30
0.0133333333333333
  0
VERTEX
  5
21D
  8
WEI-JIN
 10
721001.78780797124
 20
3413969.2551995572
 30
0.0133333333333333
  0
VERTEX
  5
21E
  8
WEI-JIN
 10
720880.51624214672
 20
3413974.7323699002
 30
0.0133333333333333
  0
SEQEND
  5
21F
  8
WEI-JIN
  0
POLYLINE
  5
90
  8
WEI-JIN
 66
     1
 10
0.0
 20
0.0
 30
0.0476190476190476
 70
     1
1001
ADE
1011
-32.792650165036321
1021
-6.1299850861992212E+054
1031
-0.0
1021
3.0029658884741361
1031
0.0
1001
IRD
1002
{
1000
TPMLINK_Unit_topology-_-ade
1070
   515
1071
        5
1004
0100D4040000A3010000A3010000000000008515919C7FF672408515919C7FF672404F02000000000000
1002
}
1001
DCO15
1071
        5
1071
        5
1000
unitlink
1004
074131393000
1071
        4
1000
Link
1004
074131393000
  0
VERTEX
  5
220
  8
WEI-JIN
 10
720857.88268621266
 20
3414309.997049937
 30
0.0476190476190476
  0
VERTEX
  5
221
  8
WEI-JIN
 10
720952.22552166122
 20
3414312.890272886
 30
0.0476190476190476
  0
VERTEX
  5
222
  8
WEI-JIN
 10
720954.57444518432
 20
3414370.3955731601
 30
0.0476190476190476
  0
VERTEX
  5
223
  8
WEI-JIN
 10
720862.88253771164
 20
3414369.557536168
 30
0.0476190476190476
  0
VERTEX
  5
224
  8
WEI-JIN
 10
720857.88268621266
 20
3414309.997049937
 30
0.0476190476190476
  0
SEQEND
  5
225
  8
WEI-JIN
  0
POLYLINE
  5
91
  8
WEI-JIN
 66
     1
 10
0.0
 20
0.0
 30
0.02
 70
     1
1001
ADE
1011
-18.464216683292761
1021
-6.1299850861992212E+054
1031
-0.0
1021
-3.0528490417636922
1031
0.0
1001
IRD
1002
{
1000
TPMLINK_Unit_topology-_-ade
1070
   515
1071
        5
1004
0100D504000096010000960100000000000010A2B4557A43734010A2B4557A437340000000004E020000
1002
}
1001
DCO15
1071
        5
1071
        5
1000
unitlink
1004
074131383900
1071
        4
1000
Link
1004
074131383900
  0
VERTEX
  5
226
  8
WEI-JIN
 10
720862.09397052613
 20
3414373.6080482979
 30
0.02
  0
VERTEX
  5
227
  8
WEI-JIN
 10
720872.61379230046
 20
3414430.8439795389
 30
0.02
  0
VERTEX
  5
228
  8
WEI-JIN
 10
720956.16835757345
 20
3414441.8581800079
 30
0.02
  0
VERTEX
  5
229
  8
WEI-JIN
 10
720957.94682824262
 20
3414372.001810729
 30
0.02
  0
VERTEX
  5
22A
  8
WEI-JIN
 10
720862.09397052613
 20
3414373.6080482979
 30
0.02
  0
SEQEND
  5
22B
  8
WEI-JIN
  0
POLYLINE
  5
92
  8
WEI-JIN
 66
     1
 10
0.0
 20
0.0
 30
0.3217391304347826
 70
     1
1001
ADE
1011
-25.938826890778731
1021
-6.1299850861992212E+054
1031
-0.0
1021
4.7588529200293124
1031
0.0
1001
IRD
1002
{
1000
TPMLINK_Unit_topology-_-ade
1070
   515
1071
        5
1004
0100D7040000710100007101000000000000B794490C9F247240B794490C9F2472405E02000000000000
1002
}
1001
DCO15
1071
        5
1071
        5
1000
unitlink
1004
074132303500
1071
        4
1000
Link
1004
074132303500
  0
VERTEX
  5
22C
  8
WEI-JIN
 10
720865.3321293816
 20
3414508.5419806731
 30
0.3217391304347826
  0
VERTEX
  5
22D
  8
WEI-JIN
 10
720916.25343573105
 20
3414509.0108823241
 30
0.3217391304347826
  0
VERTEX
  5
22E
  8
WEI-JIN
 10
720946.83977558813
 20
3414517.3712989842
 30
0.3217391304347826
  0
VERTEX
  5
22F
  8
WEI-JIN
 10
720953.11475699767
 20
3414574.9663889352
 30
0.3217391304347826
  0
VERTEX
  5
230
  8
WEI-JIN
 10
720901.94178027264
 20
3414570.6265545129
 30
0.3217391304347826
  0
VERTEX
  5
231
  8
WEI-JIN
 10
720867.41260450345
 20
3414572.3026284971
 30
0.3217391304347826
  0
VERTEX
  5
232
  8
WEI-JIN
 10
720865.3321293816
 20
3414508.5419806731
 30
0.3217391304347826
  0
SEQEND
  5
233
  8
WEI-JIN
  0
POLYLINE
  5
93
  8
WEI-JIN
 66
     1
 10
0.0
 20
0.0
 30
2.5999999999999992
 70
     1
1001
ADE
1011
-30.752465343219232
1021
-6.1299850861992212E+054
1031
-0.0
1021
0.0798130468465388
1031
0.0
1001
IRD
1002
{
1000
TPMLINK_Unit_topology-_-ade
1070
   515
1071
        5
1004
0100D8040000630100006301000000000000C483A2D7235D7140C483A2D7235D71405D02000000000000
1002
}
1001
DCO15
1071
        5
1071
        5
1000
unitlink
1004
074132303400
1071
        4
1000
Link
1004
074132303400
  0
VERTEX
  5
234
  8
WEI-JIN
 10
720868.30183983583
 20
3414574.1582818371
 30
2.5999999999999992
  0
VERTEX
  5
235
  8
WEI-JIN
 10
720898.75395549065
 20
3414572.9511095029
 30
2.5999999999999992
  0
VERTEX
  5
236
  8
WEI-JIN
 10
720925.56523969024
 20
3414575.1160383988
 30
2.5999999999999992
  0
VERTEX
  5
237
  8
WEI-JIN
 10
720953.49734203925
 20
3414577.371469921
 30
2.5999999999999992
  0
VERTEX
  5
238
  8
WEI-JIN
 10
720953.11475699767
 20
3414630.3765967311
 30
2.5999999999999992
  0
VERTEX
  5
239
  8
WEI-JIN
 10
720868.99012991064
 20
3414629.4413190419
 30
2.5999999999999992
  0
VERTEX
  5
23A
  8
WEI-JIN
 10
720868.30183983583
 20
3414574.1582818371
 30
2.5999999999999992
  0
SEQEND
  5
23B
  8
WEI-JIN
  0
POLYLINE
  5
94
  8
WEI-JIN
 66
     1
 10
0.0
 20
0.0
 30
0.8048780487804879
 70
     1
1001
ADE
1011
-24.45397166558541
1021
-6.1299850861992212E+054
1031
-0.0
1021
-0.8779435153119266
1031
0.0
1001
IRD
1002
{
1000
TPMLINK_Unit_topology-_-ade
1070
   515
1071
        5
1004
0100D90400005C0100005C01000000000000288611FD52FA7340288611FD52FA73405C02000000000000
1002
}
1001
DCO15
1071
        5
1071
        5
1000
unitlink
1004
074132303300
1071
        4
1000
Link
1004
074132303300
  0
VERTEX
  5
23C
  8
WEI-JIN
 10
720869.14074109145
 20
3414631.8531380971
 30
0.8048780487804879
  0
VERTEX
  5
23D
  8
WEI-JIN
 10
720952.52752611425
 20
3414632.9705207539
 30
0.8048780487804879
  0
VERTEX
  5
23E
  8
WEI-JIN
 10
720960.93331671914
 20
3414710.9279142912
 30
0.8048780487804879
  0
VERTEX
  5
23F
  8
WEI-JIN
 10
720911.77370301262
 20
3414702.9565862352
 30
0.8048780487804879
  0
VERTEX
  5
240
  8
WEI-JIN
 10
720873.48624960706
 20
3414701.4401383442
 30
0.8048780487804879
  0
VERTEX
  5
241
  8
WEI-JIN
 10
720869.14074109145
 20
3414631.8531380971
 30
0.8048780487804879
  0
SEQEND
  5
242
  8
WEI-JIN
  0
POLYLINE
  5
95
  8
WEI-JIN
 66
     1
 10
0.0
 20
0.0
 30
0.0568181818181818
 70
     1
1001
ADE
1011
-33.505716236191802
1021
-6.1299850861992212E+054
1031
-0.0
1021
-1.0425579254515449
1031
0.0
1001
IRD
1002
{
1000
TPMLINK_Unit_topology-_-ade
1070
   515
1071
        5
1004
0100DA0400004C0100004C010000000000008C67003EC06A74408C67003EC06A74405B02000000000000
1002
}
1001
DCO15
1071
        5
1071
        5
1000
unitlink
1004
074132303200
1071
        4
1000
Link
1004
074132303200
  0
VERTEX
  5
243
  8
WEI-JIN
 10
720873.68758590915
 20
3414703.2259552679
 30
0.0568181818181818
  0
VERTEX
  5
244
  8
WEI-JIN
 10
720911.45492053416
 20
3414704.5528471721
 30
0.0568181818181818
  0
VERTEX
  5
245
  8
WEI-JIN
 10
720961.78899600345
 20
3414713.1527029718
 30
0.0568181818181818
  0
VERTEX
  5
246
  8
WEI-JIN
 10
720964.05402939743
 20
3414785.7626223681
 30
0.0568181818181818
  0
VERTEX
  5
247
  8
WEI-JIN
 10
720875.58350275061
 20
3414779.6968308059
 30
0.0568181818181818
  0
VERTEX
  5
248
  8
WEI-JIN
 10
720873.68758590915
 20
3414703.2259552679
 30
0.0568181818181818
  0
SEQEND
  5
249
  8
WEI-JIN
  0
POLYLINE
  5
96
  8
WEI-JIN
 66
     1
 10
0.0
 20
0.0
 30
0.0833333333333333
 70
     1
1001
ADE
1011
-27.792798670241609
1021
-6.1299850861992212E+054
1031
-0.0
1021
-2.583947391714899
1031
0.0
1001
IRD
1002
{
1000
TPMLINK_Unit_topology-_-ade
1070
   515
1071
        5
1004
0100DB0400003D0100003D01000000000000D9753E9770BE7340D9753E9770BE73405A02000000000000
1002
}
1001
DCO15
1071
        5
1071
        5
1000
unitlink
1004
074132303100
1071
        4
1000
Link
1004
074132303100
  0
VERTEX
  5
24A
  8
WEI-JIN
 10
720876.72440846264
 20
3414782.2508483059
 30
0.0833333333333333
  0
VERTEX
  5
24B
  8
WEI-JIN
 10
720963.98691729875
 20
3414788.0672240979
 30
0.0833333333333333
  0
VERTEX
  5
24C
  8
WEI-JIN
 10
720968.38275988761
 20
3414855.6988046942
 30
0.0833333333333333
  0
VERTEX
  5
24D
  8
WEI-JIN
 10
720923.78676902514
 20
3414851.5684795179
 30
0.0833333333333333
  0
VERTEX
  5
24E
  8
WEI-JIN
 10
720879.24111223605
 20
3414853.5039459062
 30
0.0833333333333333
  0
VERTEX
  5
24F
  8
WEI-JIN
 10
720876.72440846264
 20
3414782.2508483059
 30
0.0833333333333333
  0
SEQEND
  5
250
  8
WEI-JIN
  0
POLYLINE
  5
97
  8
WEI-JIN
 66
     1
 10
0.0
 20
0.0
 30
0.0865384615384616
 70
     1
1001
ADE
1011
-3.2557089640758918
1021
-6.1299850861992212E+054
1031
-0.0
1021
-3.6530679450370358
1031
0.0
1001
IRD
1002
{
1000
TPMLINK_Unit_topology-_-ade
1070
   515
1071
        5
1004
0100DD040000250100002501000000000000BE95390060207040BE953900602070405802000000000000
1002
}
1001
DCO15
1071
        5
1071
        5
1000
unitlink
1004
074131393900
1071
        4
1000
Link
1004
074131393900
  0
VERTEX
  5
251
  8
WEI-JIN
 10
720852.48439196218
 20
3414966.5279348739
 30
0.0865384615384616
  0
VERTEX
  5
252
  8
WEI-JIN
 10
720837.54807640193
 20
3414933.972840549
 30
0.0865384615384616
  0
VERTEX
  5
253
  8
WEI-JIN
 10
720825.26234352461
 20
3414919.523188903
 30
0.0865384615384616
  0
VERTEX
  5
254
  8
WEI-JIN
 10
720805.46813562862
 20
3414900.2644147449
 30
0.0865384615384616
  0
VERTEX
  5
255
  8
WEI-JIN
 10
720876.25462375954
 20
3414907.3977058078
 30
0.0865384615384616
  0
VERTEX
  5
256
  8
WEI-JIN
 10
720892.8313126117
 20
3414969.2528171381
 30
0.0865384615384616
  0
VERTEX
  5
257
  8
WEI-JIN
 10
720852.48439196218
 20
3414966.5279348739
 30
0.0865384615384616
  0
SEQEND
  5
258
  8
WEI-JIN
  0
POLYLINE
  5
98
  8
WEI-JIN
 66
     1
 10
0.0
 20
0.0
 30
2.2000000000000002
 70
     1
1001
ADE
1011
-19.219227816793129
1021
-6.1299850861992212E+054
1031
-0.0
1021
-3.2424050294794129
1031
0.0
1001
IRD
1002
{
1000
TPMLINK_Unit_topology-_-ade
1070
   515
1071
        5
1004
0100DE040000320100003201000000000000582B5AC7B5997440582B5AC7B59974405702000000000000
1002
}
1001
DCO15
1071
        5
1071
        5
1000
unitlink
1004
074131393800
1071
        4
1000
Link
1004
074131393800
  0
VERTEX
  5
259
  8
WEI-JIN
 10
720808.28684385482
 20
3414895.405795515
 30
2.2000000000000002
  0
VERTEX
  5
25A
  8
WEI-JIN
 10
720797.76702208095
 20
3414881.608115036
 30
2.2000000000000002
  0
VERTEX
  5
25B
  8
WEI-JIN
 10
720787.71243996033
 20
3414868.4206376802
 30
2.2000000000000002
  0
VERTEX
  5
25C
  8
WEI-JIN
 10
720780.93866284937
 20
3414857.6143178199
 30
2.2000000000000002
  0
VERTEX
  5
25D
  8
WEI-JIN
 10
720780.13331764191
 20
3414845.8119635121
 30
2.2000000000000002
  0
VERTEX
  5
25E
  8
WEI-JIN
 10
720781.27422335371
 20
3414834.9773423988
 30
2.2000000000000002
  0
VERTEX
  5
25F
  8
WEI-JIN
 10
720784.66338443395
 20
3414825.270080572
 30
2.2000000000000002
  0
VERTEX
  5
260
  8
WEI-JIN
 10
720785.83784619346
 20
3414817.1790329469
 30
2.2000000000000002
  0
VERTEX
  5
261
  8
WEI-JIN
 10
720872.83190662763
 20
3414820.880362995
 30
2.2000000000000002
  0
VERTEX
  5
262
  8
WEI-JIN
 10
720876.72440846264
 20
3414905.4323095288
 30
2.2000000000000002
  0
VERTEX
  5
263
  8
WEI-JIN
 10
720812.26323581464
 20
3414898.7878733771
 30
2.2000000000000002
  0
VERTEX
  5
264
  8
WEI-JIN
 10
720808.28684385482
 20
3414895.405795515
 30
2.2000000000000002
  0
SEQEND
  5
265
  8
WEI-JIN
  0
POLYLINE
  5
99
  8
WEI-JIN
 66
     1
 10
0.0
 20
0.0
 30
0.0208333333333333
 70
     1
1001
ADE
1011
-29.0427615417866
1021
-6.1299850861992212E+054
1031
-0.0
1021
-1.047546240501104
1031
0.0
1001
IRD
1002
{
1000
TPMLINK_Unit_topology-_-ade
1070
   515
1071
        5
1004
0100DF040000430100004301000000000000420967AEF07E7440420967AEF07E74405602000000000000
1002
}
1001
DCO15
1071
        5
1071
        5
1000
unitlink
1004
074131393700
1071
        4
1000
Link
1004
074131393700
  0
VERTEX
  5
266
  8
WEI-JIN
 10
720777.3984995411
 20
3414744.030375483
 30
0.0208333333333333
  0
VERTEX
  5
267
  8
WEI-JIN
 10
720868.87229268998
 20
3414743.5115906792
 30
0.0208333333333333
  0
VERTEX
  5
268
  8
WEI-JIN
 10
720873.46947158093
 20
3414819.5534710898
 30
0.0208333333333333
  0
VERTEX
  5
269
  8
WEI-JIN
 10
720785.31772741664
 20
3414815.6326551619
 30
0.0208333333333333
  0
VERTEX
  5
26A
  8
WEI-JIN
 10
720777.3984995411
 20
3414744.030375483
 30
0.0208333333333333
  0
SEQEND
  5
26B
  8
WEI-JIN
  0
POLYLINE
  5
9A
  8
WEI-JIN
 66
     1
 10
0.0
 20
0.0
 30
0.3
 70
     1
1001
ADE
1011
-29.440872337319892
1021
-6.1299850861992212E+054
1031
-0.0
1021
-3.611540371086448
1031
0.0
1001
IRD
1002
{
1000
TPMLINK_Unit_topology-_-ade
1070
   515
1071
        5
1004
0100E10400005401000054010000000000009C140744765774409C140744765774400000000054020000
1002
}
1001
DCO15
1071
        5
1071
        5
1000
unitlink
1004
074131393500
1071
        4
1000
Link
1004
074131393500
  0
VERTEX
  5
26C
  8
WEI-JIN
 10
720774.56301328936
 20
3414655.7571456381
 30
0.3
  0
VERTEX
  5
26D
  8
WEI-JIN
 10
720861.75841002574
 20
3414657.0640842812
 30
0.3
  0
VERTEX
  5
26E
  8
WEI-JIN
 10
720861.10406704224
 20
3414583.735847462
 30
0.3
  0
VERTEX
  5
26F
  8
WEI-JIN
 10
720769.20169964014
 20
3414585.4526799251
 30
0.3
  0
VERTEX
  5
270
  8
WEI-JIN
 10
720772.04630951583
 20
3414655.8868418401
 30
0.3
  0
VERTEX
  5
271
  8
WEI-JIN
 10
720774.56301328936
 20
3414655.7571456381
 30
0.3
  0
SEQEND
  5
272
  8
WEI-JIN
  0
POLYLINE
  5
9B
  8
WEI-JIN
 66
     1
 10
0.0
 20
0.0
 30
0.0375
 70
     1
1001
ADE
1011
-22.063103077933189
1021
-6.1299850861992212E+054
1031
-0.0
1021
4.459553992841391
1031
0.0
1001
IRD
1002
{
1000
TPMLINK_Unit_topology-_-ade
1070
   515
1071
        5
1004
0100E204000072010000720100000000000018F07B7BA64D754018F07B7BA64D75405302000000000000
1002
}
1001
DCO15
1071
        5
1071
        5
1000
unitlink
1004
074131393400
1071
        4
1000
Link
1004
074131393400
  0
VERTEX
  5
273
  8
WEI-JIN
 10
720762.78483963024
 20
3414505.748524033
 30
0.0375
  0
VERTEX
  5
274
  8
WEI-JIN
 10
720858.36924894154
 20
3414508.3324714261
 30
0.0375
  0
VERTEX
  5
275
  8
WEI-JIN
 10
720864.05699947104
 20
3414581.1020169151
 30
0.0375
  0
VERTEX
  5
276
  8
WEI-JIN
 10
720768.97593091405
 20
3414582.6483946992
 30
0.0375
  0
VERTEX
  5
277
  8
WEI-JIN
 10
720762.78483963024
 20
3414505.748524033
 30
0.0375
  0
SEQEND
  5
278
  8
WEI-JIN
  0
POLYLINE
  5
9C
  8
WEI-JIN
 66
     1
 10
0.0
 20
0.0
 30
0.0066666666666667
 70
     1
1001
ADE
1011
-40.846102241426713
1021
-6.1299850861992212E+054
1031
-0.0
1021
7.0073076812550408
1031
0.0
1001
IRD
1002
{
1000
TPMLINK_Unit_topology-_-ade
1070
   515
1071
        5
1004
0100E8040000AA010000AA0100000000000020F04789BBAB7E4020F04789BBAB7E403602000000000000
1002
}
1001
DCO15
1071
        5
1071
        5
1000
unitlink
1004
074132353300
1071
        4
1000
Link
1004
074132353300
  0
VERTEX
  5
279
  8
WEI-JIN
 10
720528.30485032802
 20
3414268.0378915351
 30
0.0066666666666667
  0
VERTEX
  5
27A
  8
WEI-JIN
 10
720520.84571688622
 20
3414209.5423538121
 30
0.0066666666666667
  0
VERTEX
  5
27B
  8
WEI-JIN
 10
720695.57207085926
 20
3414149.3832697282
 30
0.0066666666666667
  0
VERTEX
  5
27C
  8
WEI-JIN
 10
720709.51460976165
 20
3414201.471259445
 30
0.0066666666666667
  0
VERTEX
  5
27D
  8
WEI-JIN
 10
720528.30485032802
 20
3414268.0378915351
 30
0.0066666666666667
  0
SEQEND
  5
27E
  8
WEI-JIN
  0
POLYLINE
  5
9D
  8
WEI-JIN
 66
     1
 10
0.0
 20
0.0
 30
0.2
 70
     1
1001
ADE
1011
-17.45753517374396
1021
-6.1299850861992212E+054
1031
-0.0
1021
5.6467730673030001
1031
0.0
1001
IRD
1002
{
1000
TPMLINK_Unit_topology-_-ade
1070
   515
1071
        5
1004
0100E9040000B2010000B201000000000000B9736F97BD108040B9736F97BD1080400000000035020000
1002
}
1001
DCO15
1071
        5
1071
        5
1000
unitlink
1004
074132343000
1071
        4
1000
Link
1004
074132343000
  0
VERTEX
  5
27F
  8
WEI-JIN
 10
720467.27348256484
 20
3414213.5330061559
 30
0.2
  0
VERTEX
  5
280
  8
WEI-JIN
 10
720549.16702334955
 20
3414181.8372499142
 30
0.2
  0
VERTEX
  5
281
  8
WEI-JIN
 10
720512.27214603499
 20
3414080.1055450388
 30
0.2
  0
VERTEX
  5
282
  8
WEI-JIN
 10
720366.20265902951
 20
3414130.2281384771
 30
0.2
  0
VERTEX
  5
283
  8
WEI-JIN
 10
720417.10718734935
 20
3414229.0167372492
 30
0.2
  0
VERTEX
  5
284
  8
WEI-JIN
 10
720467.27348256484
 20
3414213.5330061559
 30
0.2
  0
SEQEND
  5
285
  8
WEI-JIN
  0
POLYLINE
  5
9E
  8
WEI-JIN
 66
     1
 10
0.0
 20
0.0
 30
0.3098591549295774
 70
     1
1001
ADE
1011
-21.232590835657891
1021
-6.1299850861992212E+054
1031
-0.0
1021
5.5819249670021218
1031
0.0
1001
IRD
1002
{
1000
TPMLINK_Unit_topology-_-ade
1070
   515
1071
        5
1004
0100EA040000C3010000C301000000000000C35E10E27E1F7540C35E10E27E1F75403402000000000000
1002
}
1001
DCO15
1071
        5
1071
        5
1000
unitlink
1004
074132313800
1071
        4
1000
Link
1004
074132313800
  0
VERTEX
  5
286
  8
WEI-JIN
 10
721876.07392080501
 20
3413784.4680427769
 30
0.3098591549295774
  0
VERTEX
  5
287
  8
WEI-JIN
 10
721935.95469258376
 20
3413780.886432298
 30
0.3098591549295774
  0
VERTEX
  5
288
  8
WEI-JIN
 10
721967.84971840691
 20
3413867.7729104548
 30
0.3098591549295774
  0
VERTEX
  5
289
  8
WEI-JIN
 10
721870.050609775
 20
3413871.8034693212
 30
0.3098591549295774
  0
VERTEX
  5
28A
  8
WEI-JIN
 10
721876.07392080501
 20
3413784.4680427769
 30
0.3098591549295774
  0
SEQEND
  5
28B
  8
WEI-JIN
  0
POLYLINE
  5
9F
  8
WEI-JIN
 66
     1
 10
0.0
 20
0.0
 30
0.03
 70
     1
1001
ADE
1011
-20.603414891054861
1021
-6.1299850861992212E+054
1031
-0.0
1021
-1.0126280318945631
1031
0.0
1001
IRD
1002
{
1000
TPMLINK_Unit_topology-_-ade
1070
   515
1071
        5
1004
0100EC040000C5010000C5010000000000003963E0067EDA76403963E0067EDA76400000000032020000
1002
}
1001
DCO15
1071
        5
1071
        5
1000
unitlink
1004
074132323000
1071
        4
1000
Link
1004
074132323000
  0
VERTEX
  5
28C
  8
WEI-JIN
 10
721695.30747777969
 20
3413775.3693554332
 30
0.03
  0
VERTEX
  5
28D
  8
WEI-JIN
 10
721694.77058097359
 20
3413876.3228831021
 30
0.03
  0
VERTEX
  5
28E
  8
WEI-JIN
 10
721779.38216183323
 20
3413874.9261547821
 30
0.03
  0
VERTEX
  5
28F
  8
WEI-JIN
 10
721780.87540607154
 20
3413780.5871333722
 30
0.03
  0
VERTEX
  5
290
  8
WEI-JIN
 10
721695.30747777969
 20
3413775.3693554332
 30
0.03
  0
SEQEND
  5
291
  8
WEI-JIN
  0
POLYLINE
  5
A0
  8
WEI-JIN
 66
     1
 10
0.0
 20
0.0
 30
0.1
 70
     1
1001
ADE
1011
-11.4396461751312
1021
-6.1299850861992212E+054
1031
-0.0
1021
-5.886228883638978
1031
0.0
1001
IRD
1002
{
1000
TPMLINK_Unit_topology-_-ade
1070
   515
1071
        5
1004
0100EF0400009E0100009E01000000000000B88DBA77E4286440B88DBA77E42864402F02000000000000
1002
}
1001
DCO15
1071
        5
1071
        5
1000
unitlink
1004
074332333400
1071
        4
1000
Link
1004
074332333400
  0
VERTEX
  5
292
  8
WEI-JIN
 10
720633.04997318971
 20
3414344.4937757761
 30
0.1
  0
VERTEX
  5
293
  8
WEI-JIN
 10
720624.20028239465
 20
3414320.0792121948
 30
0.1
  0
VERTEX
  5
294
  8
WEI-JIN
 10
720661.27155595284
 20
3414335.7409292678
 30
0.1
  0
VERTEX
  5
295
  8
WEI-JIN
 10
720674.99263617792
 20
3414345.8546139169
 30
0.1
  0
VERTEX
  5
296
  8
WEI-JIN
 10
720682.26724439475
 20
3414360.5339507931
 30
0.1
  0
VERTEX
  5
297
  8
WEI-JIN
 10
720682.73814537015
 20
3414364.1333274161
 30
0.1
  0
VERTEX
  5
298
  8
WEI-JIN
 10
720669.82896338403
 20
3414366.6053825002
 30
0.1
  0
VERTEX
  5
299
  8
WEI-JIN
 10
720662.7004968524
 20
3414358.528928915
 30
0.1
  0
VERTEX
  5
29A
  8
WEI-JIN
 10
720655.49084049452
 20
3414351.0563975819
 30
0.1
  0
VERTEX
  5
29B
  8
WEI-JIN
 10
720646.47877005104
 20
3414346.4021700919
 30
0.1
  0
VERTEX
  5
29C
  8
WEI-JIN
 10
720633.04997318971
 20
3414344.4937757761
 30
0.1
  0
SEQEND
  5
29D
  8
WEI-JIN
  0
POLYLINE
  5
A1
  8
WEI-JIN
 66
     1
 10
0.0
 20
0.0
 30
0.029126213592233
 70
     1
1001
ADE
1011
0.089308807742782
1021
-6.1299850861992212E+054
1031
-0.0
1021
-0.2254643091000616
1031
0.0
1001
IRD
1002
{
1000
TPMLINK_Unit_topology-_-ade
1070
   515
1071
        5
1004
0100F10400007A0100007A01000000000000A65ECD9FD5B97040A65ECD9FD5B97040000000002A020000
1002
}
1001
DCO15
1071
        5
1071
        5
1000
unitlink
1004
074332323500
1071
        4
1000
Link
1004
074332323500
  0
VERTEX
  5
29E
  8
WEI-JIN
 10
720506.23866397282
 20
3414486.0850153249
 30
0.029126213592233
  0
VERTEX
  5
29F
  8
WEI-JIN
 10
720506.16651651997
 20
3414519.4218691872
 30
0.029126213592233
  0
VERTEX
  5
2A0
  8
WEI-JIN
 10
720549.87911766768
 20
3414517.4168473091
 30
0.029126213592233
  0
VERTEX
  5
2A1
  8
WEI-JIN
 10
720553.71127735102
 20
3414488.34805624
 30
0.029126213592233
  0
VERTEX
  5
2A2
  8
WEI-JIN
 10
720556.61787304282
 20
3414460.0522856512
 30
0.029126213592233
  0
VERTEX
  5
2A3
  8
WEI-JIN
 10
720533.15401395794
 20
3414457.8459563572
 30
0.029126213592233
  0
VERTEX
  5
2A4
  8
WEI-JIN
 10
720506.45879988733
 20
3414459.2228990928
 30
0.029126213592233
  0
VERTEX
  5
2A5
  8
WEI-JIN
 10
720499.05428795144
 20
3414454.7780313161
 30
0.029126213592233
  0
VERTEX
  5
2A6
  8
WEI-JIN
 10
720484.74864099536
 20
3414475.6898458339
 30
0.029126213592233
  0
VERTEX
  5
2A7
  8
WEI-JIN
 10
720472.48897760001
 20
3414483.7099333429
 30
0.029126213592233
  0
SEQEND
  5
2A8
  8
WEI-JIN
  0
POLYLINE
  5
A2
  8
WEI-JIN
 66
     1
 10
0.0
 20
0.0
 30
0.0384615384615385
 70
     1
1001
ADE
1011
-17.106695877271701
1021
-6.1299850861992212E+054
1031
-0.0
1021
12.114680378232141
1031
0.0
1001
IRD
1002
{
1000
TPMLINK_Unit_topology-_-ade
1070
   515
1071
        5
1004
0100F20400009001000090010000000000009EDEC5F5A07C6E409EDEC5F5A07C6E401E02000000000000
1002
}
1001
DCO15
1071
        5
1071
        5
1000
unitlink
1004
074332343000
1071
        4
1000
Link
1004
074332343000
  0
VERTEX
  5
2A9
  8
WEI-JIN
 10
720510.33967346326
 20
3414385.4235998779
 30
0.0384615384615385
  0
VERTEX
  5
2AA
  8
WEI-JIN
 10
720520.43968755007
 20
3414393.7979884408
 30
0.0384615384615385
  0
VERTEX
  5
2AB
  8
WEI-JIN
 10
720532.69935094565
 20
3414397.6630908549
 30
0.0384615384615385
  0
VERTEX
  5
2AC
  8
WEI-JIN
 10
720545.15386991925
 20
3414405.1758836708
 30
0.0384615384615385
  0
VERTEX
  5
2AD
  8
WEI-JIN
 10
720555.69230905187
 20
3414415.4828234431
 30
0.0384615384615385
  0
VERTEX
  5
2AE
  8
WEI-JIN
 10
720559.13475758233
 20
3414427.2874903982
 30
0.0384615384615385
  0
VERTEX
  5
2AF
  8
WEI-JIN
 10
720558.76128439244
 20
3414458.0150545882
 30
0.0384615384615385
  0
VERTEX
  5
2B0
  8
WEI-JIN
 10
720532.99163431313
 20
3414456.0986079751
 30
0.0384615384615385
  0
VERTEX
  5
2B1
  8
WEI-JIN
 10
720516.57505193364
 20
3414458.4418263119
 30
0.0384615384615385
  0
VERTEX
  5
2B2
  8
WEI-JIN
 10
720500.8891779707
 20
3414453.634605187
 30
0.0384615384615385
  0
VERTEX
  5
2B3
  8
WEI-JIN
 10
720502.17197718855
 20
3414377.9430162478
 30
0.0384615384615385
  0
VERTEX
  5
2B4
  8
WEI-JIN
 10
720510.33967346326
 20
3414385.4235998779
 30
0.0384615384615385
  0
SEQEND
  5
2B5
  8
WEI-JIN
  0
POLYLINE
  5
A3
  8
WEI-JIN
 66
     1
 10
0.0
 20
0.0
 30
0.072463768115942
 70
     1
1001
ADE
1011
-8.7360250429483131
1021
-6.1299850861992212E+054
1031
-0.0
1021
-6.6834062566049379
1031
0.0
1001
IRD
1002
{
1000
TPMLINK_Unit_topology-_-ade
1070
   515
1071
        5
1004
0100F4040000740100007401000000000000267EA2C9E6256940267EA2C9E62569402902000000000000
1002
}
1001
DCO15
1071
        5
1071
        5
1000
unitlink
1004
074332333500
1071
        4
1000
Link
1004
074332333500
  0
VERTEX
  5
2B6
  8
WEI-JIN
 10
720600.83385109901
 20
3414505.104885662
 30
0.072463768115942
  0
VERTEX
  5
2B7
  8
WEI-JIN
 10
720634.18663072574
 20
3414510.282512438
 30
0.072463768115942
  0
VERTEX
  5
2B8
  8
WEI-JIN
 10
720633.00125929702
 20
3414563.2827292858
 30
0.072463768115942
  0
VERTEX
  5
2B9
  8
WEI-JIN
 10
720630.56556458422
 20
3414566.9062628001
 30
0.072463768115942
  0
VERTEX
  5
2BA
  8
WEI-JIN
 10
720604.0164921917
 20
3414577.4628237681
 30
0.072463768115942
  0
VERTEX
  5
2BB
  8
WEI-JIN
 10
720595.11808750033
 20
3414577.4628237681
 30
0.072463768115942
  0
VERTEX
  5
2BC
  8
WEI-JIN
 10
720600.83385109901
 20
3414505.104885662
 30
0.072463768115942
  0
SEQEND
  5
2BD
  8
WEI-JIN
  0
POLYLINE
  5
A4
  8
WEI-JIN
 66
     1
 10
0.0
 20
0.0
 30
0.2
 70
     1
1001
ADE
1011
-10.25512006622739
1021
-6.1299850861992212E+054
1031
-0.0
1021
-7.1919096419587731
1031
0.0
1001
IRD
1002
{
1000
TPMLINK_Unit_topology-_-ade
1070
   515
1071
        5
1004
0100F50400007C0100007C010000000000003022C4B84FEE70403022C4B84FEE70408003000000000000
1002
}
1001
DCO15
1071
        5
1071
        5
1000
unitlink
1004
074332323700
1071
        4
1000
Link
1004
074332323700
  0
VERTEX
  5
2BE
  8
WEI-JIN
 10
720556.27687578276
 20
3414483.8226654958
 30
0.2
  0
VERTEX
  5
2BF
  8
WEI-JIN
 10
720562.99939319503
 20
3414482.20415386
 30
0.2
  0
VERTEX
  5
2C0
  8
WEI-JIN
 10
720597.37516460195
 20
3414490.3369735242
 30
0.2
  0
VERTEX
  5
2C1
  8
WEI-JIN
 10
720596.18979317695
 20
3414516.5874607512
 30
0.2
  0
VERTEX
  5
2C2
  8
WEI-JIN
 10
720595.27281407826
 20
3414536.8943009698
 30
0.2
  0
VERTEX
  5
2C3
  8
WEI-JIN
 10
720592.71486871701
 20
3414576.8427969231
 30
0.2
  0
VERTEX
  5
2C4
  8
WEI-JIN
 10
720579.61083115276
 20
3414583.751667487
 30
0.2
  0
VERTEX
  5
2C5
  8
WEI-JIN
 10
720568.92625033483
 20
3414583.969079501
 30
0.2
  0
VERTEX
  5
2C6
  8
WEI-JIN
 10
720553.41899398714
 20
3414581.9399007298
 30
0.2
  0
VERTEX
  5
2C7
  8
WEI-JIN
 10
720547.4434229508
 20
3414575.208180692
 30
0.2
  0
VERTEX
  5
2C8
  8
WEI-JIN
 10
720547.91432392993
 20
3414555.3351124488
 30
0.2
  0
VERTEX
  5
2C9
  8
WEI-JIN
 10
720551.37301042688
 20
3414526.6689362139
 30
0.2
  0
VERTEX
  5
2CA
  8
WEI-JIN
 10
720556.27687578276
 20
3414483.8226654958
 30
0.2
  0
SEQEND
  5
2CB
  8
WEI-JIN
  0
POLYLINE
  5
A5
  8
WEI-JIN
 66
     1
 10
0.0
 20
0.0
 30
0.0382165605095541
 70
     1
1001
ADE
1011
-7.5506536159664384
1021
-6.1299850861992212E+054
1031
-0.0
1021
-2.411662860307842
1031
0.0
1001
IRD
1002
{
1000
TPMLINK_Unit_topology-_-ade
1070
   515
1071
        5
1004
0100F60400007D0100007D01000000000000981BAFA57FF96640981BAFA57FF966402202000000000000
1002
}
1001
DCO15
1071
        5
1071
        5
1000
unitlink
1004
074332323800
1071
        4
1000
Link
1004
074332323800
  0
VERTEX
  5
2CC
  8
WEI-JIN
 10
720564.18476462376
 20
3414481.3667150051
 30
0.0382165605095541
  0
VERTEX
  5
2CD
  8
WEI-JIN
 10
720567.04264642298
 20
3414426.5547313988
 30
0.0382165605095541
  0
VERTEX
  5
2CE
  8
WEI-JIN
 10
720603.30202174175
 20
3414433.2622945458
 30
0.0382165605095541
  0
VERTEX
  5
2CF
  8
WEI-JIN
 10
720605.26681547984
 20
3414440.2436357811
 30
0.0382165605095541
  0
VERTEX
  5
2D0
  8
WEI-JIN
 10
720601.98674659815
 20
3414472.0904692118
 30
0.0382165605095541
  0
VERTEX
  5
2D1
  8
WEI-JIN
 10
720598.17082487815
 20
3414489.499534667
 30
0.0382165605095541
  0
VERTEX
  5
2D2
  8
WEI-JIN
 10
720564.18476462376
 20
3414481.3667150051
 30
0.0382165605095541
  0
SEQEND
  5
2D3
  8
WEI-JIN
  0
POLYLINE
  5
A6
  8
WEI-JIN
 66
     1
 10
0.0
 20
0.0
 30
0.1162790697674419
 70
     1
1001
ADE
1011
-10.538439132273201
1021
-6.1299850861992212E+054
1031
-0.0
1021
1.888263576198369
1031
0.0
1001
IRD
1002
{
1000
TPMLINK_Unit_topology-_-ade
1070
   515
1071
        5
1004
0100F80400009201000092010000000000005BFE2719B1EB64405BFE2719B1EB64402102000000000000
1002
}
1001
DCO15
1071
        5
1071
        5
1000
unitlink
1004
074332333000
1071
        4
1000
Link
1004
074332333000
  0
VERTEX
  5
2D4
  8
WEI-JIN
 10
720605.44543309137
 20
3414382.0899490449
 30
0.1162790697674419
  0
VERTEX
  5
2D5
  8
WEI-JIN
 10
720623.82680920523
 20
3414382.4361978061
 30
0.1162790697674419
  0
VERTEX
  5
2D6
  8
WEI-JIN
 10
720639.39901741594
 20
3414387.2192620412
 30
0.1162790697674419
  0
VERTEX
  5
2D7
  8
WEI-JIN
 10
720639.38277944946
 20
3414426.425894652
 30
0.1162790697674419
  0
VERTEX
  5
2D8
  8
WEI-JIN
 10
720636.94708473585
 20
3414435.243159533
 30
0.1162790697674419
  0
VERTEX
  5
2D9
  8
WEI-JIN
 10
720602.63626518846
 20
3414431.2572726682
 30
0.1162790697674419
  0
VERTEX
  5
2DA
  8
WEI-JIN
 10
720602.53883739933
 20
3414408.6142143612
 30
0.1162790697674419
  0
VERTEX
  5
2DB
  8
WEI-JIN
 10
720601.49960765254
 20
3414395.0460944292
 30
0.1162790697674419
  0
VERTEX
  5
2DC
  8
WEI-JIN
 10
720605.44543309137
 20
3414382.0899490449
 30
0.1162790697674419
  0
SEQEND
  5
2DD
  8
WEI-JIN
  0
POLYLINE
  5
A7
  8
WEI-JIN
 66
     1
 10
0.0
 20
0.0
 30
0.0603448275862069
 70
     1
1001
ADE
1011
-8.8307209505001083
1021
-6.1299850861992212E+054
1031
-0.0
1021
-5.1483884528279287
1031
0.0
1001
IRD
1002
{
1000
TPMLINK_Unit_topology-_-ade
1070
   515
1071
        5
1004
0100F9040000840100008401000000000000BCCD7700391D6A40BCCD7700391D6A402302000000000000
1002
}
1001
DCO15
1071
        5
1071
        5
1000
unitlink
1004
074332323900
1071
        4
1000
Link
1004
074332323900
  0
VERTEX
  5
2DE
  8
WEI-JIN
 10
720636.3949939349
 20
3414436.6039976738
 30
0.0603448275862069
  0
VERTEX
  5
2DF
  8
WEI-JIN
 10
720639.99982211005
 20
3414449.8419734412
 30
0.0603448275862069
  0
VERTEX
  5
2E0
  8
WEI-JIN
 10
720638.97683032986
 20
3414494.4275402441
 30
0.0603448275862069
  0
VERTEX
  5
2E1
  8
WEI-JIN
 10
720634.83614931616
 20
3414508.5754255368
 30
0.0603448275862069
  0
VERTEX
  5
2E2
  8
WEI-JIN
 10
720601.09365853295
 20
3414503.2125959401
 30
0.0603448275862069
  0
VERTEX
  5
2E3
  8
WEI-JIN
 10
720599.8433352483
 20
3414489.0486060511
 30
0.0603448275862069
  0
VERTEX
  5
2E4
  8
WEI-JIN
 10
720603.69173289812
 20
3414471.8489003112
 30
0.0603448275862069
  0
VERTEX
  5
2E5
  8
WEI-JIN
 10
720605.16938769072
 20
3414456.64616415
 30
0.0603448275862069
  0
VERTEX
  5
2E6
  8
WEI-JIN
 10
720606.61456655315
 20
3414439.9537530988
 30
0.0603448275862069
  0
VERTEX
  5
2E7
  8
WEI-JIN
 10
720604.9907700792
 20
3414433.8742690948
 30
0.0603448275862069
  0
VERTEX
  5
2E8
  8
WEI-JIN
 10
720636.3949939349
 20
3414436.6039976738
 30
0.0603448275862069
  0
SEQEND
  5
2E9
  8
WEI-JIN
  0
POLYLINE
  5
A8
  8
WEI-JIN
 66
     1
 10
0.0
 20
0.0
 30
0.1
 70
     1
1001
ADE
1011
-9.1500931436894462
1021
-6.1299850861992212E+054
1031
-0.0
1021
-3.0069374484010041
1031
0.0
1001
IRD
1002
{
1000
TPMLINK_Unit_topology-_-ade
1070
   515
1071
        5
1004
0100FA04000073010000730100000000000084843099A0D86A4084843099A0D86A400000000026020000
1002
}
1001
DCO15
1071
        5
1071
        5
1000
unitlink
1004
074332333700
1071
        4
1000
Link
1004
074332333700
  0
VERTEX
  5
2EA
  8
WEI-JIN
 10
720638.50592935074
 20
3414505.5638665748
 30
0.1
  0
VERTEX
  5
2EB
  8
WEI-JIN
 10
720670.4784819741
 20
3414504.47680652
 30
0.1
  0
VERTEX
  5
2EC
  8
WEI-JIN
 10
720670.80324126745
 20
3414490.9811572582
 30
0.1
  0
VERTEX
  5
2ED
  8
WEI-JIN
 10
720672.03732659295
 20
3414481.415028784
 30
0.1
  0
VERTEX
  5
2EE
  8
WEI-JIN
 10
720674.63540095452
 20
3414451.7342631649
 30
0.1
  0
VERTEX
  5
2EF
  8
WEI-JIN
 10
720671.72880526271
 20
3414431.1606451091
 30
0.1
  0
VERTEX
  5
2F0
  8
WEI-JIN
 10
720659.22557239234
 20
3414430.8385532401
 30
0.1
  0
VERTEX
  5
2F1
  8
WEI-JIN
 10
720643.39355674793
 20
3414429.7353885951
 30
0.1
  0
VERTEX
  5
2F2
  8
WEI-JIN
 10
720639.67847893585
 20
3414429.4765243661
 30
0.1
  0
VERTEX
  5
2F3
  8
WEI-JIN
 10
720638.27859784651
 20
3414437.1354492572
 30
0.1
  0
VERTEX
  5
2F4
  8
WEI-JIN
 10
720641.52619079885
 20
3414449.7292412878
 30
0.1
  0
VERTEX
  5
2F5
  8
WEI-JIN
 10
720641.26638336095
 20
3414494.2745466079
 30
0.1
  0
VERTEX
  5
2F6
  8
WEI-JIN
 10
720638.50592935074
 20
3414505.5638665748
 30
0.1
  0
SEQEND
  5
2F7
  8
WEI-JIN
  0
POLYLINE
  5
A9
  8
WEI-JIN
 66
     1
 10
0.0
 20
0.0
 30
0.2
 70
     1
1001
ADE
1011
-15.59893630014267
1021
-6.1299850861992212E+054
1031
-0.0
1021
-1.4827083507552741
1031
0.0
1001
IRD
1002
{
1000
TPMLINK_Unit_topology-_-ade
1070
   515
1071
        5
1004
0100FC04000088010000880100000000000010564852E2E45E4010564852E2E45E400000000025020000
1002
}
1001
DCO15
1071
        5
1071
        5
1000
unitlink
1004
074332333900
1071
        4
1000
Link
1004
074332333900
  0
VERTEX
  5
2F8
  8
WEI-JIN
 10
720647.25819236052
 20
3414428.3342889678
 30
0.2
  0
VERTEX
  5
2F9
  8
WEI-JIN
 10
720666.88989176229
 20
3414429.3166691642
 30
0.2
  0
VERTEX
  5
2FA
  8
WEI-JIN
 10
720670.94938295323
 20
3414425.9588614432
 30
0.2
  0
VERTEX
  5
2FB
  8
WEI-JIN
 10
720670.81947923452
 20
3414416.0142750242
 30
0.2
  0
VERTEX
  5
2FC
  8
WEI-JIN
 10
720680.02640525636
 20
3414413.663004389
 30
0.2
  0
VERTEX
  5
2FD
  8
WEI-JIN
 10
720683.89104086906
 20
3414409.902581831
 30
0.2
  0
VERTEX
  5
2FE
  8
WEI-JIN
 10
720684.10213441076
 20
3414404.427020079
 30
0.2
  0
VERTEX
  5
2FF
  8
WEI-JIN
 10
720674.08331015345
 20
3414404.1693465859
 30
0.2
  0
VERTEX
  5
300
  8
WEI-JIN
 10
720673.09279430262
 20
3414405.3208250129
 30
0.2
  0
VERTEX
  5
301
  8
WEI-JIN
 10
720642.19194735587
 20
3414406.8185521979
 30
0.2
  0
VERTEX
  5
302
  8
WEI-JIN
 10
720642.19194735587
 20
3414427.5451638931
 30
0.2
  0
VERTEX
  5
303
  8
WEI-JIN
 10
720647.25819236052
 20
3414428.3342889678
 30
0.2
  0
SEQEND
  5
304
  8
WEI-JIN
  0
POLYLINE
  5
AA
  8
WEI-JIN
 66
     1
 10
0.0
 20
0.0
 30
0.0515463917525773
 70
     1
1001
ADE
1011
-11.68321564781945
1021
-6.1299850861992212E+054
1031
-0.0
1021
-1.4131780704483381
1031
0.0
1001
IRD
1002
{
1000
TPMLINK_Unit_topology-_-ade
1070
   515
1071
        5
1004
0100FD0400009D0100009D01000000000000DAA381C21ED46640DAA381C21ED466402402000000000000
1002
}
1001
DCO15
1071
        5
1071
        5
1000
unitlink
1004
074332333200
1071
        4
1000
Link
1004
074332333200
  0
VERTEX
  5
305
  8
WEI-JIN
 10
720631.60479432705
 20
3414345.9834506642
 30
0.0515463917525773
  0
VERTEX
  5
306
  8
WEI-JIN
 10
720646.30015243974
 20
3414347.521439333
 30
0.0515463917525773
  0
VERTEX
  5
307
  8
WEI-JIN
 10
720655.2797469534
 20
3414351.7730519888
 30
0.0515463917525773
  0
VERTEX
  5
308
  8
WEI-JIN
 10
720659.68023540452
 20
3414355.5093176551
 30
0.0515463917525773
  0
VERTEX
  5
309
  8
WEI-JIN
 10
720667.06850937381
 20
3414366.5651210179
 30
0.0515463917525773
  0
VERTEX
  5
30A
  8
WEI-JIN
 10
720671.71256729623
 20
3414376.5258120289
 30
0.0515463917525773
  0
VERTEX
  5
30B
  8
WEI-JIN
 10
720675.10630193364
 20
3414395.2876633289
 30
0.0515463917525773
  0
VERTEX
  5
30C
  8
WEI-JIN
 10
720672.34584792354
 20
3414405.111465299
 30
0.0515463917525773
  0
VERTEX
  5
30D
  8
WEI-JIN
 10
720641.98085381091
 20
3414404.427020079
 30
0.0515463917525773
  0
VERTEX
  5
30E
  8
WEI-JIN
 10
720642.33808903769
 20
3414385.5926981089
 30
0.0515463917525773
  0
VERTEX
  5
30F
  8
WEI-JIN
 10
720628.64948473871
 20
3414380.6969017182
 30
0.0515463917525773
  0
VERTEX
  5
310
  8
WEI-JIN
 10
720631.60479432705
 20
3414345.9834506642
 30
0.0515463917525773
  0
SEQEND
  5
311
  8
WEI-JIN
  0
POLYLINE
  5
AB
  8
WEI-JIN
 66
     1
 10
0.0
 20
0.0
 30
0.0066225165562914
 70
     1
1001
ADE
1011
-20.50043051503599
1021
-6.1299850861992212E+054
1031
-0.0
1021
-7.5812373380176723
1031
0.0
1001
IRD
1002
{
1000
TPMLINK_Unit_topology-_-ade
1070
   515
1071
        5
1004
0100FF0400008B0100008B0100000000000054A5FDD88438724054A5FDD884387240000000001D020000
1002
}
1001
DCO15
1071
        5
1071
        5
1000
unitlink
1004
074332323600
1071
        4
1000
Link
1004
074332323600
  0
VERTEX
  5
312
  8
WEI-JIN
 10
720555.28635993216
 20
3414409.5563330748
 30
0.0066225165562914
  0
VERTEX
  5
313
  8
WEI-JIN
 10
720561.44054858026
 20
3414413.3328602239
 30
0.0066225165562914
  0
VERTEX
  5
314
  8
WEI-JIN
 10
720563.89248126012
 20
3414383.2494797711
 30
0.0066225165562914
  0
VERTEX
  5
315
  8
WEI-JIN
 10
720568.99120219424
 20
3414352.5138632841
 30
0.0066225165562914
  0
VERTEX
  5
316
  8
WEI-JIN
 10
720572.19008125376
 20
3414334.5008755769
 30
0.0066225165562914
  0
VERTEX
  5
317
  8
WEI-JIN
 10
720571.18332743645
 20
3414323.8718439369
 30
0.0066225165562914
  0
VERTEX
  5
318
  8
WEI-JIN
 10
720561.09955132031
 20
3414315.9564362862
 30
0.0066225165562914
  0
VERTEX
  5
319
  8
WEI-JIN
 10
720549.29455093667
 20
3414309.909161469
 30
0.0066225165562914
  0
VERTEX
  5
31A
  8
WEI-JIN
 10
720522.51814703655
 20
3414308.1296039
 30
0.0066225165562914
  0
VERTEX
  5
31B
  8
WEI-JIN
 10
720508.81330477796
 20
3414312.091333874
 30
0.0066225165562914
  0
VERTEX
  5
31C
  8
WEI-JIN
 10
720500.79175018158
 20
3414355.4690561709
 30
0.0066225165562914
  0
VERTEX
  5
31D
  8
WEI-JIN
 10
720500.9216539003
 20
3414368.3285739948
 30
0.0066225165562914
  0
VERTEX
  5
31E
  8
WEI-JIN
 10
720503.71458384022
 20
3414376.3647660948
 30
0.0066225165562914
  0
VERTEX
  5
31F
  8
WEI-JIN
 10
720514.91877952975
 20
3414383.1447999151
 30
0.0066225165562914
  0
SEQEND
  5
320
  8
WEI-JIN
  0
POLYLINE
  5
AC
  8
WEI-JIN
 66
     1
 10
0.0
 20
0.0
 30
0.0740740740740741
 70
     1
1001
ADE
1011
-12.357091184705491
1021
-6.1299850861992212E+054
1031
-0.0
1021
-2.8746699197217822
1031
0.0
1001
IRD
1002
{
1000
TPMLINK_Unit_topology-_-ade
1070
   515
1071
        5
1004
010001050000690100006901000000000000F7B1837AC67C6A40F7B1837AC67C6A40000000002D020000
1002
}
1001
DCO15
1071
        5
1071
        5
1000
unitlink
1004
074332323200
1071
        4
1000
Link
1004
074332323200
  0
VERTEX
  5
321
  8
WEI-JIN
 10
720452.37013925612
 20
3414541.4126914628
 30
0.0740740740740741
  0
VERTEX
  5
322
  8
WEI-JIN
 10
720502.24635357095
 20
3414540.6778866109
 30
0.0740740740740741
  0
VERTEX
  5
323
  8
WEI-JIN
 10
720504.21796074871
 20
3414487.5186696812
 30
0.0740740740740741
  0
VERTEX
  5
324
  8
WEI-JIN
 10
720450.47029737767
 20
3414486.3832958448
 30
0.0740740740740741
  0
VERTEX
  5
325
  8
WEI-JIN
 10
720452.37013925612
 20
3414541.4126914628
 30
0.0740740740740741
  0
SEQEND
  5
326
  8
WEI-JIN
  0
POLYLINE
  5
AD
  8
WEI-JIN
 66
     1
 10
0.0
 20
0.0
 30
0.0666666666666667
 70
     1
1001
ADE
1011
-13.62365243781823
1021
-6.1299850861992212E+054
1031
-0.0
1021
-3.9053638977929932
1031
0.0
1001
IRD
1002
{
1000
TPMLINK_Unit_topology-_-ade
1070
   515
1071
        5
1004
0100020500006801000068010000000000004FFC8F590AE068404FFC8F590AE068402C02000000000000
1002
}
1001
DCO15
1071
        5
1071
        5
1000
unitlink
1004
074332323300
1071
        4
1000
Link
1004
074332323300
  0
VERTEX
  5
327
  8
WEI-JIN
 10
720453.16579952859
 20
3414543.4418702298
 30
0.0666666666666667
  0
VERTEX
  5
328
  8
WEI-JIN
 10
720502.48049851891
 20
3414543.1036737692
 30
0.0666666666666667
  0
VERTEX
  5
329
  8
WEI-JIN
 10
720507.14079440758
 20
3414591.3852447541
 30
0.0666666666666667
  0
VERTEX
  5
32A
  8
WEI-JIN
 10
720470.31309032056
 20
3414589.2352815368
 30
0.0666666666666667
  0
VERTEX
  5
32B
  8
WEI-JIN
 10
720454.26998113096
 20
3414591.5140815009
 30
0.0666666666666667
  0
VERTEX
  5
32C
  8
WEI-JIN
 10
720453.16579952859
 20
3414543.4418702298
 30
0.0666666666666667
  0
SEQEND
  5
32D
  8
WEI-JIN
  0
POLYLINE
  5
AE
  8
WEI-JIN
 66
     1
 10
0.0
 20
0.0
 30
0.0185185185185185
 70
     1
1001
ADE
1011
-27.352851645788181
1021
-6.1299850861992212E+054
1031
-0.0
1021
-6.7800338179804367
1031
0.0
1001
IRD
1002
{
1000
TPMLINK_Unit_topology-_-ade
1070
   515
1071
        5
1004
0100080500000A0100000A01000000000000800B654BF8107940800B654BF81079401002000000000000
1002
}
1001
DCO15
1071
        5
1071
        5
1000
unitlink
1004
074331363100
1071
        4
1000
Link
1004
074331363100
  0
VERTEX
  5
32E
  8
WEI-JIN
 10
720645.30963658914
 20
3415137.2906992212
 30
0.0185185185185185
  0
VERTEX
  5
32F
  8
WEI-JIN
 10
720646.17024872068
 20
3415095.660325306
 30
0.0185185185185185
  0
VERTEX
  5
330
  8
WEI-JIN
 10
720669.69905966532
 20
3415089.580841301
 30
0.0185185185185185
  0
VERTEX
  5
331
  8
WEI-JIN
 10
720711.36567725264
 20
3415090.8692087722
 30
0.0185185185185185
  0
VERTEX
  5
332
  8
WEI-JIN
 10
720729.80596869683
 20
3415091.4393983632
 30
0.0185185185185185
  0
VERTEX
  5
333
  8
WEI-JIN
 10
720773.84853740095
 20
3415094.6415236071
 30
0.0185185185185185
  0
VERTEX
  5
334
  8
WEI-JIN
 10
720775.32702045876
 20
3415177.0690448969
 30
0.0185185185185185
  0
VERTEX
  5
335
  8
WEI-JIN
 10
720742.33147605893
 20
3415180.6845261138
 30
0.0185185185185185
  0
VERTEX
  5
336
  8
WEI-JIN
 10
720711.13834574434
 20
3415176.344338194
 30
0.0185185185185185
  0
VERTEX
  5
337
  8
WEI-JIN
 10
720685.27126787603
 20
3415174.1702180859
 30
0.0185185185185185
  0
VERTEX
  5
338
  8
WEI-JIN
 10
720681.34168039996
 20
3415160.2558493968
 30
0.0185185185185185
  0
VERTEX
  5
339
  8
WEI-JIN
 10
720669.37430037186
 20
3415148.652489861
 30
0.0185185185185185
  0
VERTEX
  5
33A
  8
WEI-JIN
 10
720645.30963658914
 20
3415137.2906992212
 30
0.0185185185185185
  0
SEQEND
  5
33B
  8
WEI-JIN
  0
POLYLINE
  5
AF
  8
WEI-JIN
 66
     1
 10
0.0
 20
0.0
 30
0.2
 70
     1
1001
ADE
1011
-30.31628021597863
1021
-6.1299850861992212E+054
1031
-0.0
1021
4.557599929161368
1031
0.0
1001
IRD
1002
{
1000
TPMLINK_Unit_topology-_-ade
1070
   515
1071
        5
1004
010009050000190100001901000000000000640DBBEE55B27940640DBBEE55B27940000000000F020000
1002
}
1001
DCO15
1071
        5
1071
        5
1000
unitlink
1004
074331363200
1071
        4
1000
Link
1004
074331363200
  0
VERTEX
  5
33C
  8
WEI-JIN
 10
720518.19884841167
 20
3415057.3233407401
 30
0.2
  0
VERTEX
  5
33D
  8
WEI-JIN
 10
720514.07440536085
 20
3415147.2352856402
 30
0.2
  0
VERTEX
  5
33E
  8
WEI-JIN
 10
720630.66299236938
 20
3415151.164806427
 30
0.2
  0
VERTEX
  5
33F
  8
WEI-JIN
 10
720629.34771722555
 20
3415106.3457230218
 30
0.2
  0
VERTEX
  5
340
  8
WEI-JIN
 10
720617.55895480525
 20
3415102.4162022341
 30
0.2
  0
VERTEX
  5
341
  8
WEI-JIN
 10
720623.128576722
 20
3415060.5442594169
 30
0.2
  0
VERTEX
  5
342
  8
WEI-JIN
 10
720518.19884841167
 20
3415057.3233407401
 30
0.2
  0
SEQEND
  5
343
  8
WEI-JIN
  0
POLYLINE
  5
B0
  8
WEI-JIN
 66
     1
 10
0.0
 20
0.0
 30
0.7
 70
     1
1001
ADE
1011
-23.073254888993691
1021
-6.1299850861992212E+054
1031
-0.0
1021
4.5988194788806132
1031
0.0
1001
IRD
1002
{
1000
TPMLINK_Unit_topology-_-ade
1070
   515
1071
        5
1004
01000D050000010100000101000000000000E59F4AABA75C7540E59F4AABA75C75400000000013020000
1002
}
1001
DCO15
1071
        5
1071
        5
1000
unitlink
1004
074332353300
1071
        4
1000
Link
1004
074332353300
  0
VERTEX
  5
344
  8
WEI-JIN
 10
720507.25446015969
 20
3415231.2690539551
 30
0.7
  0
VERTEX
  5
345
  8
WEI-JIN
 10
720595.26422918611
 20
3415233.6122722928
 30
0.7
  0
VERTEX
  5
346
  8
WEI-JIN
 10
720599.97323896736
 20
3415155.8512431048
 30
0.7
  0
VERTEX
  5
347
  8
WEI-JIN
 10
720504.8169793603
 20
3415150.7522231662
 30
0.7
  0
VERTEX
  5
348
  8
WEI-JIN
 10
720507.25446015969
 20
3415231.2690539551
 30
0.7
  0
SEQEND
  5
349
  8
WEI-JIN
  0
POLYLINE
  5
B1
  8
WEI-JIN
 66
     1
 10
0.0
 20
0.0
 30
0.0517241379310345
 70
     1
1001
ADE
1011
-27.921180412173271
1021
-6.1299850861992212E+054
1031
-0.0
1021
1.8238451997749501
1031
0.0
1001
IRD
1002
{
1000
TPMLINK_Unit_topology-_-ade
1070
   515
1071
        5
1004
01000F050000FF000000FF00000000000000BB2B76EC6CDF7540BB2B76EC6CDF75401B02000000000000
1002
}
1001
DCO15
1071
        5
1071
        5
1000
unitlink
1004
074332353100
1071
        4
1000
Link
1004
074332353100
  0
VERTEX
  5
34A
  8
WEI-JIN
 10
720401.02569466841
 20
3415235.0375288082
 30
0.0517241379310345
  0
VERTEX
  5
34B
  8
WEI-JIN
 10
720405.63727666065
 20
3415199.1323378421
 30
0.0517241379310345
  0
VERTEX
  5
34C
  8
WEI-JIN
 10
720408.98229740188
 20
3415172.7530138688
 30
0.0517241379310345
  0
VERTEX
  5
34D
  8
WEI-JIN
 10
720408.72248996794
 20
3415155.4164190828
 30
0.0517241379310345
  0
VERTEX
  5
34E
  8
WEI-JIN
 10
720421.09581911936
 20
3415148.0727244969
 30
0.0517241379310345
  0
VERTEX
  5
34F
  8
WEI-JIN
 10
720467.99106135964
 20
3415143.9821577761
 30
0.0517241379310345
  0
VERTEX
  5
350
  8
WEI-JIN
 10
720500.27213530999
 20
3415149.9167004391
 30
0.0517241379310345
  0
VERTEX
  5
351
  8
WEI-JIN
 10
720501.68483824667
 20
3415209.6808465142
 30
0.0517241379310345
  0
VERTEX
  5
352
  8
WEI-JIN
 10
720501.23017523065
 20
3415217.3385806722
 30
0.0517241379310345
  0
VERTEX
  5
353
  8
WEI-JIN
 10
720400.24627235904
 20
3415239.6514948141
 30
0.0517241379310345
  0
VERTEX
  5
354
  8
WEI-JIN
 10
720401.02569466841
 20
3415235.0375288082
 30
0.0517241379310345
  0
SEQEND
  5
355
  8
WEI-JIN
  0
POLYLINE
  5
B2
  8
WEI-JIN
 66
     1
 10
0.0
 20
0.0
 30
0.2
 70
     1
1001
ADE
1011
-32.833164753508761
1021
-6.1299850861992212E+054
1031
-0.0
1021
5.1822036341764033
1031
0.0
1001
IRD
1002
{
1000
TPMLINK_Unit_topology-_-ade
1070
   515
1071
        5
1004
01001005000018010000180100000000000020C526D872A3764020C526D872A37640000000001A020000
1002
}
1001
DCO15
1071
        5
1071
        5
1000
unitlink
1004
074332353200
1071
        4
1000
Link
1004
074332353200
  0
VERTEX
  5
356
  8
WEI-JIN
 10
720512.7266542837
 20
3415059.2156304619
 30
0.2
  0
VERTEX
  5
357
  8
WEI-JIN
 10
720484.18031222746
 20
3415059.2639442431
 30
0.2
  0
VERTEX
  5
358
  8
WEI-JIN
 10
720463.88285627204
 20
3415064.465727909
 30
0.2
  0
VERTEX
  5
359
  8
WEI-JIN
 10
720447.23894238845
 20
3415072.2603511089
 30
0.2
  0
VERTEX
  5
35A
  8
WEI-JIN
 10
720437.87213834818
 20
3415076.646982078
 30
0.2
  0
VERTEX
  5
35B
  8
WEI-JIN
 10
720434.7194715552
 20
3415078.5975086112
 30
0.2
  0
VERTEX
  5
35C
  8
WEI-JIN
 10
720412.81445708871
 20
3415079.1048033
 30
0.2
  0
VERTEX
  5
35D
  8
WEI-JIN
 10
720408.44644456718
 20
3415147.4124361668
 30
0.2
  0
VERTEX
  5
35E
  8
WEI-JIN
 10
720468.6405799503
 20
3415141.1638539322
 30
0.2
  0
VERTEX
  5
35F
  8
WEI-JIN
 10
720495.5956014581
 20
3415146.035493433
 30
0.2
  0
VERTEX
  5
360
  8
WEI-JIN
 10
720508.19821978151
 20
3415148.3131919769
 30
0.2
  0
VERTEX
  5
361
  8
WEI-JIN
 10
720512.7266542837
 20
3415059.2156304619
 30
0.2
  0
SEQEND
  5
362
  8
WEI-JIN
  0
POLYLINE
  5
B3
  8
WEI-JIN
 66
     1
 10
0.0
 20
0.0
 30
0.0267857142857143
 70
     1
1001
ADE
1011
-15.23121095076203
1021
-6.1299850861992212E+054
1031
-0.0
1021
3.760422555729745
1031
0.0
1001
IRD
1002
{
1000
TPMLINK_Unit_topology-_-ade
1070
   515
1071
        5
1004
0100130500000F0100000F01000000000000F2131C8DE2F17040F2131C8DE2F17040000000000D020000
1002
}
1001
DCO15
1071
        5
1071
        5
1000
unitlink
1004
07433235366200
1071
        4
1000
Link
1004
07433235363100
  0
VERTEX
  5
363
  8
WEI-JIN
 10
720777.81142906845
 20
3415090.0237176199
 30
0.0267857142857143
  0
VERTEX
  5
364
  8
WEI-JIN
 10
720841.69158245262
 20
3415084.9024569211
 30
0.0267857142857143
  0
VERTEX
  5
365
  8
WEI-JIN
 10
720831.60780633625
 20
3415012.6250417829
 30
0.0267857142857143
  0
VERTEX
  5
366
  8
WEI-JIN
 10
720770.60177271464
 20
3415017.52889047
 30
0.0267857142857143
  0
VERTEX
  5
367
  8
WEI-JIN
 10
720777.81142906845
 20
3415090.0237176199
 30
0.0267857142857143
  0
SEQEND
  5
368
  8
WEI-JIN
  0
POLYLINE
  5
B4
  8
WEI-JIN
 66
     1
 10
0.0
 20
0.0
 30
0.0384615384615385
 70
     1
1001
ADE
1011
-23.1959326636279
1021
-6.1299850861992212E+054
1031
-0.0
1021
0.6562621793709696
1031
0.0
1001
IRD
1002
{
1000
TPMLINK_Unit_topology-_-ade
1070
   515
1071
        5
1004
01001405000011010000110100000000000082627CE026B8744082627CE026B874400E02000000000000
1002
}
1001
DCO15
1071
        5
1071
        5
1000
unitlink
1004
074332353500
1071
        4
1000
Link
1004
074332353500
  0
VERTEX
  5
369
  8
WEI-JIN
 10
720673.28764987714
 20
3415087.0685247309
 30
0.0384615384615385
  0
VERTEX
  5
36A
  8
WEI-JIN
 10
720673.9696443975
 20
3415022.1106472891
 30
0.0384615384615385
  0
VERTEX
  5
36B
  8
WEI-JIN
 10
720768.08488817525
 20
3415018.4951660759
 30
0.0384615384615385
  0
VERTEX
  5
36C
  8
WEI-JIN
 10
720773.52460636932
 20
3415090.3619140801
 30
0.0384615384615385
  0
VERTEX
  5
36D
  8
WEI-JIN
 10
720673.28764987714
 20
3415087.0685247309
 30
0.0384615384615385
  0
SEQEND
  5
36E
  8
WEI-JIN
  0
POLYLINE
  5
B5
  8
WEI-JIN
 66
     1
 10
0.0
 20
0.0
 30
0.7000000000000001
 70
     1
1001
ADE
1011
-6.6007326765684411
1021
-6.1299850861992212E+054
1031
-0.0
1021
0.3663794989697635
1031
0.0
1001
IRD
1002
{
1000
TPMLINK_Unit_topology-_-ade
1070
   515
1071
        5
1004
0100150500002F0100002F010000000000008968EBF3545073408968EBF3545073400C02000000000000
1002
}
1001
DCO15
1071
        5
1071
        5
1000
unitlink
1004
074332353900
1071
        4
1000
Link
1004
074332353900
  0
VERTEX
  5
36F
  8
WEI-JIN
 10
720766.88327878353
 20
3414908.0498645999
 30
0.7000000000000001
  0
VERTEX
  5
370
  8
WEI-JIN
 10
720797.73541183374
 20
3414908.3558518742
 30
0.7000000000000001
  0
VERTEX
  5
371
  8
WEI-JIN
 10
720818.11405761552
 20
3414919.4599690158
 30
0.7000000000000001
  0
VERTEX
  5
372
  8
WEI-JIN
 10
720835.08273079235
 20
3414937.642054955
 30
0.7000000000000001
  0
VERTEX
  5
373
  8
WEI-JIN
 10
720852.06764193985
 20
3414988.6211453341
 30
0.7000000000000001
  0
VERTEX
  5
374
  8
WEI-JIN
 10
720854.71443019435
 20
3415005.8852694491
 30
0.7000000000000001
  0
VERTEX
  5
375
  8
WEI-JIN
 10
720806.87738599628
 20
3415011.3205697192
 30
0.7000000000000001
  0
VERTEX
  5
376
  8
WEI-JIN
 10
720766.88327878353
 20
3414908.0498645999
 30
0.7000000000000001
  0
SEQEND
  5
377
  8
WEI-JIN
  0
POLYLINE
  5
B6
  8
WEI-JIN
 66
     1
 10
0.0
 20
0.0
 30
0.0306122448979592
 70
     1
1001
ADE
1011
-40.440651247161433
1021
-6.1299850861992212E+054
1031
-0.0
1021
-1.4212303673848501
1031
0.0
1001
IRD
1002
{
1000
TPMLINK_Unit_topology-_-ade
1070
   515
1071
        5
1004
0100160500002201000022010000000000002DA4A93B345879402DA4A93B34587940000000000B020000
1002
}
1001
DCO15
1071
        5
1071
        5
1000
unitlink
1004
074331353700
1071
        4
1000
Link
1004
074331353700
  0
VERTEX
  5
378
  8
WEI-JIN
 10
720672.96289058402
 20
3415016.5223533828
 30
0.0306122448979592
  0
VERTEX
  5
379
  8
WEI-JIN
 10
720802.55808737152
 20
3415012.6653032661
 30
0.0306122448979592
  0
VERTEX
  5
37A
  8
WEI-JIN
 10
720772.03071361408
 20
3414938.1412973511
 30
0.0306122448979592
  0
VERTEX
  5
37B
  8
WEI-JIN
 10
720665.46095086273
 20
3414928.5188028002
 30
0.0306122448979592
  0
VERTEX
  5
37C
  8
WEI-JIN
 10
720672.96289058402
 20
3415016.5223533828
 30
0.0306122448979592
  0
SEQEND
  5
37D
  8
WEI-JIN
  0
POLYLINE
  5
B7
  8
WEI-JIN
 66
     1
 10
0.0
 20
0.0
 30
0.0258620689655173
 70
     1
1001
ADE
1011
-12.60877964098472
1021
-6.1299850861992212E+054
1031
-0.0
1021
-2.1942508490756141
1031
0.0
1001
IRD
1002
{
1000
TPMLINK_Unit_topology-_-ade
1070
   515
1071
        5
1004
0100170500001B0100001B010000000000009E3B8B8DAF4679409E3B8B8DAF4679400000000009020000
1002
}
1001
DCO15
1071
        5
1071
        5
1000
unitlink
1004
074331363000
1071
        4
1000
Link
1004
074331363000
  0
VERTEX
  5
37E
  8
WEI-JIN
 10
720598.80410550139
 20
3415053.3374538771
 30
0.0258620689655173
  0
VERTEX
  5
37F
  8
WEI-JIN
 10
720668.46497434378
 20
3415057.9353152891
 30
0.0258620689655173
  0
VERTEX
  5
380
  8
WEI-JIN
 10
720660.05370859441
 20
3414926.7392452289
 30
0.0258620689655173
  0
VERTEX
  5
381
  8
WEI-JIN
 10
720586.8367254698
 20
3414924.017568945
 30
0.0258620689655173
  0
VERTEX
  5
382
  8
WEI-JIN
 10
720598.80410550139
 20
3415053.3374538771
 30
0.0258620689655173
  0
SEQEND
  5
383
  8
WEI-JIN
  0
POLYLINE
  5
B8
  8
WEI-JIN
 66
     1
 10
0.0
 20
0.0
 30
0.0555555555555556
 70
     1
1001
ADE
1011
-26.524715444073081
1021
-6.1299850861992212E+054
1031
-0.0
1021
3.4665137263946231
1031
0.0
1001
IRD
1002
{
1000
TPMLINK_Unit_topology-_-ade
1070
   515
1071
        5
1004
0100190500002101000021010000000000007B02B4391C9776407B02B4391C9776400000000007020000
1002
}
1001
DCO15
1071
        5
1071
        5
1000
unitlink
1004
074331363700
1071
        4
1000
Link
1004
074331363700
  0
VERTEX
  5
384
  8
WEI-JIN
 10
720425.1228343806
 20
3415016.643137834
 30
0.0555555555555556
  0
VERTEX
  5
385
  8
WEI-JIN
 10
720509.5440131909
 20
3415018.060342053
 30
0.0555555555555556
  0
VERTEX
  5
386
  8
WEI-JIN
 10
720507.83902689093
 20
3414924.6375957918
 30
0.0555555555555556
  0
VERTEX
  5
387
  8
WEI-JIN
 10
720417.39356315124
 20
3414923.8404184189
 30
0.0555555555555556
  0
VERTEX
  5
388
  8
WEI-JIN
 10
720425.1228343806
 20
3415016.643137834
 30
0.0555555555555556
  0
SEQEND
  5
389
  8
WEI-JIN
  0
POLYLINE
  5
B9
  8
WEI-JIN
 66
     1
 10
0.0
 20
0.0
 30
0.0263157894736842
 70
     1
1001
ADE
1011
-18.048497835174199
1021
-6.1299850861992212E+054
1031
-0.0
1021
8.3542578225024027
1031
0.0
1001
IRD
1002
{
1000
TPMLINK_Unit_topology-_-ade
1070
   515
1071
        5
1004
01001B0500001D0100001D01000000000000EB95F766F1A67840EB95F766F1A678400402000000000000
1002
}
1001
DCO15
1071
        5
1071
        5
1000
unitlink
1004
074331363500
1071
        4
1000
Link
1004
074331363500
  0
VERTEX
  5
38A
  8
WEI-JIN
 10
720237.98029046506
 20
3415044.6007119608
 30
0.0263157894736842
  0
VERTEX
  5
38B
  8
WEI-JIN
 10
720145.65122281411
 20
3415044.6007119608
 30
0.0263157894736842
  0
VERTEX
  5
38C
  8
WEI-JIN
 10
720124.33077507827
 20
3414948.0939360652
 30
0.0263157894736842
  0
VERTEX
  5
38D
  8
WEI-JIN
 10
720226.72738088295
 20
3414944.4220887721
 30
0.0263157894736842
  0
VERTEX
  5
38E
  8
WEI-JIN
 10
720237.98029046506
 20
3415044.6007119608
 30
0.0263157894736842
  0
SEQEND
  5
38F
  8
WEI-JIN
  0
POLYLINE
  5
BA
  8
WEI-JIN
 66
     1
 10
0.0
 20
0.0
 30
0.0096153846153846
 70
     1
1001
ADE
1011
-14.735953023773609
1021
-6.1299850861992212E+054
1031
-0.0
1021
8.1569765522144735
1031
0.0
1001
IRD
1002
{
1000
TPMLINK_Unit_topology-_-ade
1070
   515
1071
        5
1004
01001C050000A5010000A501000000000000F776B9D648F17140F776B9D648F171400002000000000000
1002
}
1001
DCO15
1071
        5
1071
        5
1000
unitlink
1004
07433235366100
1071
        4
1000
Link
1004
07433235363200
  0
VERTEX
  5
390
  8
WEI-JIN
 10
720725.03804358479
 20
3414304.0470894738
 30
0.0096153846153846
  0
VERTEX
  5
391
  8
WEI-JIN
 10
720669.87767727685
 20
3414310.3117763042
 30
0.0096153846153846
  0
VERTEX
  5
392
  8
WEI-JIN
 10
720679.14955515787
 20
3414215.5201396048
 30
0.0096153846153846
  0
VERTEX
  5
393
  8
WEI-JIN
 10
720714.69446002692
 20
3414205.261513615
 30
0.0096153846153846
  0
VERTEX
  5
394
  8
WEI-JIN
 10
720725.03804358479
 20
3414304.0470894738
 30
0.0096153846153846
  0
SEQEND
  5
395
  8
WEI-JIN
  0
POLYLINE
  5
BB
  8
WEI-JIN
 66
     1
 10
0.0
 20
0.0
 30
0.3
 70
     1
1001
ADE
1011
-13.77791310288012
1021
-6.1299850861992212E+054
1031
-0.0
1021
-9.4453440238721686
1031
0.0
1001
IRD
1002
{
1000
TPMLINK_Unit_topology-_-ade
1070
   515
1071
        5
1004
01001F0500008901000089010000000000007C541CE4F19470407C541CE4F1947040FE01000000000000
1002
}
1001
DCO15
1071
        5
1071
        5
1000
unitlink
1004
074331383800
1071
        4
1000
Link
1004
074331383800
  0
VERTEX
  5
396
  8
WEI-JIN
 10
720697.57964516827
 20
3414424.7832261249
 30
0.3
  0
VERTEX
  5
397
  8
WEI-JIN
 10
720737.21651715785
 20
3414419.831063658
 30
0.3
  0
VERTEX
  5
398
  8
WEI-JIN
 10
720751.47345022112
 20
3414512.6337830718
 30
0.3
  0
VERTEX
  5
399
  8
WEI-JIN
 10
720710.65120680269
 20
3414514.4455498289
 30
0.3
  0
VERTEX
  5
39A
  8
WEI-JIN
 10
720697.57964516827
 20
3414424.7832261249
 30
0.3
  0
SEQEND
  5
39B
  8
WEI-JIN
  0
POLYLINE
  5
BC
  8
WEI-JIN
 66
     1
 10
0.0
 20
0.0
 30
0.2
 70
     1
1001
ADE
1011
-17.846026326413259
1021
-6.1299850861992212E+054
1031
-0.0
1021
10.6844802936539
1031
0.0
1001
IRD
1002
{
1000
TPMLINK_Unit_topology-_-ade
1070
   515
1071
        5
1004
010021050000490100004901000000000000CDADEC5211887640CDADEC5211887640FC01000000000000
1002
}
1001
DCO15
1071
        5
1071
        5
1000
unitlink
1004
074332353800
1071
        4
1000
Link
1004
074332353800
  0
VERTEX
  5
39C
  8
WEI-JIN
 10
720682.9654768781
 20
3414728.29039317
 30
0.2
  0
VERTEX
  5
39D
  8
WEI-JIN
 10
720673.61341527232
 20
3414635.744213569
 30
0.2
  0
VERTEX
  5
39E
  8
WEI-JIN
 10
720750.41381134698
 20
3414621.6637151712
 30
0.2
  0
VERTEX
  5
39F
  8
WEI-JIN
 10
720762.04436528322
 20
3414731.3180567268
 30
0.2
  0
VERTEX
  5
3A0
  8
WEI-JIN
 10
720682.9654768781
 20
3414728.29039317
 30
0.2
  0
SEQEND
  5
3A1
  8
WEI-JIN
  0
POLYLINE
  5
BD
  8
WEI-JIN
 66
     1
 10
0.0
 20
0.0
 30
0.0239520958083832
 70
     1
1001
ADE
1011
-25.404295874759551
1021
-6.1299850861992212E+054
1031
-0.0
1021
19.690585802774869
1031
0.0
1001
IRD
1002
{
1000
TPMLINK_Unit_topology-_-ade
1070
   515
1071
        5
1004
010022050000640100006401000000000000BB5D707CD1437640BB5D707CD1437640FB01000000000000
1002
}
1001
DCO15
1071
        5
1071
        5
1000
unitlink
1004
074332343200
1071
        4
1000
Link
1004
074332343200
  0
VERTEX
  5
3A2
  8
WEI-JIN
 10
720670.51095790439
 20
3414568.3073624242
 30
0.0239520958083832
  0
VERTEX
  5
3A3
  8
WEI-JIN
 10
720668.04278726154
 20
3414648.9913753141
 30
0.0239520958083832
  0
VERTEX
  5
3A4
  8
WEI-JIN
 10
720571.30063990189
 20
3414650.5561324041
 30
0.0239520958083832
  0
VERTEX
  5
3A5
  8
WEI-JIN
 10
720558.84247421846
 20
3414602.6101463479
 30
0.0239520958083832
  0
VERTEX
  5
3A6
  8
WEI-JIN
 10
720585.09926323965
 20
3414603.8743569301
 30
0.0239520958083832
  0
VERTEX
  5
3A7
  8
WEI-JIN
 10
720609.06649923325
 20
3414599.7354764268
 30
0.0239520958083832
  0
VERTEX
  5
3A8
  8
WEI-JIN
 10
720635.66428551811
 20
3414591.4335585348
 30
0.0239520958083832
  0
VERTEX
  5
3A9
  8
WEI-JIN
 10
720658.90081309516
 20
3414576.0134103638
 30
0.0239520958083832
  0
VERTEX
  5
3AA
  8
WEI-JIN
 10
720668.90339939308
 20
3414562.4855519151
 30
0.0239520958083832
  0
VERTEX
  5
3AB
  8
WEI-JIN
 10
720670.51095790439
 20
3414568.3073624242
 30
0.0239520958083832
  0
SEQEND
  5
3AC
  8
WEI-JIN
  0
POLYLINE
  5
BE
  8
WEI-JIN
 66
     1
 10
0.0
 20
0.0
 30
0.0151515151515152
 70
     1
1001
ADE
1011
-9.2312829701695591
1021
-6.1299850861992212E+054
1031
-0.0
1021
-2.9431144404225038
1031
0.0
1001
IRD
1002
{
1000
TPMLINK_Unit_topology-_-ade
1070
   515
1071
        5
1004
01002B05000076010000760100000000000033AB31E6CC6B784033AB31E6CC6B784000000000EA010000
1002
}
1001
DCO15
1071
        5
1071
        5
1000
unitlink
1004
074332313700
1071
        4
1000
Link
1004
074332313700
  0
VERTEX
  5
3AD
  8
WEI-JIN
 10
720309.167527996
 20
3414499.0737154372
 30
0.0151515151515152
  0
VERTEX
  5
3AE
  8
WEI-JIN
 10
720371.05041171238
 20
3414468.4910925892
 30
0.0151515151515152
  0
VERTEX
  5
3AF
  8
WEI-JIN
 10
720348.08992953598
 20
3414361.435808022
 30
0.0151515151515152
  0
VERTEX
  5
3B0
  8
WEI-JIN
 10
720262.30476168566
 20
3414385.1015080111
 30
0.0151515151515152
  0
VERTEX
  5
3B1
  8
WEI-JIN
 10
720309.167527996
 20
3414499.0737154372
 30
0.0151515151515152
  0
SEQEND
  5
3B2
  8
WEI-JIN
  0
POLYLINE
  5
BF
  8
WEI-JIN
 66
     1
 10
0.0
 20
0.0
 30
0.0543478260869565
 70
     1
1001
ADE
1011
-16.457177288946689
1021
-6.1299850861992212E+054
1031
-0.0
1021
0.7810727800242603
1031
0.0
1001
IRD
1002
{
1000
TPMLINK_Unit_topology-_-ade
1070
   515
1071
        5
1004
01002D050000460100004601000000000000FDD1C8C811BA7440FDD1C8C811BA7440F601000000000000
1002
}
1001
DCO15
1071
        5
1071
        5
1000
unitlink
1004
074332343500
1071
        4
1000
Link
1004
074332343500
  0
VERTEX
  5
3B3
  8
WEI-JIN
 10
720344.29024577886
 20
3414738.766431171
 30
0.0543478260869565
  0
VERTEX
  5
3B4
  8
WEI-JIN
 10
720315.80885558215
 20
3414653.4603999811
 30
0.0543478260869565
  0
VERTEX
  5
3B5
  8
WEI-JIN
 10
720403.59129310015
 20
3414628.4499664442
 30
0.0543478260869565
  0
VERTEX
  5
3B6
  8
WEI-JIN
 10
720410.10271697131
 20
3414699.58395545
 30
0.0543478260869565
  0
VERTEX
  5
3B7
  8
WEI-JIN
 10
720354.48768765095
 20
3414723.2979692179
 30
0.0543478260869565
  0
VERTEX
  5
3B8
  8
WEI-JIN
 10
720344.29024577886
 20
3414738.766431171
 30
0.0543478260869565
  0
SEQEND
  5
3B9
  8
WEI-JIN
  0
POLYLINE
  5
C0
  8
WEI-JIN
 66
     1
 10
0.0
 20
0.0
 30
0.0142857142857143
 70
     1
1001
ADE
1011
-16.911840301007029
1021
-6.1299850861992212E+054
1031
-0.0
1021
6.1036408958025259
1031
0.0
1001
IRD
1002
{
1000
TPMLINK_Unit_topology-_-ade
1070
   515
1071
        5
1004
0100310500005D0100005D010000000000008F3C2800727873408F3C28007278734000000000F0010000
1002
}
1001
DCO15
1071
        5
1071
        5
1000
unitlink
1004
074331373300
1071
        4
1000
Link
1004
074331373300
  0
VERTEX
  5
3BA
  8
WEI-JIN
 10
720212.19440241926
 20
3414623.030770767
 30
0.0142857142857143
  0
VERTEX
  5
3BB
  8
WEI-JIN
 10
720144.12485412497
 20
3414658.5575037892
 30
0.0142857142857143
  0
VERTEX
  5
3BC
  8
WEI-JIN
 10
720197.75885174435
 20
3414726.1967960289
 30
0.0142857142857143
  0
VERTEX
  5
3BD
  8
WEI-JIN
 10
720251.63641883468
 20
3414704.1657122709
 30
0.0142857142857143
  0
VERTEX
  5
3BE
  8
WEI-JIN
 10
720212.19440241926
 20
3414623.030770767
 30
0.0142857142857143
  0
SEQEND
  5
3BF
  8
WEI-JIN
  0
POLYLINE
  5
C1
  8
WEI-JIN
 66
     1
 10
0.0
 20
0.0
 30
0.02
 70
     1
1001
ADE
1011
-11.75628649070859
1021
-6.1299850861992212E+054
1031
-0.0
1021
-1.6104593379423009
1031
0.0
1001
IRD
1002
{
1000
TPMLINK_Unit_topology-_-ade
1070
   515
1071
        5
1004
0100330500005F0100005F01000000000000166D0007E2BB7640166D0007E2BB7640ED01000000000000
1002
}
1001
DCO15
1071
        5
1071
        5
1000
unitlink
1004
074331383400
1071
        4
1000
Link
1004
074331383400
  0
VERTEX
  5
3C0
  8
WEI-JIN
 10
720239.44170729455
 20
3414603.47979439
 30
0.02
  0
VERTEX
  5
3C1
  8
WEI-JIN
 10
720209.64504195016
 20
3414515.2990932781
 30
0.02
  0
VERTEX
  5
3C2
  8
WEI-JIN
 10
720289.61701841652
 20
3414483.5488874088
 30
0.02
  0
VERTEX
  5
3C3
  8
WEI-JIN
 10
720320.81014873099
 20
3414577.8251771191
 30
0.02
  0
VERTEX
  5
3C4
  8
WEI-JIN
 10
720239.44170729455
 20
3414603.47979439
 30
0.02
  0
SEQEND
  5
3C5
  8
WEI-JIN
  0
POLYLINE
  5
C2
  8
WEI-JIN
 66
     1
 10
0.0
 20
0.0
 30
0.02
 70
     1
1001
ADE
1011
-17.643529833061621
1021
-6.1299850861992212E+054
1031
-0.0
1021
8.1231912393122911
1031
0.0
1001
IRD
1002
{
1000
TPMLINK_Unit_topology-_-ade
1070
   515
1071
        5
1004
010036050000670100006701000000000000FD880C6761197540FD880C6761197540F201000000000000
1002
}
1001
DCO15
1071
        5
1071
        5
1000
unitlink
1004
074331383300
1071
        4
1000
Link
1004
074331383300
  0
VERTEX
  5
3C6
  8
WEI-JIN
 10
720078.70209408936
 20
3414547.733744368
 30
0.02
  0
VERTEX
  5
3C7
  8
WEI-JIN
 10
720100.03877979144
 20
3414549.376412895
 30
0.02
  0
VERTEX
  5
3C8
  8
WEI-JIN
 10
720099.92511403561
 20
3414564.8287702519
 30
0.02
  0
VERTEX
  5
3C9
  8
WEI-JIN
 10
720091.75741776079
 20
3414665.7079432532
 30
0.02
  0
VERTEX
  5
3CA
  8
WEI-JIN
 10
720039.63355086371
 20
3414657.3899207688
 30
0.02
  0
VERTEX
  5
3CB
  8
WEI-JIN
 10
720042.23162522935
 20
3414569.5796253029
 30
0.02
  0
VERTEX
  5
3CC
  8
WEI-JIN
 10
720076.96463185921
 20
3414571.761797708
 30
0.02
  0
VERTEX
  5
3CD
  8
WEI-JIN
 10
720078.70209408936
 20
3414547.733744368
 30
0.02
  0
SEQEND
  5
3CE
  8
WEI-JIN
  0
POLYLINE
  5
C3
  8
WEI-JIN
 66
     1
 10
0.0
 20
0.0
 30
0.06
 70
     1
1001
ADE
1011
-12.11070514656603
1021
-6.1299850861992212E+054
1031
-0.0
1021
-3.2082016835920499
1031
0.0
1001
IRD
1002
{
1000
TPMLINK_Unit_topology-_-ade
1070
   515
1071
        5
1004
0100440500002701000027010000000000006BAD18B068B075406BAD18B068B0754000000000D0010000
1002
}
1001
DCO15
1071
        5
1071
        5
1000
unitlink
1004
074332303700
1071
        4
1000
Link
1004
074332303700
  0
VERTEX
  5
3CF
  8
WEI-JIN
 10
719934.80042651913
 20
3414961.092441041
 30
0.06
  0
VERTEX
  5
3D0
  8
WEI-JIN
 10
719935.69196236494
 20
3414949.7733143619
 30
0.06
  0
VERTEX
  5
3D1
  8
WEI-JIN
 10
719934.57180330902
 20
3414932.8996247752
 30
0.06
  0
VERTEX
  5
3D2
  8
WEI-JIN
 10
719933.73689868639
 20
3414920.3229095661
 30
0.06
  0
VERTEX
  5
3D3
  8
WEI-JIN
 10
719929.62037560344
 20
3414902.4046170712
 30
0.06
  0
VERTEX
  5
3D4
  8
WEI-JIN
 10
719922.26628789306
 20
3414874.5904006958
 30
0.06
  0
VERTEX
  5
3D5
  8
WEI-JIN
 10
719924.55530856946
 20
3414862.369856426
 30
0.06
  0
VERTEX
  5
3D6
  8
WEI-JIN
 10
719922.68837681052
 20
3414858.650560345
 30
0.06
  0
VERTEX
  5
3D7
  8
WEI-JIN
 10
719902.3794061169
 20
3414855.3337854831
 30
0.06
  0
VERTEX
  5
3D8
  8
WEI-JIN
 10
719878.5476163663
 20
3414848.0884035039
 30
0.06
  0
VERTEX
  5
3D9
  8
WEI-JIN
 10
719870.67403460317
 20
3414848.0884035039
 30
0.06
  0
VERTEX
  5
3DA
  8
WEI-JIN
 10
719867.76811473432
 20
3414855.9536681632
 30
0.06
  0
VERTEX
  5
3DB
  8
WEI-JIN
 10
719863.41735202807
 20
3414875.8301660581
 30
0.06
  0
VERTEX
  5
3DC
  8
WEI-JIN
 10
719859.43997567135
 20
3414913.7154633799
 30
0.06
  0
VERTEX
  5
3DD
  8
WEI-JIN
 10
719853.53073080268
 20
3414925.1631669081
 30
0.06
  0
VERTEX
  5
3DE
  8
WEI-JIN
 10
719851.98848282546
 20
3414948.4530447558
 30
0.06
  0
VERTEX
  5
3DF
  8
WEI-JIN
 10
719876.04755122936
 20
3414952.5426603621
 30
0.06
  0
VERTEX
  5
3E0
  8
WEI-JIN
 10
719901.48943359125
 20
3414956.867329855
 30
0.06
  0
VERTEX
  5
3E1
  8
WEI-JIN
 10
719925.88359640993
 20
3414961.0139055769
 30
0.06
  0
VERTEX
  5
3E2
  8
WEI-JIN
 10
719932.17207876954
 20
3414964.1354866321
 30
0.06
  0
SEQEND
  5
3E3
  8
WEI-JIN
  0
POLYLINE
  5
C4
  8
WEI-JIN
 66
     1
 10
0.0
 20
0.0
 30
0.02
 70
     1
1001
ADE
1011
-13.855880483752101
1021
-6.1299850861992212E+054
1031
-0.0
1021
1.638261369429528
1031
0.0
1001
IRD
1002
{
1000
TPMLINK_Unit_topology-_-ade
1070
   515
1071
        5
1004
0100450500003E0100003E010000000000007954DBE56D8870407954DBE56D887040D101000000000000
1002
}
1001
DCO15
1071
        5
1071
        5
1000
unitlink
1004
074332303600
1071
        4
1000
Link
1004
074332303600
  0
VERTEX
  5
3E4
  8
WEI-JIN
 10
719880.73923190683
 20
3414768.9044289039
 30
0.02
  0
VERTEX
  5
3E5
  8
WEI-JIN
 10
719901.45405733224
 20
3414769.934883229
 30
0.02
  0
VERTEX
  5
3E6
  8
WEI-JIN
 10
719920.18094022246
 20
3414770.8664477998
 30
0.02
  0
VERTEX
  5
3E7
  8
WEI-JIN
 10
719940.48104817793
 20
3414776.4879287081
 30
0.02
  0
VERTEX
  5
3E8
  8
WEI-JIN
 10
719948.07864872739
 20
3414794.4323247401
 30
0.02
  0
VERTEX
  5
3E9
  8
WEI-JIN
 10
719943.24086034298
 20
3414814.091461177
 30
0.02
  0
VERTEX
  5
3EA
  8
WEI-JIN
 10
719935.64325979725
 20
3414822.0291796541
 30
0.02
  0
VERTEX
  5
3EB
  8
WEI-JIN
 10
719924.94492911187
 20
3414833.4124797862
 30
0.02
  0
VERTEX
  5
3EC
  8
WEI-JIN
 10
719922.52603492164
 20
3414845.4881164161
 30
0.02
  0
VERTEX
  5
3ED
  8
WEI-JIN
 10
719903.53203355137
 20
3414845.4881164161
 30
0.02
  0
VERTEX
  5
3EE
  8
WEI-JIN
 10
719871.76172527671
 20
3414841.3421478388
 30
0.02
  0
VERTEX
  5
3EF
  8
WEI-JIN
 10
719870.72273716703
 20
3414823.0596339819
 30
0.02
  0
VERTEX
  5
3F0
  8
WEI-JIN
 10
719878.6612556912
 20
3414802.0158245461
 30
0.02
  0
VERTEX
  5
3F1
  8
WEI-JIN
 10
719878.6612556912
 20
3414787.1869427632
 30
0.02
  0
VERTEX
  5
3F2
  8
WEI-JIN
 10
719881.45353623107
 20
3414775.465524808
 30
0.02
  0
VERTEX
  5
3F3
  8
WEI-JIN
 10
719880.73923190683
 20
3414768.9044289039
 30
0.02
  0
SEQEND
  5
3F4
  8
WEI-JIN
  0
POLYLINE
  5
C5
  8
WEI-JIN
 66
     1
 10
0.0
 20
0.0
 30
0.0555555555555556
 70
     1
1001
ADE
1011
-14.854283122112969
1021
-6.1299850861992212E+054
1031
-0.0
1021
-0.7889415938407183
1031
0.0
1001
IRD
1002
{
1000
TPMLINK_Unit_topology-_-ade
1070
   515
1071
        5
1004
0100490500006A0100006A0100000000000062A0481E1E9F714062A0481E1E9F7140D701000000000000
1002
}
1001
DCO15
1071
        5
1071
        5
1000
unitlink
1004
074332313100
1071
        4
1000
Link
1004
074332313100
  0
VERTEX
  5
3F5
  8
WEI-JIN
 10
719915.99989086017
 20
3414523.4308874719
 30
0.0555555555555556
  0
VERTEX
  5
3F6
  8
WEI-JIN
 10
719916.34080883127
 20
3414502.6205403451
 30
0.0555555555555556
  0
VERTEX
  5
3F7
  8
WEI-JIN
 10
719922.78578194603
 20
3414484.6278417651
 30
0.0555555555555556
  0
VERTEX
  5
3F8
  8
WEI-JIN
 10
719924.13321965176
 20
3414468.7765560788
 30
0.0555555555555556
  0
VERTEX
  5
3F9
  8
WEI-JIN
 10
719928.43527979031
 20
3414460.718081235
 30
0.0555555555555556
  0
VERTEX
  5
3FA
  8
WEI-JIN
 10
719993.51814430952
 20
3414474.6855676039
 30
0.0555555555555556
  0
VERTEX
  5
3FB
  8
WEI-JIN
 10
719995.12532903999
 20
3414495.1014439352
 30
0.0555555555555556
  0
VERTEX
  5
3FC
  8
WEI-JIN
 10
719994.9142845833
 20
3414525.0329219289
 30
0.0555555555555556
  0
VERTEX
  5
3FD
  8
WEI-JIN
 10
719991.06678174075
 20
3414540.248224088
 30
0.0555555555555556
  0
VERTEX
  5
3FE
  8
WEI-JIN
 10
719986.42380362737
 20
3414546.6000089529
 30
0.0555555555555556
  0
VERTEX
  5
3FF
  8
WEI-JIN
 10
719972.25135645282
 20
3414543.1624777252
 30
0.0555555555555556
  0
VERTEX
  5
400
  8
WEI-JIN
 10
719961.41875157121
 20
3414540.5350262281
 30
0.0555555555555556
  0
VERTEX
  5
401
  8
WEI-JIN
 10
719951.03327116359
 20
3414538.8393998118
 30
0.0555555555555556
  0
VERTEX
  5
402
  8
WEI-JIN
 10
719938.92283478752
 20
3414536.8621416572
 30
0.0555555555555556
  0
VERTEX
  5
403
  8
WEI-JIN
 10
719932.80227668595
 20
3414533.445615449
 30
0.0555555555555556
  0
VERTEX
  5
404
  8
WEI-JIN
 10
719917.70448072627
 20
3414527.9632764189
 30
0.0555555555555556
  0
VERTEX
  5
405
  8
WEI-JIN
 10
719915.99989086017
 20
3414523.4308874719
 30
0.0555555555555556
  0
SEQEND
  5
406
  8
WEI-JIN
  0
POLYLINE
  5
C6
  8
WEI-JIN
 66
     1
 10
0.0
 20
0.0
 30
0.0096153846153846
 70
     1
1001
ADE
1011
-23.457518509705562
1021
-6.1299850861992212E+054
1031
-0.0
1021
0.1247815787792206
1031
0.0
1001
IRD
1002
{
1000
TPMLINK_Unit_topology-_-ade
1070
   515
1071
        5
1004
01004A050000970100009701000000000000A741868B10D67840A741868B10D67840D801000000000000
1002
}
1001
DCO15
1071
        5
1071
        5
1000
unitlink
1004
074332313200
1071
        4
1000
Link
1004
074332313200
  0
VERTEX
  5
407
  8
WEI-JIN
 10
719994.63830336556
 20
3414370.2635124451
 30
0.0096153846153846
  0
VERTEX
  5
408
  8
WEI-JIN
 10
720085.20884493354
 20
3414378.30588644
 30
0.0096153846153846
  0
VERTEX
  5
409
  8
WEI-JIN
 10
720086.71862453222
 20
3414403.9464882212
 30
0.0096153846153846
  0
VERTEX
  5
40A
  8
WEI-JIN
 10
720084.62441412359
 20
3414440.398809996
 30
0.0096153846153846
  0
VERTEX
  5
40B
  8
WEI-JIN
 10
720083.54073830519
 20
3414459.2615276431
 30
0.0096153846153846
  0
VERTEX
  5
40C
  8
WEI-JIN
 10
720077.20538965613
 20
3414479.9183434779
 30
0.0096153846153846
  0
VERTEX
  5
40D
  8
WEI-JIN
 10
720056.0035385564
 20
3414478.8556874529
 30
0.0096153846153846
  0
VERTEX
  5
40E
  8
WEI-JIN
 10
720041.52264178544
 20
3414477.6722750631
 30
0.0096153846153846
  0
VERTEX
  5
40F
  8
WEI-JIN
 10
720023.71373622864
 20
3414472.3589949468
 30
0.0096153846153846
  0
VERTEX
  5
410
  8
WEI-JIN
 10
720007.87941683515
 20
3414467.6348318518
 30
0.0096153846153846
  0
VERTEX
  5
411
  8
WEI-JIN
 10
719989.15330122737
 20
3414462.0479024691
 30
0.0096153846153846
  0
VERTEX
  5
412
  8
WEI-JIN
 10
719972.08901455998
 20
3414456.2581461049
 30
0.0096153846153846
  0
VERTEX
  5
413
  8
WEI-JIN
 10
719966.42151274346
 20
3414454.3352145832
 30
0.0096153846153846
  0
VERTEX
  5
414
  8
WEI-JIN
 10
719972.86825564096
 20
3414429.5065857559
 30
0.0096153846153846
  0
VERTEX
  5
415
  8
WEI-JIN
 10
719982.2678511925
 20
3414407.6013809079
 30
0.0096153846153846
  0
VERTEX
  5
416
  8
WEI-JIN
 10
719988.32809395227
 20
3414393.4783414281
 30
0.0096153846153846
  0
VERTEX
  5
417
  8
WEI-JIN
 10
719990.54728768405
 20
3414377.1788270222
 30
0.0096153846153846
  0
VERTEX
  5
418
  8
WEI-JIN
 10
719994.63830336556
 20
3414370.2635124451
 30
0.0096153846153846
  0
SEQEND
  5
419
  8
WEI-JIN
  0
POLYLINE
  5
C7
  8
WEI-JIN
 66
     1
 10
0.0
 20
0.0
 30
0.0326086956521739
 70
     1
1001
ADE
1011
-20.326109336339869
1021
-6.1299850861992212E+054
1031
-0.0
1021
5.642672277055679
1031
0.0
1001
IRD
1002
{
1000
TPMLINK_Unit_topology-_-ade
1070
   515
1071
        5
1004
01004C050000B4010000B401000000000000A7C77401C6EC7B40A7C77401C6EC7B40DA01000000000000
1002
}
1001
DCO15
1071
        5
1071
        5
1000
unitlink
1004
074332313400
1071
        4
1000
Link
1004
074332313400
  0
VERTEX
  5
41A
  8
WEI-JIN
 10
720182.87372718763
 20
3414191.004711871
 30
0.0326086956521739
  0
VERTEX
  5
41B
  8
WEI-JIN
 10
720195.68250247091
 20
3414221.6446272158
 30
0.0326086956521739
  0
VERTEX
  5
41C
  8
WEI-JIN
 10
720201.00731652987
 20
3414247.9051116752
 30
0.0326086956521739
  0
VERTEX
  5
41D
  8
WEI-JIN
 10
720203.82122624549
 20
3414261.7825225182
 30
0.0326086956521739
  0
VERTEX
  5
41E
  8
WEI-JIN
 10
720205.34262923908
 20
3414269.2856539371
 30
0.0326086956521739
  0
VERTEX
  5
41F
  8
WEI-JIN
 10
720158.18152540934
 20
3414283.3350295508
 30
0.0326086956521739
  0
VERTEX
  5
420
  8
WEI-JIN
 10
720134.32168862922
 20
3414290.44291681
 30
0.0326086956521739
  0
VERTEX
  5
421
  8
WEI-JIN
 10
720110.16079374403
 20
3414299.8947525839
 30
0.0326086956521739
  0
VERTEX
  5
422
  8
WEI-JIN
 10
720086.94590318203
 20
3414307.880773609
 30
0.0326086956521739
  0
VERTEX
  5
423
  8
WEI-JIN
 10
720074.9600983964
 20
3414312.0039413981
 30
0.0326086956521739
  0
VERTEX
  5
424
  8
WEI-JIN
 10
720065.80898883555
 20
3414306.1499323598
 30
0.0326086956521739
  0
VERTEX
  5
425
  8
WEI-JIN
 10
720062.35110653564
 20
3414290.9265797799
 30
0.0326086956521739
  0
VERTEX
  5
426
  8
WEI-JIN
 10
720058.65302925324
 20
3414274.6457670019
 30
0.0326086956521739
  0
VERTEX
  5
427
  8
WEI-JIN
 10
720051.53913652548
 20
3414255.9957882199
 30
0.0326086956521739
  0
VERTEX
  5
428
  8
WEI-JIN
 10
720049.41245774168
 20
3414246.5606907969
 30
0.0326086956521739
  0
VERTEX
  5
429
  8
WEI-JIN
 10
720047.38420880132
 20
3414237.5622814
 30
0.0326086956521739
  0
VERTEX
  5
42A
  8
WEI-JIN
 10
720052.48071949941
 20
3414230.2666317699
 30
0.0326086956521739
  0
VERTEX
  5
42B
  8
WEI-JIN
 10
720077.28656060249
 20
3414220.1794499708
 30
0.0326086956521739
  0
VERTEX
  5
42C
  8
WEI-JIN
 10
720090.82587439951
 20
3414216.8385238382
 30
0.0326086956521739
  0
VERTEX
  5
42D
  8
WEI-JIN
 10
720106.4756327942
 20
3414210.1969236908
 30
0.0326086956521739
  0
VERTEX
  5
42E
  8
WEI-JIN
 10
720128.86257970706
 20
3414202.8710374678
 30
0.0326086956521739
  0
VERTEX
  5
42F
  8
WEI-JIN
 10
720143.06041386526
 20
3414198.2249498139
 30
0.0326086956521739
  0
VERTEX
  5
430
  8
WEI-JIN
 10
720155.84380216151
 20
3414196.7768661832
 30
0.0326086956521739
  0
VERTEX
  5
431
  8
WEI-JIN
 10
720172.9221692048
 20
3414193.9914193312
 30
0.0326086956521739
  0
VERTEX
  5
432
  8
WEI-JIN
 10
720182.87372718763
 20
3414191.004711871
 30
0.0326086956521739
  0
SEQEND
  5
433
  8
WEI-JIN
  0
POLYLINE
  5
C8
  8
WEI-JIN
 66
     1
 10
0.0
 20
0.0
 30
0.03125
 70
     1
1001
DCO15
1071
        4
1071
        4
1000
unitlink
1004
074132353400
1071
        3
1000
Link
1004
074132353400
1001
ADE
1011
-24.378562266123481
1021
-6.1299850861992212E+054
1031
-0.0
1021
9.7789249308407271
1031
0.0
1001
IRD
1002
{
1000
TPMLINK_Unit_topology-_-ade
1070
   515
1071
        2
1004
01009A030000AE010000AE01000000000000C521B8D0C71D7040C521B8D0C71D70408303000000000000
1002
}
  0
VERTEX
  5
434
  8
WEI-JIN
 10
720612.12427385058
 20
3414245.4291283251
 30
0.03125
  0
VERTEX
  5
435
  8
WEI-JIN
 10
720604.49562187318
 20
3414310.069403606
 30
0.03125
  0
VERTEX
  5
436
  8
WEI-JIN
 10
720528.20887725975
 20
3414299.4617650681
 30
0.03125
  0
VERTEX
  5
437
  8
WEI-JIN
 10
720528.20887725975
 20
3414271.6167484368
 30
0.03125
  0
VERTEX
  5
438
  8
WEI-JIN
 10
720612.12427385058
 20
3414245.4291283251
 30
0.03125
  0
SEQEND
  5
439
  8
WEI-JIN
  0
POLYLINE
  5
C9
  8
WEI-JIN
 66
     1
 10
0.0
 20
0.0
 30
0.06
 70
     1
1001
ADE
1011
-2.514870093087664
1021
-6.1299850861992212E+054
1031
-0.0
1021
-9.6994743393734062
1031
0.0
1001
IRD
1002
{
1000
TPMLINK_Unit_topology-_-ade
1070
   515
1071
        5
1004
0100AA03000001000000010000000000000053C2EB9DC94C764053C2EB9DC94C76400000000072030000
1002
}
1001
DCO15
1071
        5
1071
        5
1000
unitlink
1004
0743343900
1071
        4
1000
Link
1004
0743343900
  0
VERTEX
  5
43A
  8
WEI-JIN
 10
727935.29260569066
 20
3423794.593125009
 30
0.06
  0
VERTEX
  5
43B
  8
WEI-JIN
 10
727983.05239314574
 20
3423777.249320454
 30
0.06
  0
VERTEX
  5
43C
  8
WEI-JIN
 10
727991.7331724317
 20
3423732.6406038189
 30
0.06
  0
VERTEX
  5
43D
  8
WEI-JIN
 10
727984.2925044708
 20
3423702.909518783
 30
0.06
  0
VERTEX
  5
43E
  8
WEI-JIN
 10
727964.45072324958
 20
3423688.0399465719
 30
0.06
  0
VERTEX
  5
43F
  8
WEI-JIN
 10
727921.03132543701
 20
3423689.901665369
 30
0.06
  0
VERTEX
  5
440
  8
WEI-JIN
 10
727881.06052586553
 20
3423691.61551661
 30
0.06
  0
VERTEX
  5
441
  8
WEI-JIN
 10
727893.73337486782
 20
3423733.8817496831
 30
0.06
  0
VERTEX
  5
442
  8
WEI-JIN
 10
727905.23880290345
 20
3423772.2544236481
 30
0.06
  0
VERTEX
  5
443
  8
WEI-JIN
 10
727935.29260569066
 20
3423794.593125009
 30
0.06
  0
SEQEND
  5
444
  8
WEI-JIN
  0
POLYLINE
  5
CA
  8
WEI-JIN
 66
     1
 10
0.0
 20
0.0
 30
0.0608582574772432
 70
     1
1001
ADE
1011
-23.93414859869517
1021
-6.1299850861992212E+054
1031
-0.0
1021
0.1893956353887915
1031
0.0
1001
IRD
1002
{
1000
TPMLINK_Unit_topology-_-ade
1070
   515
1071
        5
1004
0100F1030000110000001100000000000000F47D7C940D826740F47D7C940D8267401703000000000000
1002
}
1001
DCO15
1071
        5
1071
        5
1000
unitlink
1004
074133373900
1071
        4
1000
Link
1004
074133373900
  0
VERTEX
  5
445
  8
WEI-JIN
 10
726856.8142893574
 20
3422815.2323249811
 30
0.0608582574772432
  0
VERTEX
  5
446
  8
WEI-JIN
 10
726854.98512515065
 20
3422790.9735648958
 30
0.0608582574772432
  0
VERTEX
  5
447
  8
WEI-JIN
 10
726855.24864880764
 20
3422777.7078110431
 30
0.0608582574772432
  0
VERTEX
  5
448
  8
WEI-JIN
 10
726882.01955206285
 20
3422775.5237166951
 30
0.0608582574772432
  0
VERTEX
  5
449
  8
WEI-JIN
 10
726909.5965276846
 20
3422777.143653831
 30
0.0608582574772432
  0
VERTEX
  5
44A
  8
WEI-JIN
 10
726916.89768311777
 20
3422810.179088247
 30
0.0608582574772432
  0
VERTEX
  5
44B
  8
WEI-JIN
 10
726882.19006736961
 20
3422814.0475948388
 30
0.0608582574772432
  0
VERTEX
  5
44C
  8
WEI-JIN
 10
726872.16066702094
 20
3422819.342613236
 30
0.0608582574772432
  0
VERTEX
  5
44D
  8
WEI-JIN
 10
726856.8142893574
 20
3422815.2323249811
 30
0.0608582574772432
  0
SEQEND
  5
44E
  8
WEI-JIN
  0
POLYLINE
  5
CB
  8
WEI-JIN
 66
     1
 10
0.0
 20
0.0
 30
0.3
 70
     1
1001
ADE
1011
-15.08285400632303
1021
-6.1299850861992212E+054
1031
-0.0
1021
-7.579855102580038
1031
0.0
1001
IRD
1002
{
1000
TPMLINK_Unit_topology-_-ade
1070
   515
1071
        5
1004
01000A04000036000000360000000000000059882713CDF3654059882713CDF365400703000000000000
1002
}
1001
DCO15
1071
        5
1071
        5
1000
unitlink
1004
074133373000
1071
        4
1000
Link
1004
074133373000
  0
VERTEX
  5
44F
  8
WEI-JIN
 10
726822.94374875713
 20
3422536.8126818212
 30
0.3
  0
VERTEX
  5
450
  8
WEI-JIN
 10
726857.46534780436
 20
3422546.0890382519
 30
0.3
  0
VERTEX
  5
451
  8
WEI-JIN
 10
726869.58743601653
 20
3422553.6487448839
 30
0.3
  0
VERTEX
  5
452
  8
WEI-JIN
 10
726872.28467815369
 20
3422560.4831065279
 30
0.3
  0
VERTEX
  5
453
  8
WEI-JIN
 10
726860.6896372512
 20
3422591.6890597041
 30
0.3
  0
VERTEX
  5
454
  8
WEI-JIN
 10
726838.2436222434
 20
3422585.096479719
 30
0.3
  0
VERTEX
  5
455
  8
WEI-JIN
 10
726819.54894400015
 20
3422571.9113197522
 30
0.3
  0
VERTEX
  5
456
  8
WEI-JIN
 10
726814.92952930916
 20
3422563.336130139
 30
0.3
  0
VERTEX
  5
457
  8
WEI-JIN
 10
726819.09940364584
 20
3422539.383626827
 30
0.3
  0
VERTEX
  5
458
  8
WEI-JIN
 10
726822.94374875713
 20
3422536.8126818212
 30
0.3
  0
SEQEND
  5
459
  8
WEI-JIN
  0
POLYLINE
  5
CC
  8
WEI-JIN
 66
     1
 10
0.0
 20
0.0
 30
0.04
 70
     1
1001
ADE
1011
-19.475968685583211
1021
-6.1299850861992212E+054
1031
-0.0
1021
-5.8309677466750127
1031
0.0
1001
IRD
1002
{
1000
TPMLINK_Unit_topology-_-ade
1070
   515
1071
        5
1004
0100490400000A0000000A00000000000000AB95981026367B40AB95981026367B40BA02000000000000
1002
}
1001
DCO15
1071
        5
1071
        5
1000
unitlink
1004
0743323900
1071
        4
1000
Link
1004
0743323900
  0
VERTEX
  5
45A
  8
WEI-JIN
 10
727073.46173806465
 20
3422911.3082980649
 30
0.04
  0
VERTEX
  5
45B
  8
WEI-JIN
 10
727118.36926947173
 20
3422925.500881623
 30
0.04
  0
VERTEX
  5
45C
  8
WEI-JIN
 10
727147.93042321166
 20
3422951.0572032961
 30
0.04
  0
VERTEX
  5
45D
  8
WEI-JIN
 10
727155.89813848201
 20
3422974.9049345539
 30
0.04
  0
VERTEX
  5
45E
  8
WEI-JIN
 10
727153.04588243365
 20
3422997.0440754062
 30
0.04
  0
VERTEX
  5
45F
  8
WEI-JIN
 10
727139.97820933175
 20
3423027.7100495319
 30
0.04
  0
VERTEX
  5
460
  8
WEI-JIN
 10
727124.63183166832
 20
3423040.2021020679
 30
0.04
  0
VERTEX
  5
461
  8
WEI-JIN
 10
727100.18613714725
 20
3423043.0390069019
 30
0.04
  0
VERTEX
  5
462
  8
WEI-JIN
 10
727051.29474810907
 20
3423031.6833281768
 30
0.04
  0
VERTEX
  5
463
  8
WEI-JIN
 10
727019.12630091375
 20
3423024.2117762621
 30
0.04
  0
VERTEX
  5
464
  8
WEI-JIN
 10
727023.99679753545
 20
3422964.1134130419
 30
0.04
  0
VERTEX
  5
465
  8
WEI-JIN
 10
727037.07997202885
 20
3422924.3645078121
 30
0.04
  0
VERTEX
  5
466
  8
WEI-JIN
 10
727073.46173806465
 20
3422911.3082980649
 30
0.04
  0
SEQEND
  5
467
  8
WEI-JIN
  0
POLYLINE
  5
CD
  8
WEI-JIN
 66
     1
 10
0.0
 20
0.0
 30
0.06
 70
     1
1001
ADE
1011
-5.7122627942590043
1021
-6.1299850861992212E+054
1031
-0.0
1021
6.0445415512658638
1031
0.0
1001
IRD
1002
{
1000
TPMLINK_Unit_topology-_-ade
1070
   515
1071
        5
1004
01006F040000BF000000BF00000000000000C8DBD6DA50EF7040C8DBD6DA50EF7040AB02000000000000
1002
}
1001
DCO15
1071
        5
1071
        5
1000
unitlink
1004
0741313200
1071
        4
1000
Link
1004
0741313200
  0
VERTEX
  5
468
  8
WEI-JIN
 10
726165.80875693262
 20
3421634.685004022
 30
0.06
  0
VERTEX
  5
469
  8
WEI-JIN
 10
726202.2215257549
 20
3421563.6656705081
 30
0.06
  0
VERTEX
  5
46A
  8
WEI-JIN
 10
726239.51787389058
 20
3421597.0154210851
 30
0.06
  0
VERTEX
  5
46B
  8
WEI-JIN
 10
726218.69950500142
 20
3421671.0650847601
 30
0.06
  0
VERTEX
  5
46C
  8
WEI-JIN
 10
726165.80875693262
 20
3421634.685004022
 30
0.06
  0
SEQEND
  5
46D
  8
WEI-JIN
  0
POLYLINE
  5
CE
  8
WEI-JIN
 66
     1
 10
0.0
 20
0.0
 30
0.06
 70
     1
1001
ADE
1011
-13.1916842330247
1021
-6.1299850861992212E+054
1031
-0.0
1021
2.9497362757101642
1031
0.0
1001
IRD
1002
{
1000
TPMLINK_Unit_topology-_-ade
1070
   515
1071
        5
1004
010070040000C1000000C1000000000000000EB50D966F3675400EB50D966F36754000000000AA020000
1002
}
1001
DCO15
1071
        5
1071
        5
1000
unitlink
1004
0741313300
1071
        4
1000
Link
1004
0741313300
  0
VERTEX
  5
46E
  8
WEI-JIN
 10
726082.13224519067
 20
3421595.9677005499
 30
0.06
  0
VERTEX
  5
46F
  8
WEI-JIN
 10
726157.53101383185
 20
3421633.3149079359
 30
0.06
  0
VERTEX
  5
470
  8
WEI-JIN
 10
726191.82009200391
 20
3421562.3600495341
 30
0.06
  0
VERTEX
  5
471
  8
WEI-JIN
 10
726119.52160167706
 20
3421514.4228053521
 30
0.06
  0
VERTEX
  5
472
  8
WEI-JIN
 10
726082.13224519067
 20
3421595.9677005499
 30
0.06
  0
SEQEND
  5
473
  8
WEI-JIN
  0
POLYLINE
  5
CF
  8
WEI-JIN
 66
     1
 10
0.0
 20
0.0
 30
0.12
 70
     1
1001
ADE
1011
-23.717129116994329
1021
-6.1299850861992212E+054
1031
-0.0
1021
-2.2808070108294469
1031
0.0
1001
IRD
1002
{
1000
TPMLINK_Unit_topology-_-ade
1070
   515
1071
        5
1004
010074040000B8000000B80000000000000034F0EEDE6326734034F0EEDE6326734000000000A5020000
1002
}
1001
DCO15
1071
        5
1071
        5
1000
unitlink
1004
07413500
1071
        4
1000
Link
1004
07413500
  0
VERTEX
  5
474
  8
WEI-JIN
 10
725613.72669584304
 20
3421795.1877306341
 30
0.12
  0
VERTEX
  5
475
  8
WEI-JIN
 10
725663.03662245732
 20
3421825.8537047608
 30
0.12
  0
VERTEX
  5
476
  8
WEI-JIN
 10
725674.67816753325
 20
3421823.06515626
 30
0.12
  0
VERTEX
  5
477
  8
WEI-JIN
 10
725685.83916946885
 20
3421796.5820048852
 30
0.12
  0
VERTEX
  5
478
  8
WEI-JIN
 10
725684.9090859741
 20
3421770.09079412
 30
0.12
  0
VERTEX
  5
479
  8
WEI-JIN
 10
725690.95462869119
 20
3421752.9001179538
 30
0.12
  0
VERTEX
  5
47A
  8
WEI-JIN
 10
725637.89336531633
 20
3421718.9056162802
 30
0.12
  0
VERTEX
  5
47B
  8
WEI-JIN
 10
725619.16768428695
 20
3421730.6078487178
 30
0.12
  0
VERTEX
  5
47C
  8
WEI-JIN
 10
725603.05798808415
 20
3421740.675274794
 30
0.12
  0
VERTEX
  5
47D
  8
WEI-JIN
 10
725599.83744898811
 20
3421773.886766213
 30
0.12
  0
VERTEX
  5
47E
  8
WEI-JIN
 10
725613.72669584304
 20
3421795.1877306341
 30
0.12
  0
SEQEND
  5
47F
  8
WEI-JIN
  0
POLYLINE
  5
D0
  8
WEI-JIN
 66
     1
 10
0.0
 20
0.0
 30
0.1166666666666667
 70
     1
1001
ADE
1011
-17.30489823280368
1021
-6.1299850861992212E+054
1031
-0.0
1021
5.2708402308635396
1031
0.0
1001
IRD
1002
{
1000
TPMLINK_Unit_topology-_-ade
1070
   515
1071
        5
1004
010075040000BB000000BB00000000000000132D1E07EC117A40132D1E07EC117A40A602000000000000
1002
}
1001
DCO15
1071
        5
1071
        5
1000
unitlink
1004
07413600
1071
        4
1000
Link
1004
07413600
  0
VERTEX
  5
480
  8
WEI-JIN
 10
725707.55661907059
 20
3421760.9836848518
 30
0.1166666666666667
  0
VERTEX
  5
481
  8
WEI-JIN
 10
725747.47270238749
 20
3421781.34170079
 30
0.1166666666666667
  0
VERTEX
  5
482
  8
WEI-JIN
 10
725795.88354828942
 20
3421823.7502043019
 30
0.1166666666666667
  0
VERTEX
  5
483
  8
WEI-JIN
 10
725808.72939097625
 20
3421835.003322369
 30
0.1166666666666667
  0
VERTEX
  5
484
  8
WEI-JIN
 10
725769.54668399715
 20
3421901.7812060132
 30
0.1166666666666667
  0
VERTEX
  5
485
  8
WEI-JIN
 10
725668.49311229226
 20
3421837.322214928
 30
0.1166666666666667
  0
VERTEX
  5
486
  8
WEI-JIN
 10
725682.78539532796
 20
3421834.6464978689
 30
0.1166666666666667
  0
VERTEX
  5
487
  8
WEI-JIN
 10
725691.15614677954
 20
3421821.2759719612
 30
0.1166666666666667
  0
VERTEX
  5
488
  8
WEI-JIN
 10
725695.34152250737
 20
3421802.473418049
 30
0.1166666666666667
  0
VERTEX
  5
489
  8
WEI-JIN
 10
725705.37092285976
 20
3421782.8326877072
 30
0.1166666666666667
  0
VERTEX
  5
48A
  8
WEI-JIN
 10
725707.55661907059
 20
3421760.9836848518
 30
0.1166666666666667
  0
SEQEND
  5
48B
  8
WEI-JIN
  0
POLYLINE
  5
D1
  8
WEI-JIN
 66
     1
 10
0.0
 20
0.0
 30
0.06
 70
     1
1001
ADE
1011
-23.73263050802052
1021
-6.1299850861992212E+054
1031
-0.0
1021
-6.302441990002988
1031
0.0
1001
IRD
1002
{
1000
TPMLINK_Unit_topology-_-ade
1070
   515
1071
        5
1004
010076040000A8000000A800000000000000FBA091FE17897340FBA091FE1789734000000000AC020000
1002
}
1001
DCO15
1071
        5
1071
        5
1000
unitlink
1004
07413700
1071
        4
1000
Link
1004
07413700
  0
VERTEX
  5
48C
  8
WEI-JIN
 10
725757.51760413125
 20
3422007.4156141318
 30
0.06
  0
VERTEX
  5
48D
  8
WEI-JIN
 10
725797.2321693562
 20
3422028.7246379419
 30
0.06
  0
VERTEX
  5
48E
  8
WEI-JIN
 10
725829.90910280496
 20
3422037.2353524449
 30
0.06
  0
VERTEX
  5
48F
  8
WEI-JIN
 10
725856.43198379874
 20
3421988.99185149
 30
0.06
  0
VERTEX
  5
490
  8
WEI-JIN
 10
725772.1354163884
 20
3421944.53626324
 30
0.06
  0
VERTEX
  5
491
  8
WEI-JIN
 10
725737.56731316785
 20
3421988.0489030089
 30
0.06
  0
VERTEX
  5
492
  8
WEI-JIN
 10
725757.51760413125
 20
3422007.4156141318
 30
0.06
  0
SEQEND
  5
493
  8
WEI-JIN
  0
POLYLINE
  5
D2
  8
WEI-JIN
 66
     1
 10
0.0
 20
0.0
 30
0.078125
 70
     1
1001
ADE
1011
-26.735783085343432
1021
-6.1299850861992212E+054
1031
-0.0
1021
-4.9284556447528303
1031
0.0
1001
IRD
1002
{
1000
TPMLINK_Unit_topology-_-ade
1070
   515
1071
        5
1004
01007C040000FE000000FE000000000000000C61454EF13576400C61454EF1357640000000009A020000
1002
}
1001
DCO15
1071
        5
1071
        5
1000
unitlink
1004
074331343200
1071
        4
1000
Link
1004
074331343200
  0
VERTEX
  5
494
  8
WEI-JIN
 10
721072.8930785805
 20
3415271.4549425058
 30
0.078125
  0
VERTEX
  5
495
  8
WEI-JIN
 10
721072.8930785805
 20
3415366.4823514419
 30
0.078125
  0
VERTEX
  5
496
  8
WEI-JIN
 10
721158.67912120384
 20
3415375.0522773508
 30
0.078125
  0
VERTEX
  5
497
  8
WEI-JIN
 10
721155.55840852496
 20
3415284.6939316569
 30
0.078125
  0
VERTEX
  5
498
  8
WEI-JIN
 10
721072.8930785805
 20
3415271.4549425058
 30
0.078125
  0
SEQEND
  5
499
  8
WEI-JIN
  0
POLYLINE
  5
D3
  8
WEI-JIN
 66
     1
 10
0.0
 20
0.0
 30
0.0075
 70
     1
1001
ADE
1011
-27.22234581597149
1021
-6.1299850861992212E+054
1031
-0.0
1021
1.6261908300220951
1031
0.0
1001
IRD
1002
{
1000
TPMLINK_Unit_topology-_-ade
1070
   515
1071
        5
1004
01007F04000009010000090100000000000030C53A13811F764030C53A13811F7640000000008A020000
1002
}
1001
DCO15
1071
        5
1071
        5
1000
unitlink
1004
074332363200
1071
        4
1000
Link
1004
074332363200
  0
VERTEX
  5
49A
  8
WEI-JIN
 10
720969.50688757375
 20
3415143.2153294361
 30
0.0075
  0
VERTEX
  5
49B
  8
WEI-JIN
 10
721063.68194277235
 20
3415151.4859564202
 30
0.0075
  0
VERTEX
  5
49C
  8
WEI-JIN
 10
721063.90005709964
 20
3415067.4927012119
 30
0.0075
  0
VERTEX
  5
49D
  8
WEI-JIN
 10
720967.00696182624
 20
3415064.7491277261
 30
0.0075
  0
VERTEX
  5
49E
  8
WEI-JIN
 10
720969.50688757375
 20
3415143.2153294361
 30
0.0075
  0
SEQEND
  5
49F
  8
WEI-JIN
  0
POLYLINE
  5
D4
  8
WEI-JIN
 66
     1
 10
0.0
 20
0.0
 30
0.03
 70
     1
1001
ADE
1011
-9.6878101099282503
1021
-6.1299850861992212E+054
1031
-0.0
1021
10.48543903371319
1031
0.0
1001
IRD
1002
{
1000
TPMLINK_Unit_topology-_-ade
1070
   515
1071
        5
1004
0100810400000C0100000C01000000000000682D72E518907A40682D72E518907A400000000097020000
1002
}
1001
DCO15
1071
        5
1071
        5
1000
unitlink
1004
074331323000
1071
        4
1000
Link
1004
074331323000
  0
VERTEX
  5
4A0
  8
WEI-JIN
 10
721593.22997273167
 20
3415124.3994036349
 30
0.03
  0
VERTEX
  5
4A1
  8
WEI-JIN
 10
721583.42860720342
 20
3415170.60487996
 30
0.03
  0
VERTEX
  5
4A2
  8
WEI-JIN
 10
721588.78379606467
 20
3415229.642882573
 30
0.03
  0
VERTEX
  5
4A3
  8
WEI-JIN
 10
721697.97518377751
 20
3415232.5660354141
 30
0.03
  0
VERTEX
  5
4A4
  8
WEI-JIN
 10
721704.25016518694
 20
3415204.1525907279
 30
0.03
  0
VERTEX
  5
4A5
  8
WEI-JIN
 10
721703.41126392793
 20
3415182.8524838421
 30
0.03
  0
VERTEX
  5
4A6
  8
WEI-JIN
 10
721708.00844282273
 20
3415147.3356779818
 30
0.03
  0
VERTEX
  5
4A7
  8
WEI-JIN
 10
721690.44185048353
 20
3415128.5297288122
 30
0.03
  0
VERTEX
  5
4A8
  8
WEI-JIN
 10
721593.22997273167
 20
3415124.3994036349
 30
0.03
  0
SEQEND
  5
4A9
  8
WEI-JIN
  0
POLYLINE
  5
D5
  8
WEI-JIN
 66
     1
 10
0.0
 20
0.0
 30
0.0227272727272727
 70
     1
1001
ADE
1011
-12.33184848888777
1021
-6.1299850861992212E+054
1031
-0.0
1021
11.57788011245429
1031
0.0
1001
IRD
1002
{
1000
TPMLINK_Unit_topology-_-ade
1070
   515
1071
        5
1004
010083040000100100001001000000000000B16BBC67872D7440B16BBC67872D74409002000000000000
1002
}
1001
DCO15
1071
        5
1071
        5
1000
unitlink
1004
074332363700
1071
        4
1000
Link
1004
074332363700
  0
VERTEX
  5
4AA
  8
WEI-JIN
 10
721400.75246814662
 20
3415087.3062900999
 30
0.0227272727272727
  0
VERTEX
  5
4AB
  8
WEI-JIN
 10
721460.53257177758
 20
3415072.9000351368
 30
0.0227272727272727
  0
VERTEX
  5
4AC
  8
WEI-JIN
 10
721466.72366305825
 20
3415087.9946776298
 30
0.0227272727272727
  0
VERTEX
  5
4AD
  8
WEI-JIN
 10
721463.6365064308
 20
3415107.5488741142
 30
0.0227272727272727
  0
VERTEX
  5
4AE
  8
WEI-JIN
 10
721464.08951310825
 20
3415176.2080476899
 30
0.0227272727272727
  0
VERTEX
  5
4AF
  8
WEI-JIN
 10
721398.80621723062
 20
3415178.54257931
 30
0.0227272727272727
  0
VERTEX
  5
4B0
  8
WEI-JIN
 10
721400.75246814662
 20
3415087.3062900999
 30
0.0227272727272727
  0
SEQEND
  5
4B1
  8
WEI-JIN
  0
POLYLINE
  5
D6
  8
WEI-JIN
 66
     1
 10
0.0
 20
0.0
 30
0.06
 70
     1
1001
ADE
1011
-21.28292490739841
1021
-6.1299850861992212E+054
1031
-0.0
1021
-5.911153783556073
1031
0.0
1001
IRD
1002
{
1000
TPMLINK_Unit_topology-_-ade
1070
   515
1071
        5
1004
01008D0400001301000013010000000000007E7D5E1D52EE76407E7D5E1D52EE76408F02000000000000
1002
}
1001
DCO15
1071
        5
1071
        5
1000
unitlink
1004
074331333700
1071
        4
1000
Link
1004
074331333700
  0
VERTEX
  5
4B2
  8
WEI-JIN
 10
721322.13064226881
 20
3415080.1231158809
 30
0.06
  0
VERTEX
  5
4B3
  8
WEI-JIN
 10
721396.72574210924
 20
3415083.2258480792
 30
0.06
  0
VERTEX
  5
4B4
  8
WEI-JIN
 10
721395.09827366855
 20
3415191.5920124748
 30
0.06
  0
VERTEX
  5
4B5
  8
WEI-JIN
 10
721321.17429483309
 20
3415190.0356580601
 30
0.06
  0
VERTEX
  5
4B6
  8
WEI-JIN
 10
721322.13064226881
 20
3415080.1231158809
 30
0.06
  0
SEQEND
  5
4B7
  8
WEI-JIN
  0
POLYLINE
  5
D7
  8
WEI-JIN
 66
     1
 10
0.0
 20
0.0
 30
1.7
 70
     1
1001
ADE
1011
-16.70252404350321
1021
-6.1299850861992212E+054
1031
-0.0
1021
2.459239507559686
1031
0.0
1001
IRD
1002
{
1000
TPMLINK_Unit_topology-_-ade
1070
   515
1071
        5
1004
01008E040000170100001701000000000000841CC3C416E67540841CC3C416E675400000000091020000
1002
}
1001
DCO15
1071
        5
1071
        5
1000
unitlink
1004
074132323700
1071
        4
1000
Link
1004
074132323700
  0
VERTEX
  5
4B8
  8
WEI-JIN
 10
721415.04734557855
 20
3415063.9609738891
 30
1.7
  0
VERTEX
  5
4B9
  8
WEI-JIN
 10
721521.35291296605
 20
3415068.560200714
 30
1.7
  0
VERTEX
  5
4BA
  8
WEI-JIN
 10
721521.77236359555
 20
3414995.8205851172
 30
1.7
  0
VERTEX
  5
4BB
  8
WEI-JIN
 10
721419.22507384454
 20
3414995.4015666209
 30
1.7
  0
VERTEX
  5
4BC
  8
WEI-JIN
 10
721415.04734557855
 20
3415063.9609738891
 30
1.7
  0
SEQEND
  5
4BD
  8
WEI-JIN
  0
POLYLINE
  5
D8
  8
WEI-JIN
 66
     1
 10
0.0
 20
0.0
 30
0.01
 70
     1
1001
ADE
1011
-9.5131402631523052
1021
-6.1299850861992212E+054
1031
-0.0
1021
1.28199706505984
1031
0.0
1001
IRD
1002
{
1000
TPMLINK_Unit_topology-_-ade
1070
   515
1071
        5
1004
01008F040000050100000501000000000000ECF2D5BA62547440ECF2D5BA62547440000000008E020000
1002
}
1001
DCO15
1071
        5
1071
        5
1000
unitlink
1004
074331333800
1071
        4
1000
Link
1004
074331333800
  0
VERTEX
  5
4BE
  8
WEI-JIN
 10
721249.07882195583
 20
3415163.227957793
 30
0.01
  0
VERTEX
  5
4BF
  8
WEI-JIN
 10
721319.34549009067
 20
3415169.3840321819
 30
0.01
  0
VERTEX
  5
4C0
  8
WEI-JIN
 10
721318.47303278383
 20
3415079.2950555198
 30
0.01
  0
VERTEX
  5
4C1
  8
WEI-JIN
 10
721248.13955133024
 20
3415069.5877936929
 30
0.01
  0
VERTEX
  5
4C2
  8
WEI-JIN
 10
721249.07882195583
 20
3415163.227957793
 30
0.01
  0
SEQEND
  5
4C3
  8
WEI-JIN
  0
POLYLINE
  5
D9
  8
WEI-JIN
 66
     1
 10
0.0
 20
0.0
 30
0.0133333333333333
 70
     1
1001
ADE
1011
-16.543132804450579
1021
-6.1299850861992212E+054
1031
-0.0
1021
-3.2872998681850718
1031
0.0
1001
IRD
1002
{
1000
TPMLINK_Unit_topology-_-ade
1070
   515
1071
        5
1004
010090040000060100000601000000000000AA6287DE90A47640AA6287DE90A476408D02000000000000
1002
}
1001
DCO15
1071
        5
1071
        5
1000
unitlink
1004
074331333900
1071
        4
1000
Link
1004
074331333900
  0
VERTEX
  5
4C4
  8
WEI-JIN
 10
721152.89070252341
 20
3415158.6691306392
 30
0.0133333333333333
  0
VERTEX
  5
4C5
  8
WEI-JIN
 10
721156.78320435807
 20
3415070.395900792
 30
0.0133333333333333
  0
VERTEX
  5
4C6
  8
WEI-JIN
 10
721245.27050903055
 20
3415071.3736106162
 30
0.0133333333333333
  0
VERTEX
  5
4C7
  8
WEI-JIN
 10
721246.57919499266
 20
3415163.008965062
 30
0.0133333333333333
  0
VERTEX
  5
4C8
  8
WEI-JIN
 10
721152.89070252341
 20
3415158.6691306392
 30
0.0133333333333333
  0
SEQEND
  5
4C9
  8
WEI-JIN
  0
POLYLINE
  5
DA
  8
WEI-JIN
 66
     1
 10
0.0
 20
0.0
 30
0.037037037037037
 70
     1
1001
ADE
1011
-17.13036368240137
1021
-6.1299850861992212E+054
1031
-0.0
1021
-5.237731202505528
1031
0.0
1001
IRD
1002
{
1000
TPMLINK_Unit_topology-_-ade
1070
   515
1071
        5
1004
010091040000240100002401000000000000FD9105F6ED117640FD9105F6ED1176408C02000000000000
1002
}
1001
DCO15
1071
        5
1071
        5
1000
unitlink
1004
074331343000
1071
        4
1000
Link
1004
074331343000
  0
VERTEX
  5
4CA
  8
WEI-JIN
 10
721158.71267725155
 20
3414976.2464353722
 30
0.037037037037037
  0
VERTEX
  5
4CB
  8
WEI-JIN
 10
721245.18661890551
 20
3414980.725942628
 30
0.037037037037037
  0
VERTEX
  5
4CC
  8
WEI-JIN
 10
721247.43487427384
 20
3415068.211018635
 30
0.037037037037037
  0
VERTEX
  5
4CD
  8
WEI-JIN
 10
721158.71267725155
 20
3415066.5249680202
 30
0.037037037037037
  0
VERTEX
  5
4CE
  8
WEI-JIN
 10
721158.71267725155
 20
3414976.2464353722
 30
0.037037037037037
  0
SEQEND
  5
4CF
  8
WEI-JIN
  0
POLYLINE
  5
DB
  8
WEI-JIN
 66
     1
 10
0.0
 20
0.0
 30
0.0147058823529412
 70
     1
1001
ADE
1011
-21.417149111628529
1021
-6.1299850861992212E+054
1031
-0.0
1021
-0.0195010434836149
1031
0.0
1001
IRD
1002
{
1000
TPMLINK_Unit_topology-_-ade
1070
   515
1071
        5
1004
0100920400001A0100001A0100000000000079397A4553B0754079397A4553B075408B02000000000000
1002
}
1001
DCO15
1071
        5
1071
        5
1000
unitlink
1004
074331353500
1071
        4
1000
Link
1004
074331353500
  0
VERTEX
  5
4D0
  8
WEI-JIN
 10
721059.89010908816
 20
3415055.570627335
 30
0.0147058823529412
  0
VERTEX
  5
4D1
  8
WEI-JIN
 10
721061.62085699232
 20
3414967.8352311202
 30
0.0147058823529412
  0
VERTEX
  5
4D2
  8
WEI-JIN
 10
721145.17281095334
 20
3414969.123120938
 30
0.0147058823529412
  0
VERTEX
  5
4D3
  8
WEI-JIN
 10
721143.89768103894
 20
3415060.6587090739
 30
0.0147058823529412
  0
VERTEX
  5
4D4
  8
WEI-JIN
 10
721059.89010908816
 20
3415055.570627335
 30
0.0147058823529412
  0
SEQEND
  5
4D5
  8
WEI-JIN
  0
POLYLINE
  5
DC
  8
WEI-JIN
 66
     1
 10
0.0
 20
0.0
 30
0.2
 70
     1
1001
ADE
1011
-26.56800283503253
1021
-6.1299850861992212E+054
1031
-0.0
1021
0.364147026091814
1031
0.0
1001
IRD
1002
{
1000
TPMLINK_Unit_topology-_-ade
1070
   515
1071
        5
1004
0100930400002601000026010000000000004287261DF76A79404287261DF76A79408902000000000000
1002
}
1001
DCO15
1071
        5
1071
        5
1000
unitlink
1004
074331353400
1071
        4
1000
Link
1004
074331353400
  0
VERTEX
  5
4D6
  8
WEI-JIN
 10
720934.50792709738
 20
3414961.4909983301
 30
0.2
  0
VERTEX
  5
4D7
  8
WEI-JIN
 10
721035.05863185599
 20
3414964.0350391981
 30
0.2
  0
VERTEX
  5
4D8
  8
WEI-JIN
 10
721038.8840215914
 20
3415062.5642455691
 30
0.2
  0
VERTEX
  5
4D9
  8
WEI-JIN
 10
720930.04497240845
 20
3415060.0202047001
 30
0.2
  0
VERTEX
  5
4DA
  8
WEI-JIN
 10
720934.50792709738
 20
3414961.4909983301
 30
0.2
  0
SEQEND
  5
4DB
  8
WEI-JIN
  0
POLYLINE
  5
DD
  8
WEI-JIN
 66
     1
 10
0.0
 20
0.0
 30
0.0178571428571429
 70
     1
1001
ADE
1011
-16.746783194597811
1021
-6.1299850861992212E+054
1031
-0.0
1021
5.7151486203074437
1031
0.0
1001
IRD
1002
{
1000
TPMLINK_Unit_topology-_-ade
1070
   515
1071
        5
1004
01009404000016010000160100000000000002D9BFC44A1A744002D9BFC44A1A74400000000088020000
1002
}
1001
DCO15
1071
        5
1071
        5
1000
unitlink
1004
074331343100
1071
        4
1000
Link
1004
074331343100
  0
VERTEX
  5
4DC
  8
WEI-JIN
 10
720840.36114541464
 20
3415067.5777200512
 30
0.0178571428571429
  0
VERTEX
  5
4DD
  8
WEI-JIN
 10
720905.53227765486
 20
3415059.2819340159
 30
0.0178571428571429
  0
VERTEX
  5
4DE
  8
WEI-JIN
 10
720904.7940445469
 20
3414973.6924178712
 30
0.0178571428571429
  0
VERTEX
  5
4DF
  8
WEI-JIN
 10
720849.10750554444
 20
3414972.3620691248
 30
0.0178571428571429
  0
VERTEX
  5
4E0
  8
WEI-JIN
 10
720860.69311694754
 20
3415008.3526708018
 30
0.0178571428571429
  0
VERTEX
  5
4E1
  8
WEI-JIN
 10
720837.79325178347
 20
3415014.5117501882
 30
0.0178571428571429
  0
VERTEX
  5
4E2
  8
WEI-JIN
 10
720840.36114541464
 20
3415067.5777200512
 30
0.0178571428571429
  0
SEQEND
  5
4E3
  8
WEI-JIN
  0
ENDSEC
  0
EOF
