  0
SECTION
  2
HEADER
  9
$ACADVER
  1
AC1009
  9
$INSBASE
 10
0.0
 20
0.0
 30
0.0
  9
$EXTMIN
 10
802325.25685200002
 20
8984377.9176100008
 30
-0.215
  9
$EXTMAX
 10
813495.84438577387
 20
8993270.0494193062
 30
0.0
  9
$LIMMIN
 10
0.0
 20
0.0
  9
$LIMMAX
 10
12.0
 20
9.0
  9
$ORTHOMODE
 70
     0
  9
$REGENMODE
 70
     1
  9
$FILLMODE
 70
     1
  9
$QTEXTMODE
 70
     0
  9
$MIRRTEXT
 70
     1
  9
$DRAGMODE
 70
     2
  9
$LTSCALE
 40
1.0
  9
$OSMODE
 70
    37
  9
$ATTMODE
 70
     1
  9
$TEXTSIZE
 40
75.0
  9
$TRACEWID
 40
0.05
  9
$TEXTSTYLE
  7
STANDARD
  9
$CLAYER
  8
P2DISTRICTS
  9
$CELTYPE
  6
BYLAYER
  9
$CECOLOR
 62
   256
  9
$DIMSCALE
 40
1.0
  9
$DIMASZ
 40
0.18
  9
$DIMEXO
 40
0.0625
  9
$DIMDLI
 40
0.38
  9
$DIMRND
 40
0.0
  9
$DIMDLE
 40
0.0
  9
$DIMEXE
 40
0.18
  9
$DIMTP
 40
0.0
  9
$DIMTM
 40
0.0
  9
$DIMTXT
 40
0.18
  9
$DIMCEN
 40
0.09
  9
$DIMTSZ
 40
0.0
  9
$DIMTOL
 70
     0
  9
$DIMLIM
 70
     0
  9
$DIMTIH
 70
     1
  9
$DIMTOH
 70
     1
  9
$DIMSE1
 70
     0
  9
$DIMSE2
 70
     0
  9
$DIMTAD
 70
     0
  9
$DIMZIN
 70
     0
  9
$DIMBLK
  1

  9
$DIMASO
 70
     1
  9
$DIMSHO
 70
     1
  9
$DIMPOST
  1

  9
$DIMAPOST
  1

  9
$DIMALT
 70
     0
  9
$DIMALTD
 70
     2
  9
$DIMALTF
 40
25.399999999999999
  9
$DIMLFAC
 40
1.0
  9
$DIMTOFL
 70
     0
  9
$DIMTVP
 40
0.0
  9
$DIMTIX
 70
     0
  9
$DIMSOXD
 70
     0
  9
$DIMSAH
 70
     0
  9
$DIMBLK1
  1

  9
$DIMBLK2
  1

  9
$DIMSTYLE
  2
STANDARD
  9
$DIMCLRD
 70
     0
  9
$DIMCLRE
 70
     0
  9
$DIMCLRT
 70
     0
  9
$DIMTFAC
 40
1.0
  9
$DIMGAP
 40
0.09
  9
$LUNITS
 70
     2
  9
$LUPREC
 70
     4
  9
$SKETCHINC
 40
0.1
  9
$FILLETRAD
 40
0.0
  9
$AUNITS
 70
     0
  9
$AUPREC
 70
     0
  9
$MENU
  1
.
  9
$ELEVATION
 40
0.0
  9
$PELEVATION
 40
0.0
  9
$THICKNESS
 40
0.0
  9
$LIMCHECK
 70
     0
  9
$BLIPMODE
 70
     0
  9
$CHAMFERA
 40
0.5
  9
$CHAMFERB
 40
0.5
  9
$SKPOLY
 70
     0
  9
$TDCREATE
 40
2456576.5693424069
  9
$TDUPDATE
 40
2457463.5467657992
  9
$TDINDWG
 40
1.270353831
  9
$TDUSRTIMER
 40
1.2703533102
  9
$USRTIMER
 70
     1
  9
$ANGBASE
 50
0.0
  9
$ANGDIR
 70
     1
  9
$PDMODE
 70
    66
  9
$PDSIZE
 40
0.0
  9
$PLINEWID
 40
0.0
  9
$COORDS
 70
     1
  9
$SPLFRAME
 70
     0
  9
$SPLINETYPE
 70
     6
  9
$SPLINESEGS
 70
     8
  9
$ATTDIA
 70
     1
  9
$ATTREQ
 70
     1
  9
$HANDLING
 70
     1
  9
$HANDSEED
  5
844
  9
$SURFTAB1
 70
     6
  9
$SURFTAB2
 70
     6
  9
$SURFTYPE
 70
     6
  9
$SURFU
 70
     6
  9
$SURFV
 70
     6
  9
$UCSNAME
  2

  9
$UCSORG
 10
0.0
 20
0.0
 30
0.0
  9
$UCSXDIR
 10
1.0
 20
0.0
 30
0.0
  9
$UCSYDIR
 10
0.0
 20
1.0
 30
0.0
  9
$PUCSNAME
  2

  9
$PUCSORG
 10
0.0
 20
0.0
 30
0.0
  9
$PUCSXDIR
 10
1.0
 20
0.0
 30
0.0
  9
$PUCSYDIR
 10
0.0
 20
1.0
 30
0.0
  9
$USERI1
 70
     0
  9
$USERI2
 70
     0
  9
$USERI3
 70
     0
  9
$USERI4
 70
     0
  9
$USERI5
 70
     0
  9
$USERR1
 40
0.0
  9
$USERR2
 40
0.0
  9
$USERR3
 40
0.0
  9
$USERR4
 40
0.0
  9
$USERR5
 40
0.0
  9
$WORLDVIEW
 70
     1
  9
$SHADEDGE
 70
     3
  9
$SHADEDIF
 70
    70
  9
$TILEMODE
 70
     1
  9
$MAXACTVP
 70
    64
  9
$PLIMCHECK
 70
     0
  9
$PEXTMIN
 10
0.0
 20
0.0
 30
0.0
  9
$PEXTMAX
 10
0.0
 20
0.0
 30
0.0
  9
$PLIMMIN
 10
0.0
 20
0.0
  9
$PLIMMAX
 10
12.0
 20
9.0
  9
$UNITMODE
 70
     0
  9
$VISRETAIN
 70
     1
  9
$PLINEGEN
 70
     0
  9
$PSLTSCALE
 70
     1
  0
ENDSEC
  0
SECTION
  2
TABLES
  0
TABLE
  2
VPORT
 70
     1
  0
VPORT
  2
*ACTIVE
 70
     0
 10
0.0
 20
0.0
 11
1.0
 21
1.0
 12
810247.19220649707
 22
8988732.7628407571
 13
0.0
 23
0.0
 14
0.5
 24
0.5
 15
0.5
 25
0.5
 16
0.0
 26
0.0
 36
1.0
 17
0.0
 27
0.0
 37
0.0
 40
14302.328795097301
 41
1.515942028985507
 42
50.0
 43
0.0
 44
0.0
 50
0.0
 51
0.0
 71
     0
 72
   100
 73
     1
 74
     2
 75
     0
 76
     0
 77
     0
 78
     0
  0
ENDTAB
  0
TABLE
  2
LTYPE
 70
     1
  0
LTYPE
  2
CONTINUOUS
 70
     0
  3
Solid line
 72
    65
 73
     0
 40
0.0
  0
ENDTAB
  0
TABLE
  2
LAYER
 70
     3
  0
LAYER
  2
0
 70
     0
 62
    -7
  6
CONTINUOUS
  0
LAYER
  2
P2DISTRICTS
 70
     0
 62
     7
  6
CONTINUOUS
  0
LAYER
  2
P2DISTRICTLABELS
 70
     0
 62
     1
  6
CONTINUOUS
  0
ENDTAB
  0
TABLE
  2
STYLE
 70
     1
  0
STYLE
  2
STANDARD
 70
     0
 40
0.0
 41
1.0
 50
0.0
 71
     0
 42
75.0
  3
txt
  4

  0
ENDTAB
  0
TABLE
  2
VIEW
 70
     0
  0
ENDTAB
  0
TABLE
  2
UCS
 70
     0
  0
ENDTAB
  0
TABLE
  2
APPID
 70
     6
  0
APPID
  2
ACAD
 70
     0
  0
APPID
  2
ADE
 70
     0
  0
APPID
  2
ACAD_NAV_VCDISPLAY
 70
     0
  0
APPID
  2
IRD
 70
     0
  0
APPID
  2
ACAECLAYERSTANDARD
 70
     0
  0
APPID
  2
ADE_PROJECTION
 70
     0
  0
ENDTAB
  0
TABLE
  2
DIMSTYLE
 70
     1
  0
DIMSTYLE
  2
STANDARD
 70
     0
  3

  4

  5

  6

  7

 40
1.0
 41
0.18
 42
0.0625
 43
0.38
 44
0.18
 45
0.0
 46
0.0
 47
0.0
 48
0.0
140
0.18
141
0.09
142
0.0
143
25.399999999999999
144
1.0
145
0.0
146
1.0
147
0.09
 71
     0
 72
     0
 73
     1
 74
     1
 75
     0
 76
     0
 77
     0
 78
     0
170
     0
171
     2
172
     0
173
     0
174
     0
175
     0
176
     0
177
     0
178
     0
  0
ENDTAB
  0
ENDSEC
  0
SECTION
  2
BLOCKS
  0
BLOCK
  8
0
  2
$MODEL_SPACE
 70
     0
 10
0.0
 20
0.0
 30
0.0
  3
$MODEL_SPACE
  1

  0
ENDBLK
  5
17
  8
0
  0
BLOCK
 67
     1
  8
0
  2
$PAPER_SPACE
 70
     0
 10
0.0
 20
0.0
 30
0.0
  3
$PAPER_SPACE
  1

  0
ENDBLK
  5
1E
 67
     1
  8
0
  0
ENDSEC
  0
SECTION
  2
ENTITIES
  0
TEXT
  5
73
  8
P2DISTRICTLABELS
 10
806401.77201851248
 20
8984750.0715150088
 30
0.0
 40
75.0
  1
212
1001
IRD
1002
{
1000
TPMCNTR_SLC-_-ade
1070
   515
1071
        1
1004
01001C000000000020C1DB5230418F2B97FAB944AD4001000000
1002
}
  0
TEXT
  5
77
  8
P2DISTRICTLABELS
 10
807949.31461816537
 20
8986300.9232751094
 30
0.0
 40
75.0
  1
208
1001
IRD
1002
{
1000
TPMCNTR_SLC-_-ade
1070
   515
1071
        1
1004
01001A000000000000C2382A204154622415BDD2A54002000000
1002
}
  0
TEXT
  5
78
  8
P2DISTRICTLABELS
 10
803801.01745000784
 20
8985049.8863358181
 30
0.0
 40
75.0
  1
211
1001
IRD
1002
{
1000
TPMCNTR_SLC-_-ade
1070
   515
1071
        1
1004
01001C000000000020C1DB5230418F2B97FAB944AD4001000000
1002
}
  0
TEXT
  5
79
  8
P2DISTRICTLABELS
 10
805100.61521732062
 20
8986899.9183619898
 30
0.0
 40
75.0
  1
210
1001
IRD
1002
{
1000
TPMCNTR_SLC-_-ade
1070
   515
1071
        1
1004
01001B0000000000E066C1353D41F5CEBA8BB95FBD4001000000
1002
}
  0
TEXT
  5
7A
  8
P2DISTRICTLABELS
 10
810496.72359196213
 20
8985198.6084259413
 30
0.0
 40
75.0
  1
209
1001
IRD
1002
{
1000
TPMCNTR_SLC-_-ade
1070
   515
1071
        1
1004
01001A000000000000C2382A204154622415BDD2A54002000000
1002
}
  0
TEXT
  5
7B
  8
P2DISTRICTLABELS
 10
811503.66507309547
 20
8987200.6986363605
 30
0.0
 40
75.0
  1
207
1001
IRD
1002
{
1000
TPMCNTR_SLC-_-ade
1070
   515
1071
        1
1004
0100190000000000B0ECF3F44041BFE658018AF4B64003000000
1002
}
  0
TEXT
  5
7C
  8
P2DISTRICTLABELS
 10
806351.5201949646
 20
8988283.6216005683
 30
0.0
 40
75.0
  1
206
1001
IRD
1002
{
1000
TPMCNTR_SLC-_-ade
1070
   515
1071
        1
1004
0100180000000000E08FEC375C417FC813AD8A26C64007000000
1002
}
  0
TEXT
  5
7D
  8
P2DISTRICTLABELS
 10
808648.85315661295
 20
8988748.8737407904
 30
-0.215
 40
75.0
  1
205
1001
IRD
1002
{
1000
TPMCNTR_SLC-_-ade
1070
   515
1071
        1
1004
0100170000000000C044A71944413EC35C39E7E3B94003000000
1002
}
  0
TEXT
  5
7E
  8
P2DISTRICTLABELS
 10
812450.04450279963
 20
8988900.0893597882
 30
0.0
 40
75.0
  1
204
1001
IRD
1002
{
1000
TPMCNTR_SLC-_-ade
1070
   515
1071
        1
1004
0100160000000000784414FC5E4196F8B0195ABCC64007000000
1002
}
  0
TEXT
  5
7F
  8
P2DISTRICTLABELS
 10
806050.81169700145
 20
8989801.1503861472
 30
0.0
 40
75.0
  1
203
1001
IRD
1002
{
1000
TPMCNTR_SLC-_-ade
1070
   515
1071
        1
1004
010015000000000098F108055241D111F2F79D9AC34004000000
1002
}
  0
TEXT
  5
80
  8
P2DISTRICTLABELS
 10
807578.49199802731
 20
8990397.3208907321
 30
0.0
 40
75.0
  1
202
1001
IRD
1002
{
1000
TPMCNTR_SLC-_-ade
1070
   515
1071
        1
1004
0100140000000000980BE3F55641FAB3CD2A0385C24004000000
1002
}
  0
TEXT
  5
81
  8
P2DISTRICTLABELS
 10
810250.10838798562
 20
8991499.83805467
 30
0.0
 40
75.0
  1
201
1001
IRD
1002
{
1000
TPMCNTR_SLC-_-ade
1070
   515
1071
        1
1004
010013000000000010D2F1C269411A34EEB76D73D04005000000
1002
}
  0
POLYLINE
  5
82
  8
P2DISTRICTS
 66
     1
 10
0.0
 20
0.0
 30
0.0
  0
VERTEX
  5
D5
  8
P2DISTRICTS
 10
812397.98447369703
 20
8990552.4780668449
 30
0.0
  0
VERTEX
  5
D6
  8
P2DISTRICTS
 10
812384.7212865582
 20
8990586.6957829818
 30
0.0
  0
VERTEX
  5
D7
  8
P2DISTRICTS
 10
812299.87425434531
 20
8990699.5933260322
 30
0.0
  0
VERTEX
  5
D8
  8
P2DISTRICTS
 10
812266.42708426528
 20
8990733.0314082783
 30
0.0
  0
VERTEX
  5
D9
  8
P2DISTRICTS
 10
812258.92381514749
 20
8990768.4253556896
 30
0.0
  0
VERTEX
  5
DA
  8
P2DISTRICTS
 10
812284.82666891441
 20
8990876.7429490667
 30
0.0
  0
VERTEX
  5
DB
  8
P2DISTRICTS
 10
812380.22256629681
 20
8990956.5769805778
 30
0.0
  0
VERTEX
  5
DC
  8
P2DISTRICTS
 10
812411.59678542486
 20
8991208.6978069618
 30
0.0
  0
VERTEX
  5
DD
  8
P2DISTRICTS
 10
812389.28417173598
 20
8991251.1640344523
 30
0.0
  0
VERTEX
  5
DE
  8
P2DISTRICTS
 10
812552.73833614378
 20
8991370.9629357494
 30
0.0
  0
VERTEX
  5
DF
  8
P2DISTRICTS
 10
812530.22494315635
 20
8991432.2562367134
 30
0.0
  0
VERTEX
  5
E0
  8
P2DISTRICTS
 10
812781.17183901614
 20
8991381.6633730214
 30
0.0
  0
VERTEX
  5
E1
  8
P2DISTRICTS
 10
812897.1780359
 20
8991487.6651642695
 30
0.0
  0
VERTEX
  5
E2
  8
P2DISTRICTS
 10
813024.50459865655
 20
8991665.6994532049
 30
0.0
  0
VERTEX
  5
E3
  8
P2DISTRICTS
 10
813296.84714019997
 20
8991857.1369667985
 30
0.0
  0
VERTEX
  5
E4
  8
P2DISTRICTS
 10
813342.90504552599
 20
8991858.9067011215
 30
0.0
  0
VERTEX
  5
E5
  8
P2DISTRICTS
 10
813422.974872194
 20
8991841.9169543162
 30
0.0
  0
VERTEX
  5
E6
  8
P2DISTRICTS
 10
813482.75242290134
 20
8991841.7442710511
 30
0.0
  0
VERTEX
  5
E7
  8
P2DISTRICTS
 10
813495.84438577387
 20
8991890.2081946358
 30
0.0
  0
VERTEX
  5
E8
  8
P2DISTRICTS
 10
813433.80489382357
 20
8991898.394273052
 30
0.0
  0
VERTEX
  5
E9
  8
P2DISTRICTS
 10
813352.85183839453
 20
8991922.2831492368
 30
0.0
  0
VERTEX
  5
EA
  8
P2DISTRICTS
 10
813276.16245559871
 20
8991940.2548174504
 30
0.0
  0
VERTEX
  5
EB
  8
P2DISTRICTS
 10
813228.82320234051
 20
8991946.8759826496
 30
0.0
  0
VERTEX
  5
EC
  8
P2DISTRICTS
 10
813146.45307869755
 20
8991964.8477021195
 30
0.0
  0
VERTEX
  5
ED
  8
P2DISTRICTS
 10
812982.46043506637
 20
8992046.4184255712
 30
0.0
  0
VERTEX
  5
EE
  8
P2DISTRICTS
 10
812784.96267970058
 20
8992115.3075138424
 30
0.0
  0
VERTEX
  5
EF
  8
P2DISTRICTS
 10
812469.75175462454
 20
8992193.991828138
 30
0.0
  0
VERTEX
  5
F0
  8
P2DISTRICTS
 10
812173.18990027637
 20
8992228.8481160067
 30
0.0
  0
VERTEX
  5
F1
  8
P2DISTRICTS
 10
812055.92205679137
 20
8992236.5940033142
 30
0.0
  0
VERTEX
  5
F2
  8
P2DISTRICTS
 10
811582.56489355967
 20
8992437.3996751811
 30
0.0
  0
VERTEX
  5
F3
  8
P2DISTRICTS
 10
811183.16686667223
 20
8992554.1804757584
 30
0.0
  0
VERTEX
  5
F4
  8
P2DISTRICTS
 10
811083.50123165362
 20
8992585.5293441731
 30
0.0
  0
VERTEX
  5
F5
  8
P2DISTRICTS
 10
810990.39443131292
 20
8992568.2220128626
 30
0.0
  0
VERTEX
  5
F6
  8
P2DISTRICTS
 10
810914.60345281777
 20
8992624.4708396196
 30
0.0
  0
VERTEX
  5
F7
  8
P2DISTRICTS
 10
810641.76714191691
 20
8992646.1050037555
 30
0.0
  0
VERTEX
  5
F8
  8
P2DISTRICTS
 10
810608.1045838159
 20
8992702.8165356424
 30
0.0
  0
VERTEX
  5
F9
  8
P2DISTRICTS
 10
810608.1045838159
 20
8992702.8165356424
 30
0.0
  0
VERTEX
  5
FA
  8
P2DISTRICTS
 10
810453.80872626591
 20
8992781.6960694883
 30
0.0
  0
VERTEX
  5
FB
  8
P2DISTRICTS
 10
810354.56823339709
 20
8992805.9706783891
 30
0.0
  0
VERTEX
  5
FC
  8
P2DISTRICTS
 10
810273.05908674526
 20
8992858.0921933707
 30
0.0
  0
VERTEX
  5
FD
  8
P2DISTRICTS
 10
810252.50147944957
 20
8992871.2378792316
 30
0.0
  0
VERTEX
  5
FE
  8
P2DISTRICTS
 10
810239.39016765833
 20
8992906.3111989032
 30
0.0
  0
VERTEX
  5
FF
  8
P2DISTRICTS
 10
810193.02093415975
 20
8992892.7875678204
 30
0.0
  0
VERTEX
  5
100
  8
P2DISTRICTS
 10
810168.06679583166
 20
8992908.1866233144
 30
0.0
  0
VERTEX
  5
101
  8
P2DISTRICTS
 10
810125.47933734464
 20
8992912.9495265577
 30
0.0
  0
VERTEX
  5
102
  8
P2DISTRICTS
 10
810080.59618305066
 20
8992966.8425604608
 30
0.0
  0
VERTEX
  5
103
  8
P2DISTRICTS
 10
810033.62698331184
 20
8993023.2403942067
 30
0.0
  0
VERTEX
  5
104
  8
P2DISTRICTS
 10
809938.61734138452
 20
8993139.0105542596
 30
0.0
  0
VERTEX
  5
105
  8
P2DISTRICTS
 10
809895.18869905814
 20
8993200.6219551079
 30
0.0
  0
VERTEX
  5
106
  8
P2DISTRICTS
 10
809835.17259075597
 20
8993232.4900674224
 30
0.0
  0
VERTEX
  5
107
  8
P2DISTRICTS
 10
809800.17894647585
 20
8993224.1464769263
 30
0.0
  0
VERTEX
  5
108
  8
P2DISTRICTS
 10
809793.29009085626
 20
8993189.7330003455
 30
0.0
  0
VERTEX
  5
109
  8
P2DISTRICTS
 10
809768.64920781227
 20
8993176.2323494107
 30
0.0
  0
VERTEX
  5
10A
  8
P2DISTRICTS
 10
809728.90573922184
 20
8993182.5855994169
 30
0.0
  0
VERTEX
  5
10B
  8
P2DISTRICTS
 10
809715.12802798289
 20
8993151.8781888913
 30
0.0
  0
VERTEX
  5
10C
  8
P2DISTRICTS
 10
809676.97430120339
 20
8993171.4674012568
 30
0.0
  0
VERTEX
  5
10D
  8
P2DISTRICTS
 10
809548.86078842403
 20
8993188.0162523258
 30
0.0
  0
VERTEX
  5
10E
  8
P2DISTRICTS
 10
809547.00630394742
 20
8993115.452927582
 30
0.0
  0
VERTEX
  5
10F
  8
P2DISTRICTS
 10
809248.89862310374
 20
8993237.5179573018
 30
0.0
  0
VERTEX
  5
110
  8
P2DISTRICTS
 10
809178.92408748996
 20
8993172.5444169119
 30
0.0
  0
VERTEX
  5
111
  8
P2DISTRICTS
 10
808932.74208057439
 20
8993172.4967651237
 30
0.0
  0
VERTEX
  5
112
  8
P2DISTRICTS
 10
808289.2711935651
 20
8993270.0494193062
 30
0.0
  0
VERTEX
  5
113
  8
P2DISTRICTS
 10
808013.41164772864
 20
8993265.3780316394
 30
0.0
  0
VERTEX
  5
114
  8
P2DISTRICTS
 10
807815.19633326912
 20
8993190.8409156371
 30
0.0
  0
VERTEX
  5
115
  8
P2DISTRICTS
 10
807813.7021939999
 20
8993187.533569999
 30
0.0
  0
VERTEX
  5
116
  8
P2DISTRICTS
 10
807806.30402499984
 20
8993169.3661199994
 30
0.0
  0
VERTEX
  5
117
  8
P2DISTRICTS
 10
807798.50593999971
 20
8993151.3750299998
 30
0.0
  0
VERTEX
  5
118
  8
P2DISTRICTS
 10
807790.24658200005
 20
8993133.5924900007
 30
0.0
  0
VERTEX
  5
119
  8
P2DISTRICTS
 10
807781.94756899995
 20
8993115.8287499994
 30
0.0
  0
VERTEX
  5
11A
  8
P2DISTRICTS
 10
807773.51124999986
 20
8993098.1309600007
 30
0.0
  0
VERTEX
  5
11B
  8
P2DISTRICTS
 10
807764.86447200004
 20
8993080.5345699992
 30
0.0
  0
VERTEX
  5
11C
  8
P2DISTRICTS
 10
807756.08069600014
 20
8993063.0050600003
 30
0.0
  0
VERTEX
  5
11D
  8
P2DISTRICTS
 10
807747.20933599991
 20
8993045.5202399995
 30
0.0
  0
VERTEX
  5
11E
  8
P2DISTRICTS
 10
807738.10863400018
 20
8993028.1541700009
 30
0.0
  0
VERTEX
  5
11F
  8
P2DISTRICTS
 10
807728.82520700025
 20
8993010.8835499994
 30
0.0
  0
VERTEX
  5
120
  8
P2DISTRICTS
 10
807719.43934900011
 20
8992993.6684900001
 30
0.0
  0
VERTEX
  5
121
  8
P2DISTRICTS
 10
807709.99525299994
 20
8992976.486539999
 30
0.0
  0
VERTEX
  5
122
  8
P2DISTRICTS
 10
807700.51313700003
 20
8992959.3257899992
 30
0.0
  0
VERTEX
  5
123
  8
P2DISTRICTS
 10
807690.95300200011
 20
8992942.2082800008
 30
0.0
  0
VERTEX
  5
124
  8
P2DISTRICTS
 10
807681.21183000028
 20
8992925.1927200016
 30
0.0
  0
VERTEX
  5
125
  8
P2DISTRICTS
 10
807671.33897899999
 20
8992908.2526299991
 30
0.0
  0
VERTEX
  5
126
  8
P2DISTRICTS
 10
807661.36066200002
 20
8992891.3749200013
 30
0.0
  0
VERTEX
  5
127
  8
P2DISTRICTS
 10
807651.32053800032
 20
8992874.5343899988
 30
0.0
  0
VERTEX
  5
128
  8
P2DISTRICTS
 10
807641.26250299998
 20
8992857.7045300007
 30
0.0
  0
VERTEX
  5
129
  8
P2DISTRICTS
 10
807631.13836800004
 20
8992840.9140399992
 30
0.0
  0
VERTEX
  5
12A
  8
P2DISTRICTS
 10
807620.904324
 20
8992824.1898999996
 30
0.0
  0
VERTEX
  5
12B
  8
P2DISTRICTS
 10
807610.553587
 20
8992807.5380600002
 30
0.0
  0
VERTEX
  5
12C
  8
P2DISTRICTS
 10
807600.05958500004
 20
8992790.9765399992
 30
0.0
  0
VERTEX
  5
12D
  8
P2DISTRICTS
 10
807589.53087399993
 20
8992774.4367600009
 30
0.0
  0
VERTEX
  5
12E
  8
P2DISTRICTS
 10
807578.97035400011
 20
8992757.9174800031
 30
0.0
  0
VERTEX
  5
12F
  8
P2DISTRICTS
 10
807568.30615099997
 20
8992741.4653099999
 30
0.0
  0
VERTEX
  5
130
  8
P2DISTRICTS
 10
807557.54524299991
 20
8992725.0758000016
 30
0.0
  0
VERTEX
  5
131
  8
P2DISTRICTS
 10
807546.76411700004
 20
8992708.6995399985
 30
0.0
  0
VERTEX
  5
132
  8
P2DISTRICTS
 10
807535.9454590003
 20
8992692.3480699994
 30
0.0
  0
VERTEX
  5
133
  8
P2DISTRICTS
 10
807525.00772500015
 20
8992676.0754000004
 30
0.0
  0
VERTEX
  5
134
  8
P2DISTRICTS
 10
807513.95324900001
 20
8992659.8819500003
 30
0.0
  0
VERTEX
  5
135
  8
P2DISTRICTS
 10
807502.76127500017
 20
8992643.7838800009
 30
0.0
  0
VERTEX
  5
136
  8
P2DISTRICTS
 10
807491.5264780001
 20
8992627.7148499992
 30
0.0
  0
VERTEX
  5
137
  8
P2DISTRICTS
 10
807480.26711899973
 20
8992611.6631399989
 30
0.0
  0
VERTEX
  5
138
  8
P2DISTRICTS
 10
807468.85667799995
 20
8992595.7206999995
 30
0.0
  0
VERTEX
  5
139
  8
P2DISTRICTS
 10
807457.26968799997
 20
8992579.9052499998
 30
0.0
  0
VERTEX
  5
13A
  8
P2DISTRICTS
 10
807445.69743000029
 20
8992564.0753600001
 30
0.0
  0
VERTEX
  5
13B
  8
P2DISTRICTS
 10
807433.998349
 20
8992548.3445699997
 30
0.0
  0
VERTEX
  5
13C
  8
P2DISTRICTS
 10
807421.71448299987
 20
8992533.0684399996
 30
0.0
  0
SEQEND
  5
13D
  8
P2DISTRICTS
  0
POLYLINE
  5
83
  8
P2DISTRICTS
 66
     1
 10
0.0
 20
0.0
 30
0.0
  0
VERTEX
  5
13E
  8
P2DISTRICTS
 10
812389.7629436783
 20
8987572.8221611008
 30
0.0
  0
VERTEX
  5
13F
  8
P2DISTRICTS
 10
812439.10256174265
 20
8987667.1784121059
 30
0.0
  0
VERTEX
  5
140
  8
P2DISTRICTS
 10
812469.89753370872
 20
8987753.7361073568
 30
0.0
  0
VERTEX
  5
141
  8
P2DISTRICTS
 10
812469.18137693626
 20
8987783.0656024087
 30
0.0
  0
VERTEX
  5
142
  8
P2DISTRICTS
 10
812536.59718045185
 20
8987912.6025520675
 30
0.0
  0
VERTEX
  5
143
  8
P2DISTRICTS
 10
812568.54864830803
 20
8988003.5852141734
 30
0.0
  0
VERTEX
  5
144
  8
P2DISTRICTS
 10
812572.33290556725
 20
8988094.8086034376
 30
0.0
  0
VERTEX
  5
145
  8
P2DISTRICTS
 10
812579.91459425469
 20
8988098.4981481992
 30
0.0
  0
VERTEX
  5
146
  8
P2DISTRICTS
 10
812610.36410502763
 20
8988173.506176874
 30
0.0
  0
VERTEX
  5
147
  8
P2DISTRICTS
 10
812662.70291020302
 20
8988165.7689149641
 30
0.0
  0
VERTEX
  5
148
  8
P2DISTRICTS
 10
812691.15298424358
 20
8988180.9692404568
 30
0.0
  0
VERTEX
  5
149
  8
P2DISTRICTS
 10
812712.98674234247
 20
8988229.8745376486
 30
0.0
  0
VERTEX
  5
14A
  8
P2DISTRICTS
 10
812678.41728480521
 20
8988264.497386802
 30
0.0
  0
VERTEX
  5
14B
  8
P2DISTRICTS
 10
812666.33006446925
 20
8988311.3703390267
 30
0.0
  0
VERTEX
  5
14C
  8
P2DISTRICTS
 10
812704.48941262497
 20
8988318.7981855907
 30
0.0
  0
VERTEX
  5
14D
  8
P2DISTRICTS
 10
812717.0500179003
 20
8988375.5873080101
 30
0.0
  0
VERTEX
  5
14E
  8
P2DISTRICTS
 10
812917.56740773295
 20
8988296.433608057
 30
0.0
  0
VERTEX
  5
14F
  8
P2DISTRICTS
 10
812890.27807200456
 20
8988486.7143564187
 30
0.0
  0
VERTEX
  5
150
  8
P2DISTRICTS
 10
812950.37747240742
 20
8988490.8832104672
 30
0.0
  0
VERTEX
  5
151
  8
P2DISTRICTS
 10
812911.98060551705
 20
8988599.2735683993
 30
0.0
  0
VERTEX
  5
152
  8
P2DISTRICTS
 10
812884.43504379783
 20
8988613.4477255885
 30
0.0
  0
VERTEX
  5
153
  8
P2DISTRICTS
 10
812907.80707979482
 20
8988697.6586995032
 30
0.0
  0
VERTEX
  5
154
  8
P2DISTRICTS
 10
812896.50271175418
 20
8988798.4283278231
 30
0.0
  0
VERTEX
  5
155
  8
P2DISTRICTS
 10
812928.12107587548
 20
8988895.2820096686
 30
0.0
  0
VERTEX
  5
156
  8
P2DISTRICTS
 10
812916.29296193377
 20
8988953.9889255296
 30
0.0
  0
VERTEX
  5
157
  8
P2DISTRICTS
 10
812883.64469993883
 20
8989049.4448236655
 30
0.0
  0
VERTEX
  5
158
  8
P2DISTRICTS
 10
812845.59679210407
 20
8989083.9890303165
 30
0.0
  0
VERTEX
  5
159
  8
P2DISTRICTS
 10
812812.65258332714
 20
8989114.1080793254
 30
0.0
  0
VERTEX
  5
15A
  8
P2DISTRICTS
 10
812759.21674893715
 20
8989136.7182763666
 30
0.0
  0
VERTEX
  5
15B
  8
P2DISTRICTS
 10
812745.63392872596
 20
8989169.1979741789
 30
0.0
  0
VERTEX
  5
15C
  8
P2DISTRICTS
 10
812800.40482729801
 20
8989204.1577917766
 30
0.0
  0
VERTEX
  5
15D
  8
P2DISTRICTS
 10
812751.80371229665
 20
8989276.9772405475
 30
0.0
  0
VERTEX
  5
15E
  8
P2DISTRICTS
 10
812702.68591969751
 20
8989329.2283355892
 30
0.0
  0
VERTEX
  5
15F
  8
P2DISTRICTS
 10
812592.82645227783
 20
8989582.2916326076
 30
0.0
  0
VERTEX
  5
160
  8
P2DISTRICTS
 10
812530.45698265207
 20
8989700.4174034428
 30
0.0
  0
VERTEX
  5
161
  8
P2DISTRICTS
 10
812418.89075490378
 20
8989912.2857495416
 30
0.0
  0
VERTEX
  5
162
  8
P2DISTRICTS
 10
812423.79906958621
 20
8990066.1520577967
 30
0.0
  0
VERTEX
  5
163
  8
P2DISTRICTS
 10
812459.13816354983
 20
8990185.0598325692
 30
0.0
  0
VERTEX
  5
164
  8
P2DISTRICTS
 10
812462.43452311307
 20
8990344.7610773277
 30
0.0
  0
VERTEX
  5
165
  8
P2DISTRICTS
 10
812440.29215707688
 20
8990443.3284118511
 30
0.0
  0
VERTEX
  5
166
  8
P2DISTRICTS
 10
812397.98447369703
 20
8990552.4780668449
 30
0.0
  0
SEQEND
  5
167
  8
P2DISTRICTS
  0
POLYLINE
  5
84
  8
P2DISTRICTS
 66
     1
 10
0.0
 20
0.0
 30
0.0
  0
VERTEX
  5
168
  8
P2DISTRICTS
 10
806846.21498550032
 20
8987058.4155599996
 30
0.0
  0
VERTEX
  5
169
  8
P2DISTRICTS
 10
806711.52457500005
 20
8986896.75165
 30
0.0
  0
VERTEX
  5
16A
  8
P2DISTRICTS
 10
806477.96626800031
 20
8986687.298080001
 30
0.0
  0
VERTEX
  5
16B
  8
P2DISTRICTS
 10
806158.30142399995
 20
8986687.4545600004
 30
0.0
  0
SEQEND
  5
16C
  8
P2DISTRICTS
  0
POLYLINE
  5
85
  8
P2DISTRICTS
 66
     1
 10
0.0
 20
0.0
 30
0.0
  0
VERTEX
  5
16D
  8
P2DISTRICTS
 10
808542.47372700006
 20
8986810.0801899973
 30
0.0
  0
VERTEX
  5
16E
  8
P2DISTRICTS
 10
808678.95039649995
 20
8986597.8367699999
 30
0.0
  0
VERTEX
  5
16F
  8
P2DISTRICTS
 10
808780.66755550005
 20
8986429.4116749987
 30
0.0
  0
VERTEX
  5
170
  8
P2DISTRICTS
 10
808812.8367039999
 20
8986268.3266250007
 30
0.0
  0
VERTEX
  5
171
  8
P2DISTRICTS
 10
808864.54771949991
 20
8986106.1155049969
 30
0.0
  0
VERTEX
  5
172
  8
P2DISTRICTS
 10
808940.45099449996
 20
8985932.5726700034
 30
0.0
  0
VERTEX
  5
173
  8
P2DISTRICTS
 10
809006.30384449998
 20
8985813.498004999
 30
0.0
  0
VERTEX
  5
174
  8
P2DISTRICTS
 10
809049.40204600012
 20
8985717.9894099999
 30
0.0
  0
VERTEX
  5
175
  8
P2DISTRICTS
 10
809082.23382199998
 20
8985624.7842699997
 30
0.0
  0
VERTEX
  5
176
  8
P2DISTRICTS
 10
809087.62565000006
 20
8985544.3994300012
 30
0.0
  0
SEQEND
  5
177
  8
P2DISTRICTS
  0
POLYLINE
  5
86
  8
P2DISTRICTS
 66
     1
 10
0.0
 20
0.0
 30
0.0
  0
VERTEX
  5
178
  8
P2DISTRICTS
 10
806846.21498550032
 20
8987058.4155599996
 30
0.0
  0
VERTEX
  5
179
  8
P2DISTRICTS
 10
807374.87077100005
 20
8987166.1542600002
 30
0.0
  0
VERTEX
  5
17A
  8
P2DISTRICTS
 10
807537.43513400003
 20
8987161.5657499973
 30
0.0
  0
VERTEX
  5
17B
  8
P2DISTRICTS
 10
807881.39656599995
 20
8987101.0381799992
 30
0.0
  0
VERTEX
  5
17C
  8
P2DISTRICTS
 10
808238.19575326296
 20
8986994.5565527957
 30
0.0
  0
VERTEX
  5
17D
  8
P2DISTRICTS
 10
808542.47372700006
 20
8986810.0801899973
 30
0.0
  0
SEQEND
  5
17E
  8
P2DISTRICTS
  0
POLYLINE
  5
87
  8
P2DISTRICTS
 66
     1
 10
0.0
 20
0.0
 30
0.0
  0
VERTEX
  5
17F
  8
P2DISTRICTS
 10
806800.07052563934
 20
8989066.7896758858
 30
0.0
  0
VERTEX
  5
180
  8
P2DISTRICTS
 10
805971.28222950024
 20
8989241.1811299995
 30
0.0
  0
VERTEX
  5
181
  8
P2DISTRICTS
 10
805775.66567700007
 20
8989319.0897800028
 30
0.0
  0
VERTEX
  5
182
  8
P2DISTRICTS
 10
805676.57385399984
 20
8989449.0119199995
 30
0.0
  0
VERTEX
  5
183
  8
P2DISTRICTS
 10
805608.36811000004
 20
8989517.5738600027
 30
0.0
  0
VERTEX
  5
184
  8
P2DISTRICTS
 10
805568.03769799985
 20
8989573.0303699989
 30
0.0
  0
VERTEX
  5
185
  8
P2DISTRICTS
 10
805498.81558100018
 20
8989649.5074599981
 30
0.0
  0
VERTEX
  5
186
  8
P2DISTRICTS
 10
805292.18320800003
 20
8989760.3983899988
 30
0.0
  0
SEQEND
  5
187
  8
P2DISTRICTS
  0
POLYLINE
  5
88
  8
P2DISTRICTS
 66
     1
 10
0.0
 20
0.0
 30
0.0
  0
VERTEX
  5
188
  8
P2DISTRICTS
 10
806800.07052563934
 20
8989066.7896758858
 30
0.0
  0
VERTEX
  5
189
  8
P2DISTRICTS
 10
807042.30816200026
 20
8988488.5220100004
 30
0.0
  0
VERTEX
  5
18A
  8
P2DISTRICTS
 10
807075.36094649986
 20
8988209.5527600031
 30
0.0
  0
VERTEX
  5
18B
  8
P2DISTRICTS
 10
807081.32347200019
 20
8988049.1313149985
 30
0.0
  0
VERTEX
  5
18C
  8
P2DISTRICTS
 10
807080.82898549992
 20
8987913.5108949989
 30
0.0
  0
VERTEX
  5
18D
  8
P2DISTRICTS
 10
807059.82386700006
 20
8987787.3970299996
 30
0.0
  0
VERTEX
  5
18E
  8
P2DISTRICTS
 10
807095.08995199972
 20
8987485.5431950036
 30
0.0
  0
VERTEX
  5
18F
  8
P2DISTRICTS
 10
807023.77527850016
 20
8987354.9603100028
 30
0.0
  0
VERTEX
  5
190
  8
P2DISTRICTS
 10
806846.21498550032
 20
8987058.4155599996
 30
0.0
  0
SEQEND
  5
191
  8
P2DISTRICTS
  0
POLYLINE
  5
89
  8
P2DISTRICTS
 66
     1
 10
0.0
 20
0.0
 30
0.0
  0
VERTEX
  5
192
  8
P2DISTRICTS
 10
806800.07052563934
 20
8989066.7896758858
 30
0.0
  0
VERTEX
  5
193
  8
P2DISTRICTS
 10
806850.76783300005
 20
8989231.19221
 30
0.0
  0
VERTEX
  5
194
  8
P2DISTRICTS
 10
806750.56054750003
 20
8989823.2370200008
 30
0.0
  0
VERTEX
  5
195
  8
P2DISTRICTS
 10
806687.75633999996
 20
8990079.5965700001
 30
0.0
  0
VERTEX
  5
196
  8
P2DISTRICTS
 10
806640.23112300003
 20
8990320.482619999
 30
0.0
  0
VERTEX
  5
197
  8
P2DISTRICTS
 10
806608.23316199996
 20
8990432.6968300007
 30
0.0
  0
VERTEX
  5
198
  8
P2DISTRICTS
 10
806572.19351899996
 20
8990514.838539999
 30
0.0
  0
VERTEX
  5
199
  8
P2DISTRICTS
 10
806515.21117200016
 20
8990656.450960001
 30
0.0
  0
VERTEX
  5
19A
  8
P2DISTRICTS
 10
806432.73787900002
 20
8990774.5106399991
 30
0.0
  0
VERTEX
  5
19B
  8
P2DISTRICTS
 10
806290.12118599995
 20
8990970.711120002
 30
0.0
  0
VERTEX
  5
19C
  8
P2DISTRICTS
 10
806231.45666300005
 20
8991060.1586399991
 30
0.0
  0
VERTEX
  5
19D
  8
P2DISTRICTS
 10
806195.40395200008
 20
8991181.0958099999
 30
0.0
  0
VERTEX
  5
19E
  8
P2DISTRICTS
 10
806165.17455300014
 20
8991267.3814300019
 30
0.0
  0
SEQEND
  5
19F
  8
P2DISTRICTS
  0
POLYLINE
  5
8A
  8
P2DISTRICTS
 66
     1
 10
0.0
 20
0.0
 30
0.0
  0
VERTEX
  5
1A0
  8
P2DISTRICTS
 10
808542.47372700006
 20
8986810.0801899973
 30
0.0
  0
VERTEX
  5
1A1
  8
P2DISTRICTS
 10
808840.59635500005
 20
8986945.4490500018
 30
0.0
  0
VERTEX
  5
1A2
  8
P2DISTRICTS
 10
809078.76711250027
 20
8987112.8458800018
 30
0.0
  0
VERTEX
  5
1A3
  8
P2DISTRICTS
 10
809317.96362000005
 20
8987278.4879600015
 30
0.0
  0
VERTEX
  5
1A4
  8
P2DISTRICTS
 10
809669.23877900001
 20
8987534.2040150017
 30
0.0
  0
VERTEX
  5
1A5
  8
P2DISTRICTS
 10
809870.84232499998
 20
8987754.5954100005
 30
0.0
  0
SEQEND
  5
1A6
  8
P2DISTRICTS
  0
POLYLINE
  5
8B
  8
P2DISTRICTS
 66
     1
 10
0.0
 20
0.0
 30
0.0
  0
VERTEX
  5
1A7
  8
P2DISTRICTS
 10
811180.93056999985
 20
8985242.5783300009
 30
0.0
  0
VERTEX
  5
1A8
  8
P2DISTRICTS
 10
811160.09623200004
 20
8985307.2127399966
 30
0.0
  0
VERTEX
  5
1A9
  8
P2DISTRICTS
 10
811107.82730699971
 20
8985373.5871300008
 30
0.0
  0
VERTEX
  5
1AA
  8
P2DISTRICTS
 10
811051.52911250002
 20
8985435.7490499988
 30
0.0
  0
VERTEX
  5
1AB
  8
P2DISTRICTS
 10
810898.19326899981
 20
8985560.9168700017
 30
0.0
  0
VERTEX
  5
1AC
  8
P2DISTRICTS
 10
810803.93810150016
 20
8985609.9621950015
 30
0.0
  0
VERTEX
  5
1AD
  8
P2DISTRICTS
 10
810579.49171991879
 20
8985663.1905044504
 30
0.0
  0
VERTEX
  5
1AE
  8
P2DISTRICTS
 10
810337.508623
 20
8985689.1042699981
 30
0.0
  0
VERTEX
  5
1AF
  8
P2DISTRICTS
 10
810209.69105600019
 20
8985646.0553600006
 30
0.0
  0
VERTEX
  5
1B0
  8
P2DISTRICTS
 10
810100.79538300005
 20
8985586.2670200001
 30
0.0
  0
VERTEX
  5
1B1
  8
P2DISTRICTS
 10
810008.05772399984
 20
8985505.0742949992
 30
0.0
  0
VERTEX
  5
1B2
  8
P2DISTRICTS
 10
809926.83072600001
 20
8985419.4564899988
 30
0.0
  0
VERTEX
  5
1B3
  8
P2DISTRICTS
 10
809851.631161
 20
8985365.5469400007
 30
0.0
  0
VERTEX
  5
1B4
  8
P2DISTRICTS
 10
809801.2769170003
 20
8985312.1768599991
 30
0.0
  0
SEQEND
  5
1B5
  8
P2DISTRICTS
  0
POLYLINE
  5
8C
  8
P2DISTRICTS
 66
     1
 10
0.0
 20
0.0
 30
0.0
  0
VERTEX
  5
1B6
  8
P2DISTRICTS
 10
808390.05838643888
 20
8990043.5063348133
 30
0.0
  0
VERTEX
  5
1B7
  8
P2DISTRICTS
 10
808030.49680700002
 20
8989768.9604449999
 30
0.0
  0
VERTEX
  5
1B8
  8
P2DISTRICTS
 10
807614.07340999995
 20
8989532.1740700006
 30
0.0
  0
VERTEX
  5
1B9
  8
P2DISTRICTS
 10
807245.91434500006
 20
8989334.8391800001
 30
0.0
  0
VERTEX
  5
1BA
  8
P2DISTRICTS
 10
806800.07052563934
 20
8989066.7896758858
 30
0.0
  0
SEQEND
  5
1BB
  8
P2DISTRICTS
  0
POLYLINE
  5
8D
  8
P2DISTRICTS
 66
     1
 10
0.0
 20
0.0
 30
0.0
  0
VERTEX
  5
1BC
  8
P2DISTRICTS
 10
808390.05838643888
 20
8990043.5063348133
 30
0.0
  0
VERTEX
  5
1BD
  8
P2DISTRICTS
 10
808537.52630800032
 20
8990511.4941600021
 30
0.0
  0
VERTEX
  5
1BE
  8
P2DISTRICTS
 10
808578.64919100027
 20
8990706.78926
 30
0.0
  0
VERTEX
  5
1BF
  8
P2DISTRICTS
 10
808579.30705599987
 20
8990842.3028150965
 30
0.0
  0
VERTEX
  5
1C0
  8
P2DISTRICTS
 10
808563.4173890003
 20
8991016.9456999991
 30
0.0
  0
VERTEX
  5
1C1
  8
P2DISTRICTS
 10
808563.23095600016
 20
8991177.2804699186
 30
0.0
  0
VERTEX
  5
1C2
  8
P2DISTRICTS
 10
808531.26605550002
 20
8991244.2271450013
 30
0.0
  0
VERTEX
  5
1C3
  8
P2DISTRICTS
 10
808444.15294950001
 20
8991344.233465001
 30
0.0
  0
VERTEX
  5
1C4
  8
P2DISTRICTS
 10
807421.71448299987
 20
8992533.0684399996
 30
0.0
  0
SEQEND
  5
1C5
  8
P2DISTRICTS
  0
POLYLINE
  5
8E
  8
P2DISTRICTS
 66
     1
 10
0.0
 20
0.0
 30
0.0
  0
VERTEX
  5
1C6
  8
P2DISTRICTS
 10
810653.43109700026
 20
8988978.4871999975
 30
0.0
  0
VERTEX
  5
1C7
  8
P2DISTRICTS
 10
810478.16615100007
 20
8989152.8539400008
 30
0.0
  0
VERTEX
  5
1C8
  8
P2DISTRICTS
 10
810265.80812499998
 20
8989374.2748200018
 30
0.0
  0
VERTEX
  5
1C9
  8
P2DISTRICTS
 10
810011.79828900029
 20
8989492.7521300018
 30
0.0
  0
VERTEX
  5
1CA
  8
P2DISTRICTS
 10
809251.65729200025
 20
8989750.9013250005
 30
0.0
  0
VERTEX
  5
1CB
  8
P2DISTRICTS
 10
808390.05838643818
 20
8990043.5063348133
 30
0.0
  0
SEQEND
  5
1CC
  8
P2DISTRICTS
  0
POLYLINE
  5
8F
  8
P2DISTRICTS
 66
     1
 10
0.0
 20
0.0
 30
0.0
  0
VERTEX
  5
1CD
  8
P2DISTRICTS
 10
812389.76294367877
 20
8987572.8221611008
 30
0.0
  0
VERTEX
  5
1CE
  8
P2DISTRICTS
 10
812170.42271700012
 20
8987668.7210200001
 30
0.0
  0
VERTEX
  5
1CF
  8
P2DISTRICTS
 10
811857.41336100013
 20
8987767.9545100033
 30
0.0
  0
VERTEX
  5
1D0
  8
P2DISTRICTS
 10
811519.41450399999
 20
8987843.5784499999
 30
0.0
  0
VERTEX
  5
1D1
  8
P2DISTRICTS
 10
811410.83215000026
 20
8987863.4604999982
 30
0.0
  0
VERTEX
  5
1D2
  8
P2DISTRICTS
 10
811150.51658399997
 20
8987855.6919100005
 30
0.0
  0
VERTEX
  5
1D3
  8
P2DISTRICTS
 10
810620.02231318282
 20
8987757.9612799995
 30
0.0
  0
VERTEX
  5
1D4
  8
P2DISTRICTS
 10
810322.85612899996
 20
8987762.0277249999
 30
0.0
  0
VERTEX
  5
1D5
  8
P2DISTRICTS
 10
809870.84232499998
 20
8987754.5954100005
 30
0.0
  0
SEQEND
  5
1D6
  8
P2DISTRICTS
  0
POLYLINE
  5
90
  8
P2DISTRICTS
 66
     1
 10
0.0
 20
0.0
 30
0.0
  0
VERTEX
  5
1D7
  8
P2DISTRICTS
 10
810653.43109700026
 20
8988978.4871999975
 30
0.0
  0
VERTEX
  5
1D8
  8
P2DISTRICTS
 10
810516.47495800001
 20
8988724.3496400006
 30
0.0
  0
VERTEX
  5
1D9
  8
P2DISTRICTS
 10
810410.94378900004
 20
8988575.2286650017
 30
0.0
  0
VERTEX
  5
1DA
  8
P2DISTRICTS
 10
810327.56221250026
 20
8988464.8827999998
 30
0.0
  0
VERTEX
  5
1DB
  8
P2DISTRICTS
 10
810174.27338699996
 20
8988262.2013000008
 30
0.0
  0
VERTEX
  5
1DC
  8
P2DISTRICTS
 10
810027.99290650012
 20
8988030.9422999993
 30
0.0
  0
VERTEX
  5
1DD
  8
P2DISTRICTS
 10
809870.84232499998
 20
8987754.5954100005
 30
0.0
  0
SEQEND
  5
1DE
  8
P2DISTRICTS
  0
POLYLINE
  5
91
  8
P2DISTRICTS
 66
     1
 10
0.0
 20
0.0
 30
0.0
  0
VERTEX
  5
1DF
  8
P2DISTRICTS
 10
812397.98447369703
 20
8990552.4780668449
 30
0.0
  0
VERTEX
  5
1E0
  8
P2DISTRICTS
 10
811868.31536899996
 20
8990222.055230001
 30
0.0
  0
VERTEX
  5
1E1
  8
P2DISTRICTS
 10
811657.48163900001
 20
8990022.1685200017
 30
0.0
  0
VERTEX
  5
1E2
  8
P2DISTRICTS
 10
811490.07369800017
 20
8989871.8198399991
 30
0.0
  0
VERTEX
  5
1E3
  8
P2DISTRICTS
 10
810895.75513599988
 20
8989119.5560049992
 30
0.0
  0
VERTEX
  5
1E4
  8
P2DISTRICTS
 10
810653.43109700026
 20
8988978.4871999975
 30
0.0
  0
SEQEND
  5
1E5
  8
P2DISTRICTS
  0
POLYLINE
  5
92
  8
P2DISTRICTS
 66
     1
 10
0.0
 20
0.0
 30
0.0
  0
VERTEX
  5
1E6
  8
P2DISTRICTS
 10
807878.99376600026
 20
8985365.0193600021
 30
0.0
  0
VERTEX
  5
1E7
  8
P2DISTRICTS
 10
807685.60834699997
 20
8985478.2338899989
 30
0.0
  0
VERTEX
  5
1E8
  8
P2DISTRICTS
 10
807197.86770800001
 20
8985658.0002299994
 30
0.0
  0
VERTEX
  5
1E9
  8
P2DISTRICTS
 10
806937.23306499992
 20
8985667.5650999993
 30
0.0
  0
VERTEX
  5
1EA
  8
P2DISTRICTS
 10
806538.96816200018
 20
8985528.7999100015
 30
0.0
  0
SEQEND
  5
1EB
  8
P2DISTRICTS
  0
POLYLINE
  5
93
  8
P2DISTRICTS
 66
     1
 10
0.0
 20
0.0
 30
0.0
  0
VERTEX
  5
1EC
  8
P2DISTRICTS
 10
805296.634081
 20
8987541.5488300007
 30
0.0
  0
VERTEX
  5
1ED
  8
P2DISTRICTS
 10
805591.62413802627
 20
8987302.3538135737
 30
0.0
  0
VERTEX
  5
1EE
  8
P2DISTRICTS
 10
805675.35448944278
 20
8987208.2463558298
 30
0.0
  0
VERTEX
  5
1EF
  8
P2DISTRICTS
 10
805808.832926
 20
8986910.6986599993
 30
0.0
  0
SEQEND
  5
1F0
  8
P2DISTRICTS
  0
POLYLINE
  5
94
  8
P2DISTRICTS
 66
     1
 10
0.0
 20
0.0
 30
0.0
 70
   129
  0
VERTEX
  5
1F1
  8
P2DISTRICTS
 10
803458.34231800004
 20
8984450.0
 30
0.0
  0
VERTEX
  5
1F2
  8
P2DISTRICTS
 10
803439.3957949999
 20
8984454.6536600031
 30
0.0
  0
VERTEX
  5
1F3
  8
P2DISTRICTS
 10
803420.75624100014
 20
8984460.4655300006
 30
0.0
  0
VERTEX
  5
1F4
  8
P2DISTRICTS
 10
803402.33975200006
 20
8984467.0043800008
 30
0.0
  0
VERTEX
  5
1F5
  8
P2DISTRICTS
 10
803384.12903299998
 20
8984474.0697600003
 30
0.0
  0
VERTEX
  5
1F6
  8
P2DISTRICTS
 10
803366.11340100016
 20
8984481.5861000009
 30
0.0
  0
VERTEX
  5
1F7
  8
P2DISTRICTS
 10
803348.33042399981
 20
8984489.6213100031
 30
0.0
  0
VERTEX
  5
1F8
  8
P2DISTRICTS
 10
803330.744756
 20
8984498.0904500037
 30
0.0
  0
VERTEX
  5
1F9
  8
P2DISTRICTS
 10
803312.99377499998
 20
8984506.2022399995
 30
0.0
  0
VERTEX
  5
1FA
  8
P2DISTRICTS
 10
803295.17322999996
 20
8984514.1674000025
 30
0.0
  0
VERTEX
  5
1FB
  8
P2DISTRICTS
 10
803277.49146100006
 20
8984522.43774
 30
0.0
  0
VERTEX
  5
1FC
  8
P2DISTRICTS
 10
803259.960295
 20
8984531.0227300022
 30
0.0
  0
VERTEX
  5
1FD
  8
P2DISTRICTS
 10
803242.61319399986
 20
8984539.9739599992
 30
0.0
  0
VERTEX
  5
1FE
  8
P2DISTRICTS
 10
803225.30387599999
 20
8984548.9923700038
 30
0.0
  0
VERTEX
  5
1FF
  8
P2DISTRICTS
 10
803207.69099200005
 20
8984557.3958100006
 30
0.0
  0
VERTEX
  5
200
  8
P2DISTRICTS
 10
803189.85904899985
 20
8984565.3598400038
 30
0.0
  0
VERTEX
  5
201
  8
P2DISTRICTS
 10
803172.02053300012
 20
8984573.3125700019
 30
0.0
  0
VERTEX
  5
202
  8
P2DISTRICTS
 10
803154.48474100011
 20
8984581.8716100007
 30
0.0
  0
VERTEX
  5
203
  8
P2DISTRICTS
 10
803137.53334199986
 20
8984591.5944600012
 30
0.0
  0
VERTEX
  5
204
  8
P2DISTRICTS
 10
803120.35093499999
 20
8984600.7894299999
 30
0.0
  0
VERTEX
  5
205
  8
P2DISTRICTS
 10
803102.28917200025
 20
8984608.1922200006
 30
0.0
  0
VERTEX
  5
206
  8
P2DISTRICTS
 10
803085.13126000017
 20
8984617.7347700018
 30
0.0
  0
VERTEX
  5
207
  8
P2DISTRICTS
 10
803069.59346
 20
8984630.0150199998
 30
0.0
  0
VERTEX
  5
208
  8
P2DISTRICTS
 10
803056.13782499998
 20
8984644.4272200018
 30
0.0
  0
VERTEX
  5
209
  8
P2DISTRICTS
 10
803044.51436800032
 20
8984660.0641900003
 30
0.0
  0
VERTEX
  5
20A
  8
P2DISTRICTS
 10
803030.459714
 20
8984673.6381999999
 30
0.0
  0
VERTEX
  5
20B
  8
P2DISTRICTS
 10
803015.59523500002
 20
8984686.5575199984
 30
0.0
  0
VERTEX
  5
20C
  8
P2DISTRICTS
 10
803002.26684499998
 20
8984700.7659400012
 30
0.0
  0
VERTEX
  5
20D
  8
P2DISTRICTS
 10
802990.07281000016
 20
8984716.50856
 30
0.0
  0
VERTEX
  5
20E
  8
P2DISTRICTS
 10
802976.32218800008
 20
8984731.3291999996
 30
0.0
  0
VERTEX
  5
20F
  8
P2DISTRICTS
 10
802960.77222499996
 20
8984743.2863500006
 30
0.0
  0
VERTEX
  5
210
  8
P2DISTRICTS
 10
802942.84208800003
 20
8984750.3808699995
 30
0.0
  0
VERTEX
  5
211
  8
P2DISTRICTS
 10
802923.64263299992
 20
8984762.5391399991
 30
0.0
  0
VERTEX
  5
212
  8
P2DISTRICTS
 10
802906.301278
 20
8984772.7931500003
 30
0.0
  0
VERTEX
  5
213
  8
P2DISTRICTS
 10
802894.44806700002
 20
8984764.7180199996
 30
0.0
  0
VERTEX
  5
214
  8
P2DISTRICTS
 10
802883.58168000018
 20
8984746.8942699991
 30
0.0
  0
VERTEX
  5
215
  8
P2DISTRICTS
 10
802866.56073799997
 20
8984737.5562699996
 30
0.0
  0
VERTEX
  5
216
  8
P2DISTRICTS
 10
802847.14594700024
 20
8984731.9685100019
 30
0.0
  0
VERTEX
  5
217
  8
P2DISTRICTS
 10
802828.17464500002
 20
8984726.2286800016
 30
0.0
  0
VERTEX
  5
218
  8
P2DISTRICTS
 10
802809.42783000006
 20
8984721.3858599998
 30
0.0
  0
VERTEX
  5
219
  8
P2DISTRICTS
 10
802790.317132
 20
8984719.4761699978
 30
0.0
  0
VERTEX
  5
21A
  8
P2DISTRICTS
 10
802770.76344600006
 20
8984720.1099300049
 30
0.0
  0
VERTEX
  5
21B
  8
P2DISTRICTS
 10
802751.1529959999
 20
8984720.3583199997
 30
0.0
  0
VERTEX
  5
21C
  8
P2DISTRICTS
 10
802731.80337199999
 20
8984717.8154499996
 30
0.0
  0
VERTEX
  5
21D
  8
P2DISTRICTS
 10
802712.80444099999
 20
8984712.9909700006
 30
0.0
  0
VERTEX
  5
21E
  8
P2DISTRICTS
 10
802694.29011799977
 20
8984706.6311399993
 30
0.0
  0
VERTEX
  5
21F
  8
P2DISTRICTS
 10
802676.09440800012
 20
8984699.5828699991
 30
0.0
  0
VERTEX
  5
220
  8
P2DISTRICTS
 10
802657.61370900006
 20
8984693.2555199992
 30
0.0
  0
VERTEX
  5
221
  8
P2DISTRICTS
 10
802638.60798500001
 20
8984688.8894100003
 30
0.0
  0
VERTEX
  5
222
  8
P2DISTRICTS
 10
802619.144982
 20
8984686.7889399994
 30
0.0
  0
VERTEX
  5
223
  8
P2DISTRICTS
 10
802599.56638700003
 20
8984686.4573299997
 30
0.0
  0
VERTEX
  5
224
  8
P2DISTRICTS
 10
802580.08919700002
 20
8984687.7076600008
 30
0.0
  0
VERTEX
  5
225
  8
P2DISTRICTS
 10
802560.64702800033
 20
8984689.3956100028
 30
0.0
  0
VERTEX
  5
226
  8
P2DISTRICTS
 10
802541.12060799985
 20
8984690.2277300004
 30
0.0
  0
VERTEX
  5
227
  8
P2DISTRICTS
 10
802521.54716299998
 20
8984689.5686399993
 30
0.0
  0
VERTEX
  5
228
  8
P2DISTRICTS
 10
802502.16264899995
 20
8984687.2878399994
 30
0.0
  0
VERTEX
  5
229
  8
P2DISTRICTS
 10
802483.1821160001
 20
8984683.0136699993
 30
0.0
  0
VERTEX
  5
22A
  8
P2DISTRICTS
 10
802464.31986800011
 20
8984677.9895300027
 30
0.0
  0
VERTEX
  5
22B
  8
P2DISTRICTS
 10
802445.11197600001
 20
8984673.985539997
 30
0.0
  0
VERTEX
  5
22C
  8
P2DISTRICTS
 10
802425.43387500034
 20
8984672.3276800029
 30
0.0
  0
VERTEX
  5
22D
  8
P2DISTRICTS
 10
802405.90978100011
 20
8984673.6556100007
 30
0.0
  0
VERTEX
  5
22E
  8
P2DISTRICTS
 10
802387.28199800011
 20
8984679.4197199997
 30
0.0
  0
VERTEX
  5
22F
  8
P2DISTRICTS
 10
802370.05130299996
 20
8984689.1345800012
 30
0.0
  0
VERTEX
  5
230
  8
P2DISTRICTS
 10
802354.96025500027
 20
8984701.7295300029
 30
0.0
  0
VERTEX
  5
231
  8
P2DISTRICTS
 10
802342.40869700012
 20
8984716.8142399993
 30
0.0
  0
VERTEX
  5
232
  8
P2DISTRICTS
 10
802332.36626499996
 20
8984733.8576600011
 30
0.0
  0
VERTEX
  5
233
  8
P2DISTRICTS
 10
802326.18103700003
 20
8984752.3548799995
 30
0.0
  0
VERTEX
  5
234
  8
P2DISTRICTS
 10
802325.25685200002
 20
8984771.9746199995
 30
0.0
  0
VERTEX
  5
235
  8
P2DISTRICTS
 10
802328.44300800015
 20
8984791.5683800001
 30
0.0
  0
VERTEX
  5
236
  8
P2DISTRICTS
 10
802335.45099899976
 20
8984809.8643199969
 30
0.0
  0
VERTEX
  5
237
  8
P2DISTRICTS
 10
802344.66819600004
 20
8984827.0876399986
 30
0.0
  0
VERTEX
  5
238
  8
P2DISTRICTS
 10
802353.07496400003
 20
8984844.6733800005
 30
0.0
  0
VERTEX
  5
239
  8
P2DISTRICTS
 10
802360.72780800005
 20
8984862.7112200018
 30
0.0
  0
VERTEX
  5
23A
  8
P2DISTRICTS
 10
802369.23714300001
 20
8984880.3841800001
 30
0.0
  0
VERTEX
  5
23B
  8
P2DISTRICTS
 10
802379.38153000013
 20
8984897.0334300008
 30
0.0
  0
VERTEX
  5
23C
  8
P2DISTRICTS
 10
802392.12672399997
 20
8984911.8301500026
 30
0.0
  0
VERTEX
  5
23D
  8
P2DISTRICTS
 10
802407.29072599998
 20
8984924.0924800001
 30
0.0
  0
VERTEX
  5
23E
  8
P2DISTRICTS
 10
802424.56796499994
 20
8984933.3698200006
 30
0.0
  0
VERTEX
  5
23F
  8
P2DISTRICTS
 10
802443.026144
 20
8984940.2958300002
 30
0.0
  0
VERTEX
  5
240
  8
P2DISTRICTS
 10
802462.08182199998
 20
8984944.8688099999
 30
0.0
  0
VERTEX
  5
241
  8
P2DISTRICTS
 10
802481.42439299996
 20
8984947.5858300012
 30
0.0
  0
VERTEX
  5
242
  8
P2DISTRICTS
 10
802500.89713100018
 20
8984949.1432799995
 30
0.0
  0
VERTEX
  5
243
  8
P2DISTRICTS
 10
802520.3621560001
 20
8984950.4462700002
 30
0.0
  0
VERTEX
  5
244
  8
P2DISTRICTS
 10
802539.70707400003
 20
8984952.9662800021
 30
0.0
  0
VERTEX
  5
245
  8
P2DISTRICTS
 10
802559.14010200032
 20
8984955.2971199993
 30
0.0
  0
VERTEX
  5
246
  8
P2DISTRICTS
 10
802578.70015999989
 20
8984956.427670002
 30
0.0
  0
VERTEX
  5
247
  8
P2DISTRICTS
 10
802598.18913199997
 20
8984955.8055600002
 30
0.0
  0
VERTEX
  5
248
  8
P2DISTRICTS
 10
802617.45707299968
 20
8984952.8641999997
 30
0.0
  0
VERTEX
  5
249
  8
P2DISTRICTS
 10
802636.75891000032
 20
8984949.8286200035
 30
0.0
  0
VERTEX
  5
24A
  8
P2DISTRICTS
 10
802656.04606500012
 20
8984947.2748799995
 30
0.0
  0
VERTEX
  5
24B
  8
P2DISTRICTS
 10
802674.57106899994
 20
8984941.4587500002
 30
0.0
  0
VERTEX
  5
24C
  8
P2DISTRICTS
 10
802692.67068600014
 20
8984933.6913300008
 30
0.0
  0
VERTEX
  5
24D
  8
P2DISTRICTS
 10
802710.63980400003
 20
8984925.2176099978
 30
0.0
  0
VERTEX
  5
24E
  8
P2DISTRICTS
 10
802728.07056300028
 20
8984915.9359399993
 30
0.0
  0
VERTEX
  5
24F
  8
P2DISTRICTS
 10
802743.85940099997
 20
8984904.6282899994
 30
0.0
  0
VERTEX
  5
250
  8
P2DISTRICTS
 10
802758.12088399997
 20
8984891.7643199973
 30
0.0
  0
VERTEX
  5
251
  8
P2DISTRICTS
 10
802775.68791800016
 20
8984883.8034199998
 30
0.0
  0
VERTEX
  5
252
  8
P2DISTRICTS
 10
802795.46103200002
 20
8984878.7037600037
 30
0.0
  0
VERTEX
  5
253
  8
P2DISTRICTS
 10
802816.27771700011
 20
8984874.7951500025
 30
0.0
  0
VERTEX
  5
254
  8
P2DISTRICTS
 10
802836.38341000001
 20
8984873.9042300005
 30
0.0
  0
VERTEX
  5
255
  8
P2DISTRICTS
 10
802853.23677800002
 20
8984880.6021699999
 30
0.0
  0
VERTEX
  5
256
  8
P2DISTRICTS
 10
802865.43181400001
 20
8984896.1568800006
 30
0.0
  0
VERTEX
  5
257
  8
P2DISTRICTS
 10
802873.75112600019
 20
8984914.2335899994
 30
0.0
  0
VERTEX
  5
258
  8
P2DISTRICTS
 10
802879.4272350003
 20
8984932.8651700001
 30
0.0
  0
VERTEX
  5
259
  8
P2DISTRICTS
 10
802884.01815200015
 20
8984951.7639499996
 30
0.0
  0
VERTEX
  5
25A
  8
P2DISTRICTS
 10
802888.49206199986
 20
8984970.7547500022
 30
0.0
  0
VERTEX
  5
25B
  8
P2DISTRICTS
 10
802893.30269699986
 20
8984989.6853400003
 30
0.0
  0
VERTEX
  5
25C
  8
P2DISTRICTS
 10
802898.86089899985
 20
8985008.4032199997
 30
0.0
  0
VERTEX
  5
25D
  8
P2DISTRICTS
 10
802903.45046199998
 20
8985027.3502400015
 30
0.0
  0
VERTEX
  5
25E
  8
P2DISTRICTS
 10
802907.05859899998
 20
8985046.5522600003
 30
0.0
  0
VERTEX
  5
25F
  8
P2DISTRICTS
 10
802911.44947700005
 20
8985065.5690499973
 30
0.0
  0
VERTEX
  5
260
  8
P2DISTRICTS
 10
802916.73364799982
 20
8985084.3643399999
 30
0.0
  0
VERTEX
  5
261
  8
P2DISTRICTS
 10
802922.55833999999
 20
8985103.0120299999
 30
0.0
  0
VERTEX
  5
262
  8
P2DISTRICTS
 10
802928.81458900054
 20
8985121.5180799998
 30
0.0
  0
VERTEX
  5
263
  8
P2DISTRICTS
 10
802935.61746400001
 20
8985139.8142799996
 30
0.0
  0
VERTEX
  5
264
  8
P2DISTRICTS
 10
802943.26859500003
 20
8985157.7626499999
 30
0.0
  0
VERTEX
  5
265
  8
P2DISTRICTS
 10
802951.17498100013
 20
8985175.6077500004
 30
0.0
  0
VERTEX
  5
266
  8
P2DISTRICTS
 10
802958.41968700022
 20
8985193.7336500008
 30
0.0
  0
VERTEX
  5
267
  8
P2DISTRICTS
 10
802966.188723
 20
8985211.6320999991
 30
0.0
  0
VERTEX
  5
268
  8
P2DISTRICTS
 10
802974.83773399994
 20
8985229.1387100033
 30
0.0
  0
VERTEX
  5
269
  8
P2DISTRICTS
 10
802984.05937899998
 20
8985246.3600600008
 30
0.0
  0
VERTEX
  5
26A
  8
P2DISTRICTS
 10
802993.6920729999
 20
8985263.3392400015
 30
0.0
  0
VERTEX
  5
26B
  8
P2DISTRICTS
 10
803003.4418939997
 20
8985280.2474300005
 30
0.0
  0
VERTEX
  5
26C
  8
P2DISTRICTS
 10
803013.27887799987
 20
8985297.1061000004
 30
0.0
  0
VERTEX
  5
26D
  8
P2DISTRICTS
 10
803023.61079700035
 20
8985313.6594200004
 30
0.0
  0
VERTEX
  5
26E
  8
P2DISTRICTS
 10
803034.34647300001
 20
8985329.9624100048
 30
0.0
  0
VERTEX
  5
26F
  8
P2DISTRICTS
 10
803045.18975700007
 20
8985346.1975699998
 30
0.0
  0
VERTEX
  5
270
  8
P2DISTRICTS
 10
803056.05895699991
 20
8985362.4079199992
 30
0.0
  0
VERTEX
  5
271
  8
P2DISTRICTS
 10
803067.27669800003
 20
8985378.3793600015
 30
0.0
  0
VERTEX
  5
272
  8
P2DISTRICTS
 10
803078.65258000011
 20
8985394.2438200004
 30
0.0
  0
VERTEX
  5
273
  8
P2DISTRICTS
 10
803090.023636
 20
8985410.1127499994
 30
0.0
  0
VERTEX
  5
274
  8
P2DISTRICTS
 10
803101.6077439998
 20
8985425.8177200016
 30
0.0
  0
VERTEX
  5
275
  8
P2DISTRICTS
 10
803113.68325300002
 20
8985441.1503600013
 30
0.0
  0
VERTEX
  5
276
  8
P2DISTRICTS
 10
803125.74274499994
 20
8985456.5035100002
 30
0.0
  0
VERTEX
  5
277
  8
P2DISTRICTS
 10
803137.65503300005
 20
8985471.9719799999
 30
0.0
  0
VERTEX
  5
278
  8
P2DISTRICTS
 10
803149.88268200005
 20
8985487.1778699998
 30
0.0
  0
VERTEX
  5
279
  8
P2DISTRICTS
 10
803162.62029400002
 20
8985501.96741
 30
0.0
  0
VERTEX
  5
27A
  8
P2DISTRICTS
 10
803175.05832299998
 20
8985517.0204100031
 30
0.0
  0
VERTEX
  5
27B
  8
P2DISTRICTS
 10
803187.46410300001
 20
8985532.0964700002
 30
0.0
  0
VERTEX
  5
27C
  8
P2DISTRICTS
 10
803200.35750200006
 20
8985546.7378100008
 30
0.0
  0
VERTEX
  5
27D
  8
P2DISTRICTS
 10
803213.71573500033
 20
8985560.9729899988
 30
0.0
  0
VERTEX
  5
27E
  8
P2DISTRICTS
 10
803226.90277299995
 20
8985575.3695000019
 30
0.0
  0
VERTEX
  5
27F
  8
P2DISTRICTS
 10
803239.83831700019
 20
8985589.9881199989
 30
0.0
  0
VERTEX
  5
280
  8
P2DISTRICTS
 10
803252.45907400013
 20
8985604.8743200004
 30
0.0
  0
VERTEX
  5
281
  8
P2DISTRICTS
 10
803265.84215899976
 20
8985619.0693299994
 30
0.0
  0
VERTEX
  5
282
  8
P2DISTRICTS
 10
803279.73449399997
 20
8985632.8096799999
 30
0.0
  0
VERTEX
  5
283
  8
P2DISTRICTS
 10
803293.31107399997
 20
8985646.8410899993
 30
0.0
  0
VERTEX
  5
284
  8
P2DISTRICTS
 10
803306.42187199974
 20
8985661.2820500005
 30
0.0
  0
VERTEX
  5
285
  8
P2DISTRICTS
 10
803320.64714300004
 20
8985674.6595200002
 30
0.0
  0
VERTEX
  5
286
  8
P2DISTRICTS
 10
803335.13626099995
 20
8985687.7889699992
 30
0.0
  0
VERTEX
  5
287
  8
P2DISTRICTS
 10
803348.82560500002
 20
8985701.6859500036
 30
0.0
  0
VERTEX
  5
288
  8
P2DISTRICTS
 10
803362.254021
 20
8985715.8884300031
 30
0.0
  0
VERTEX
  5
289
  8
P2DISTRICTS
 10
803376.50487200019
 20
8985729.3076100033
 30
0.0
  0
VERTEX
  5
28A
  8
P2DISTRICTS
 10
803391.53551700001
 20
8985741.8135800026
 30
0.0
  0
VERTEX
  5
28B
  8
P2DISTRICTS
 10
803407.2545269999
 20
8985753.3807399999
 30
0.0
  0
VERTEX
  5
28C
  8
P2DISTRICTS
 10
803421.85859099997
 20
8985766.3886699993
 30
0.0
  0
VERTEX
  5
28D
  8
P2DISTRICTS
 10
803436.11185300001
 20
8985779.8322600033
 30
0.0
  0
VERTEX
  5
28E
  8
P2DISTRICTS
 10
803451.48906599998
 20
8985791.7423399966
 30
0.0
  0
VERTEX
  5
28F
  8
P2DISTRICTS
 10
803467.92730600003
 20
8985802.2466800027
 30
0.0
  0
VERTEX
  5
290
  8
P2DISTRICTS
 10
803482.66926200013
 20
8985815.1217600014
 30
0.0
  0
VERTEX
  5
291
  8
P2DISTRICTS
 10
803497.52215199976
 20
8985827.7796000019
 30
0.0
  0
VERTEX
  5
292
  8
P2DISTRICTS
 10
803514.52184500021
 20
8985837.3155899998
 30
0.0
  0
VERTEX
  5
293
  8
P2DISTRICTS
 10
803532.01164400019
 20
8985846.1394900009
 30
0.0
  0
VERTEX
  5
294
  8
P2DISTRICTS
 10
803547.32789199986
 20
8985858.1178300027
 30
0.0
  0
VERTEX
  5
295
  8
P2DISTRICTS
 10
803563.23042599985
 20
8985869.361610001
 30
0.0
  0
VERTEX
  5
296
  8
P2DISTRICTS
 10
803580.90407700022
 20
8985877.9171099998
 30
0.0
  0
VERTEX
  5
297
  8
P2DISTRICTS
 10
803599.49015300011
 20
8985884.50887
 30
0.0
  0
VERTEX
  5
298
  8
P2DISTRICTS
 10
803618.48987000005
 20
8985889.3350600004
 30
0.0
  0
VERTEX
  5
299
  8
P2DISTRICTS
 10
803637.71890099999
 20
8985892.7070599999
 30
0.0
  0
VERTEX
  5
29A
  8
P2DISTRICTS
 10
803657.13150800008
 20
8985894.5351999998
 30
0.0
  0
VERTEX
  5
29B
  8
P2DISTRICTS
 10
803676.6689510002
 20
8985894.7899999991
 30
0.0
  0
VERTEX
  5
29C
  8
P2DISTRICTS
 10
803696.194105
 20
8985893.7937800009
 30
0.0
  0
VERTEX
  5
29D
  8
P2DISTRICTS
 10
803715.57885299984
 20
8985891.4964199997
 30
0.0
  0
VERTEX
  5
29E
  8
P2DISTRICTS
 10
803734.81567599997
 20
8985888.1584900003
 30
0.0
  0
VERTEX
  5
29F
  8
P2DISTRICTS
 10
803753.91159899998
 20
8985883.9710399993
 30
0.0
  0
VERTEX
  5
2A0
  8
P2DISTRICTS
 10
803772.79978700005
 20
8985878.8595399987
 30
0.0
  0
VERTEX
  5
2A1
  8
P2DISTRICTS
 10
803791.29877899995
 20
8985872.5955299996
 30
0.0
  0
VERTEX
  5
2A2
  8
P2DISTRICTS
 10
803809.10462500004
 20
8985864.6034000013
 30
0.0
  0
VERTEX
  5
2A3
  8
P2DISTRICTS
 10
803826.53303400008
 20
8985855.7286100015
 30
0.0
  0
VERTEX
  5
2A4
  8
P2DISTRICTS
 10
803844.58425200032
 20
8985848.4329100009
 30
0.0
  0
VERTEX
  5
2A5
  8
P2DISTRICTS
 10
803863.02288900013
 20
8985841.9796899986
 30
0.0
  0
VERTEX
  5
2A6
  8
P2DISTRICTS
 10
803880.93709399994
 20
8985834.1345399991
 30
0.0
  0
VERTEX
  5
2A7
  8
P2DISTRICTS
 10
803898.23580400005
 20
8985825.0272700004
 30
0.0
  0
VERTEX
  5
2A8
  8
P2DISTRICTS
 10
803914.80377899972
 20
8985814.6606699992
 30
0.0
  0
VERTEX
  5
2A9
  8
P2DISTRICTS
 10
803931.30965800001
 20
8985804.239289999
 30
0.0
  0
VERTEX
  5
2AA
  8
P2DISTRICTS
 10
803948.61387500004
 20
8985795.2590299994
 30
0.0
  0
VERTEX
  5
2AB
  8
P2DISTRICTS
 10
803965.825603
 20
8985786.0172100011
 30
0.0
  0
VERTEX
  5
2AC
  8
P2DISTRICTS
 10
803982.40025200043
 20
8985775.6373399962
 30
0.0
  0
VERTEX
  5
2AD
  8
P2DISTRICTS
 10
803998.28986800008
 20
8985764.256860001
 30
0.0
  0
VERTEX
  5
2AE
  8
P2DISTRICTS
 10
804013.54279300012
 20
8985752.0731899999
 30
0.0
  0
VERTEX
  5
2AF
  8
P2DISTRICTS
 10
804029.43629400001
 20
8985740.7419799995
 30
0.0
  0
VERTEX
  5
2B0
  8
P2DISTRICTS
 10
804045.55471199995
 20
8985729.7203199994
 30
0.0
  0
VERTEX
  5
2B1
  8
P2DISTRICTS
 10
804060.66638999979
 20
8985717.4220000003
 30
0.0
  0
VERTEX
  5
2B2
  8
P2DISTRICTS
 10
804075.18261600018
 20
8985704.3466299996
 30
0.0
  0
VERTEX
  5
2B3
  8
P2DISTRICTS
 10
804090.22469900001
 20
8985691.8928800002
 30
0.0
  0
VERTEX
  5
2B4
  8
P2DISTRICTS
 10
804105.1060970003
 20
8985679.2972800005
 30
0.0
  0
VERTEX
  5
2B5
  8
P2DISTRICTS
 10
804119.011528
 20
8985665.6072199997
 30
0.0
  0
VERTEX
  5
2B6
  8
P2DISTRICTS
 10
804132.70764399983
 20
8985651.6683300007
 30
0.0
  0
VERTEX
  5
2B7
  8
P2DISTRICTS
 10
804146.72817600018
 20
8985638.0818799995
 30
0.0
  0
VERTEX
  5
2B8
  8
P2DISTRICTS
 10
804160.16362899996
 20
8985623.9470600002
 30
0.0
  0
VERTEX
  5
2B9
  8
P2DISTRICTS
 10
804172.950358
 20
8985609.1880600005
 30
0.0
  0
VERTEX
  5
2BA
  8
P2DISTRICTS
 10
804185.62183800025
 20
8985594.3234100007
 30
0.0
  0
VERTEX
  5
2BB
  8
P2DISTRICTS
 10
804198.22003399988
 20
8985579.4181500021
 30
0.0
  0
VERTEX
  5
2BC
  8
P2DISTRICTS
 10
804210.24445300002
 20
8985564.0491599999
 30
0.0
  0
VERTEX
  5
2BD
  8
P2DISTRICTS
 10
804221.79374700016
 20
8985548.3070999999
 30
0.0
  0
VERTEX
  5
2BE
  8
P2DISTRICTS
 10
804233.00845299999
 20
8985532.3272099998
 30
0.0
  0
VERTEX
  5
2BF
  8
P2DISTRICTS
 10
804243.92556300003
 20
8985516.1465799995
 30
0.0
  0
VERTEX
  5
2C0
  8
P2DISTRICTS
 10
804254.49275900004
 20
8985499.7375700008
 30
0.0
  0
VERTEX
  5
2C1
  8
P2DISTRICTS
 10
804264.79548400012
 20
8985483.1471800003
 30
0.0
  0
VERTEX
  5
2C2
  8
P2DISTRICTS
 10
804274.75981299998
 20
8985466.3534799982
 30
0.0
  0
VERTEX
  5
2C3
  8
P2DISTRICTS
 10
804284.12450200005
 20
8985449.23594
 30
0.0
  0
VERTEX
  5
2C4
  8
P2DISTRICTS
 10
804292.7269619999
 20
8985431.7192700002
 30
0.0
  0
VERTEX
  5
2C5
  8
P2DISTRICTS
 10
804301.13307800004
 20
8985414.0986199994
 30
0.0
  0
VERTEX
  5
2C6
  8
P2DISTRICTS
 10
804309.54375700001
 20
8985396.4869899992
 30
0.0
  0
VERTEX
  5
2C7
  8
P2DISTRICTS
 10
804317.35201400006
 20
8985378.5989500005
 30
0.0
  0
VERTEX
  5
2C8
  8
P2DISTRICTS
 10
804324.61194900004
 20
8985360.4724800009
 30
0.0
  0
VERTEX
  5
2C9
  8
P2DISTRICTS
 10
804331.33270100004
 20
8985342.1333300024
 30
0.0
  0
VERTEX
  5
2CA
  8
P2DISTRICTS
 10
804337.46516099991
 20
8985323.5892999992
 30
0.0
  0
VERTEX
  5
2CB
  8
P2DISTRICTS
 10
804342.90615800011
 20
8985304.844159998
 30
0.0
  0
VERTEX
  5
2CC
  8
P2DISTRICTS
 10
804347.45701499993
 20
8985285.867039999
 30
0.0
  0
VERTEX
  5
2CD
  8
P2DISTRICTS
 10
804352.05372099997
 20
8985266.8972600009
 30
0.0
  0
VERTEX
  5
2CE
  8
P2DISTRICTS
 10
804356.85293699999
 20
8985247.9798799995
 30
0.0
  0
VERTEX
  5
2CF
  8
P2DISTRICTS
 10
804360.75572899997
 20
8985228.8571199998
 30
0.0
  0
VERTEX
  5
2D0
  8
P2DISTRICTS
 10
804363.90123800025
 20
8985209.5809000004
 30
0.0
  0
VERTEX
  5
2D1
  8
P2DISTRICTS
 10
804366.43031299999
 20
8985190.2156600021
 30
0.0
  0
VERTEX
  5
2D2
  8
P2DISTRICTS
 10
804368.40586299985
 20
8985170.7933600005
 30
0.0
  0
VERTEX
  5
2D3
  8
P2DISTRICTS
 10
804369.83504599985
 20
8985151.3273200002
 30
0.0
  0
VERTEX
  5
2D4
  8
P2DISTRICTS
 10
804370.58684300003
 20
8985131.8196200021
 30
0.0
  0
VERTEX
  5
2D5
  8
P2DISTRICTS
 10
804370.73171099985
 20
8985112.2953100037
 30
0.0
  0
VERTEX
  5
2D6
  8
P2DISTRICTS
 10
804370.22298199998
 20
8985092.7840299979
 30
0.0
  0
VERTEX
  5
2D7
  8
P2DISTRICTS
 10
804369.03911999997
 20
8985073.3022399992
 30
0.0
  0
VERTEX
  5
2D8
  8
P2DISTRICTS
 10
804367.30831800005
 20
8985053.8528199997
 30
0.0
  0
VERTEX
  5
2D9
  8
P2DISTRICTS
 10
804364.97292100021
 20
8985034.4535600003
 30
0.0
  0
VERTEX
  5
2DA
  8
P2DISTRICTS
 10
804361.92456800002
 20
8985015.1610800009
 30
0.0
  0
VERTEX
  5
2DB
  8
P2DISTRICTS
 10
804357.83952399995
 20
8984996.0856400002
 30
0.0
  0
VERTEX
  5
2DC
  8
P2DISTRICTS
 10
804352.80603700003
 20
8984977.2247000001
 30
0.0
  0
VERTEX
  5
2DD
  8
P2DISTRICTS
 10
804348.27843900002
 20
8984958.2406399995
 30
0.0
  0
VERTEX
  5
2DE
  8
P2DISTRICTS
 10
804343.76281300001
 20
8984939.2614600006
 30
0.0
  0
VERTEX
  5
2DF
  8
P2DISTRICTS
 10
804338.12885099999
 20
8984920.5703899991
 30
0.0
  0
VERTEX
  5
2E0
  8
P2DISTRICTS
 10
804331.77280200028
 20
8984902.0880100019
 30
0.0
  0
VERTEX
  5
2E1
  8
P2DISTRICTS
 10
804324.86239200004
 20
8984883.8032399993
 30
0.0
  0
VERTEX
  5
2E2
  8
P2DISTRICTS
 10
804317.34843999997
 20
8984865.7776199989
 30
0.0
  0
VERTEX
  5
2E3
  8
P2DISTRICTS
 10
804308.95114799985
 20
8984848.1702100001
 30
0.0
  0
VERTEX
  5
2E4
  8
P2DISTRICTS
 10
804299.8361729997
 20
8984830.9102699999
 30
0.0
  0
VERTEX
  5
2E5
  8
P2DISTRICTS
 10
804291.38480799994
 20
8984813.3160700016
 30
0.0
  0
VERTEX
  5
2E6
  8
P2DISTRICTS
 10
804282.79220299982
 20
8984795.7936800011
 30
0.0
  0
VERTEX
  5
2E7
  8
P2DISTRICTS
 10
804273.21824599977
 20
8984778.7768699992
 30
0.0
  0
VERTEX
  5
2E8
  8
P2DISTRICTS
 10
804262.87824700016
 20
8984762.1963899992
 30
0.0
  0
VERTEX
  5
2E9
  8
P2DISTRICTS
 10
804251.91068400024
 20
8984746.0387200005
 30
0.0
  0
VERTEX
  5
2EA
  8
P2DISTRICTS
 10
804241.01555499993
 20
8984729.8406799994
 30
0.0
  0
VERTEX
  5
2EB
  8
P2DISTRICTS
 10
804230.34374499996
 20
8984713.4883899987
 30
0.0
  0
VERTEX
  5
2EC
  8
P2DISTRICTS
 10
804219.17480399995
 20
8984697.4968599994
 30
0.0
  0
VERTEX
  5
2ED
  8
P2DISTRICTS
 10
804207.20884500002
 20
8984682.0780400001
 30
0.0
  0
VERTEX
  5
2EE
  8
P2DISTRICTS
 10
804195.29496199999
 20
8984666.6119299997
 30
0.0
  0
VERTEX
  5
2EF
  8
P2DISTRICTS
 10
804183.59392799996
 20
8984650.9909799993
 30
0.0
  0
VERTEX
  5
2F0
  8
P2DISTRICTS
 10
804171.43703500018
 20
8984635.7256700005
 30
0.0
  0
VERTEX
  5
2F1
  8
P2DISTRICTS
 10
804159.07862799999
 20
8984620.6143800002
 30
0.0
  0
VERTEX
  5
2F2
  8
P2DISTRICTS
 10
804147.05736999994
 20
8984605.2356300019
 30
0.0
  0
VERTEX
  5
2F3
  8
P2DISTRICTS
 10
804136.01075200003
 20
8984589.1630699988
 30
0.0
  0
VERTEX
  5
2F4
  8
P2DISTRICTS
 10
804126.00104700017
 20
8984572.4000000004
 30
0.0
  0
VERTEX
  5
2F5
  8
P2DISTRICTS
 10
804116.40259800002
 20
8984555.3759700023
 30
0.0
  0
VERTEX
  5
2F6
  8
P2DISTRICTS
 10
804106.77021200012
 20
8984538.4005699996
 30
0.0
  0
VERTEX
  5
2F7
  8
P2DISTRICTS
 10
804097.43558000005
 20
8984521.2392299995
 30
0.0
  0
VERTEX
  5
2F8
  8
P2DISTRICTS
 10
804088.02193199995
 20
8984504.1227299981
 30
0.0
  0
VERTEX
  5
2F9
  8
P2DISTRICTS
 10
804075.66932099988
 20
8984489.00079
 30
0.0
  0
VERTEX
  5
2FA
  8
P2DISTRICTS
 10
804060.34875999996
 20
8984476.5398800019
 30
0.0
  0
VERTEX
  5
2FB
  8
P2DISTRICTS
 10
804043.15194899985
 20
8984467.2928199992
 30
0.0
  0
VERTEX
  5
2FC
  8
P2DISTRICTS
 10
804024.61679899995
 20
8984461.4095400013
 30
0.0
  0
VERTEX
  5
2FD
  8
P2DISTRICTS
 10
804005.218414
 20
8984457.8041200005
 30
0.0
  0
VERTEX
  5
2FE
  8
P2DISTRICTS
 10
803985.25000500015
 20
8984455.8110699989
 30
0.0
  0
VERTEX
  5
2FF
  8
P2DISTRICTS
 10
803966.17549599998
 20
8984452.0263800006
 30
0.0
  0
VERTEX
  5
300
  8
P2DISTRICTS
 10
803949.96983199997
 20
8984441.5638499986
 30
0.0
  0
VERTEX
  5
301
  8
P2DISTRICTS
 10
803934.02663200011
 20
8984427.8353300001
 30
0.0
  0
VERTEX
  5
302
  8
P2DISTRICTS
 10
803917.5167149998
 20
8984415.5948200021
 30
0.0
  0
VERTEX
  5
303
  8
P2DISTRICTS
 10
803900.56139799999
 20
8984409.8431899995
 30
0.0
  0
VERTEX
  5
304
  8
P2DISTRICTS
 10
803883.16208299994
 20
8984414.7171500009
 30
0.0
  0
VERTEX
  5
305
  8
P2DISTRICTS
 10
803865.27439799998
 20
8984424.6728100032
 30
0.0
  0
VERTEX
  5
306
  8
P2DISTRICTS
 10
803846.69974399998
 20
8984432.4466800038
 30
0.0
  0
VERTEX
  5
307
  8
P2DISTRICTS
 10
803827.33631000004
 20
8984433.9812300019
 30
0.0
  0
VERTEX
  5
308
  8
P2DISTRICTS
 10
803807.63459999999
 20
8984432.4841100015
 30
0.0
  0
VERTEX
  5
309
  8
P2DISTRICTS
 10
803787.99534300005
 20
8984431.0511000007
 30
0.0
  0
VERTEX
  5
30A
  8
P2DISTRICTS
 10
803768.500764
 20
8984430.4423399996
 30
0.0
  0
VERTEX
  5
30B
  8
P2DISTRICTS
 10
803749.04176099994
 20
8984430.0402600039
 30
0.0
  0
VERTEX
  5
30C
  8
P2DISTRICTS
 10
803729.54752000025
 20
8984429.4501799997
 30
0.0
  0
VERTEX
  5
30D
  8
P2DISTRICTS
 10
803710.02975099988
 20
8984428.7871800009
 30
0.0
  0
VERTEX
  5
30E
  8
P2DISTRICTS
 10
803690.50966999994
 20
8984428.2512400001
 30
0.0
  0
VERTEX
  5
30F
  8
P2DISTRICTS
 10
803670.99422199989
 20
8984427.9162600022
 30
0.0
  0
VERTEX
  5
310
  8
P2DISTRICTS
 10
803651.47876399988
 20
8984427.7570000049
 30
0.0
  0
VERTEX
  5
311
  8
P2DISTRICTS
 10
803631.95990899985
 20
8984427.8027400002
 30
0.0
  0
VERTEX
  5
312
  8
P2DISTRICTS
 10
803612.442392
 20
8984428.0877199993
 30
0.0
  0
VERTEX
  5
313
  8
P2DISTRICTS
 10
803592.93445800035
 20
8984428.7245399971
 30
0.0
  0
VERTEX
  5
314
  8
P2DISTRICTS
 10
803573.44468000019
 20
8984429.8030500021
 30
0.0
  0
VERTEX
  5
315
  8
P2DISTRICTS
 10
803553.98406199994
 20
8984431.3496800009
 30
0.0
  0
VERTEX
  5
316
  8
P2DISTRICTS
 10
803534.57511000033
 20
8984433.5294100009
 30
0.0
  0
VERTEX
  5
317
  8
P2DISTRICTS
 10
803515.25346299994
 20
8984436.3727299999
 30
0.0
  0
VERTEX
  5
318
  8
P2DISTRICTS
 10
803496.08876899967
 20
8984440.0164500009
 30
0.0
  0
VERTEX
  5
319
  8
P2DISTRICTS
 10
803477.13183500012
 20
8984444.6060900018
 30
0.0
  0
VERTEX
  5
31A
  8
P2DISTRICTS
 10
803458.34231800004
 20
8984450.0
 30
0.0
  0
SEQEND
  5
31B
  8
P2DISTRICTS
  0
POLYLINE
  5
95
  8
P2DISTRICTS
 66
     1
 10
0.0
 20
0.0
 30
0.0
 70
   128
  0
VERTEX
  5
31C
  8
P2DISTRICTS
 10
806165.17455300014
 20
8991267.3814300019
 30
0.0
  0
VERTEX
  5
31D
  8
P2DISTRICTS
 10
806184.7719040002
 20
8991269.0808300003
 30
0.0
  0
VERTEX
  5
31E
  8
P2DISTRICTS
 10
806204.11707100004
 20
8991272.6808899995
 30
0.0
  0
VERTEX
  5
31F
  8
P2DISTRICTS
 10
806222.98743200011
 20
8991278.220069997
 30
0.0
  0
VERTEX
  5
320
  8
P2DISTRICTS
 10
806241.28884199995
 20
8991285.3638100028
 30
0.0
  0
VERTEX
  5
321
  8
P2DISTRICTS
 10
806258.78714699997
 20
8991294.1930800006
 30
0.0
  0
VERTEX
  5
322
  8
P2DISTRICTS
 10
806275.92641700024
 20
8991303.73398
 30
0.0
  0
VERTEX
  5
323
  8
P2DISTRICTS
 10
806293.08263899991
 20
8991313.2356399987
 30
0.0
  0
VERTEX
  5
324
  8
P2DISTRICTS
 10
806309.69455299992
 20
8991323.601019999
 30
0.0
  0
VERTEX
  5
325
  8
P2DISTRICTS
 10
806325.70238299994
 20
8991334.9275700022
 30
0.0
  0
VERTEX
  5
326
  8
P2DISTRICTS
 10
806341.50884899998
 20
8991346.5652500018
 30
0.0
  0
VERTEX
  5
327
  8
P2DISTRICTS
 10
806357.3036430002
 20
8991358.1843199991
 30
0.0
  0
VERTEX
  5
328
  8
P2DISTRICTS
 10
806372.67936500011
 20
8991370.3576299995
 30
0.0
  0
VERTEX
  5
329
  8
P2DISTRICTS
 10
806387.69094500004
 20
8991382.9898499995
 30
0.0
  0
VERTEX
  5
32A
  8
P2DISTRICTS
 10
806402.3801660001
 20
8991395.9868399967
 30
0.0
  0
VERTEX
  5
32B
  8
P2DISTRICTS
 10
806416.93454200029
 20
8991409.1235199999
 30
0.0
  0
VERTEX
  5
32C
  8
P2DISTRICTS
 10
806431.52272699995
 20
8991422.2242499981
 30
0.0
  0
VERTEX
  5
32D
  8
P2DISTRICTS
 10
806446.03163700004
 20
8991435.4111999981
 30
0.0
  0
VERTEX
  5
32E
  8
P2DISTRICTS
 10
806460.359375
 20
8991448.79452
 30
0.0
  0
VERTEX
  5
32F
  8
P2DISTRICTS
 10
806474.64288299996
 20
8991462.2264300007
 30
0.0
  0
VERTEX
  5
330
  8
P2DISTRICTS
 10
806488.89252899995
 20
8991475.6936799996
 30
0.0
  0
VERTEX
  5
331
  8
P2DISTRICTS
 10
806503.02468800021
 20
8991489.283019999
 30
0.0
  0
VERTEX
  5
332
  8
P2DISTRICTS
 10
806517.02489100001
 20
8991503.0093399994
 30
0.0
  0
VERTEX
  5
333
  8
P2DISTRICTS
 10
806530.97219700005
 20
8991516.7897199988
 30
0.0
  0
VERTEX
  5
334
  8
P2DISTRICTS
 10
806544.84703999979
 20
8991530.6424599998
 30
0.0
  0
VERTEX
  5
335
  8
P2DISTRICTS
 10
806558.60448599979
 20
8991544.6115500014
 30
0.0
  0
VERTEX
  5
336
  8
P2DISTRICTS
 10
806572.31785900029
 20
8991558.6243600007
 30
0.0
  0
VERTEX
  5
337
  8
P2DISTRICTS
 10
806586.02884599986
 20
8991572.6394100003
 30
0.0
  0
VERTEX
  5
338
  8
P2DISTRICTS
 10
806599.69985700003
 20
8991586.6932199951
 30
0.0
  0
VERTEX
  5
339
  8
P2DISTRICTS
 10
806613.30702599988
 20
8991600.8089800011
 30
0.0
  0
VERTEX
  5
33A
  8
P2DISTRICTS
 10
806626.90232200001
 20
8991614.9362199996
 30
0.0
  0
VERTEX
  5
33B
  8
P2DISTRICTS
 10
806640.51008000004
 20
8991629.0514000002
 30
0.0
  0
VERTEX
  5
33C
  8
P2DISTRICTS
 10
806654.1508510001
 20
8991643.1347599998
 30
0.0
  0
VERTEX
  5
33D
  8
P2DISTRICTS
 10
806667.75292700005
 20
8991657.2551099993
 30
0.0
  0
VERTEX
  5
33E
  8
P2DISTRICTS
 10
806681.24960099987
 20
8991671.4766199999
 30
0.0
  0
VERTEX
  5
33F
  8
P2DISTRICTS
 10
806694.75340799999
 20
8991685.6915499996
 30
0.0
  0
VERTEX
  5
340
  8
P2DISTRICTS
 10
806708.34712299996
 20
8991699.8203899991
 30
0.0
  0
VERTEX
  5
341
  8
P2DISTRICTS
 10
806721.70465800026
 20
8991714.1714999992
 30
0.0
  0
VERTEX
  5
342
  8
P2DISTRICTS
 10
806734.9010950001
 20
8991728.6746399999
 30
0.0
  0
VERTEX
  5
343
  8
P2DISTRICTS
 10
806748.21892199991
 20
8991743.0635200012
 30
0.0
  0
VERTEX
  5
344
  8
P2DISTRICTS
 10
806761.83582000004
 20
8991757.1696499996
 30
0.0
  0
VERTEX
  5
345
  8
P2DISTRICTS
 10
806775.56016400002
 20
8991771.1717100013
 30
0.0
  0
VERTEX
  5
346
  8
P2DISTRICTS
 10
806789.292686
 20
8991785.1656899992
 30
0.0
  0
VERTEX
  5
347
  8
P2DISTRICTS
 10
806802.94613100018
 20
8991799.236469999
 30
0.0
  0
VERTEX
  5
348
  8
P2DISTRICTS
 10
806816.48411999992
 20
8991813.4184300005
 30
0.0
  0
VERTEX
  5
349
  8
P2DISTRICTS
 10
806829.95745200024
 20
8991827.6621000003
 30
0.0
  0
VERTEX
  5
34A
  8
P2DISTRICTS
 10
806843.42019199999
 20
8991841.9159100018
 30
0.0
  0
VERTEX
  5
34B
  8
P2DISTRICTS
 10
806856.90424299997
 20
8991856.1493999995
 30
0.0
  0
VERTEX
  5
34C
  8
P2DISTRICTS
 10
806870.32304399996
 20
8991870.4447300006
 30
0.0
  0
VERTEX
  5
34D
  8
P2DISTRICTS
 10
806883.66891800007
 20
8991884.8083299994
 30
0.0
  0
VERTEX
  5
34E
  8
P2DISTRICTS
 10
806896.94003599999
 20
8991899.2407499962
 30
0.0
  0
VERTEX
  5
34F
  8
P2DISTRICTS
 10
806910.19210699981
 20
8991913.6905299984
 30
0.0
  0
VERTEX
  5
350
  8
P2DISTRICTS
 10
806923.48870400025
 20
8991928.0996800009
 30
0.0
  0
VERTEX
  5
351
  8
P2DISTRICTS
 10
806936.74825199996
 20
8991942.5424199998
 30
0.0
  0
VERTEX
  5
352
  8
P2DISTRICTS
 10
806949.89210499998
 20
8991957.0903099999
 30
0.0
  0
VERTEX
  5
353
  8
P2DISTRICTS
 10
806963.055529
 20
8991971.6211699992
 30
0.0
  0
VERTEX
  5
354
  8
P2DISTRICTS
 10
806976.23777500005
 20
8991986.1349500027
 30
0.0
  0
VERTEX
  5
355
  8
P2DISTRICTS
 10
806989.33007500006
 20
8992000.7289300002
 30
0.0
  0
VERTEX
  5
356
  8
P2DISTRICTS
 10
807002.31407800002
 20
8992015.42007
 30
0.0
  0
VERTEX
  5
357
  8
P2DISTRICTS
 10
807015.36940600013
 20
8992030.0488900021
 30
0.0
  0
VERTEX
  5
358
  8
P2DISTRICTS
 10
807028.38023500028
 20
8992044.7159299981
 30
0.0
  0
VERTEX
  5
359
  8
P2DISTRICTS
 10
807041.18689399993
 20
8992059.5604000017
 30
0.0
  0
VERTEX
  5
35A
  8
P2DISTRICTS
 10
807053.9742040002
 20
8992074.4242700022
 30
0.0
  0
VERTEX
  5
35B
  8
P2DISTRICTS
 10
807066.87219999998
 20
8992089.193669999
 30
0.0
  0
VERTEX
  5
35C
  8
P2DISTRICTS
 10
807079.49648100033
 20
8992104.1902600005
 30
0.0
  0
VERTEX
  5
35D
  8
P2DISTRICTS
 10
807091.73266400001
 20
8992119.5108700003
 30
0.0
  0
VERTEX
  5
35E
  8
P2DISTRICTS
 10
807104.13315899996
 20
8992134.6972499993
 30
0.0
  0
VERTEX
  5
35F
  8
P2DISTRICTS
 10
807116.96513199981
 20
8992149.5224300008
 30
0.0
  0
VERTEX
  5
360
  8
P2DISTRICTS
 10
807130.09172600019
 20
8992164.0872399993
 30
0.0
  0
VERTEX
  5
361
  8
P2DISTRICTS
 10
807143.27192199999
 20
8992178.602810001
 30
0.0
  0
VERTEX
  5
362
  8
P2DISTRICTS
 10
807156.22575600015
 20
8992193.3187799994
 30
0.0
  0
VERTEX
  5
363
  8
P2DISTRICTS
 10
807168.98792099999
 20
8992208.2036499996
 30
0.0
  0
VERTEX
  5
364
  8
P2DISTRICTS
 10
807181.693967
 20
8992223.1358800009
 30
0.0
  0
VERTEX
  5
365
  8
P2DISTRICTS
 10
807194.34625100018
 20
8992238.11338
 30
0.0
  0
VERTEX
  5
366
  8
P2DISTRICTS
 10
807206.92308500025
 20
8992253.1543199997
 30
0.0
  0
VERTEX
  5
367
  8
P2DISTRICTS
 10
807219.35730499995
 20
8992268.3136500008
 30
0.0
  0
VERTEX
  5
368
  8
P2DISTRICTS
 10
807231.67076799995
 20
8992283.5719399992
 30
0.0
  0
VERTEX
  5
369
  8
P2DISTRICTS
 10
807243.88697700005
 20
8992298.9081299994
 30
0.0
  0
VERTEX
  5
36A
  8
P2DISTRICTS
 10
807255.97833700012
 20
8992314.3417900018
 30
0.0
  0
VERTEX
  5
36B
  8
P2DISTRICTS
 10
807267.90656799998
 20
8992329.902280001
 30
0.0
  0
VERTEX
  5
36C
  8
P2DISTRICTS
 10
807279.78564599995
 20
8992345.5009000003
 30
0.0
  0
VERTEX
  5
36D
  8
P2DISTRICTS
 10
807291.72106800007
 20
8992361.055639999
 30
0.0
  0
VERTEX
  5
36E
  8
P2DISTRICTS
 10
807303.80335800035
 20
8992376.4979800023
 30
0.0
  0
VERTEX
  5
36F
  8
P2DISTRICTS
 10
807315.97102099971
 20
8992391.8743399996
 30
0.0
  0
VERTEX
  5
370
  8
P2DISTRICTS
 10
807327.77922000003
 20
8992407.5195100009
 30
0.0
  0
VERTEX
  5
371
  8
P2DISTRICTS
 10
807339.13376999996
 20
8992423.5043199994
 30
0.0
  0
VERTEX
  5
372
  8
P2DISTRICTS
 10
807350.37639700004
 20
8992439.5717100017
 30
0.0
  0
VERTEX
  5
373
  8
P2DISTRICTS
 10
807361.73224699986
 20
8992455.5549899992
 30
0.0
  0
VERTEX
  5
374
  8
P2DISTRICTS
 10
807373.22927999997
 20
8992471.4396700002
 30
0.0
  0
VERTEX
  5
375
  8
P2DISTRICTS
 10
807384.90651700005
 20
8992487.1913600005
 30
0.0
  0
VERTEX
  5
376
  8
P2DISTRICTS
 10
807396.85183599999
 20
8992502.7381199971
 30
0.0
  0
VERTEX
  5
377
  8
P2DISTRICTS
 10
807409.18225100019
 20
8992517.9837599993
 30
0.0
  0
VERTEX
  5
378
  8
P2DISTRICTS
 10
807421.71448299987
 20
8992533.0684399996
 30
0.0
  0
SEQEND
  5
379
  8
P2DISTRICTS
  0
POLYLINE
  5
96
  8
P2DISTRICTS
 66
     1
 10
0.0
 20
0.0
 30
0.0
 70
   128
  0
VERTEX
  5
37A
  8
P2DISTRICTS
 10
805292.18320800003
 20
8989760.3983899988
 30
0.0
  0
VERTEX
  5
37B
  8
P2DISTRICTS
 10
805300.11219000013
 20
8989778.3302100003
 30
0.0
  0
VERTEX
  5
37C
  8
P2DISTRICTS
 10
805308.03334700014
 20
8989796.2655500006
 30
0.0
  0
VERTEX
  5
37D
  8
P2DISTRICTS
 10
805315.686261
 20
8989814.3150200006
 30
0.0
  0
VERTEX
  5
37E
  8
P2DISTRICTS
 10
805323.07461900008
 20
8989832.4767400008
 30
0.0
  0
VERTEX
  5
37F
  8
P2DISTRICTS
 10
805330.34764199983
 20
8989850.6864600033
 30
0.0
  0
VERTEX
  5
380
  8
P2DISTRICTS
 10
805337.58256699995
 20
8989868.910240002
 30
0.0
  0
VERTEX
  5
381
  8
P2DISTRICTS
 10
805344.73951400002
 20
8989887.1634600032
 30
0.0
  0
VERTEX
  5
382
  8
P2DISTRICTS
 10
805351.72404999973
 20
8989905.4830300007
 30
0.0
  0
VERTEX
  5
383
  8
P2DISTRICTS
 10
805358.45581699989
 20
8989923.8972200006
 30
0.0
  0
VERTEX
  5
384
  8
P2DISTRICTS
 10
805365.05717899988
 20
8989942.3596000001
 30
0.0
  0
VERTEX
  5
385
  8
P2DISTRICTS
 10
805371.646801
 20
8989960.8260399997
 30
0.0
  0
VERTEX
  5
386
  8
P2DISTRICTS
 10
805378.28208000003
 20
8989979.2755200006
 30
0.0
  0
VERTEX
  5
387
  8
P2DISTRICTS
 10
805384.99433200015
 20
8989997.6970399991
 30
0.0
  0
VERTEX
  5
388
  8
P2DISTRICTS
 10
805391.80665299995
 20
8990016.082460003
 30
0.0
  0
VERTEX
  5
389
  8
P2DISTRICTS
 10
805398.55489100004
 20
8990034.4907900002
 30
0.0
  0
VERTEX
  5
38A
  8
P2DISTRICTS
 10
805405.05177200004
 20
8990052.9892699979
 30
0.0
  0
VERTEX
  5
38B
  8
P2DISTRICTS
 10
805411.52773500001
 20
8990071.4952699989
 30
0.0
  0
VERTEX
  5
38C
  8
P2DISTRICTS
 10
805418.03882000002
 20
8990089.9888899997
 30
0.0
  0
VERTEX
  5
38D
  8
P2DISTRICTS
 10
805424.59018499998
 20
8990108.4685600027
 30
0.0
  0
VERTEX
  5
38E
  8
P2DISTRICTS
 10
805431.15056500002
 20
8990126.9451800007
 30
0.0
  0
VERTEX
  5
38F
  8
P2DISTRICTS
 10
805437.63333800004
 20
8990145.4485999998
 30
0.0
  0
VERTEX
  5
390
  8
P2DISTRICTS
 10
805443.94384200021
 20
8990164.0114200003
 30
0.0
  0
VERTEX
  5
391
  8
P2DISTRICTS
 10
805450.13233299996
 20
8990182.6157300007
 30
0.0
  0
VERTEX
  5
392
  8
P2DISTRICTS
 10
805456.20549000008
 20
8990201.2578599993
 30
0.0
  0
VERTEX
  5
393
  8
P2DISTRICTS
 10
805461.89559899992
 20
8990220.0238000005
 30
0.0
  0
VERTEX
  5
394
  8
P2DISTRICTS
 10
805467.11221300019
 20
8990238.92753
 30
0.0
  0
VERTEX
  5
395
  8
P2DISTRICTS
 10
805471.67673900025
 20
8990258.0014600027
 30
0.0
  0
VERTEX
  5
396
  8
P2DISTRICTS
 10
805475.36668099998
 20
8990277.2686500009
 30
0.0
  0
VERTEX
  5
397
  8
P2DISTRICTS
 10
805477.86602700013
 20
8990296.7350999992
 30
0.0
  0
VERTEX
  5
398
  8
P2DISTRICTS
 10
805478.54425000027
 20
8990316.4311200008
 30
0.0
  0
VERTEX
  5
399
  8
P2DISTRICTS
 10
805477.32477399998
 20
8990336.0888700001
 30
0.0
  0
VERTEX
  5
39A
  8
P2DISTRICTS
 10
805473.83121700003
 20
8990355.2669399995
 30
0.0
  0
VERTEX
  5
39B
  8
P2DISTRICTS
 10
805468.13082299998
 20
8990373.8706100006
 30
0.0
  0
VERTEX
  5
39C
  8
P2DISTRICTS
 10
805461.99798300001
 20
8990392.5753699951
 30
0.0
  0
VERTEX
  5
39D
  8
P2DISTRICTS
 10
805457.22424700006
 20
8990412.1014500037
 30
0.0
  0
VERTEX
  5
39E
  8
P2DISTRICTS
 10
805455.16335499997
 20
8990432.0437700003
 30
0.0
  0
VERTEX
  5
39F
  8
P2DISTRICTS
 10
805457.64023799996
 20
8990451.0856800005
 30
0.0
  0
VERTEX
  5
3A0
  8
P2DISTRICTS
 10
805466.5829520002
 20
8990468.0959100015
 30
0.0
  0
VERTEX
  5
3A1
  8
P2DISTRICTS
 10
805479.80739199999
 20
8990483.2774100006
 30
0.0
  0
VERTEX
  5
3A2
  8
P2DISTRICTS
 10
805495.00645199989
 20
8990496.7476399988
 30
0.0
  0
VERTEX
  5
3A3
  8
P2DISTRICTS
 10
805511.64775300026
 20
8990506.485510001
 30
0.0
  0
VERTEX
  5
3A4
  8
P2DISTRICTS
 10
805531.00214200001
 20
8990510.4883899987
 30
0.0
  0
VERTEX
  5
3A5
  8
P2DISTRICTS
 10
805550.84389599995
 20
8990513.9493199997
 30
0.0
  0
VERTEX
  5
3A6
  8
P2DISTRICTS
 10
805569.46633100056
 20
8990520.7136900015
 30
0.0
  0
VERTEX
  5
3A7
  8
P2DISTRICTS
 10
805586.69491000019
 20
8990530.3669100031
 30
0.0
  0
VERTEX
  5
3A8
  8
P2DISTRICTS
 10
805602.28615500033
 20
8990542.3438199982
 30
0.0
  0
VERTEX
  5
3A9
  8
P2DISTRICTS
 10
805616.07241000014
 20
8990556.2516399994
 30
0.0
  0
VERTEX
  5
3AA
  8
P2DISTRICTS
 10
805628.41764799994
 20
8990571.4752899967
 30
0.0
  0
VERTEX
  5
3AB
  8
P2DISTRICTS
 10
805640.00002899999
 20
8990587.358719999
 30
0.0
  0
VERTEX
  5
3AC
  8
P2DISTRICTS
 10
805651.35905700002
 20
8990603.3746499997
 30
0.0
  0
VERTEX
  5
3AD
  8
P2DISTRICTS
 10
805662.7086469999
 20
8990619.361130001
 30
0.0
  0
VERTEX
  5
3AE
  8
P2DISTRICTS
 10
805674.00369699986
 20
8990635.387219999
 30
0.0
  0
VERTEX
  5
3AF
  8
P2DISTRICTS
 10
805685.20583700028
 20
8990651.4800000023
 30
0.0
  0
VERTEX
  5
3B0
  8
P2DISTRICTS
 10
805696.35626200028
 20
8990667.6084800027
 30
0.0
  0
VERTEX
  5
3B1
  8
P2DISTRICTS
 10
805707.78146600025
 20
8990683.5343099982
 30
0.0
  0
VERTEX
  5
3B2
  8
P2DISTRICTS
 10
805719.21893600002
 20
8990699.4638299998
 30
0.0
  0
VERTEX
  5
3B3
  8
P2DISTRICTS
 10
805730.00443500001
 20
8990715.8869499993
 30
0.0
  0
VERTEX
  5
3B4
  8
P2DISTRICTS
 10
805739.87173699995
 20
8990732.8738000002
 30
0.0
  0
VERTEX
  5
3B5
  8
P2DISTRICTS
 10
805748.4291569998
 20
8990750.5110199992
 30
0.0
  0
VERTEX
  5
3B6
  8
P2DISTRICTS
 10
805756.67119200015
 20
8990768.2971599996
 30
0.0
  0
VERTEX
  5
3B7
  8
P2DISTRICTS
 10
805765.67639599997
 20
8990785.7354300003
 30
0.0
  0
VERTEX
  5
3B8
  8
P2DISTRICTS
 10
805773.94237200019
 20
8990803.491080001
 30
0.0
  0
VERTEX
  5
3B9
  8
P2DISTRICTS
 10
805780.46238100005
 20
8990821.9793899972
 30
0.0
  0
VERTEX
  5
3BA
  8
P2DISTRICTS
 10
805785.43326700001
 20
8990841.0049399994
 30
0.0
  0
VERTEX
  5
3BB
  8
P2DISTRICTS
 10
805788.69279100024
 20
8990860.4612799995
 30
0.0
  0
VERTEX
  5
3BC
  8
P2DISTRICTS
 10
805790.03403900005
 20
8990880.1412999984
 30
0.0
  0
VERTEX
  5
3BD
  8
P2DISTRICTS
 10
805789.01334099984
 20
8990899.677079998
 30
0.0
  0
VERTEX
  5
3BE
  8
P2DISTRICTS
 10
805784.83568699996
 20
8990918.7479700018
 30
0.0
  0
VERTEX
  5
3BF
  8
P2DISTRICTS
 10
805778.3606860002
 20
8990937.3549200017
 30
0.0
  0
VERTEX
  5
3C0
  8
P2DISTRICTS
 10
805770.27837200009
 20
8990955.4450599998
 30
0.0
  0
VERTEX
  5
3C1
  8
P2DISTRICTS
 10
805761.46141899994
 20
8990973.1631800011
 30
0.0
  0
VERTEX
  5
3C2
  8
P2DISTRICTS
 10
805753.91304400004
 20
8990991.1972199995
 30
0.0
  0
VERTEX
  5
3C3
  8
P2DISTRICTS
 10
805749.65505600011
 20
8991010.246290002
 30
0.0
  0
VERTEX
  5
3C4
  8
P2DISTRICTS
 10
805745.16049000004
 20
8991029.3681599982
 30
0.0
  0
VERTEX
  5
3C5
  8
P2DISTRICTS
 10
805740.90497799998
 20
8991048.4783999994
 30
0.0
  0
VERTEX
  5
3C6
  8
P2DISTRICTS
 10
805739.05583400012
 20
8991067.9283199981
 30
0.0
  0
VERTEX
  5
3C7
  8
P2DISTRICTS
 10
805739.16955600027
 20
8991087.6004100014
 30
0.0
  0
VERTEX
  5
3C8
  8
P2DISTRICTS
 10
805740.52413100004
 20
8991107.2822199985
 30
0.0
  0
VERTEX
  5
3C9
  8
P2DISTRICTS
 10
805743.01578000002
 20
8991126.7993100006
 30
0.0
  0
VERTEX
  5
3CA
  8
P2DISTRICTS
 10
805747.12238399999
 20
8991145.9503000006
 30
0.0
  0
VERTEX
  5
3CB
  8
P2DISTRICTS
 10
805752.54331500025
 20
8991164.7604900021
 30
0.0
  0
VERTEX
  5
3CC
  8
P2DISTRICTS
 10
805756.32959799992
 20
8991183.99027
 30
0.0
  0
VERTEX
  5
3CD
  8
P2DISTRICTS
 10
805760.33595199988
 20
8991203.2449699994
 30
0.0
  0
VERTEX
  5
3CE
  8
P2DISTRICTS
 10
805766.13488999987
 20
8991222.1048000026
 30
0.0
  0
VERTEX
  5
3CF
  8
P2DISTRICTS
 10
805773.88229199988
 20
8991240.190940002
 30
0.0
  0
VERTEX
  5
3D0
  8
P2DISTRICTS
 10
805784.13679899985
 20
8991256.8786500003
 30
0.0
  0
VERTEX
  5
3D1
  8
P2DISTRICTS
 10
805796.7596740002
 20
8991271.9354500007
 30
0.0
  0
VERTEX
  5
3D2
  8
P2DISTRICTS
 10
805811.07579699997
 20
8991285.2965200003
 30
0.0
  0
VERTEX
  5
3D3
  8
P2DISTRICTS
 10
805826.34611899999
 20
8991297.6286500003
 30
0.0
  0
VERTEX
  5
3D4
  8
P2DISTRICTS
 10
805842.01083299995
 20
8991309.5446300004
 30
0.0
  0
VERTEX
  5
3D5
  8
P2DISTRICTS
 10
805859.16238199989
 20
8991318.7661000006
 30
0.0
  0
VERTEX
  5
3D6
  8
P2DISTRICTS
 10
805878.22950500017
 20
8991323.91206
 30
0.0
  0
VERTEX
  5
3D7
  8
P2DISTRICTS
 10
805898.02139100002
 20
8991325.991489999
 30
0.0
  0
VERTEX
  5
3D8
  8
P2DISTRICTS
 10
805917.69521400041
 20
8991325.213539999
 30
0.0
  0
VERTEX
  5
3D9
  8
P2DISTRICTS
 10
805937.12654099998
 20
8991322.5000299979
 30
0.0
  0
VERTEX
  5
3DA
  8
P2DISTRICTS
 10
805956.33838100045
 20
8991318.5568399988
 30
0.0
  0
VERTEX
  5
3DB
  8
P2DISTRICTS
 10
805975.36013299995
 20
8991313.8047499992
 30
0.0
  0
VERTEX
  5
3DC
  8
P2DISTRICTS
 10
805994.30258099979
 20
8991308.7317600027
 30
0.0
  0
VERTEX
  5
3DD
  8
P2DISTRICTS
 10
806013.25020899996
 20
8991303.6937699988
 30
0.0
  0
VERTEX
  5
3DE
  8
P2DISTRICTS
 10
806032.23254899995
 20
8991298.7750100009
 30
0.0
  0
VERTEX
  5
3DF
  8
P2DISTRICTS
 10
806051.15057499998
 20
8991293.6372400001
 30
0.0
  0
VERTEX
  5
3E0
  8
P2DISTRICTS
 10
806069.75288100005
 20
8991287.5011600032
 30
0.0
  0
VERTEX
  5
3E1
  8
P2DISTRICTS
 10
806088.26869200007
 20
8991281.0386600029
 30
0.0
  0
VERTEX
  5
3E2
  8
P2DISTRICTS
 10
806107.03375699988
 20
8991275.2286900003
 30
0.0
  0
VERTEX
  5
3E3
  8
P2DISTRICTS
 10
806126.18257099984
 20
8991270.7139999997
 30
0.0
  0
VERTEX
  5
3E4
  8
P2DISTRICTS
 10
806145.58614499983
 20
8991267.8436300009
 30
0.0
  0
VERTEX
  5
3E5
  8
P2DISTRICTS
 10
806165.17455300014
 20
8991267.3814300019
 30
0.0
  0
SEQEND
  5
3E6
  8
P2DISTRICTS
  0
POLYLINE
  5
97
  8
P2DISTRICTS
 66
     1
 10
0.0
 20
0.0
 30
0.0
 70
   128
  0
VERTEX
  5
3E7
  8
P2DISTRICTS
 10
805296.634081
 20
8987541.5488300007
 30
0.0
  0
VERTEX
  5
3E8
  8
P2DISTRICTS
 10
805309.09556000028
 20
8987556.6369599998
 30
0.0
  0
VERTEX
  5
3E9
  8
P2DISTRICTS
 10
805318.62260500004
 20
8987573.8230300006
 30
0.0
  0
VERTEX
  5
3EA
  8
P2DISTRICTS
 10
805325.93626499991
 20
8987592.2381199989
 30
0.0
  0
VERTEX
  5
3EB
  8
P2DISTRICTS
 10
805331.33900999988
 20
8987611.2228100002
 30
0.0
  0
VERTEX
  5
3EC
  8
P2DISTRICTS
 10
805335.17670100043
 20
8987630.46954
 30
0.0
  0
VERTEX
  5
3ED
  8
P2DISTRICTS
 10
805337.74287200021
 20
8987649.8894600011
 30
0.0
  0
VERTEX
  5
3EE
  8
P2DISTRICTS
 10
805339.01233800012
 20
8987669.4485999998
 30
0.0
  0
VERTEX
  5
3EF
  8
P2DISTRICTS
 10
805339.33463199995
 20
8987689.0714700017
 30
0.0
  0
VERTEX
  5
3F0
  8
P2DISTRICTS
 10
805338.87312200014
 20
8987708.687239999
 30
0.0
  0
VERTEX
  5
3F1
  8
P2DISTRICTS
 10
805337.74398599996
 20
8987728.2645900007
 30
0.0
  0
VERTEX
  5
3F2
  8
P2DISTRICTS
 10
805336.12135899987
 20
8987747.8042399995
 30
0.0
  0
VERTEX
  5
3F3
  8
P2DISTRICTS
 10
805334.02655099996
 20
8987767.2983500008
 30
0.0
  0
VERTEX
  5
3F4
  8
P2DISTRICTS
 10
805331.57577600016
 20
8987786.7528799996
 30
0.0
  0
VERTEX
  5
3F5
  8
P2DISTRICTS
 10
805328.83160899999
 20
8987806.1679500006
 30
0.0
  0
VERTEX
  5
3F6
  8
P2DISTRICTS
 10
805325.82180200028
 20
8987825.54263
 30
0.0
  0
VERTEX
  5
3F7
  8
P2DISTRICTS
 10
805322.61390400026
 20
8987844.8851300031
 30
0.0
  0
VERTEX
  5
3F8
  8
P2DISTRICTS
 10
805319.21470000001
 20
8987864.1942899991
 30
0.0
  0
VERTEX
  5
3F9
  8
P2DISTRICTS
 10
805315.67839799996
 20
8987883.4791199975
 30
0.0
  0
VERTEX
  5
3FA
  8
P2DISTRICTS
 10
805312.06870000006
 20
8987902.7510899995
 30
0.0
  0
VERTEX
  5
3FB
  8
P2DISTRICTS
 10
805308.39592599997
 20
8987922.0114600025
 30
0.0
  0
VERTEX
  5
3FC
  8
P2DISTRICTS
 10
805304.58555900014
 20
8987941.2440200001
 30
0.0
  0
VERTEX
  5
3FD
  8
P2DISTRICTS
 10
805300.52627200016
 20
8987960.4251699988
 30
0.0
  0
VERTEX
  5
3FE
  8
P2DISTRICTS
 10
805296.46401200001
 20
8987979.6061399989
 30
0.0
  0
VERTEX
  5
3FF
  8
P2DISTRICTS
 10
805292.43544200005
 20
8987998.7941500004
 30
0.0
  0
VERTEX
  5
400
  8
P2DISTRICTS
 10
805288.30692700006
 20
8988017.960789999
 30
0.0
  0
VERTEX
  5
401
  8
P2DISTRICTS
 10
805284.10881799995
 20
8988037.1125500016
 30
0.0
  0
VERTEX
  5
402
  8
P2DISTRICTS
 10
805279.90366999991
 20
8988056.2627799995
 30
0.0
  0
VERTEX
  5
403
  8
P2DISTRICTS
 10
805275.72064700013
 20
8988075.4177199993
 30
0.0
  0
VERTEX
  5
404
  8
P2DISTRICTS
 10
805271.55053999997
 20
8988094.575480001
 30
0.0
  0
VERTEX
  5
405
  8
P2DISTRICTS
 10
805267.38745799987
 20
8988113.73484
 30
0.0
  0
VERTEX
  5
406
  8
P2DISTRICTS
 10
805263.24622500001
 20
8988132.8989400007
 30
0.0
  0
VERTEX
  5
407
  8
P2DISTRICTS
 10
805259.16108999995
 20
8988152.0749300011
 30
0.0
  0
VERTEX
  5
408
  8
P2DISTRICTS
 10
805255.15096600004
 20
8988171.2668099981
 30
0.0
  0
VERTEX
  5
409
  8
P2DISTRICTS
 10
805251.15097500035
 20
8988190.4608600028
 30
0.0
  0
VERTEX
  5
40A
  8
P2DISTRICTS
 10
805247.10197800002
 20
8988209.6446000021
 30
0.0
  0
VERTEX
  5
40B
  8
P2DISTRICTS
 10
805243.04276500002
 20
8988228.8262200002
 30
0.0
  0
VERTEX
  5
40C
  8
P2DISTRICTS
 10
805239.01657099987
 20
8988248.0147200003
 30
0.0
  0
VERTEX
  5
40D
  8
P2DISTRICTS
 10
805235.06362499995
 20
8988267.2184500005
 30
0.0
  0
VERTEX
  5
40E
  8
P2DISTRICTS
 10
805231.17581800011
 20
8988286.4355800003
 30
0.0
  0
VERTEX
  5
40F
  8
P2DISTRICTS
 10
805227.34665800002
 20
8988305.6644899994
 30
0.0
  0
VERTEX
  5
410
  8
P2DISTRICTS
 10
805223.57810200006
 20
8988324.9053399973
 30
0.0
  0
VERTEX
  5
411
  8
P2DISTRICTS
 10
805219.86866300052
 20
8988344.1576500013
 30
0.0
  0
VERTEX
  5
412
  8
P2DISTRICTS
 10
805216.23534399981
 20
8988363.4244600013
 30
0.0
  0
VERTEX
  5
413
  8
P2DISTRICTS
 10
805212.67685599998
 20
8988382.7053000014
 30
0.0
  0
VERTEX
  5
414
  8
P2DISTRICTS
 10
805209.19442700013
 20
8988401.9999899995
 30
0.0
  0
VERTEX
  5
415
  8
P2DISTRICTS
 10
805205.80117500003
 20
8988421.3105899971
 30
0.0
  0
VERTEX
  5
416
  8
P2DISTRICTS
 10
805202.48547199997
 20
8988440.6346600018
 30
0.0
  0
VERTEX
  5
417
  8
P2DISTRICTS
 10
805199.23641700018
 20
8988459.9699600004
 30
0.0
  0
VERTEX
  5
418
  8
P2DISTRICTS
 10
805195.90412799979
 20
8988479.2911399994
 30
0.0
  0
VERTEX
  5
419
  8
P2DISTRICTS
 10
805192.57750100025
 20
8988498.6132300012
 30
0.0
  0
VERTEX
  5
41A
  8
P2DISTRICTS
 10
805189.38606099994
 20
8988517.9580499995
 30
0.0
  0
VERTEX
  5
41B
  8
P2DISTRICTS
 10
805186.31710499991
 20
8988537.3230100013
 30
0.0
  0
VERTEX
  5
41C
  8
P2DISTRICTS
 10
805183.34973900043
 20
8988556.7038199995
 30
0.0
  0
VERTEX
  5
41D
  8
P2DISTRICTS
 10
805180.47928800003
 20
8988576.0990999993
 30
0.0
  0
VERTEX
  5
41E
  8
P2DISTRICTS
 10
805177.70035499998
 20
8988595.5075700004
 30
0.0
  0
VERTEX
  5
41F
  8
P2DISTRICTS
 10
805175.03547300003
 20
8988614.9320399985
 30
0.0
  0
VERTEX
  5
420
  8
P2DISTRICTS
 10
805172.47597799997
 20
8988634.3708100002
 30
0.0
  0
VERTEX
  5
421
  8
P2DISTRICTS
 10
805170.02074299997
 20
8988653.8229699992
 30
0.0
  0
VERTEX
  5
422
  8
P2DISTRICTS
 10
805167.68075299996
 20
8988673.2893399987
 30
0.0
  0
VERTEX
  5
423
  8
P2DISTRICTS
 10
805165.43977100018
 20
8988692.7673600018
 30
0.0
  0
VERTEX
  5
424
  8
P2DISTRICTS
 10
805163.31095800002
 20
8988712.2579299994
 30
0.0
  0
VERTEX
  5
425
  8
P2DISTRICTS
 10
805161.28918600013
 20
8988731.7599600032
 30
0.0
  0
VERTEX
  5
426
  8
P2DISTRICTS
 10
805159.36889000004
 20
8988751.27214
 30
0.0
  0
VERTEX
  5
427
  8
P2DISTRICTS
 10
805157.56317600003
 20
8988770.7951999996
 30
0.0
  0
VERTEX
  5
428
  8
P2DISTRICTS
 10
805155.84826599993
 20
8988790.32656
 30
0.0
  0
VERTEX
  5
429
  8
P2DISTRICTS
 10
805154.22261599998
 20
8988809.8656699993
 30
0.0
  0
VERTEX
  5
42A
  8
P2DISTRICTS
 10
805152.69309599989
 20
8988829.4125500023
 30
0.0
  0
VERTEX
  5
42B
  8
P2DISTRICTS
 10
805151.27860800014
 20
8988848.9678199999
 30
0.0
  0
VERTEX
  5
42C
  8
P2DISTRICTS
 10
805149.97502200014
 20
8988868.5308000036
 30
0.0
  0
VERTEX
  5
42D
  8
P2DISTRICTS
 10
805148.59736000001
 20
8988888.0887399986
 30
0.0
  0
VERTEX
  5
42E
  8
P2DISTRICTS
 10
805147.25529600005
 20
8988907.64903
 30
0.0
  0
VERTEX
  5
42F
  8
P2DISTRICTS
 10
805146.03718400013
 20
8988927.2175600044
 30
0.0
  0
VERTEX
  5
430
  8
P2DISTRICTS
 10
805144.89886899979
 20
8988946.7910899986
 30
0.0
  0
VERTEX
  5
431
  8
P2DISTRICTS
 10
805143.8172960002
 20
8988966.3677300029
 30
0.0
  0
VERTEX
  5
432
  8
P2DISTRICTS
 10
805142.77989499993
 20
8988985.9466399979
 30
0.0
  0
VERTEX
  5
433
  8
P2DISTRICTS
 10
805141.78797699988
 20
8989005.5278699994
 30
0.0
  0
VERTEX
  5
434
  8
P2DISTRICTS
 10
805140.84456899995
 20
8989025.1115499996
 30
0.0
  0
VERTEX
  5
435
  8
P2DISTRICTS
 10
805139.94059499982
 20
8989044.697110001
 30
0.0
  0
VERTEX
  5
436
  8
P2DISTRICTS
 10
805139.07942200033
 20
8989064.2845800016
 30
0.0
  0
VERTEX
  5
437
  8
P2DISTRICTS
 10
805138.26233900024
 20
8989083.8739400022
 30
0.0
  0
VERTEX
  5
438
  8
P2DISTRICTS
 10
805137.49911500001
 20
8989103.4655200001
 30
0.0
  0
VERTEX
  5
439
  8
P2DISTRICTS
 10
805136.80745099997
 20
8989123.0598399993
 30
0.0
  0
VERTEX
  5
43A
  8
P2DISTRICTS
 10
805136.19758299983
 20
8989142.6567899995
 30
0.0
  0
VERTEX
  5
43B
  8
P2DISTRICTS
 10
805135.70616199996
 20
8989162.2570100017
 30
0.0
  0
VERTEX
  5
43C
  8
P2DISTRICTS
 10
805135.34699200001
 20
8989181.8602500018
 30
0.0
  0
VERTEX
  5
43D
  8
P2DISTRICTS
 10
805135.13935199997
 20
8989201.4660199992
 30
0.0
  0
VERTEX
  5
43E
  8
P2DISTRICTS
 10
805135.13083000015
 20
8989221.0737100001
 30
0.0
  0
VERTEX
  5
43F
  8
P2DISTRICTS
 10
805135.32926000026
 20
8989240.6796499994
 30
0.0
  0
VERTEX
  5
440
  8
P2DISTRICTS
 10
805135.80380400002
 20
8989260.2788600009
 30
0.0
  0
VERTEX
  5
441
  8
P2DISTRICTS
 10
805136.57088500028
 20
8989279.8695600033
 30
0.0
  0
VERTEX
  5
442
  8
P2DISTRICTS
 10
805137.612937
 20
8989299.4518800005
 30
0.0
  0
VERTEX
  5
443
  8
P2DISTRICTS
 10
805139.00626800011
 20
8989319.0187400039
 30
0.0
  0
VERTEX
  5
444
  8
P2DISTRICTS
 10
805140.87104099989
 20
8989338.5399700012
 30
0.0
  0
VERTEX
  5
445
  8
P2DISTRICTS
 10
805143.49155000015
 20
8989357.96325
 30
0.0
  0
VERTEX
  5
446
  8
P2DISTRICTS
 10
805146.74019399995
 20
8989377.3010499999
 30
0.0
  0
VERTEX
  5
447
  8
P2DISTRICTS
 10
805149.82308400015
 20
8989396.6647800002
 30
0.0
  0
VERTEX
  5
448
  8
P2DISTRICTS
 10
805152.923175
 20
8989416.0203799997
 30
0.0
  0
VERTEX
  5
449
  8
P2DISTRICTS
 10
805156.97581200011
 20
8989435.2144399993
 30
0.0
  0
VERTEX
  5
44A
  8
P2DISTRICTS
 10
805161.669153
 20
8989454.2686100025
 30
0.0
  0
VERTEX
  5
44B
  8
P2DISTRICTS
 10
805166.88401499996
 20
8989473.1772000007
 30
0.0
  0
VERTEX
  5
44C
  8
P2DISTRICTS
 10
805172.58204899996
 20
8989491.93726
 30
0.0
  0
VERTEX
  5
44D
  8
P2DISTRICTS
 10
805178.88853200001
 20
8989510.4985499997
 30
0.0
  0
VERTEX
  5
44E
  8
P2DISTRICTS
 10
805185.7683900001
 20
8989528.8626199998
 30
0.0
  0
VERTEX
  5
44F
  8
P2DISTRICTS
 10
805193.07219099998
 20
8989547.063860001
 30
0.0
  0
VERTEX
  5
450
  8
P2DISTRICTS
 10
805200.70967299992
 20
8989565.1219400018
 30
0.0
  0
VERTEX
  5
451
  8
P2DISTRICTS
 10
805208.36535900005
 20
8989583.1739700008
 30
0.0
  0
VERTEX
  5
452
  8
P2DISTRICTS
 10
805216.22554799996
 20
8989601.1338800006
 30
0.0
  0
VERTEX
  5
453
  8
P2DISTRICTS
 10
805224.53451600019
 20
8989618.8897200003
 30
0.0
  0
VERTEX
  5
454
  8
P2DISTRICTS
 10
805233.07530100015
 20
8989636.5404700004
 30
0.0
  0
VERTEX
  5
455
  8
P2DISTRICTS
 10
805241.58481499983
 20
8989654.2063800003
 30
0.0
  0
VERTEX
  5
456
  8
P2DISTRICTS
 10
805250.03624599997
 20
8989671.8973899987
 30
0.0
  0
VERTEX
  5
457
  8
P2DISTRICTS
 10
805258.72135300015
 20
8989689.4747700039
 30
0.0
  0
VERTEX
  5
458
  8
P2DISTRICTS
 10
805267.39570899995
 20
8989707.0586100016
 30
0.0
  0
VERTEX
  5
459
  8
P2DISTRICTS
 10
805275.86416100035
 20
8989724.7430399992
 30
0.0
  0
VERTEX
  5
45A
  8
P2DISTRICTS
 10
805284.13661300007
 20
8989742.519580001
 30
0.0
  0
VERTEX
  5
45B
  8
P2DISTRICTS
 10
805292.18320800003
 20
8989760.3983899988
 30
0.0
  0
SEQEND
  5
45C
  8
P2DISTRICTS
  0
POLYLINE
  5
98
  8
P2DISTRICTS
 66
     1
 10
0.0
 20
0.0
 30
0.0
 70
   128
  0
VERTEX
  5
45D
  8
P2DISTRICTS
 10
805808.832926
 20
8986910.6986599993
 30
0.0
  0
VERTEX
  5
45E
  8
P2DISTRICTS
 10
805792.76685400004
 20
8986899.6035099998
 30
0.0
  0
VERTEX
  5
45F
  8
P2DISTRICTS
 10
805776.59827900003
 20
8986888.2939100005
 30
0.0
  0
VERTEX
  5
460
  8
P2DISTRICTS
 10
805760.49522599997
 20
8986876.9991100002
 30
0.0
  0
VERTEX
  5
461
  8
P2DISTRICTS
 10
805746.41531999991
 20
8986863.6091500018
 30
0.0
  0
VERTEX
  5
462
  8
P2DISTRICTS
 10
805733.97888100019
 20
8986848.4039200004
 30
0.0
  0
VERTEX
  5
463
  8
P2DISTRICTS
 10
805720.06414399995
 20
8986834.4997300021
 30
0.0
  0
VERTEX
  5
464
  8
P2DISTRICTS
 10
805706.122431
 20
8986820.6965399999
 30
0.0
  0
VERTEX
  5
465
  8
P2DISTRICTS
 10
805694.3358939999
 20
8986805.1180399992
 30
0.0
  0
VERTEX
  5
466
  8
P2DISTRICTS
 10
805682.40881000005
 20
8986789.5882799998
 30
0.0
  0
VERTEX
  5
467
  8
P2DISTRICTS
 10
805668.90079000022
 20
8986775.3021100033
 30
0.0
  0
VERTEX
  5
468
  8
P2DISTRICTS
 10
805655.625031
 20
8986760.8390100002
 30
0.0
  0
VERTEX
  5
469
  8
P2DISTRICTS
 10
805644.00430500007
 20
8986745.071560001
 30
0.0
  0
VERTEX
  5
46A
  8
P2DISTRICTS
 10
805631.64495900052
 20
8986729.8086099997
 30
0.0
  0
VERTEX
  5
46B
  8
P2DISTRICTS
 10
805618.19690800004
 20
8986715.4448399991
 30
0.0
  0
VERTEX
  5
46C
  8
P2DISTRICTS
 10
805603.87473900011
 20
8986701.9853599984
 30
0.0
  0
VERTEX
  5
46D
  8
P2DISTRICTS
 10
805589.14168800006
 20
8986689.051239999
 30
0.0
  0
VERTEX
  5
46E
  8
P2DISTRICTS
 10
805574.78787600005
 20
8986675.6931699961
 30
0.0
  0
VERTEX
  5
46F
  8
P2DISTRICTS
 10
805560.66545800015
 20
8986662.0810800008
 30
0.0
  0
VERTEX
  5
470
  8
P2DISTRICTS
 10
805546.62580299994
 20
8986648.3904899992
 30
0.0
  0
VERTEX
  5
471
  8
P2DISTRICTS
 10
805531.75033499999
 20
8986635.6503600031
 30
0.0
  0
VERTEX
  5
472
  8
P2DISTRICTS
 10
805516.10158500017
 20
8986623.7944399994
 30
0.0
  0
VERTEX
  5
473
  8
P2DISTRICTS
 10
805500.20976
 20
8986612.2422499992
 30
0.0
  0
VERTEX
  5
474
  8
P2DISTRICTS
 10
805484.32661700004
 20
8986600.7451100014
 30
0.0
  0
VERTEX
  5
475
  8
P2DISTRICTS
 10
805467.96341399988
 20
8986589.9561299998
 30
0.0
  0
VERTEX
  5
476
  8
P2DISTRICTS
 10
805451.18049900013
 20
8986579.7979899999
 30
0.0
  0
VERTEX
  5
477
  8
P2DISTRICTS
 10
805434.114115
 20
8986570.1203300003
 30
0.0
  0
VERTEX
  5
478
  8
P2DISTRICTS
 10
805416.79656599986
 20
8986560.9136699997
 30
0.0
  0
VERTEX
  5
479
  8
P2DISTRICTS
 10
805399.18381000008
 20
8986552.3050800003
 30
0.0
  0
VERTEX
  5
47A
  8
P2DISTRICTS
 10
805381.3814239999
 20
8986544.0795199983
 30
0.0
  0
VERTEX
  5
47B
  8
P2DISTRICTS
 10
805363.55510700005
 20
8986535.9052100033
 30
0.0
  0
VERTEX
  5
47C
  8
P2DISTRICTS
 10
805345.50621699996
 20
8986528.2710500006
 30
0.0
  0
VERTEX
  5
47D
  8
P2DISTRICTS
 10
805327.11506600003
 20
8986521.4825400002
 30
0.0
  0
VERTEX
  5
47E
  8
P2DISTRICTS
 10
805308.48952299997
 20
8986515.3170400001
 30
0.0
  0
VERTEX
  5
47F
  8
P2DISTRICTS
 10
805289.68544399994
 20
8986509.7011900004
 30
0.0
  0
VERTEX
  5
480
  8
P2DISTRICTS
 10
805270.721747
 20
8986504.6762600001
 30
0.0
  0
VERTEX
  5
481
  8
P2DISTRICTS
 10
805251.581687
 20
8986500.4368099999
 30
0.0
  0
VERTEX
  5
482
  8
P2DISTRICTS
 10
805232.37131400011
 20
8986496.51516
 30
0.0
  0
VERTEX
  5
483
  8
P2DISTRICTS
 10
805213.2239090004
 20
8986492.2775100004
 30
0.0
  0
VERTEX
  5
484
  8
P2DISTRICTS
 10
805193.98811100004
 20
8986488.5189100001
 30
0.0
  0
VERTEX
  5
485
  8
P2DISTRICTS
 10
805174.59480500035
 20
8986485.6302300021
 30
0.0
  0
VERTEX
  5
486
  8
P2DISTRICTS
 10
805155.11030400032
 20
8986483.3463000003
 30
0.0
  0
VERTEX
  5
487
  8
P2DISTRICTS
 10
805135.57806800026
 20
8986481.5598700009
 30
0.0
  0
VERTEX
  5
488
  8
P2DISTRICTS
 10
805116.01771499997
 20
8986480.1937699988
 30
0.0
  0
VERTEX
  5
489
  8
P2DISTRICTS
 10
805096.43487400003
 20
8986479.2595000006
 30
0.0
  0
VERTEX
  5
48A
  8
P2DISTRICTS
 10
805076.832574
 20
8986478.8095900007
 30
0.0
  0
VERTEX
  5
48B
  8
P2DISTRICTS
 10
805057.22328900034
 20
8986478.7477299999
 30
0.0
  0
VERTEX
  5
48C
  8
P2DISTRICTS
 10
805037.618258
 20
8986479.0869699996
 30
0.0
  0
VERTEX
  5
48D
  8
P2DISTRICTS
 10
805018.02283400018
 20
8986479.7828100007
 30
0.0
  0
VERTEX
  5
48E
  8
P2DISTRICTS
 10
804998.44125399995
 20
8986480.7842299994
 30
0.0
  0
VERTEX
  5
48F
  8
P2DISTRICTS
 10
804978.87890400004
 20
8986482.1033899989
 30
0.0
  0
VERTEX
  5
490
  8
P2DISTRICTS
 10
804959.33357000002
 20
8986483.6607499998
 30
0.0
  0
VERTEX
  5
491
  8
P2DISTRICTS
 10
804939.80708199996
 20
8986485.4346399996
 30
0.0
  0
VERTEX
  5
492
  8
P2DISTRICTS
 10
804920.29697499995
 20
8986487.3787899967
 30
0.0
  0
VERTEX
  5
493
  8
P2DISTRICTS
 10
804900.79607000004
 20
8986489.4079999998
 30
0.0
  0
VERTEX
  5
494
  8
P2DISTRICTS
 10
804881.30012000003
 20
8986491.4719999991
 30
0.0
  0
VERTEX
  5
495
  8
P2DISTRICTS
 10
804861.80339100014
 20
8986493.5387299992
 30
0.0
  0
VERTEX
  5
496
  8
P2DISTRICTS
 10
804842.29882599995
 20
8986495.5763800014
 30
0.0
  0
VERTEX
  5
497
  8
P2DISTRICTS
 10
804822.77861799998
 20
8986497.4728399999
 30
0.0
  0
VERTEX
  5
498
  8
P2DISTRICTS
 10
804803.23154499987
 20
8986498.9626699984
 30
0.0
  0
VERTEX
  5
499
  8
P2DISTRICTS
 10
804783.645624
 20
8986499.8096500002
 30
0.0
  0
VERTEX
  5
49A
  8
P2DISTRICTS
 10
804764.05305900006
 20
8986500.6799400002
 30
0.0
  0
VERTEX
  5
49B
  8
P2DISTRICTS
 10
804744.46069799992
 20
8986501.1295299996
 30
0.0
  0
VERTEX
  5
49C
  8
P2DISTRICTS
 10
804724.86208999972
 20
8986500.6027600002
 30
0.0
  0
VERTEX
  5
49D
  8
P2DISTRICTS
 10
804705.26035700005
 20
8986499.9167000018
 30
0.0
  0
VERTEX
  5
49E
  8
P2DISTRICTS
 10
804685.69783100008
 20
8986498.7488100007
 30
0.0
  0
VERTEX
  5
49F
  8
P2DISTRICTS
 10
804666.22181300004
 20
8986496.377299998
 30
0.0
  0
VERTEX
  5
4A0
  8
P2DISTRICTS
 10
804646.84315400023
 20
8986493.2361800019
 30
0.0
  0
VERTEX
  5
4A1
  8
P2DISTRICTS
 10
804627.58468900027
 20
8986489.5028499998
 30
0.0
  0
VERTEX
  5
4A2
  8
P2DISTRICTS
 10
804608.44542500016
 20
8986485.2539499998
 30
0.0
  0
VERTEX
  5
4A3
  8
P2DISTRICTS
 10
804589.45936800016
 20
8986480.3869800027
 30
0.0
  0
VERTEX
  5
4A4
  8
P2DISTRICTS
 10
804570.61517400015
 20
8986474.9696399979
 30
0.0
  0
VERTEX
  5
4A5
  8
P2DISTRICTS
 10
804551.86551200005
 20
8986469.2131900005
 30
0.0
  0
VERTEX
  5
4A6
  8
P2DISTRICTS
 10
804533.19871999999
 20
8986463.1978200004
 30
0.0
  0
VERTEX
  5
4A7
  8
P2DISTRICTS
 10
804514.63060999988
 20
8986456.8983399998
 30
0.0
  0
VERTEX
  5
4A8
  8
P2DISTRICTS
 10
804496.21384999994
 20
8986450.1775599997
 30
0.0
  0
VERTEX
  5
4A9
  8
P2DISTRICTS
 10
804477.95326700003
 20
8986443.0404000022
 30
0.0
  0
VERTEX
  5
4AA
  8
P2DISTRICTS
 10
804459.76777300006
 20
8986435.7107999995
 30
0.0
  0
VERTEX
  5
4AB
  8
P2DISTRICTS
 10
804441.59868899989
 20
8986428.3393300045
 30
0.0
  0
VERTEX
  5
4AC
  8
P2DISTRICTS
 10
804423.40649900003
 20
8986421.0269300006
 30
0.0
  0
VERTEX
  5
4AD
  8
P2DISTRICTS
 10
804405.154798
 20
8986413.8658600021
 30
0.0
  0
VERTEX
  5
4AE
  8
P2DISTRICTS
 10
804386.80694599997
 20
8986406.9493899997
 30
0.0
  0
VERTEX
  5
4AF
  8
P2DISTRICTS
 10
804368.51278700004
 20
8986399.9011199996
 30
0.0
  0
VERTEX
  5
4B0
  8
P2DISTRICTS
 10
804350.43278000003
 20
8986392.3166599981
 30
0.0
  0
VERTEX
  5
4B1
  8
P2DISTRICTS
 10
804332.32409399992
 20
8986384.7987699993
 30
0.0
  0
VERTEX
  5
4B2
  8
P2DISTRICTS
 10
804314.14225000027
 20
8986377.4608999994
 30
0.0
  0
VERTEX
  5
4B3
  8
P2DISTRICTS
 10
804295.89656099968
 20
8986370.2837599982
 30
0.0
  0
VERTEX
  5
4B4
  8
P2DISTRICTS
 10
804277.58497600013
 20
8986363.2762199994
 30
0.0
  0
VERTEX
  5
4B5
  8
P2DISTRICTS
 10
804259.20826099988
 20
8986356.4405399989
 30
0.0
  0
VERTEX
  5
4B6
  8
P2DISTRICTS
 10
804240.77019900014
 20
8986349.7721999995
 30
0.0
  0
VERTEX
  5
4B7
  8
P2DISTRICTS
 10
804222.60519500019
 20
8986342.4076400008
 30
0.0
  0
VERTEX
  5
4B8
  8
P2DISTRICTS
 10
804204.62173400016
 20
8986334.5776700005
 30
0.0
  0
VERTEX
  5
4B9
  8
P2DISTRICTS
 10
804186.58035399998
 20
8986326.8952300027
 30
0.0
  0
VERTEX
  5
4BA
  8
P2DISTRICTS
 10
804168.43605300004
 20
8986319.4700100012
 30
0.0
  0
VERTEX
  5
4BB
  8
P2DISTRICTS
 10
804150.21491400013
 20
8986312.22456
 30
0.0
  0
VERTEX
  5
4BC
  8
P2DISTRICTS
 10
804131.97232099995
 20
8986305.0218000021
 30
0.0
  0
VERTEX
  5
4BD
  8
P2DISTRICTS
 10
804114.02099999995
 20
8986297.1586700007
 30
0.0
  0
VERTEX
  5
4BE
  8
P2DISTRICTS
 10
804096.41362000012
 20
8986288.5254500005
 30
0.0
  0
VERTEX
  5
4BF
  8
P2DISTRICTS
 10
804078.820924
 20
8986279.8727700002
 30
0.0
  0
VERTEX
  5
4C0
  8
P2DISTRICTS
 10
804061.18095600035
 20
8986271.3188800011
 30
0.0
  0
VERTEX
  5
4C1
  8
P2DISTRICTS
 10
804043.45123200002
 20
8986262.9317800011
 30
0.0
  0
VERTEX
  5
4C2
  8
P2DISTRICTS
 10
804025.76167000015
 20
8986254.4634499997
 30
0.0
  0
VERTEX
  5
4C3
  8
P2DISTRICTS
 10
804008.54972500016
 20
8986245.0969899986
 30
0.0
  0
VERTEX
  5
4C4
  8
P2DISTRICTS
 10
803991.65910299984
 20
8986235.1314399987
 30
0.0
  0
VERTEX
  5
4C5
  8
P2DISTRICTS
 10
803974.71258199983
 20
8986225.2723399997
 30
0.0
  0
VERTEX
  5
4C6
  8
P2DISTRICTS
 10
803957.650807
 20
8986215.6144999973
 30
0.0
  0
VERTEX
  5
4C7
  8
P2DISTRICTS
 10
803940.41958500026
 20
8986206.2441300005
 30
0.0
  0
VERTEX
  5
4C8
  8
P2DISTRICTS
 10
803923.50142400002
 20
8986196.3646900002
 30
0.0
  0
VERTEX
  5
4C9
  8
P2DISTRICTS
 10
803907.22764499974
 20
8986185.4230800029
 30
0.0
  0
VERTEX
  5
4CA
  8
P2DISTRICTS
 10
803890.87866000016
 20
8986174.5817900021
 30
0.0
  0
VERTEX
  5
4CB
  8
P2DISTRICTS
 10
803874.17911899998
 20
8986164.2973999996
 30
0.0
  0
VERTEX
  5
4CC
  8
P2DISTRICTS
 10
803857.20780900004
 20
8986154.4709499981
 30
0.0
  0
VERTEX
  5
4CD
  8
P2DISTRICTS
 10
803840.26003400027
 20
8986144.6435899995
 30
0.0
  0
VERTEX
  5
4CE
  8
P2DISTRICTS
 10
803824.24462100002
 20
8986133.2982100006
 30
0.0
  0
VERTEX
  5
4CF
  8
P2DISTRICTS
 10
803808.27933199995
 20
8986121.8649600018
 30
0.0
  0
VERTEX
  5
4D0
  8
P2DISTRICTS
 10
803791.33810399997
 20
8986112.0145999994
 30
0.0
  0
VERTEX
  5
4D1
  8
P2DISTRICTS
 10
803773.91566699988
 20
8986102.9779999983
 30
0.0
  0
VERTEX
  5
4D2
  8
P2DISTRICTS
 10
803757.81721699995
 20
8986091.8821300007
 30
0.0
  0
VERTEX
  5
4D3
  8
P2DISTRICTS
 10
803741.92316400015
 20
8986080.3112199996
 30
0.0
  0
VERTEX
  5
4D4
  8
P2DISTRICTS
 10
803725.00651700015
 20
8986070.23673
 30
0.0
  0
VERTEX
  5
4D5
  8
P2DISTRICTS
 10
803707.22113299998
 20
8986061.8636000007
 30
0.0
  0
VERTEX
  5
4D6
  8
P2DISTRICTS
 10
803688.582972
 20
8986055.642330002
 30
0.0
  0
VERTEX
  5
4D7
  8
P2DISTRICTS
 10
803670.18251700001
 20
8986049.0214799996
 30
0.0
  0
VERTEX
  5
4D8
  8
P2DISTRICTS
 10
803652.95273699984
 20
8986039.6236000005
 30
0.0
  0
VERTEX
  5
4D9
  8
P2DISTRICTS
 10
803634.73873400013
 20
8986032.5835199971
 30
0.0
  0
VERTEX
  5
4DA
  8
P2DISTRICTS
 10
803615.426079
 20
8986028.5484800003
 30
0.0
  0
VERTEX
  5
4DB
  8
P2DISTRICTS
 10
803595.745658
 20
8986026.4646600001
 30
0.0
  0
VERTEX
  5
4DC
  8
P2DISTRICTS
 10
803576.09767399996
 20
8986025.8781399988
 30
0.0
  0
VERTEX
  5
4DD
  8
P2DISTRICTS
 10
803556.52198100009
 20
8986026.4764699992
 30
0.0
  0
VERTEX
  5
4DE
  8
P2DISTRICTS
 10
803537.038848
 20
8986028.3480899967
 30
0.0
  0
VERTEX
  5
4DF
  8
P2DISTRICTS
 10
803517.63959500007
 20
8986031.2269100007
 30
0.0
  0
VERTEX
  5
4E0
  8
P2DISTRICTS
 10
803498.30768700002
 20
8986034.7003899999
 30
0.0
  0
VERTEX
  5
4E1
  8
P2DISTRICTS
 10
803479.07258500031
 20
8986038.6742700003
 30
0.0
  0
VERTEX
  5
4E2
  8
P2DISTRICTS
 10
803460.05782300013
 20
8986043.4641900007
 30
0.0
  0
VERTEX
  5
4E3
  8
P2DISTRICTS
 10
803441.43518899975
 20
8986049.5787199996
 30
0.0
  0
VERTEX
  5
4E4
  8
P2DISTRICTS
 10
803422.43995899998
 20
8986054.2856699992
 30
0.0
  0
VERTEX
  5
4E5
  8
P2DISTRICTS
 10
803403.10639800003
 20
8986057.7927000001
 30
0.0
  0
VERTEX
  5
4E6
  8
P2DISTRICTS
 10
803383.97371000005
 20
8986062.1085499991
 30
0.0
  0
VERTEX
  5
4E7
  8
P2DISTRICTS
 10
803365.05367699999
 20
8986067.2568800002
 30
0.0
  0
VERTEX
  5
4E8
  8
P2DISTRICTS
 10
803346.20733299979
 20
8986072.6962000001
 30
0.0
  0
VERTEX
  5
4E9
  8
P2DISTRICTS
 10
803327.38640700001
 20
8986078.2158700004
 30
0.0
  0
VERTEX
  5
4EA
  8
P2DISTRICTS
 10
803308.68743500032
 20
8986084.1072399989
 30
0.0
  0
VERTEX
  5
4EB
  8
P2DISTRICTS
 10
803290.25296000019
 20
8986090.8082400002
 30
0.0
  0
VERTEX
  5
4EC
  8
P2DISTRICTS
 10
803271.87707499985
 20
8986097.6665599998
 30
0.0
  0
VERTEX
  5
4ED
  8
P2DISTRICTS
 10
803253.03661600011
 20
8986103.0351299997
 30
0.0
  0
VERTEX
  5
4EE
  8
P2DISTRICTS
 10
803234.16570500017
 20
8986108.3456299994
 30
0.0
  0
VERTEX
  5
4EF
  8
P2DISTRICTS
 10
803215.49207599997
 20
8986114.3278899994
 30
0.0
  0
VERTEX
  5
4F0
  8
P2DISTRICTS
 10
803196.89665600006
 20
8986120.5800800007
 30
0.0
  0
VERTEX
  5
4F1
  8
P2DISTRICTS
 10
803178.34431199997
 20
8986126.9577899966
 30
0.0
  0
VERTEX
  5
4F2
  8
P2DISTRICTS
 10
803159.94747600006
 20
8986133.7360400017
 30
0.0
  0
VERTEX
  5
4F3
  8
P2DISTRICTS
 10
803141.88125800004
 20
8986141.3563399985
 30
0.0
  0
VERTEX
  5
4F4
  8
P2DISTRICTS
 10
803123.89057499985
 20
8986149.1501000021
 30
0.0
  0
VERTEX
  5
4F5
  8
P2DISTRICTS
 10
803105.35065899999
 20
8986155.5015899986
 30
0.0
  0
VERTEX
  5
4F6
  8
P2DISTRICTS
 10
803086.79667099984
 20
8986161.8798600007
 30
0.0
  0
VERTEX
  5
4F7
  8
P2DISTRICTS
 10
803068.54407800024
 20
8986169.0742000006
 30
0.0
  0
VERTEX
  5
4F8
  8
P2DISTRICTS
 10
803050.64854600001
 20
8986177.1035500001
 30
0.0
  0
VERTEX
  5
4F9
  8
P2DISTRICTS
 10
803033.16456399998
 20
8986186.0169500001
 30
0.0
  0
VERTEX
  5
4FA
  8
P2DISTRICTS
 10
803015.68443599995
 20
8986194.9119000006
 30
0.0
  0
VERTEX
  5
4FB
  8
P2DISTRICTS
 10
802997.68479099986
 20
8986202.6464300007
 30
0.0
  0
VERTEX
  5
4FC
  8
P2DISTRICTS
 10
802979.71597300004
 20
8986210.5335600004
 30
0.0
  0
VERTEX
  5
4FD
  8
P2DISTRICTS
 10
802962.15711699997
 20
8986219.305089999
 30
0.0
  0
VERTEX
  5
4FE
  8
P2DISTRICTS
 10
802945.15181399998
 20
8986229.0767699983
 30
0.0
  0
VERTEX
  5
4FF
  8
P2DISTRICTS
 10
802928.60511100001
 20
8986239.6170700006
 30
0.0
  0
VERTEX
  5
500
  8
P2DISTRICTS
 10
802911.83019400004
 20
8986249.7464199997
 30
0.0
  0
VERTEX
  5
501
  8
P2DISTRICTS
 10
802894.56282900006
 20
8986259.0339899994
 30
0.0
  0
VERTEX
  5
502
  8
P2DISTRICTS
 10
802877.83373800025
 20
8986269.2874400001
 30
0.0
  0
VERTEX
  5
503
  8
P2DISTRICTS
 10
802861.65956399997
 20
8986280.4231199995
 30
0.0
  0
VERTEX
  5
504
  8
P2DISTRICTS
 10
802846.05982600001
 20
8986292.3235800005
 30
0.0
  0
VERTEX
  5
505
  8
P2DISTRICTS
 10
802830.63814900024
 20
8986304.4284899961
 30
0.0
  0
VERTEX
  5
506
  8
P2DISTRICTS
 10
802814.87093900004
 20
8986316.0979999993
 30
0.0
  0
VERTEX
  5
507
  8
P2DISTRICTS
 10
802799.37380600022
 20
8986328.0936999992
 30
0.0
  0
VERTEX
  5
508
  8
P2DISTRICTS
 10
802784.59643599996
 20
8986340.9723199997
 30
0.0
  0
VERTEX
  5
509
  8
P2DISTRICTS
 10
802769.92710299999
 20
8986353.9922899995
 30
0.0
  0
VERTEX
  5
50A
  8
P2DISTRICTS
 10
802755.09454900003
 20
8986366.8147100005
 30
0.0
  0
VERTEX
  5
50B
  8
P2DISTRICTS
 10
802740.57741300005
 20
8986379.9880999997
 30
0.0
  0
VERTEX
  5
50C
  8
P2DISTRICTS
 10
802726.273498
 20
8986393.401589999
 30
0.0
  0
VERTEX
  5
50D
  8
P2DISTRICTS
 10
802711.66138800001
 20
8986406.4687699992
 30
0.0
  0
VERTEX
  5
50E
  8
P2DISTRICTS
 10
802696.944686
 20
8986419.4285000004
 30
0.0
  0
VERTEX
  5
50F
  8
P2DISTRICTS
 10
802682.59112600028
 20
8986432.8120300006
 30
0.0
  0
VERTEX
  5
510
  8
P2DISTRICTS
 10
802668.00963300001
 20
8986445.912519997
 30
0.0
  0
VERTEX
  5
511
  8
P2DISTRICTS
 10
802652.57808600005
 20
8986457.9913100004
 30
0.0
  0
VERTEX
  5
512
  8
P2DISTRICTS
 10
802637.58433200023
 20
8986470.6492299996
 30
0.0
  0
VERTEX
  5
513
  8
P2DISTRICTS
 10
802623.08547000005
 20
8986483.9213300049
 30
0.0
  0
VERTEX
  5
514
  8
P2DISTRICTS
 10
802608.05578100018
 20
8986496.4789800011
 30
0.0
  0
VERTEX
  5
515
  8
P2DISTRICTS
 10
802592.00585699989
 20
8986507.7219799999
 30
0.0
  0
VERTEX
  5
516
  8
P2DISTRICTS
 10
802576.78034099983
 20
8986520.1283100005
 30
0.0
  0
VERTEX
  5
517
  8
P2DISTRICTS
 10
802562.42018500005
 20
8986533.5821399987
 30
0.0
  0
VERTEX
  5
518
  8
P2DISTRICTS
 10
802548.89906800014
 20
8986547.8341899998
 30
0.0
  0
VERTEX
  5
519
  8
P2DISTRICTS
 10
802535.72174499999
 20
8986562.3664400019
 30
0.0
  0
VERTEX
  5
51A
  8
P2DISTRICTS
 10
802522.52358400018
 20
8986576.8925800044
 30
0.0
  0
VERTEX
  5
51B
  8
P2DISTRICTS
 10
802509.73265500006
 20
8986591.7486000024
 30
0.0
  0
VERTEX
  5
51C
  8
P2DISTRICTS
 10
802497.80794499989
 20
8986607.3057700004
 30
0.0
  0
VERTEX
  5
51D
  8
P2DISTRICTS
 10
802486.25245499995
 20
8986623.2491500005
 30
0.0
  0
VERTEX
  5
51E
  8
P2DISTRICTS
 10
802474.1814
 20
8986638.7439799998
 30
0.0
  0
VERTEX
  5
51F
  8
P2DISTRICTS
 10
802460.61911700026
 20
8986652.80253
 30
0.0
  0
VERTEX
  5
520
  8
P2DISTRICTS
 10
802445.83033499995
 20
8986665.7051800005
 30
0.0
  0
VERTEX
  5
521
  8
P2DISTRICTS
 10
802431.67938300013
 20
8986679.3271399997
 30
0.0
  0
VERTEX
  5
522
  8
P2DISTRICTS
 10
802418.27270000032
 20
8986693.6493100002
 30
0.0
  0
VERTEX
  5
523
  8
P2DISTRICTS
 10
802405.737631
 20
8986708.6668500006
 30
0.0
  0
VERTEX
  5
524
  8
P2DISTRICTS
 10
802393.95081900002
 20
8986724.5491199996
 30
0.0
  0
VERTEX
  5
525
  8
P2DISTRICTS
 10
802383.93361099996
 20
8986741.5691600014
 30
0.0
  0
VERTEX
  5
526
  8
P2DISTRICTS
 10
802378.61431700015
 20
8986760.0400300007
 30
0.0
  0
VERTEX
  5
527
  8
P2DISTRICTS
 10
802378.26997999987
 20
8986779.7226400021
 30
0.0
  0
VERTEX
  5
528
  8
P2DISTRICTS
 10
802380.45174599998
 20
8986799.6416500024
 30
0.0
  0
VERTEX
  5
529
  8
P2DISTRICTS
 10
802383.61029899993
 20
8986819.1393800005
 30
0.0
  0
VERTEX
  5
52A
  8
P2DISTRICTS
 10
802386.31278300018
 20
8986838.4772699997
 30
0.0
  0
VERTEX
  5
52B
  8
P2DISTRICTS
 10
802386.91695300001
 20
8986858.1143399999
 30
0.0
  0
VERTEX
  5
52C
  8
P2DISTRICTS
 10
802385.96253599995
 20
8986877.999189999
 30
0.0
  0
VERTEX
  5
52D
  8
P2DISTRICTS
 10
802387.25892699999
 20
8986897.3726100009
 30
0.0
  0
VERTEX
  5
52E
  8
P2DISTRICTS
 10
802394.31014100031
 20
8986915.4785899986
 30
0.0
  0
VERTEX
  5
52F
  8
P2DISTRICTS
 10
802404.44239400025
 20
8986932.5040699989
 30
0.0
  0
VERTEX
  5
530
  8
P2DISTRICTS
 10
802416.11054300005
 20
8986948.2255399991
 30
0.0
  0
VERTEX
  5
531
  8
P2DISTRICTS
 10
802430.49317799986
 20
8986961.5957699995
 30
0.0
  0
VERTEX
  5
532
  8
P2DISTRICTS
 10
802447.06040400022
 20
8986972.3004999962
 30
0.0
  0
VERTEX
  5
533
  8
P2DISTRICTS
 10
802465.23649100005
 20
8986979.6008100007
 30
0.0
  0
VERTEX
  5
534
  8
P2DISTRICTS
 10
802484.37736099993
 20
8986984.2551499996
 30
0.0
  0
VERTEX
  5
535
  8
P2DISTRICTS
 10
802503.861913
 20
8986987.2231900003
 30
0.0
  0
VERTEX
  5
536
  8
P2DISTRICTS
 10
802523.37186700001
 20
8986988.9617799986
 30
0.0
  0
VERTEX
  5
537
  8
P2DISTRICTS
 10
802542.95418500004
 20
8986989.8851299994
 30
0.0
  0
VERTEX
  5
538
  8
P2DISTRICTS
 10
802562.70639399998
 20
8986990.1911800001
 30
0.0
  0
VERTEX
  5
539
  8
P2DISTRICTS
 10
802582.41513800004
 20
8986990.97817
 30
0.0
  0
VERTEX
  5
53A
  8
P2DISTRICTS
 10
802601.58126999997
 20
8986994.3735399991
 30
0.0
  0
VERTEX
  5
53B
  8
P2DISTRICTS
 10
802620.04659599997
 20
8987001.0233600009
 30
0.0
  0
VERTEX
  5
53C
  8
P2DISTRICTS
 10
802638.49964199995
 20
8987007.6784899998
 30
0.0
  0
VERTEX
  5
53D
  8
P2DISTRICTS
 10
802656.69353800011
 20
8987014.9138600007
 30
0.0
  0
VERTEX
  5
53E
  8
P2DISTRICTS
 10
802674.51307700016
 20
8987023.1110899989
 30
0.0
  0
VERTEX
  5
53F
  8
P2DISTRICTS
 10
802692.34637499996
 20
8987031.2847000025
 30
0.0
  0
VERTEX
  5
540
  8
P2DISTRICTS
 10
802710.59608900023
 20
8987038.4101400003
 30
0.0
  0
VERTEX
  5
541
  8
P2DISTRICTS
 10
802729.15428400016
 20
8987044.7632999998
 30
0.0
  0
VERTEX
  5
542
  8
P2DISTRICTS
 10
802747.50913800031
 20
8987051.6511000004
 30
0.0
  0
VERTEX
  5
543
  8
P2DISTRICTS
 10
802765.91569099994
 20
8987058.3989000022
 30
0.0
  0
VERTEX
  5
544
  8
P2DISTRICTS
 10
802784.71791700018
 20
8987064.0277999993
 30
0.0
  0
VERTEX
  5
545
  8
P2DISTRICTS
 10
802803.76906600012
 20
8987068.7539000027
 30
0.0
  0
VERTEX
  5
546
  8
P2DISTRICTS
 10
802822.99706700002
 20
8987072.6331699993
 30
0.0
  0
VERTEX
  5
547
  8
P2DISTRICTS
 10
802842.34170900006
 20
8987075.8464399986
 30
0.0
  0
VERTEX
  5
548
  8
P2DISTRICTS
 10
802861.78274699999
 20
8987078.3734000009
 30
0.0
  0
VERTEX
  5
549
  8
P2DISTRICTS
 10
802881.29276700015
 20
8987080.3369600009
 30
0.0
  0
VERTEX
  5
54A
  8
P2DISTRICTS
 10
802900.83759400004
 20
8987081.9450499993
 30
0.0
  0
VERTEX
  5
54B
  8
P2DISTRICTS
 10
802920.398178
 20
8987083.3002100009
 30
0.0
  0
VERTEX
  5
54C
  8
P2DISTRICTS
 10
802939.96321199997
 20
8987084.5638500005
 30
0.0
  0
VERTEX
  5
54D
  8
P2DISTRICTS
 10
802959.52375599998
 20
8987085.889200002
 30
0.0
  0
VERTEX
  5
54E
  8
P2DISTRICTS
 10
802979.07414900023
 20
8987087.3646600004
 30
0.0
  0
VERTEX
  5
54F
  8
P2DISTRICTS
 10
802998.60959999997
 20
8987089.0509600006
 30
0.0
  0
VERTEX
  5
550
  8
P2DISTRICTS
 10
803018.11866700021
 20
8987091.0653799996
 30
0.0
  0
VERTEX
  5
551
  8
P2DISTRICTS
 10
803037.57757700025
 20
8987093.49333
 30
0.0
  0
VERTEX
  5
552
  8
P2DISTRICTS
 10
803056.94146400003
 20
8987096.5422499999
 30
0.0
  0
VERTEX
  5
553
  8
P2DISTRICTS
 10
803076.19905600022
 20
8987100.2375399992
 30
0.0
  0
VERTEX
  5
554
  8
P2DISTRICTS
 10
803095.33394400007
 20
8987104.5315199979
 30
0.0
  0
VERTEX
  5
555
  8
P2DISTRICTS
 10
803114.16796600015
 20
8987109.9079999998
 30
0.0
  0
VERTEX
  5
556
  8
P2DISTRICTS
 10
803132.69791900006
 20
8987116.3238300011
 30
0.0
  0
VERTEX
  5
557
  8
P2DISTRICTS
 10
803151.01101899997
 20
8987123.4491799995
 30
0.0
  0
VERTEX
  5
558
  8
P2DISTRICTS
 10
803169.0765529999
 20
8987131.2474600002
 30
0.0
  0
VERTEX
  5
559
  8
P2DISTRICTS
 10
803186.661097
 20
8987139.9761899989
 30
0.0
  0
VERTEX
  5
55A
  8
P2DISTRICTS
 10
803203.34499300015
 20
8987150.2249700017
 30
0.0
  0
VERTEX
  5
55B
  8
P2DISTRICTS
 10
803219.1866880001
 20
8987162.0255600009
 30
0.0
  0
VERTEX
  5
55C
  8
P2DISTRICTS
 10
803234.00840800023
 20
8987175.1310500018
 30
0.0
  0
VERTEX
  5
55D
  8
P2DISTRICTS
 10
803247.00142900005
 20
8987189.8323500007
 30
0.0
  0
VERTEX
  5
55E
  8
P2DISTRICTS
 10
803257.214851
 20
8987206.5178099982
 30
0.0
  0
VERTEX
  5
55F
  8
P2DISTRICTS
 10
803265.11153699993
 20
8987224.4234500006
 30
0.0
  0
VERTEX
  5
560
  8
P2DISTRICTS
 10
803271.68699799979
 20
8987242.9860100001
 30
0.0
  0
VERTEX
  5
561
  8
P2DISTRICTS
 10
803277.5901129999
 20
8987261.8846300002
 30
0.0
  0
VERTEX
  5
562
  8
P2DISTRICTS
 10
803283.86186800012
 20
8987280.5862499978
 30
0.0
  0
VERTEX
  5
563
  8
P2DISTRICTS
 10
803292.15926800016
 20
8987298.233169999
 30
0.0
  0
VERTEX
  5
564
  8
P2DISTRICTS
 10
803302.50422500016
 20
8987314.8400899973
 30
0.0
  0
VERTEX
  5
565
  8
P2DISTRICTS
 10
803309.61474800005
 20
8987333.2021200005
 30
0.0
  0
VERTEX
  5
566
  8
P2DISTRICTS
 10
803317.3433660001
 20
8987351.1600199994
 30
0.0
  0
VERTEX
  5
567
  8
P2DISTRICTS
 10
803329.36367799994
 20
8987366.5693899989
 30
0.0
  0
VERTEX
  5
568
  8
P2DISTRICTS
 10
803344.21099799988
 20
8987379.8110900018
 30
0.0
  0
VERTEX
  5
569
  8
P2DISTRICTS
 10
803360.3825330002
 20
8987391.0834100004
 30
0.0
  0
VERTEX
  5
56A
  8
P2DISTRICTS
 10
803376.99037000025
 20
8987401.4731900021
 30
0.0
  0
VERTEX
  5
56B
  8
P2DISTRICTS
 10
803393.88086100016
 20
8987411.5044199973
 30
0.0
  0
VERTEX
  5
56C
  8
P2DISTRICTS
 10
803412.1838260002
 20
8987418.3846399989
 30
0.0
  0
VERTEX
  5
56D
  8
P2DISTRICTS
 10
803431.79926999996
 20
8987421.2999499999
 30
0.0
  0
VERTEX
  5
56E
  8
P2DISTRICTS
 10
803451.59422099986
 20
8987420.7942100018
 30
0.0
  0
VERTEX
  5
56F
  8
P2DISTRICTS
 10
803470.81442000007
 20
8987416.8184199985
 30
0.0
  0
VERTEX
  5
570
  8
P2DISTRICTS
 10
803489.50153899996
 20
8987410.6418899987
 30
0.0
  0
VERTEX
  5
571
  8
P2DISTRICTS
 10
803507.67100199999
 20
8987403.1319099981
 30
0.0
  0
VERTEX
  5
572
  8
P2DISTRICTS
 10
803524.96449000004
 20
8987393.9990699999
 30
0.0
  0
VERTEX
  5
573
  8
P2DISTRICTS
 10
803541.5491790002
 20
8987383.5150000006
 30
0.0
  0
VERTEX
  5
574
  8
P2DISTRICTS
 10
803558.38858100015
 20
8987373.34956
 30
0.0
  0
VERTEX
  5
575
  8
P2DISTRICTS
 10
803575.48883500043
 20
8987363.6249499992
 30
0.0
  0
VERTEX
  5
576
  8
P2DISTRICTS
 10
803591.85256800009
 20
8987352.8991199993
 30
0.0
  0
VERTEX
  5
577
  8
P2DISTRICTS
 10
803607.37675100018
 20
8987341.0624199975
 30
0.0
  0
VERTEX
  5
578
  8
P2DISTRICTS
 10
803625.04466000001
 20
8987332.5820700005
 30
0.0
  0
VERTEX
  5
579
  8
P2DISTRICTS
 10
803643.90166900004
 20
8987326.2312299982
 30
0.0
  0
VERTEX
  5
57A
  8
P2DISTRICTS
 10
803662.95981200016
 20
8987320.8381999992
 30
0.0
  0
VERTEX
  5
57B
  8
P2DISTRICTS
 10
803681.99002100015
 20
8987316.1392300017
 30
0.0
  0
VERTEX
  5
57C
  8
P2DISTRICTS
 10
803701.17384700011
 20
8987312.4965399988
 30
0.0
  0
VERTEX
  5
57D
  8
P2DISTRICTS
 10
803720.64769300004
 20
8987310.3387499992
 30
0.0
  0
VERTEX
  5
57E
  8
P2DISTRICTS
 10
803740.27443400037
 20
8987309.3976799995
 30
0.0
  0
VERTEX
  5
57F
  8
P2DISTRICTS
 10
803759.90793200012
 20
8987309.6578899994
 30
0.0
  0
VERTEX
  5
580
  8
P2DISTRICTS
 10
803779.47842700011
 20
8987311.0218700003
 30
0.0
  0
VERTEX
  5
581
  8
P2DISTRICTS
 10
803798.95959300001
 20
8987313.2729399987
 30
0.0
  0
VERTEX
  5
582
  8
P2DISTRICTS
 10
803818.31053400005
 20
8987316.4361499995
 30
0.0
  0
VERTEX
  5
583
  8
P2DISTRICTS
 10
803837.54368099989
 20
8987320.2827000003
 30
0.0
  0
VERTEX
  5
584
  8
P2DISTRICTS
 10
803856.6525310002
 20
8987324.6922200006
 30
0.0
  0
VERTEX
  5
585
  8
P2DISTRICTS
 10
803875.64161000005
 20
8987329.5749999993
 30
0.0
  0
VERTEX
  5
586
  8
P2DISTRICTS
 10
803894.56193500001
 20
8987334.7210699972
 30
0.0
  0
VERTEX
  5
587
  8
P2DISTRICTS
 10
803913.44243399997
 20
8987340.0101399999
 30
0.0
  0
VERTEX
  5
588
  8
P2DISTRICTS
 10
803932.291983
 20
8987345.4052000009
 30
0.0
  0
VERTEX
  5
589
  8
P2DISTRICTS
 10
803951.10366400005
 20
8987350.9299299996
 30
0.0
  0
VERTEX
  5
58A
  8
P2DISTRICTS
 10
803969.85068400018
 20
8987356.6702899989
 30
0.0
  0
VERTEX
  5
58B
  8
P2DISTRICTS
 10
803988.56792200019
 20
8987362.5088999998
 30
0.0
  0
VERTEX
  5
58C
  8
P2DISTRICTS
 10
804007.31330499996
 20
8987368.2548300028
 30
0.0
  0
VERTEX
  5
58D
  8
P2DISTRICTS
 10
804026.10971400014
 20
8987373.8320899997
 30
0.0
  0
VERTEX
  5
58E
  8
P2DISTRICTS
 10
804044.93875500024
 20
8987379.299730001
 30
0.0
  0
VERTEX
  5
58F
  8
P2DISTRICTS
 10
804063.79177600006
 20
8987384.6839100011
 30
0.0
  0
VERTEX
  5
590
  8
P2DISTRICTS
 10
804082.67203799996
 20
8987389.9706699979
 30
0.0
  0
VERTEX
  5
591
  8
P2DISTRICTS
 10
804101.59532199998
 20
8987395.1021299995
 30
0.0
  0
VERTEX
  5
592
  8
P2DISTRICTS
 10
804120.53103499988
 20
8987400.1854899991
 30
0.0
  0
VERTEX
  5
593
  8
P2DISTRICTS
 10
804139.33165800001
 20
8987405.7459200025
 30
0.0
  0
VERTEX
  5
594
  8
P2DISTRICTS
 10
804158.11567399988
 20
8987411.3695600014
 30
0.0
  0
VERTEX
  5
595
  8
P2DISTRICTS
 10
804176.94526099996
 20
8987416.8358400017
 30
0.0
  0
VERTEX
  5
596
  8
P2DISTRICTS
 10
804195.75354099995
 20
8987422.3707400002
 30
0.0
  0
VERTEX
  5
597
  8
P2DISTRICTS
 10
804214.47461499996
 20
8987428.196560001
 30
0.0
  0
VERTEX
  5
598
  8
P2DISTRICTS
 10
804233.159139
 20
8987434.1434399989
 30
0.0
  0
VERTEX
  5
599
  8
P2DISTRICTS
 10
804251.91554299975
 20
8987439.8468300011
 30
0.0
  0
VERTEX
  5
59A
  8
P2DISTRICTS
 10
804270.80070400028
 20
8987445.1156699993
 30
0.0
  0
VERTEX
  5
59B
  8
P2DISTRICTS
 10
804289.68766700011
 20
8987450.3787899986
 30
0.0
  0
VERTEX
  5
59C
  8
P2DISTRICTS
 10
804308.55558699998
 20
8987455.7251999993
 30
0.0
  0
VERTEX
  5
59D
  8
P2DISTRICTS
 10
804327.59880399995
 20
8987460.4514600001
 30
0.0
  0
VERTEX
  5
59E
  8
P2DISTRICTS
 10
804346.84921000001
 20
8987464.2134000007
 30
0.0
  0
VERTEX
  5
59F
  8
P2DISTRICTS
 10
804366.36376099999
 20
8987466.4725299999
 30
0.0
  0
VERTEX
  5
5A0
  8
P2DISTRICTS
 10
804386.00369599985
 20
8987467.1966800001
 30
0.0
  0
VERTEX
  5
5A1
  8
P2DISTRICTS
 10
804405.56434900023
 20
8987466.1299900003
 30
0.0
  0
VERTEX
  5
5A2
  8
P2DISTRICTS
 10
804424.94495000003
 20
8987463.2195800003
 30
0.0
  0
VERTEX
  5
5A3
  8
P2DISTRICTS
 10
804444.21302100015
 20
8987459.3972800002
 30
0.0
  0
VERTEX
  5
5A4
  8
P2DISTRICTS
 10
804463.410409
 20
8987455.3227500021
 30
0.0
  0
VERTEX
  5
5A5
  8
P2DISTRICTS
 10
804482.54364399996
 20
8987451.07106
 30
0.0
  0
VERTEX
  5
5A6
  8
P2DISTRICTS
 10
804501.61871099984
 20
8987446.5446600001
 30
0.0
  0
VERTEX
  5
5A7
  8
P2DISTRICTS
 10
804520.85229399987
 20
8987442.7677299995
 30
0.0
  0
VERTEX
  5
5A8
  8
P2DISTRICTS
 10
804540.18558799988
 20
8987439.4638199992
 30
0.0
  0
VERTEX
  5
5A9
  8
P2DISTRICTS
 10
804559.49590800004
 20
8987436.044230001
 30
0.0
  0
VERTEX
  5
5AA
  8
P2DISTRICTS
 10
804578.73799399997
 20
8987432.2869300004
 30
0.0
  0
VERTEX
  5
5AB
  8
P2DISTRICTS
 10
804597.92576000001
 20
8987428.2468800005
 30
0.0
  0
VERTEX
  5
5AC
  8
P2DISTRICTS
 10
804617.06685700011
 20
8987423.9526000004
 30
0.0
  0
VERTEX
  5
5AD
  8
P2DISTRICTS
 10
804636.22724299994
 20
8987419.7759600021
 30
0.0
  0
VERTEX
  5
5AE
  8
P2DISTRICTS
 10
804655.50694500003
 20
8987416.2887200005
 30
0.0
  0
VERTEX
  5
5AF
  8
P2DISTRICTS
 10
804674.95051600016
 20
8987413.7768099979
 30
0.0
  0
VERTEX
  5
5B0
  8
P2DISTRICTS
 10
804694.48308200005
 20
8987411.9109800011
 30
0.0
  0
VERTEX
  5
5B1
  8
P2DISTRICTS
 10
804714.05256999994
 20
8987410.5383199994
 30
0.0
  0
VERTEX
  5
5B2
  8
P2DISTRICTS
 10
804733.63872299995
 20
8987409.6017600037
 30
0.0
  0
VERTEX
  5
5B3
  8
P2DISTRICTS
 10
804753.23726600001
 20
8987409.1720899995
 30
0.0
  0
VERTEX
  5
5B4
  8
P2DISTRICTS
 10
804772.84402399999
 20
8987409.3493600003
 30
0.0
  0
VERTEX
  5
5B5
  8
P2DISTRICTS
 10
804792.44437200041
 20
8987410.0058899987
 30
0.0
  0
VERTEX
  5
5B6
  8
P2DISTRICTS
 10
804812.02031199983
 20
8987411.1407999992
 30
0.0
  0
VERTEX
  5
5B7
  8
P2DISTRICTS
 10
804831.56700100028
 20
8987412.689819999
 30
0.0
  0
VERTEX
  5
5B8
  8
P2DISTRICTS
 10
804851.08417799999
 20
8987414.569260003
 30
0.0
  0
VERTEX
  5
5B9
  8
P2DISTRICTS
 10
804870.56657999998
 20
8987416.7745999992
 30
0.0
  0
VERTEX
  5
5BA
  8
P2DISTRICTS
 10
804890.02103399986
 20
8987419.2175999992
 30
0.0
  0
VERTEX
  5
5BB
  8
P2DISTRICTS
 10
804909.44803100009
 20
8987421.8662100006
 30
0.0
  0
VERTEX
  5
5BC
  8
P2DISTRICTS
 10
804928.85058400012
 20
8987424.6863700021
 30
0.0
  0
VERTEX
  5
5BD
  8
P2DISTRICTS
 10
804948.23617199995
 20
8987427.6227800027
 30
0.0
  0
VERTEX
  5
5BE
  8
P2DISTRICTS
 10
804967.60641699994
 20
8987430.6604200006
 30
0.0
  0
VERTEX
  5
5BF
  8
P2DISTRICTS
 10
804986.96195100027
 20
8987433.7881899998
 30
0.0
  0
VERTEX
  5
5C0
  8
P2DISTRICTS
 10
805006.29893299995
 20
8987437.0208399985
 30
0.0
  0
VERTEX
  5
5C1
  8
P2DISTRICTS
 10
805025.62041700003
 20
8987440.341839999
 30
0.0
  0
VERTEX
  5
5C2
  8
P2DISTRICTS
 10
805044.94673399988
 20
8987443.6494899988
 30
0.0
  0
VERTEX
  5
5C3
  8
P2DISTRICTS
 10
805064.28990500001
 20
8987446.8853399996
 30
0.0
  0
VERTEX
  5
5C4
  8
P2DISTRICTS
 10
805083.54668599996
 20
8987450.5464299992
 30
0.0
  0
VERTEX
  5
5C5
  8
P2DISTRICTS
 10
805102.63852000015
 20
8987455.0183699988
 30
0.0
  0
VERTEX
  5
5C6
  8
P2DISTRICTS
 10
805121.70611000003
 20
8987459.6198800001
 30
0.0
  0
VERTEX
  5
5C7
  8
P2DISTRICTS
 10
805140.71971500001
 20
8987464.4028399996
 30
0.0
  0
VERTEX
  5
5C8
  8
P2DISTRICTS
 10
805159.60234800004
 20
8987469.6070700008
 30
0.0
  0
VERTEX
  5
5C9
  8
P2DISTRICTS
 10
805178.35577600019
 20
8987475.2658699993
 30
0.0
  0
VERTEX
  5
5CA
  8
P2DISTRICTS
 10
805197.05863700015
 20
8987481.2271600012
 30
0.0
  0
VERTEX
  5
5CB
  8
P2DISTRICTS
 10
805215.71779899998
 20
8987487.5218100008
 30
0.0
  0
VERTEX
  5
5CC
  8
P2DISTRICTS
 10
805233.9464880001
 20
8987494.8065000009
 30
0.0
  0
VERTEX
  5
5CD
  8
P2DISTRICTS
 10
805251.06302200002
 20
8987504.2859300002
 30
0.0
  0
VERTEX
  5
5CE
  8
P2DISTRICTS
 10
805267.16767899995
 20
8987515.5551400017
 30
0.0
  0
VERTEX
  5
5CF
  8
P2DISTRICTS
 10
805282.42475400004
 20
8987527.9852199983
 30
0.0
  0
VERTEX
  5
5D0
  8
P2DISTRICTS
 10
805296.634081
 20
8987541.5488300007
 30
0.0
  0
SEQEND
  5
5D1
  8
P2DISTRICTS
  0
POLYLINE
  5
99
  8
P2DISTRICTS
 66
     1
 10
0.0
 20
0.0
 30
0.0
 70
   128
  0
VERTEX
  5
5D2
  8
P2DISTRICTS
 10
806158.30142399995
 20
8986687.4545600004
 30
0.0
  0
VERTEX
  5
5D3
  8
P2DISTRICTS
 10
806155.44685299986
 20
8986706.8947899994
 30
0.0
  0
VERTEX
  5
5D4
  8
P2DISTRICTS
 10
806150.58921100001
 20
8986725.8937599994
 30
0.0
  0
VERTEX
  5
5D5
  8
P2DISTRICTS
 10
806145.55617100012
 20
8986744.8610300049
 30
0.0
  0
VERTEX
  5
5D6
  8
P2DISTRICTS
 10
806138.5361080002
 20
8986763.1165700015
 30
0.0
  0
VERTEX
  5
5D7
  8
P2DISTRICTS
 10
806129.0269249999
 20
8986780.3625399992
 30
0.0
  0
VERTEX
  5
5D8
  8
P2DISTRICTS
 10
806117.88633800019
 20
8986796.6648899987
 30
0.0
  0
VERTEX
  5
5D9
  8
P2DISTRICTS
 10
806105.53167599998
 20
8986811.9169600047
 30
0.0
  0
VERTEX
  5
5DA
  8
P2DISTRICTS
 10
806092.41125500028
 20
8986826.4897300005
 30
0.0
  0
VERTEX
  5
5DB
  8
P2DISTRICTS
 10
806078.60812299978
 20
8986840.4441500008
 30
0.0
  0
VERTEX
  5
5DC
  8
P2DISTRICTS
 10
806063.96178300004
 20
8986853.4627399985
 30
0.0
  0
VERTEX
  5
5DD
  8
P2DISTRICTS
 10
806048.47755800001
 20
8986865.5063399989
 30
0.0
  0
VERTEX
  5
5DE
  8
P2DISTRICTS
 10
806032.463292
 20
8986876.9325699992
 30
0.0
  0
VERTEX
  5
5DF
  8
P2DISTRICTS
 10
806015.88262399996
 20
8986887.4720200021
 30
0.0
  0
VERTEX
  5
5E0
  8
P2DISTRICTS
 10
805998.51525699999
 20
8986896.5217499994
 30
0.0
  0
VERTEX
  5
5E1
  8
P2DISTRICTS
 10
805980.47811900033
 20
8986904.2292600032
 30
0.0
  0
VERTEX
  5
5E2
  8
P2DISTRICTS
 10
805962.27927699976
 20
8986911.5397800021
 30
0.0
  0
VERTEX
  5
5E3
  8
P2DISTRICTS
 10
805943.67651799996
 20
8986917.7462199982
 30
0.0
  0
VERTEX
  5
5E4
  8
P2DISTRICTS
 10
805924.55650099996
 20
8986922.3272200003
 30
0.0
  0
VERTEX
  5
5E5
  8
P2DISTRICTS
 10
805905.14922699996
 20
8986925.3254499994
 30
0.0
  0
VERTEX
  5
5E6
  8
P2DISTRICTS
 10
805885.60524599988
 20
8986926.3434299994
 30
0.0
  0
VERTEX
  5
5E7
  8
P2DISTRICTS
 10
805866.00745300006
 20
8986925.5207700003
 30
0.0
  0
VERTEX
  5
5E8
  8
P2DISTRICTS
 10
805846.41139599972
 20
8986922.9113400001
 30
0.0
  0
VERTEX
  5
5E9
  8
P2DISTRICTS
 10
805827.07403699995
 20
8986918.1243200004
 30
0.0
  0
VERTEX
  5
5EA
  8
P2DISTRICTS
 10
805808.832926
 20
8986910.6986599993
 30
0.0
  0
SEQEND
  5
5EB
  8
P2DISTRICTS
  0
POLYLINE
  5
9A
  8
P2DISTRICTS
 66
     1
 10
0.0
 20
0.0
 30
0.0
 70
   128
  0
VERTEX
  5
5EC
  8
P2DISTRICTS
 10
806538.96816200018
 20
8985528.7999100015
 30
0.0
  0
VERTEX
  5
5ED
  8
P2DISTRICTS
 10
806531.95390700013
 20
8985547.651440002
 30
0.0
  0
VERTEX
  5
5EE
  8
P2DISTRICTS
 10
806518.00643900002
 20
8985560.8673500009
 30
0.0
  0
VERTEX
  5
5EF
  8
P2DISTRICTS
 10
806501.21126899996
 20
8985571.6695399992
 30
0.0
  0
VERTEX
  5
5F0
  8
P2DISTRICTS
 10
806485.60040400014
 20
8985584.0743900016
 30
0.0
  0
VERTEX
  5
5F1
  8
P2DISTRICTS
 10
806470.07519200002
 20
8985595.973919997
 30
0.0
  0
VERTEX
  5
5F2
  8
P2DISTRICTS
 10
806452.22009099985
 20
8985603.5389699973
 30
0.0
  0
VERTEX
  5
5F3
  8
P2DISTRICTS
 10
806433.72952499997
 20
8985610.153239999
 30
0.0
  0
VERTEX
  5
5F4
  8
P2DISTRICTS
 10
806415.66713399987
 20
8985617.7441100013
 30
0.0
  0
VERTEX
  5
5F5
  8
P2DISTRICTS
 10
806397.71055600024
 20
8985625.6641499996
 30
0.0
  0
VERTEX
  5
5F6
  8
P2DISTRICTS
 10
806379.75093400001
 20
8985633.6761600003
 30
0.0
  0
VERTEX
  5
5F7
  8
P2DISTRICTS
 10
806362.16002499999
 20
8985642.3669100013
 30
0.0
  0
VERTEX
  5
5F8
  8
P2DISTRICTS
 10
806345.37817999988
 20
8985652.4384599999
 30
0.0
  0
VERTEX
  5
5F9
  8
P2DISTRICTS
 10
806327.49678499997
 20
8985660.3999400008
 30
0.0
  0
VERTEX
  5
5FA
  8
P2DISTRICTS
 10
806309.00343299995
 20
8985667.2481100038
 30
0.0
  0
VERTEX
  5
5FB
  8
P2DISTRICTS
 10
806291.43039500003
 20
8985675.8867200017
 30
0.0
  0
VERTEX
  5
5FC
  8
P2DISTRICTS
 10
806274.90780000004
 20
8985686.5439299997
 30
0.0
  0
VERTEX
  5
5FD
  8
P2DISTRICTS
 10
806258.19598800025
 20
8985696.825939998
 30
0.0
  0
VERTEX
  5
5FE
  8
P2DISTRICTS
 10
806240.50063899986
 20
8985705.2522800006
 30
0.0
  0
VERTEX
  5
5FF
  8
P2DISTRICTS
 10
806223.32398700016
 20
8985714.8107299991
 30
0.0
  0
VERTEX
  5
600
  8
P2DISTRICTS
 10
806206.91890100006
 20
8985725.6491100006
 30
0.0
  0
VERTEX
  5
601
  8
P2DISTRICTS
 10
806191.48239000025
 20
8985737.7518799994
 30
0.0
  0
VERTEX
  5
602
  8
P2DISTRICTS
 10
806176.32241599995
 20
8985750.1823600028
 30
0.0
  0
VERTEX
  5
603
  8
P2DISTRICTS
 10
806160.48835800006
 20
8985761.7829400003
 30
0.0
  0
VERTEX
  5
604
  8
P2DISTRICTS
 10
806145.28398199985
 20
8985774.0863700006
 30
0.0
  0
VERTEX
  5
605
  8
P2DISTRICTS
 10
806131.46873700002
 20
8985787.9940300006
 30
0.0
  0
VERTEX
  5
606
  8
P2DISTRICTS
 10
806117.97109699994
 20
8985802.2775800005
 30
0.0
  0
VERTEX
  5
607
  8
P2DISTRICTS
 10
806104.31707500014
 20
8985816.3524499983
 30
0.0
  0
VERTEX
  5
608
  8
P2DISTRICTS
 10
806091.43841400032
 20
8985831.1122300029
 30
0.0
  0
VERTEX
  5
609
  8
P2DISTRICTS
 10
806079.45461800031
 20
8985846.6499100011
 30
0.0
  0
VERTEX
  5
60A
  8
P2DISTRICTS
 10
806068.07480000006
 20
8985862.6281300001
 30
0.0
  0
VERTEX
  5
60B
  8
P2DISTRICTS
 10
806057.09461999999
 20
8985878.8715800028
 30
0.0
  0
VERTEX
  5
60C
  8
P2DISTRICTS
 10
806046.37146199995
 20
8985895.2810900006
 30
0.0
  0
VERTEX
  5
60D
  8
P2DISTRICTS
 10
806036.03565600025
 20
8985911.9726500008
 30
0.0
  0
VERTEX
  5
60E
  8
P2DISTRICTS
 10
806026.41837400012
 20
8985929.1076100022
 30
0.0
  0
VERTEX
  5
60F
  8
P2DISTRICTS
 10
806017.89038699993
 20
8985946.7571399994
 30
0.0
  0
VERTEX
  5
610
  8
P2DISTRICTS
 10
806010.92704099999
 20
8985965.0624899995
 30
0.0
  0
VERTEX
  5
611
  8
P2DISTRICTS
 10
806004.62739300029
 20
8985983.6464800015
 30
0.0
  0
VERTEX
  5
612
  8
P2DISTRICTS
 10
805997.65989600017
 20
8986001.9730999991
 30
0.0
  0
VERTEX
  5
613
  8
P2DISTRICTS
 10
805991.42870999989
 20
8986020.5598200001
 30
0.0
  0
VERTEX
  5
614
  8
P2DISTRICTS
 10
805986.43022600014
 20
8986039.5538299996
 30
0.0
  0
VERTEX
  5
615
  8
P2DISTRICTS
 10
805982.363136
 20
8986058.7674499992
 30
0.0
  0
VERTEX
  5
616
  8
P2DISTRICTS
 10
805979.09567800001
 20
8986078.1103800014
 30
0.0
  0
VERTEX
  5
617
  8
P2DISTRICTS
 10
805976.59179899993
 20
8986097.553410003
 30
0.0
  0
VERTEX
  5
618
  8
P2DISTRICTS
 10
805975.02521999995
 20
8986117.0977100004
 30
0.0
  0
VERTEX
  5
619
  8
P2DISTRICTS
 10
805974.27178100008
 20
8986136.7007600013
 30
0.0
  0
VERTEX
  5
61A
  8
P2DISTRICTS
 10
805974.31780299998
 20
8986156.3152099997
 30
0.0
  0
VERTEX
  5
61B
  8
P2DISTRICTS
 10
805975.19268600002
 20
8986175.9090199992
 30
0.0
  0
VERTEX
  5
61C
  8
P2DISTRICTS
 10
805976.78484199988
 20
8986195.456989998
 30
0.0
  0
VERTEX
  5
61D
  8
P2DISTRICTS
 10
805979.20232899999
 20
8986214.9206499998
 30
0.0
  0
VERTEX
  5
61E
  8
P2DISTRICTS
 10
805982.38437900017
 20
8986234.2770100031
 30
0.0
  0
VERTEX
  5
61F
  8
P2DISTRICTS
 10
805986.34822499985
 20
8986253.4812599998
 30
0.0
  0
VERTEX
  5
620
  8
P2DISTRICTS
 10
805991.16685499996
 20
8986272.4900100008
 30
0.0
  0
VERTEX
  5
621
  8
P2DISTRICTS
 10
805996.59373299999
 20
8986291.3388199992
 30
0.0
  0
VERTEX
  5
622
  8
P2DISTRICTS
 10
806002.47224699997
 20
8986310.0475699995
 30
0.0
  0
VERTEX
  5
623
  8
P2DISTRICTS
 10
806008.50988000003
 20
8986328.7137699984
 30
0.0
  0
VERTEX
  5
624
  8
P2DISTRICTS
 10
806015.02165299992
 20
8986347.2017399985
 30
0.0
  0
VERTEX
  5
625
  8
P2DISTRICTS
 10
806022.45834499993
 20
8986365.3258400038
 30
0.0
  0
VERTEX
  5
626
  8
P2DISTRICTS
 10
806030.54116599995
 20
8986383.1944299992
 30
0.0
  0
VERTEX
  5
627
  8
P2DISTRICTS
 10
806038.81052099995
 20
8986400.9891999979
 30
0.0
  0
VERTEX
  5
628
  8
P2DISTRICTS
 10
806047.13403600012
 20
8986418.7457500007
 30
0.0
  0
VERTEX
  5
629
  8
P2DISTRICTS
 10
806056.27060600021
 20
8986436.0806699991
 30
0.0
  0
VERTEX
  5
62A
  8
P2DISTRICTS
 10
806066.09181399993
 20
8986453.0620699991
 30
0.0
  0
VERTEX
  5
62B
  8
P2DISTRICTS
 10
806076.02136800031
 20
8986469.98453
 30
0.0
  0
VERTEX
  5
62C
  8
P2DISTRICTS
 10
806085.66628699994
 20
8986487.0555100031
 30
0.0
  0
VERTEX
  5
62D
  8
P2DISTRICTS
 10
806094.55528400012
 20
8986504.5245200004
 30
0.0
  0
VERTEX
  5
62E
  8
P2DISTRICTS
 10
806103.34430500004
 20
8986522.0341400001
 30
0.0
  0
VERTEX
  5
62F
  8
P2DISTRICTS
 10
806113.25935900002
 20
8986538.9401699994
 30
0.0
  0
VERTEX
  5
630
  8
P2DISTRICTS
 10
806123.0833820001
 20
8986555.9574100021
 30
0.0
  0
VERTEX
  5
631
  8
P2DISTRICTS
 10
806131.93947999994
 20
8986573.5309199989
 30
0.0
  0
VERTEX
  5
632
  8
P2DISTRICTS
 10
806139.47557299968
 20
8986591.6489300001
 30
0.0
  0
VERTEX
  5
633
  8
P2DISTRICTS
 10
806145.05126600002
 20
8986610.4117600005
 30
0.0
  0
VERTEX
  5
634
  8
P2DISTRICTS
 10
806149.79431700008
 20
8986629.4477899987
 30
0.0
  0
VERTEX
  5
635
  8
P2DISTRICTS
 10
806155.27466400014
 20
8986648.2753400002
 30
0.0
  0
VERTEX
  5
636
  8
P2DISTRICTS
 10
806158.28334400023
 20
8986667.6893000007
 30
0.0
  0
VERTEX
  5
637
  8
P2DISTRICTS
 10
806158.30142399995
 20
8986687.4545600004
 30
0.0
  0
SEQEND
  5
638
  8
P2DISTRICTS
  0
POLYLINE
  5
9B
  8
P2DISTRICTS
 66
     1
 10
0.0
 20
0.0
 30
0.0
 70
   128
  0
VERTEX
  5
639
  8
P2DISTRICTS
 10
807878.99376600026
 20
8985365.0193600021
 30
0.0
  0
VERTEX
  5
63A
  8
P2DISTRICTS
 10
807862.260503
 20
8985354.7859499995
 30
0.0
  0
VERTEX
  5
63B
  8
P2DISTRICTS
 10
807845.84201699984
 20
8985344.0568899997
 30
0.0
  0
VERTEX
  5
63C
  8
P2DISTRICTS
 10
807830.12321800005
 20
8985332.1914799996
 30
0.0
  0
VERTEX
  5
63D
  8
P2DISTRICTS
 10
807815.3530189998
 20
8985319.1466199998
 30
0.0
  0
VERTEX
  5
63E
  8
P2DISTRICTS
 10
807801.90816099988
 20
8985304.8402399998
 30
0.0
  0
VERTEX
  5
63F
  8
P2DISTRICTS
 10
807789.81128199992
 20
8985289.4136800021
 30
0.0
  0
VERTEX
  5
640
  8
P2DISTRICTS
 10
807777.89651999995
 20
8985273.847380003
 30
0.0
  0
VERTEX
  5
641
  8
P2DISTRICTS
 10
807765.86775600002
 20
8985258.3639599979
 30
0.0
  0
VERTEX
  5
642
  8
P2DISTRICTS
 10
807753.50710499997
 20
8985243.1266399994
 30
0.0
  0
VERTEX
  5
643
  8
P2DISTRICTS
 10
807742.38206899993
 20
8985227.0463600028
 30
0.0
  0
VERTEX
  5
644
  8
P2DISTRICTS
 10
807732.62895600032
 20
8985210.0024500005
 30
0.0
  0
VERTEX
  5
645
  8
P2DISTRICTS
 10
807722.20305400027
 20
8985193.3701499999
 30
0.0
  0
VERTEX
  5
646
  8
P2DISTRICTS
 10
807710.74908800016
 20
8985177.4160500001
 30
0.0
  0
VERTEX
  5
647
  8
P2DISTRICTS
 10
807700.0549910001
 20
8985161.0218700003
 30
0.0
  0
VERTEX
  5
648
  8
P2DISTRICTS
 10
807690.79963699996
 20
8985143.7288699988
 30
0.0
  0
VERTEX
  5
649
  8
P2DISTRICTS
 10
807680.64980500017
 20
8985126.9157899991
 30
0.0
  0
VERTEX
  5
64A
  8
P2DISTRICTS
 10
807669.55225000007
 20
8985110.7150999997
 30
0.0
  0
VERTEX
  5
64B
  8
P2DISTRICTS
 10
807657.4625840002
 20
8985095.2779899966
 30
0.0
  0
VERTEX
  5
64C
  8
P2DISTRICTS
 10
807644.90575400006
 20
8985080.2086199988
 30
0.0
  0
VERTEX
  5
64D
  8
P2DISTRICTS
 10
807632.46365799999
 20
8985065.0267699994
 30
0.0
  0
VERTEX
  5
64E
  8
P2DISTRICTS
 10
807619.44531099999
 20
8985050.3918899968
 30
0.0
  0
VERTEX
  5
64F
  8
P2DISTRICTS
 10
807605.29697000002
 20
8985036.8287199996
 30
0.0
  0
VERTEX
  5
650
  8
P2DISTRICTS
 10
807590.89209199976
 20
8985023.5042499993
 30
0.0
  0
VERTEX
  5
651
  8
P2DISTRICTS
 10
807576.47124099999
 20
8985010.2168199997
 30
0.0
  0
VERTEX
  5
652
  8
P2DISTRICTS
 10
807561.67182500008
 20
8984997.3735100012
 30
0.0
  0
VERTEX
  5
653
  8
P2DISTRICTS
 10
807546.3893370002
 20
8984985.0826300029
 30
0.0
  0
VERTEX
  5
654
  8
P2DISTRICTS
 10
807530.89503200003
 20
8984973.036460001
 30
0.0
  0
VERTEX
  5
655
  8
P2DISTRICTS
 10
807515.10581300023
 20
8984961.3973200005
 30
0.0
  0
VERTEX
  5
656
  8
P2DISTRICTS
 10
807498.82317899994
 20
8984950.488189999
 30
0.0
  0
VERTEX
  5
657
  8
P2DISTRICTS
 10
807482.34445600014
 20
8984939.8135800026
 30
0.0
  0
VERTEX
  5
658
  8
P2DISTRICTS
 10
807465.83113199996
 20
8984929.1954299994
 30
0.0
  0
VERTEX
  5
659
  8
P2DISTRICTS
 10
807448.8055260001
 20
8984919.5533700008
 30
0.0
  0
VERTEX
  5
65A
  8
P2DISTRICTS
 10
807430.9698270004
 20
8984911.4556000028
 30
0.0
  0
VERTEX
  5
65B
  8
P2DISTRICTS
 10
807412.91570500005
 20
8984903.7466499992
 30
0.0
  0
VERTEX
  5
65C
  8
P2DISTRICTS
 10
807395.21102899988
 20
8984895.3211800009
 30
0.0
  0
VERTEX
  5
65D
  8
P2DISTRICTS
 10
807377.14726700005
 20
8984887.6873299982
 30
0.0
  0
VERTEX
  5
65E
  8
P2DISTRICTS
 10
807358.69838700013
 20
8984880.9755300023
 30
0.0
  0
VERTEX
  5
65F
  8
P2DISTRICTS
 10
807339.99646400008
 20
8984875.0341500007
 30
0.0
  0
VERTEX
  5
660
  8
P2DISTRICTS
 10
807321.11827900016
 20
8984869.7287000008
 30
0.0
  0
VERTEX
  5
661
  8
P2DISTRICTS
 10
807302.10929499997
 20
8984864.9230099991
 30
0.0
  0
VERTEX
  5
662
  8
P2DISTRICTS
 10
807282.97251800005
 20
8984860.6416699998
 30
0.0
  0
VERTEX
  5
663
  8
P2DISTRICTS
 10
807263.72421599994
 20
8984856.8876499999
 30
0.0
  0
VERTEX
  5
664
  8
P2DISTRICTS
 10
807244.35650400026
 20
8984853.8020699993
 30
0.0
  0
VERTEX
  5
665
  8
P2DISTRICTS
 10
807224.94853500044
 20
8984850.9946199991
 30
0.0
  0
VERTEX
  5
666
  8
P2DISTRICTS
 10
807205.75793900026
 20
8984847.0249700006
 30
0.0
  0
VERTEX
  5
667
  8
P2DISTRICTS
 10
807186.59980600025
 20
8984842.823400002
 30
0.0
  0
VERTEX
  5
668
  8
P2DISTRICTS
 10
807167.39168700005
 20
8984838.8739600014
 30
0.0
  0
VERTEX
  5
669
  8
P2DISTRICTS
 10
807148.26548199996
 20
8984834.6009600013
 30
0.0
  0
VERTEX
  5
66A
  8
P2DISTRICTS
 10
807129.33836199995
 20
8984829.5191200003
 30
0.0
  0
VERTEX
  5
66B
  8
P2DISTRICTS
 10
807110.64647499996
 20
8984823.5621699989
 30
0.0
  0
VERTEX
  5
66C
  8
P2DISTRICTS
 10
807092.29583199997
 20
8984816.449810002
 30
0.0
  0
VERTEX
  5
66D
  8
P2DISTRICTS
 10
807074.61483200034
 20
8984807.7985200007
 30
0.0
  0
VERTEX
  5
66E
  8
P2DISTRICTS
 10
807058.40331900003
 20
8984796.8611300029
 30
0.0
  0
VERTEX
  5
66F
  8
P2DISTRICTS
 10
807043.96533699997
 20
8984783.5593400002
 30
0.0
  0
VERTEX
  5
670
  8
P2DISTRICTS
 10
807030.89178699988
 20
8984768.8697299995
 30
0.0
  0
VERTEX
  5
671
  8
P2DISTRICTS
 10
807019.2243260002
 20
8984753.0720699988
 30
0.0
  0
VERTEX
  5
672
  8
P2DISTRICTS
 10
807009.33985500003
 20
8984736.1317400001
 30
0.0
  0
VERTEX
  5
673
  8
P2DISTRICTS
 10
807000.76289899996
 20
8984718.4844000004
 30
0.0
  0
VERTEX
  5
674
  8
P2DISTRICTS
 10
806992.90840599977
 20
8984700.5257900003
 30
0.0
  0
VERTEX
  5
675
  8
P2DISTRICTS
 10
806984.84930500016
 20
8984682.3929099999
 30
0.0
  0
VERTEX
  5
676
  8
P2DISTRICTS
 10
806978.90180400026
 20
8984663.6283399984
 30
0.0
  0
VERTEX
  5
677
  8
P2DISTRICTS
 10
806979.26072900021
 20
8984643.4272699989
 30
0.0
  0
VERTEX
  5
678
  8
P2DISTRICTS
 10
806987.64884200005
 20
8984623.6057200003
 30
0.0
  0
VERTEX
  5
679
  8
P2DISTRICTS
 10
807001.379159
 20
8984611.6960399989
 30
0.0
  0
VERTEX
  5
67A
  8
P2DISTRICTS
 10
807019.24493900011
 20
8984613.5299800001
 30
0.0
  0
VERTEX
  5
67B
  8
P2DISTRICTS
 10
807039.25851800002
 20
8984620.5381199978
 30
0.0
  0
VERTEX
  5
67C
  8
P2DISTRICTS
 10
807059.83828699996
 20
8984622.8123800009
 30
0.0
  0
VERTEX
  5
67D
  8
P2DISTRICTS
 10
807079.45589000022
 20
8984616.9793200009
 30
0.0
  0
VERTEX
  5
67E
  8
P2DISTRICTS
 10
807096.00344200025
 20
8984605.4453800004
 30
0.0
  0
VERTEX
  5
67F
  8
P2DISTRICTS
 10
807108.86401699996
 20
8984590.6368000004
 30
0.0
  0
VERTEX
  5
680
  8
P2DISTRICTS
 10
807123.28116000025
 20
8984577.2160800006
 30
0.0
  0
VERTEX
  5
681
  8
P2DISTRICTS
 10
807137.8487890003
 20
8984563.9375400003
 30
0.0
  0
VERTEX
  5
682
  8
P2DISTRICTS
 10
807150.57930300001
 20
8984549.1189600024
 30
0.0
  0
VERTEX
  5
683
  8
P2DISTRICTS
 10
807162.02978599991
 20
8984532.7852700017
 30
0.0
  0
VERTEX
  5
684
  8
P2DISTRICTS
 10
807172.08214299998
 20
8984515.6664400008
 30
0.0
  0
VERTEX
  5
685
  8
P2DISTRICTS
 10
807177.78989999997
 20
8984497.1690499987
 30
0.0
  0
VERTEX
  5
686
  8
P2DISTRICTS
 10
807176.93651800009
 20
8984477.2410700005
 30
0.0
  0
VERTEX
  5
687
  8
P2DISTRICTS
 10
807170.72677800001
 20
8984458.0063300002
 30
0.0
  0
VERTEX
  5
688
  8
P2DISTRICTS
 10
807159.2166790003
 20
8984442.0916399993
 30
0.0
  0
VERTEX
  5
689
  8
P2DISTRICTS
 10
807143.85519200005
 20
8984429.7455700003
 30
0.0
  0
VERTEX
  5
68A
  8
P2DISTRICTS
 10
807126.19376599998
 20
8984420.5615100004
 30
0.0
  0
VERTEX
  5
68B
  8
P2DISTRICTS
 10
807107.31965500012
 20
8984414.6435100008
 30
0.0
  0
VERTEX
  5
68C
  8
P2DISTRICTS
 10
807087.93107199995
 20
8984413.0467300005
 30
0.0
  0
VERTEX
  5
68D
  8
P2DISTRICTS
 10
807068.44496500003
 20
8984415.48006
 30
0.0
  0
VERTEX
  5
68E
  8
P2DISTRICTS
 10
807049.18205299997
 20
8984421.1653900016
 30
0.0
  0
VERTEX
  5
68F
  8
P2DISTRICTS
 10
807030.85227000015
 20
8984430.2746300008
 30
0.0
  0
VERTEX
  5
690
  8
P2DISTRICTS
 10
807015.64757300005
 20
8984442.8890399989
 30
0.0
  0
VERTEX
  5
691
  8
P2DISTRICTS
 10
807006.89044600015
 20
8984460.0558100045
 30
0.0
  0
VERTEX
  5
692
  8
P2DISTRICTS
 10
807000.03613699996
 20
8984478.4437100012
 30
0.0
  0
VERTEX
  5
693
  8
P2DISTRICTS
 10
806986.75296599988
 20
8984492.7402899992
 30
0.0
  0
VERTEX
  5
694
  8
P2DISTRICTS
 10
806974.209042
 20
8984507.7885200009
 30
0.0
  0
VERTEX
  5
695
  8
P2DISTRICTS
 10
806967.259341
 20
8984526.2857800014
 30
0.0
  0
VERTEX
  5
696
  8
P2DISTRICTS
 10
806965.76438900025
 20
8984546.69991
 30
0.0
  0
VERTEX
  5
697
  8
P2DISTRICTS
 10
806970.01972500002
 20
8984567.8893199991
 30
0.0
  0
VERTEX
  5
698
  8
P2DISTRICTS
 10
806972.51173799997
 20
8984587.9644499999
 30
0.0
  0
VERTEX
  5
699
  8
P2DISTRICTS
 10
806961.23607500014
 20
8984603.9712700006
 30
0.0
  0
VERTEX
  5
69A
  8
P2DISTRICTS
 10
806945.78844399995
 20
8984598.9010800011
 30
0.0
  0
VERTEX
  5
69B
  8
P2DISTRICTS
 10
806930.77681299997
 20
8984586.8259500004
 30
0.0
  0
VERTEX
  5
69C
  8
P2DISTRICTS
 10
806911.91951400018
 20
8984579.3738199994
 30
0.0
  0
VERTEX
  5
69D
  8
P2DISTRICTS
 10
806894.70120899973
 20
8984569.6160599981
 30
0.0
  0
VERTEX
  5
69E
  8
P2DISTRICTS
 10
806880.39733000041
 20
8984556.0787000004
 30
0.0
  0
VERTEX
  5
69F
  8
P2DISTRICTS
 10
806864.52627200016
 20
8984544.8552100025
 30
0.0
  0
VERTEX
  5
6A0
  8
P2DISTRICTS
 10
806846.9754789999
 20
8984535.9312500004
 30
0.0
  0
VERTEX
  5
6A1
  8
P2DISTRICTS
 10
806830.42120700004
 20
8984525.4241499994
 30
0.0
  0
VERTEX
  5
6A2
  8
P2DISTRICTS
 10
806814.61896700005
 20
8984513.7699900009
 30
0.0
  0
VERTEX
  5
6A3
  8
P2DISTRICTS
 10
806799.07833099994
 20
8984501.7674100026
 30
0.0
  0
VERTEX
  5
6A4
  8
P2DISTRICTS
 10
806783.10623199993
 20
8984490.4145999998
 30
0.0
  0
VERTEX
  5
6A5
  8
P2DISTRICTS
 10
806766.46444799996
 20
8984480.0191699993
 30
0.0
  0
VERTEX
  5
6A6
  8
P2DISTRICTS
 10
806749.46424300002
 20
8984470.1955300011
 30
0.0
  0
VERTEX
  5
6A7
  8
P2DISTRICTS
 10
806732.27473500033
 20
8984460.7514500003
 30
0.0
  0
VERTEX
  5
6A8
  8
P2DISTRICTS
 10
806714.93690900016
 20
8984451.6063299999
 30
0.0
  0
VERTEX
  5
6A9
  8
P2DISTRICTS
 10
806697.42071999994
 20
8984442.7987099998
 30
0.0
  0
VERTEX
  5
6AA
  8
P2DISTRICTS
 10
806679.71362799988
 20
8984434.3722100016
 30
0.0
  0
VERTEX
  5
6AB
  8
P2DISTRICTS
 10
806661.80799399968
 20
8984426.3756000008
 30
0.0
  0
VERTEX
  5
6AC
  8
P2DISTRICTS
 10
806643.64482499997
 20
8984418.9731600024
 30
0.0
  0
VERTEX
  5
6AD
  8
P2DISTRICTS
 10
806625.18996600015
 20
8984412.3048899993
 30
0.0
  0
VERTEX
  5
6AE
  8
P2DISTRICTS
 10
806606.47790499998
 20
8984406.4269500002
 30
0.0
  0
VERTEX
  5
6AF
  8
P2DISTRICTS
 10
806587.4981630001
 20
8984401.5122000016
 30
0.0
  0
VERTEX
  5
6B0
  8
P2DISTRICTS
 10
806568.60855400015
 20
8984396.270680001
 30
0.0
  0
VERTEX
  5
6B1
  8
P2DISTRICTS
 10
806549.78700699995
 20
8984390.77599
 30
0.0
  0
VERTEX
  5
6B2
  8
P2DISTRICTS
 10
806530.69888199971
 20
8984386.28957
 30
0.0
  0
VERTEX
  5
6B3
  8
P2DISTRICTS
 10
806511.38956100005
 20
8984382.78737
 30
0.0
  0
VERTEX
  5
6B4
  8
P2DISTRICTS
 10
806491.93182900001
 20
8984380.2374900002
 30
0.0
  0
VERTEX
  5
6B5
  8
P2DISTRICTS
 10
806472.37537000002
 20
8984378.6371500008
 30
0.0
  0
VERTEX
  5
6B6
  8
P2DISTRICTS
 10
806452.77918499999
 20
8984377.9176100008
 30
0.0
  0
VERTEX
  5
6B7
  8
P2DISTRICTS
 10
806433.18339300028
 20
8984378.2445600033
 30
0.0
  0
VERTEX
  5
6B8
  8
P2DISTRICTS
 10
806413.60320799996
 20
8984379.3835300021
 30
0.0
  0
VERTEX
  5
6B9
  8
P2DISTRICTS
 10
806394.05179099983
 20
8984381.1428899989
 30
0.0
  0
VERTEX
  5
6BA
  8
P2DISTRICTS
 10
806374.56783800002
 20
8984383.5533100013
 30
0.0
  0
VERTEX
  5
6BB
  8
P2DISTRICTS
 10
806355.24144700018
 20
8984386.8365499992
 30
0.0
  0
VERTEX
  5
6BC
  8
P2DISTRICTS
 10
806336.1947910001
 20
8984391.4222500008
 30
0.0
  0
VERTEX
  5
6BD
  8
P2DISTRICTS
 10
806317.28148600005
 20
8984396.6289100014
 30
0.0
  0
VERTEX
  5
6BE
  8
P2DISTRICTS
 10
806298.22168299987
 20
8984401.2211600002
 30
0.0
  0
VERTEX
  5
6BF
  8
P2DISTRICTS
 10
806279.32311700028
 20
8984406.4110599998
 30
0.0
  0
VERTEX
  5
6C0
  8
P2DISTRICTS
 10
806260.72693200002
 20
8984412.6985500008
 30
0.0
  0
VERTEX
  5
6C1
  8
P2DISTRICTS
 10
806242.39354800002
 20
8984419.7706800047
 30
0.0
  0
VERTEX
  5
6C2
  8
P2DISTRICTS
 10
806224.36958699999
 20
8984427.5745000038
 30
0.0
  0
VERTEX
  5
6C3
  8
P2DISTRICTS
 10
806206.79385299969
 20
8984436.2615100015
 30
0.0
  0
VERTEX
  5
6C4
  8
P2DISTRICTS
 10
806189.88789100002
 20
8984446.1654199995
 30
0.0
  0
VERTEX
  5
6C5
  8
P2DISTRICTS
 10
806173.05822899996
 20
8984456.2471699994
 30
0.0
  0
VERTEX
  5
6C6
  8
P2DISTRICTS
 10
806156.18634200015
 20
8984466.2405099999
 30
0.0
  0
VERTEX
  5
6C7
  8
P2DISTRICTS
 10
806139.96368399984
 20
8984477.2009999994
 30
0.0
  0
VERTEX
  5
6C8
  8
P2DISTRICTS
 10
806124.40158299997
 20
8984489.1427299995
 30
0.0
  0
VERTEX
  5
6C9
  8
P2DISTRICTS
 10
806109.06224600004
 20
8984501.3880599979
 30
0.0
  0
VERTEX
  5
6CA
  8
P2DISTRICTS
 10
806093.85854700033
 20
8984513.7622600049
 30
0.0
  0
VERTEX
  5
6CB
  8
P2DISTRICTS
 10
806079.09863400005
 20
8984526.6708300002
 30
0.0
  0
VERTEX
  5
6CC
  8
P2DISTRICTS
 10
806064.66950500011
 20
8984539.9602899998
 30
0.0
  0
VERTEX
  5
6CD
  8
P2DISTRICTS
 10
806050.502599
 20
8984553.5214699991
 30
0.0
  0
VERTEX
  5
6CE
  8
P2DISTRICTS
 10
806036.60165900004
 20
8984567.3458300009
 30
0.0
  0
VERTEX
  5
6CF
  8
P2DISTRICTS
 10
806022.88453200017
 20
8984581.3556899969
 30
0.0
  0
VERTEX
  5
6D0
  8
P2DISTRICTS
 10
806009.22600200016
 20
8984595.42454
 30
0.0
  0
VERTEX
  5
6D1
  8
P2DISTRICTS
 10
805995.61615599995
 20
8984609.5363999978
 30
0.0
  0
VERTEX
  5
6D2
  8
P2DISTRICTS
 10
805982.45976200001
 20
8984624.0716200005
 30
0.0
  0
VERTEX
  5
6D3
  8
P2DISTRICTS
 10
805969.53541300027
 20
8984638.8223399986
 30
0.0
  0
VERTEX
  5
6D4
  8
P2DISTRICTS
 10
805956.55409999995
 20
8984653.5162399989
 30
0.0
  0
VERTEX
  5
6D5
  8
P2DISTRICTS
 10
805943.71832200012
 20
8984668.3539000005
 30
0.0
  0
VERTEX
  5
6D6
  8
P2DISTRICTS
 10
805931.68664400012
 20
8984683.8812199999
 30
0.0
  0
VERTEX
  5
6D7
  8
P2DISTRICTS
 10
805920.78064800007
 20
8984700.1684399992
 30
0.0
  0
VERTEX
  5
6D8
  8
P2DISTRICTS
 10
805911.33333500032
 20
8984717.3322800007
 30
0.0
  0
VERTEX
  5
6D9
  8
P2DISTRICTS
 10
805902.46309399989
 20
8984734.8377100024
 30
0.0
  0
VERTEX
  5
6DA
  8
P2DISTRICTS
 10
805893.49780100002
 20
8984752.2782700006
 30
0.0
  0
VERTEX
  5
6DB
  8
P2DISTRICTS
 10
805886.017291
 20
8984770.4542899989
 30
0.0
  0
VERTEX
  5
6DC
  8
P2DISTRICTS
 10
805880.39739399985
 20
8984789.3155300021
 30
0.0
  0
VERTEX
  5
6DD
  8
P2DISTRICTS
 10
805877.07263300009
 20
8984808.6908299997
 30
0.0
  0
VERTEX
  5
6DE
  8
P2DISTRICTS
 10
805876.197147
 20
8984828.3674999997
 30
0.0
  0
VERTEX
  5
6DF
  8
P2DISTRICTS
 10
805877.57647099998
 20
8984847.9679000024
 30
0.0
  0
VERTEX
  5
6E0
  8
P2DISTRICTS
 10
805881.57627199998
 20
8984867.1534899976
 30
0.0
  0
VERTEX
  5
6E1
  8
P2DISTRICTS
 10
805887.48757699993
 20
8984885.9084099978
 30
0.0
  0
VERTEX
  5
6E2
  8
P2DISTRICTS
 10
805894.65962700022
 20
8984904.2061899994
 30
0.0
  0
VERTEX
  5
6E3
  8
P2DISTRICTS
 10
805902.65639600006
 20
8984922.1046899986
 30
0.0
  0
VERTEX
  5
6E4
  8
P2DISTRICTS
 10
805911.23194100033
 20
8984939.7451100014
 30
0.0
  0
VERTEX
  5
6E5
  8
P2DISTRICTS
 10
805920.59325200017
 20
8984956.9630500004
 30
0.0
  0
VERTEX
  5
6E6
  8
P2DISTRICTS
 10
805930.75964900001
 20
8984973.7247199994
 30
0.0
  0
VERTEX
  5
6E7
  8
P2DISTRICTS
 10
805941.19489699998
 20
8984990.3348699994
 30
0.0
  0
VERTEX
  5
6E8
  8
P2DISTRICTS
 10
805951.46141600015
 20
8985007.0415499993
 30
0.0
  0
VERTEX
  5
6E9
  8
P2DISTRICTS
 10
805962.12899899983
 20
8985023.4857700001
 30
0.0
  0
VERTEX
  5
6EA
  8
P2DISTRICTS
 10
805973.21858900005
 20
8985039.6609800011
 30
0.0
  0
VERTEX
  5
6EB
  8
P2DISTRICTS
 10
805984.49218100018
 20
8985055.7183999997
 30
0.0
  0
VERTEX
  5
6EC
  8
P2DISTRICTS
 10
805996.01847500016
 20
8985071.5823100004
 30
0.0
  0
VERTEX
  5
6ED
  8
P2DISTRICTS
 10
806008.31698699994
 20
8985086.8333000001
 30
0.0
  0
VERTEX
  5
6EE
  8
P2DISTRICTS
 10
806021.00022399984
 20
8985101.7998799998
 30
0.0
  0
VERTEX
  5
6EF
  8
P2DISTRICTS
 10
806033.49224000005
 20
8985116.9498100001
 30
0.0
  0
VERTEX
  5
6F0
  8
P2DISTRICTS
 10
806046.40258999995
 20
8985131.6925100032
 30
0.0
  0
VERTEX
  5
6F1
  8
P2DISTRICTS
 10
806060.4629080001
 20
8985145.3341100011
 30
0.0
  0
VERTEX
  5
6F2
  8
P2DISTRICTS
 10
806074.39148500003
 20
8985159.1560200006
 30
0.0
  0
VERTEX
  5
6F3
  8
P2DISTRICTS
 10
806087.90867000027
 20
8985173.3908699993
 30
0.0
  0
VERTEX
  5
6F4
  8
P2DISTRICTS
 10
806102.15711699997
 20
8985186.8058999982
 30
0.0
  0
VERTEX
  5
6F5
  8
P2DISTRICTS
 10
806117.41001800017
 20
8985199.1324899998
 30
0.0
  0
VERTEX
  5
6F6
  8
P2DISTRICTS
 10
806131.92437600007
 20
8985212.3410700038
 30
0.0
  0
VERTEX
  5
6F7
  8
P2DISTRICTS
 10
806146.36811400019
 20
8985225.5965400022
 30
0.0
  0
VERTEX
  5
6F8
  8
P2DISTRICTS
 10
806162.05216399999
 20
8985237.3134599999
 30
0.0
  0
VERTEX
  5
6F9
  8
P2DISTRICTS
 10
806178.14960500004
 20
8985248.5347600002
 30
0.0
  0
VERTEX
  5
6FA
  8
P2DISTRICTS
 10
806193.24417799991
 20
8985261.0315700006
 30
0.0
  0
VERTEX
  5
6FB
  8
P2DISTRICTS
 10
806208.46240100032
 20
8985273.4179100022
 30
0.0
  0
VERTEX
  5
6FC
  8
P2DISTRICTS
 10
806224.568034
 20
8985284.6735199969
 30
0.0
  0
VERTEX
  5
6FD
  8
P2DISTRICTS
 10
806241.37069300003
 20
8985294.8513600007
 30
0.0
  0
VERTEX
  5
6FE
  8
P2DISTRICTS
 10
806258.55915099999
 20
8985304.2606599983
 30
0.0
  0
VERTEX
  5
6FF
  8
P2DISTRICTS
 10
806274.70149600005
 20
8985315.4217200018
 30
0.0
  0
VERTEX
  5
700
  8
P2DISTRICTS
 10
806290.66634300002
 20
8985326.89219
 30
0.0
  0
VERTEX
  5
701
  8
P2DISTRICTS
 10
806307.6649760002
 20
8985336.6138600018
 30
0.0
  0
VERTEX
  5
702
  8
P2DISTRICTS
 10
806325.43287700019
 20
8985345.0098700002
 30
0.0
  0
VERTEX
  5
703
  8
P2DISTRICTS
 10
806341.99934400001
 20
8985355.3622800019
 30
0.0
  0
VERTEX
  5
704
  8
P2DISTRICTS
 10
806357.90810700005
 20
8985366.86527
 30
0.0
  0
VERTEX
  5
705
  8
P2DISTRICTS
 10
806374.63202300004
 20
8985377.1250700001
 30
0.0
  0
VERTEX
  5
706
  8
P2DISTRICTS
 10
806392.07951000007
 20
8985386.160219999
 30
0.0
  0
VERTEX
  5
707
  8
P2DISTRICTS
 10
806410.22528999974
 20
8985393.8708199989
 30
0.0
  0
VERTEX
  5
708
  8
P2DISTRICTS
 10
806427.4716810002
 20
8985402.8718600012
 30
0.0
  0
VERTEX
  5
709
  8
P2DISTRICTS
 10
806442.79888999998
 20
8985415.0933400001
 30
0.0
  0
VERTEX
  5
70A
  8
P2DISTRICTS
 10
806459.55742600013
 20
8985425.80253
 30
0.0
  0
VERTEX
  5
70B
  8
P2DISTRICTS
 10
806477.73517400015
 20
8985434.5760899968
 30
0.0
  0
VERTEX
  5
70C
  8
P2DISTRICTS
 10
806493.74742499995
 20
8985445.4371799994
 30
0.0
  0
VERTEX
  5
70D
  8
P2DISTRICTS
 10
806505.71220499987
 20
8985460.880979998
 30
0.0
  0
VERTEX
  5
70E
  8
P2DISTRICTS
 10
806519.617508
 20
8985475.3261600006
 30
0.0
  0
VERTEX
  5
70F
  8
P2DISTRICTS
 10
806532.39640299999
 20
8985490.2352600005
 30
0.0
  0
VERTEX
  5
710
  8
P2DISTRICTS
 10
806539.43925299996
 20
8985508.2047000006
 30
0.0
  0
VERTEX
  5
711
  8
P2DISTRICTS
 10
806538.96816200018
 20
8985528.7999100015
 30
0.0
  0
SEQEND
  5
712
  8
P2DISTRICTS
  0
POLYLINE
  5
9C
  8
P2DISTRICTS
 66
     1
 10
0.0
 20
0.0
 30
0.0
 70
   128
  0
VERTEX
  5
713
  8
P2DISTRICTS
 10
809087.62565000006
 20
8985544.3994300012
 30
0.0
  0
VERTEX
  5
714
  8
P2DISTRICTS
 10
809068.32582200016
 20
8985540.9201100003
 30
0.0
  0
VERTEX
  5
715
  8
P2DISTRICTS
 10
809049.11481900001
 20
8985536.9561999999
 30
0.0
  0
VERTEX
  5
716
  8
P2DISTRICTS
 10
809029.99550199998
 20
8985532.5978100039
 30
0.0
  0
VERTEX
  5
717
  8
P2DISTRICTS
 10
809010.94984000025
 20
8985527.9424500018
 30
0.0
  0
VERTEX
  5
718
  8
P2DISTRICTS
 10
808991.97770600021
 20
8985523.0011400003
 30
0.0
  0
VERTEX
  5
719
  8
P2DISTRICTS
 10
808973.07076699997
 20
8985517.8113800008
 30
0.0
  0
VERTEX
  5
71A
  8
P2DISTRICTS
 10
808954.19956900005
 20
8985512.4884200022
 30
0.0
  0
VERTEX
  5
71B
  8
P2DISTRICTS
 10
808935.34471800004
 20
8985507.1088600028
 30
0.0
  0
VERTEX
  5
71C
  8
P2DISTRICTS
 10
808916.47466499999
 20
8985501.7868600003
 30
0.0
  0
VERTEX
  5
71D
  8
P2DISTRICTS
 10
808897.55452700006
 20
8985496.6456099991
 30
0.0
  0
VERTEX
  5
71E
  8
P2DISTRICTS
 10
808878.63636100024
 20
8985491.4905800018
 30
0.0
  0
VERTEX
  5
71F
  8
P2DISTRICTS
 10
808859.68918900006
 20
8985486.4487199988
 30
0.0
  0
VERTEX
  5
720
  8
P2DISTRICTS
 10
808840.6426189997
 20
8985481.7989799995
 30
0.0
  0
VERTEX
  5
721
  8
P2DISTRICTS
 10
808821.47588899999
 20
8985477.6518300008
 30
0.0
  0
VERTEX
  5
722
  8
P2DISTRICTS
 10
808802.21058199997
 20
8985473.9912700001
 30
0.0
  0
VERTEX
  5
723
  8
P2DISTRICTS
 10
808782.84194700001
 20
8985470.9263599999
 30
0.0
  0
VERTEX
  5
724
  8
P2DISTRICTS
 10
808763.39455299987
 20
8985468.3997000009
 30
0.0
  0
VERTEX
  5
725
  8
P2DISTRICTS
 10
808743.88376800017
 20
8985466.4442400001
 30
0.0
  0
VERTEX
  5
726
  8
P2DISTRICTS
 10
808724.31990799971
 20
8985465.0973800048
 30
0.0
  0
VERTEX
  5
727
  8
P2DISTRICTS
 10
808704.72805399995
 20
8985464.2550500017
 30
0.0
  0
VERTEX
  5
728
  8
P2DISTRICTS
 10
808685.12382099999
 20
8985463.9599899966
 30
0.0
  0
VERTEX
  5
729
  8
P2DISTRICTS
 10
808665.51619200013
 20
8985464.0945299994
 30
0.0
  0
VERTEX
  5
72A
  8
P2DISTRICTS
 10
808645.91210500011
 20
8985464.53369
 30
0.0
  0
VERTEX
  5
72B
  8
P2DISTRICTS
 10
808626.31707400025
 20
8985465.2428899985
 30
0.0
  0
VERTEX
  5
72C
  8
P2DISTRICTS
 10
808606.73406599986
 20
8985466.2048399989
 30
0.0
  0
VERTEX
  5
72D
  8
P2DISTRICTS
 10
808587.16965799977
 20
8985467.4861200005
 30
0.0
  0
VERTEX
  5
72E
  8
P2DISTRICTS
 10
808567.62576099997
 20
8985469.0657100007
 30
0.0
  0
VERTEX
  5
72F
  8
P2DISTRICTS
 10
808548.10496000014
 20
8985470.9046800006
 30
0.0
  0
VERTEX
  5
730
  8
P2DISTRICTS
 10
808528.60805600032
 20
8985472.9741300009
 30
0.0
  0
VERTEX
  5
731
  8
P2DISTRICTS
 10
808509.10957099998
 20
8985475.0275199991
 30
0.0
  0
VERTEX
  5
732
  8
P2DISTRICTS
 10
808489.57855099987
 20
8985476.7673999984
 30
0.0
  0
VERTEX
  5
733
  8
P2DISTRICTS
 10
808470.01009399991
 20
8985478.0623899996
 30
0.0
  0
VERTEX
  5
734
  8
P2DISTRICTS
 10
808450.41960200015
 20
8985478.86032
 30
0.0
  0
VERTEX
  5
735
  8
P2DISTRICTS
 10
808430.81544000003
 20
8985479.0325000007
 30
0.0
  0
VERTEX
  5
736
  8
P2DISTRICTS
 10
808411.20730899996
 20
8985478.7809900008
 30
0.0
  0
VERTEX
  5
737
  8
P2DISTRICTS
 10
808391.60478199995
 20
8985478.2753100004
 30
0.0
  0
VERTEX
  5
738
  8
P2DISTRICTS
 10
808372.01029399969
 20
8985477.6103900019
 30
0.0
  0
VERTEX
  5
739
  8
P2DISTRICTS
 10
808352.41822400026
 20
8985476.8592600022
 30
0.0
  0
VERTEX
  5
73A
  8
P2DISTRICTS
 10
808332.82572599989
 20
8985476.0404700004
 30
0.0
  0
VERTEX
  5
73B
  8
P2DISTRICTS
 10
808313.24372100015
 20
8985475.0357100032
 30
0.0
  0
VERTEX
  5
73C
  8
P2DISTRICTS
 10
808293.69255700021
 20
8985473.6084499992
 30
0.0
  0
VERTEX
  5
73D
  8
P2DISTRICTS
 10
808274.18354300025
 20
8985471.6521899998
 30
0.0
  0
VERTEX
  5
73E
  8
P2DISTRICTS
 10
808254.70999800018
 20
8985469.3387599979
 30
0.0
  0
VERTEX
  5
73F
  8
P2DISTRICTS
 10
808235.27512400004
 20
8985466.7370600011
 30
0.0
  0
VERTEX
  5
740
  8
P2DISTRICTS
 10
808215.87305200053
 20
8985463.9137200024
 30
0.0
  0
VERTEX
  5
741
  8
P2DISTRICTS
 10
808196.49943700002
 20
8985460.8995399997
 30
0.0
  0
VERTEX
  5
742
  8
P2DISTRICTS
 10
808177.15830699995
 20
8985457.6769200005
 30
0.0
  0
VERTEX
  5
743
  8
P2DISTRICTS
 10
808157.85786800005
 20
8985454.2234300002
 30
0.0
  0
VERTEX
  5
744
  8
P2DISTRICTS
 10
808138.61704599997
 20
8985450.4566200003
 30
0.0
  0
VERTEX
  5
745
  8
P2DISTRICTS
 10
808119.41839700029
 20
8985446.4767700005
 30
0.0
  0
VERTEX
  5
746
  8
P2DISTRICTS
 10
808100.26027800015
 20
8985442.3082899991
 30
0.0
  0
VERTEX
  5
747
  8
P2DISTRICTS
 10
808081.16384599998
 20
8985437.8655200005
 30
0.0
  0
VERTEX
  5
748
  8
P2DISTRICTS
 10
808062.12381000002
 20
8985433.1829499993
 30
0.0
  0
VERTEX
  5
749
  8
P2DISTRICTS
 10
808043.14368999971
 20
8985428.2612699997
 30
0.0
  0
VERTEX
  5
74A
  8
P2DISTRICTS
 10
808024.23320100002
 20
8985423.0775400009
 30
0.0
  0
VERTEX
  5
74B
  8
P2DISTRICTS
 10
808005.40334000008
 20
8985417.6119599994
 30
0.0
  0
VERTEX
  5
74C
  8
P2DISTRICTS
 10
807986.68921700004
 20
8985411.7612299994
 30
0.0
  0
VERTEX
  5
74D
  8
P2DISTRICTS
 10
807968.09359499987
 20
8985405.539090002
 30
0.0
  0
VERTEX
  5
74E
  8
P2DISTRICTS
 10
807949.62633300002
 20
8985398.9515400007
 30
0.0
  0
VERTEX
  5
74F
  8
P2DISTRICTS
 10
807931.41963500029
 20
8985391.6572200004
 30
0.0
  0
VERTEX
  5
750
  8
P2DISTRICTS
 10
807913.53749799985
 20
8985383.5787700005
 30
0.0
  0
VERTEX
  5
751
  8
P2DISTRICTS
 10
807896.04571199999
 20
8985374.7062800005
 30
0.0
  0
VERTEX
  5
752
  8
P2DISTRICTS
 10
807878.99376600026
 20
8985365.0193600021
 30
0.0
  0
SEQEND
  5
753
  8
P2DISTRICTS
  0
POLYLINE
  5
9D
  8
P2DISTRICTS
 66
     1
 10
0.0
 20
0.0
 30
0.0
 70
   128
  0
VERTEX
  5
754
  8
P2DISTRICTS
 10
809801.2769170003
 20
8985312.1768599991
 30
0.0
  0
VERTEX
  5
755
  8
P2DISTRICTS
 10
809789.07842899987
 20
8985327.4664200004
 30
0.0
  0
VERTEX
  5
756
  8
P2DISTRICTS
 10
809775.76429299999
 20
8985341.904500002
 30
0.0
  0
VERTEX
  5
757
  8
P2DISTRICTS
 10
809762.49889799987
 20
8985356.3993600048
 30
0.0
  0
VERTEX
  5
758
  8
P2DISTRICTS
 10
809749.15494599997
 20
8985370.7413100004
 30
0.0
  0
VERTEX
  5
759
  8
P2DISTRICTS
 10
809734.59331200016
 20
8985383.8358600028
 30
0.0
  0
VERTEX
  5
75A
  8
P2DISTRICTS
 10
809719.39311299997
 20
8985396.2720700018
 30
0.0
  0
VERTEX
  5
75B
  8
P2DISTRICTS
 10
809704.21561899967
 20
8985408.7012200002
 30
0.0
  0
VERTEX
  5
75C
  8
P2DISTRICTS
 10
809688.61289000011
 20
8985420.5656199995
 30
0.0
  0
VERTEX
  5
75D
  8
P2DISTRICTS
 10
809672.33597400005
 20
8985431.5350600015
 30
0.0
  0
VERTEX
  5
75E
  8
P2DISTRICTS
 10
809655.57056099991
 20
8985441.7507499997
 30
0.0
  0
VERTEX
  5
75F
  8
P2DISTRICTS
 10
809638.39911100001
 20
8985451.2195999995
 30
0.0
  0
VERTEX
  5
760
  8
P2DISTRICTS
 10
809621.03401299985
 20
8985460.3171299994
 30
0.0
  0
VERTEX
  5
761
  8
P2DISTRICTS
 10
809603.5440600001
 20
8985469.1837100033
 30
0.0
  0
VERTEX
  5
762
  8
P2DISTRICTS
 10
809585.91356100002
 20
8985477.7904300019
 30
0.0
  0
VERTEX
  5
763
  8
P2DISTRICTS
 10
809568.10178599996
 20
8985486.0074300021
 30
0.0
  0
VERTEX
  5
764
  8
P2DISTRICTS
 10
809550.01587
 20
8985493.5632199999
 30
0.0
  0
VERTEX
  5
765
  8
P2DISTRICTS
 10
809531.62393999996
 20
8985500.3569699991
 30
0.0
  0
VERTEX
  5
766
  8
P2DISTRICTS
 10
809513.21074899996
 20
8985507.1007399987
 30
0.0
  0
VERTEX
  5
767
  8
P2DISTRICTS
 10
809494.678953
 20
8985513.4892200008
 30
0.0
  0
VERTEX
  5
768
  8
P2DISTRICTS
 10
809475.91730999993
 20
8985519.1853800006
 30
0.0
  0
VERTEX
  5
769
  8
P2DISTRICTS
 10
809457.00172100007
 20
8985524.3745799996
 30
0.0
  0
VERTEX
  5
76A
  8
P2DISTRICTS
 10
809437.97494500002
 20
8985529.1263600029
 30
0.0
  0
VERTEX
  5
76B
  8
P2DISTRICTS
 10
809418.86208300013
 20
8985533.5020700004
 30
0.0
  0
VERTEX
  5
76C
  8
P2DISTRICTS
 10
809399.67181400035
 20
8985537.5254799984
 30
0.0
  0
VERTEX
  5
76D
  8
P2DISTRICTS
 10
809380.39487199986
 20
8985541.1303399988
 30
0.0
  0
VERTEX
  5
76E
  8
P2DISTRICTS
 10
809361.04395899992
 20
8985544.3047899995
 30
0.0
  0
VERTEX
  5
76F
  8
P2DISTRICTS
 10
809341.61462699994
 20
8985546.9161100015
 30
0.0
  0
VERTEX
  5
770
  8
P2DISTRICTS
 10
809322.12866599998
 20
8985549.0921400022
 30
0.0
  0
VERTEX
  5
771
  8
P2DISTRICTS
 10
809302.64106599998
 20
8985551.2566400003
 30
0.0
  0
VERTEX
  5
772
  8
P2DISTRICTS
 10
809283.10893100011
 20
8985552.9418499991
 30
0.0
  0
VERTEX
  5
773
  8
P2DISTRICTS
 10
809263.5261850002
 20
8985554.0125600006
 30
0.0
  0
VERTEX
  5
774
  8
P2DISTRICTS
 10
809243.92498200014
 20
8985554.6400000006
 30
0.0
  0
VERTEX
  5
775
  8
P2DISTRICTS
 10
809224.32064599998
 20
8985554.8905400019
 30
0.0
  0
VERTEX
  5
776
  8
P2DISTRICTS
 10
809204.712956
 20
8985554.8192800004
 30
0.0
  0
VERTEX
  5
777
  8
P2DISTRICTS
 10
809185.10184100003
 20
8985554.362060003
 30
0.0
  0
VERTEX
  5
778
  8
P2DISTRICTS
 10
809165.51150899997
 20
8985553.4018099979
 30
0.0
  0
VERTEX
  5
779
  8
P2DISTRICTS
 10
809145.98802900012
 20
8985551.6570500005
 30
0.0
  0
VERTEX
  5
77A
  8
P2DISTRICTS
 10
809126.51698800013
 20
8985549.3425100017
 30
0.0
  0
VERTEX
  5
77B
  8
P2DISTRICTS
 10
809107.03180500004
 20
8985547.1542799994
 30
0.0
  0
VERTEX
  5
77C
  8
P2DISTRICTS
 10
809087.62565000006
 20
8985544.3994300012
 30
0.0
  0
SEQEND
  5
77D
  8
P2DISTRICTS
  0
POLYLINE
  5
9E
  8
P2DISTRICTS
 66
     1
 10
0.0
 20
0.0
 30
0.0
 70
   128
  0
VERTEX
  5
77E
  8
P2DISTRICTS
 10
811180.93056999985
 20
8985242.5783300009
 30
0.0
  0
VERTEX
  5
77F
  8
P2DISTRICTS
 10
811163.58040299988
 20
8985233.4365299996
 30
0.0
  0
VERTEX
  5
780
  8
P2DISTRICTS
 10
811146.5235270001
 20
8985223.7837799992
 30
0.0
  0
VERTEX
  5
781
  8
P2DISTRICTS
 10
811129.83758500032
 20
8985213.4925900009
 30
0.0
  0
VERTEX
  5
782
  8
P2DISTRICTS
 10
811113.2398140002
 20
8985203.0467899982
 30
0.0
  0
VERTEX
  5
783
  8
P2DISTRICTS
 10
811096.53598800011
 20
8985192.7786500007
 30
0.0
  0
VERTEX
  5
784
  8
P2DISTRICTS
 10
811080.19314300013
 20
8985181.9223999996
 30
0.0
  0
VERTEX
  5
785
  8
P2DISTRICTS
 10
811064.30976000021
 20
8985170.3933399972
 30
0.0
  0
VERTEX
  5
786
  8
P2DISTRICTS
 10
811048.9682929999
 20
8985158.1719499994
 30
0.0
  0
VERTEX
  5
787
  8
P2DISTRICTS
 10
811033.88120700023
 20
8985145.6542399991
 30
0.0
  0
VERTEX
  5
788
  8
P2DISTRICTS
 10
811018.28638900013
 20
8985133.7587299999
 30
0.0
  0
VERTEX
  5
789
  8
P2DISTRICTS
 10
811002.80457399995
 20
8985121.7299300004
 30
0.0
  0
VERTEX
  5
78A
  8
P2DISTRICTS
 10
810988.02602999995
 20
8985108.8507499974
 30
0.0
  0
VERTEX
  5
78B
  8
P2DISTRICTS
 10
810973.16894799995
 20
8985096.0632899981
 30
0.0
  0
VERTEX
  5
78C
  8
P2DISTRICTS
 10
810957.73875600006
 20
8985083.9628899992
 30
0.0
  0
VERTEX
  5
78D
  8
P2DISTRICTS
 10
810942.60098200012
 20
8985071.501910001
 30
0.0
  0
VERTEX
  5
78E
  8
P2DISTRICTS
 10
810927.83614300005
 20
8985058.5902699996
 30
0.0
  0
VERTEX
  5
78F
  8
P2DISTRICTS
 10
810912.61994100036
 20
8985046.2451600004
 30
0.0
  0
VERTEX
  5
790
  8
P2DISTRICTS
 10
810896.77119600028
 20
8985034.6938899998
 30
0.0
  0
VERTEX
  5
791
  8
P2DISTRICTS
 10
810880.83157299994
 20
8985023.27379
 30
0.0
  0
VERTEX
  5
792
  8
P2DISTRICTS
 10
810864.86760700005
 20
8985011.894580001
 30
0.0
  0
VERTEX
  5
793
  8
P2DISTRICTS
 10
810848.88368800015
 20
8985000.5425100029
 30
0.0
  0
VERTEX
  5
794
  8
P2DISTRICTS
 10
810832.63908300013
 20
8984989.5660699997
 30
0.0
  0
VERTEX
  5
795
  8
P2DISTRICTS
 10
810816.02706999995
 20
8984979.1385999992
 30
0.0
  0
VERTEX
  5
796
  8
P2DISTRICTS
 10
810799.16415600013
 20
8984969.1186199952
 30
0.0
  0
VERTEX
  5
797
  8
P2DISTRICTS
 10
810782.10206000018
 20
8984959.4556300007
 30
0.0
  0
VERTEX
  5
798
  8
P2DISTRICTS
 10
810764.88407100004
 20
8984950.0789999999
 30
0.0
  0
VERTEX
  5
799
  8
P2DISTRICTS
 10
810747.49190999987
 20
8984941.0281300005
 30
0.0
  0
VERTEX
  5
79A
  8
P2DISTRICTS
 10
810729.872859
 20
8984932.424180001
 30
0.0
  0
VERTEX
  5
79B
  8
P2DISTRICTS
 10
810712.03265399998
 20
8984924.2812200002
 30
0.0
  0
VERTEX
  5
79C
  8
P2DISTRICTS
 10
810693.93401300022
 20
8984916.7091400009
 30
0.0
  0
VERTEX
  5
79D
  8
P2DISTRICTS
 10
810675.54483199993
 20
8984909.8478800002
 30
0.0
  0
VERTEX
  5
79E
  8
P2DISTRICTS
 10
810656.87884200003
 20
8984903.8289800026
 30
0.0
  0
VERTEX
  5
79F
  8
P2DISTRICTS
 10
810637.93219700013
 20
8984898.7914899997
 30
0.0
  0
VERTEX
  5
7A0
  8
P2DISTRICTS
 10
810619.06177600019
 20
8984893.4477300011
 30
0.0
  0
VERTEX
  5
7A1
  8
P2DISTRICTS
 10
810600.13331800012
 20
8984888.3569900002
 30
0.0
  0
VERTEX
  5
7A2
  8
P2DISTRICTS
 10
810580.94234500022
 20
8984884.3628000002
 30
0.0
  0
VERTEX
  5
7A3
  8
P2DISTRICTS
 10
810561.55886500003
 20
8984881.3004100006
 30
0.0
  0
VERTEX
  5
7A4
  8
P2DISTRICTS
 10
810542.066964
 20
8984879.0322799999
 30
0.0
  0
VERTEX
  5
7A5
  8
P2DISTRICTS
 10
810522.51147000026
 20
8984877.5125399996
 30
0.0
  0
VERTEX
  5
7A6
  8
P2DISTRICTS
 10
810502.92033400002
 20
8984876.6963800006
 30
0.0
  0
VERTEX
  5
7A7
  8
P2DISTRICTS
 10
810483.30962900026
 20
8984876.7418300007
 30
0.0
  0
VERTEX
  5
7A8
  8
P2DISTRICTS
 10
810463.71050299995
 20
8984877.5651500002
 30
0.0
  0
VERTEX
  5
7A9
  8
P2DISTRICTS
 10
810444.16815499985
 20
8984879.1925399993
 30
0.0
  0
VERTEX
  5
7AA
  8
P2DISTRICTS
 10
810424.71554300003
 20
8984881.674730001
 30
0.0
  0
VERTEX
  5
7AB
  8
P2DISTRICTS
 10
810405.36072400003
 20
8984884.8611099999
 30
0.0
  0
VERTEX
  5
7AC
  8
P2DISTRICTS
 10
810386.14362500014
 20
8984888.8219399992
 30
0.0
  0
VERTEX
  5
7AD
  8
P2DISTRICTS
 10
810367.105767
 20
8984893.5671399999
 30
0.0
  0
VERTEX
  5
7AE
  8
P2DISTRICTS
 10
810348.33307699999
 20
8984899.2224899996
 30
0.0
  0
VERTEX
  5
7AF
  8
P2DISTRICTS
 10
810329.65398300032
 20
8984905.1954899952
 30
0.0
  0
VERTEX
  5
7B0
  8
P2DISTRICTS
 10
810310.94599399983
 20
8984911.0750399996
 30
0.0
  0
VERTEX
  5
7B1
  8
P2DISTRICTS
 10
810292.47366200015
 20
8984917.6075299997
 30
0.0
  0
VERTEX
  5
7B2
  8
P2DISTRICTS
 10
810274.33613600011
 20
8984925.0559899993
 30
0.0
  0
VERTEX
  5
7B3
  8
P2DISTRICTS
 10
810256.42168400018
 20
8984933.062760001
 30
0.0
  0
VERTEX
  5
7B4
  8
P2DISTRICTS
 10
810238.67683000001
 20
8984941.4177899994
 30
0.0
  0
VERTEX
  5
7B5
  8
P2DISTRICTS
 10
810221.04015200003
 20
8984949.9777499996
 30
0.0
  0
VERTEX
  5
7B6
  8
P2DISTRICTS
 10
810203.46993999998
 20
8984958.677939998
 30
0.0
  0
VERTEX
  5
7B7
  8
P2DISTRICTS
 10
810185.94229499972
 20
8984967.4644399993
 30
0.0
  0
VERTEX
  5
7B8
  8
P2DISTRICTS
 10
810168.45909100014
 20
8984976.33818
 30
0.0
  0
VERTEX
  5
7B9
  8
P2DISTRICTS
 10
810151.03611899994
 20
8984985.330910001
 30
0.0
  0
VERTEX
  5
7BA
  8
P2DISTRICTS
 10
810133.67053500004
 20
8984994.4365500007
 30
0.0
  0
VERTEX
  5
7BB
  8
P2DISTRICTS
 10
810116.18143600016
 20
8985003.2915800009
 30
0.0
  0
VERTEX
  5
7BC
  8
P2DISTRICTS
 10
810098.52150799986
 20
8985011.8145300001
 30
0.0
  0
VERTEX
  5
7BD
  8
P2DISTRICTS
 10
810080.88221000019
 20
8985020.4098899979
 30
0.0
  0
VERTEX
  5
7BE
  8
P2DISTRICTS
 10
810063.431354
 20
8985029.3610199969
 30
0.0
  0
VERTEX
  5
7BF
  8
P2DISTRICTS
 10
810046.39717399981
 20
8985039.0469000004
 30
0.0
  0
VERTEX
  5
7C0
  8
P2DISTRICTS
 10
810029.69320700003
 20
8985049.3158399984
 30
0.0
  0
VERTEX
  5
7C1
  8
P2DISTRICTS
 10
810012.67868400004
 20
8985059.0708300006
 30
0.0
  0
VERTEX
  5
7C2
  8
P2DISTRICTS
 10
809995.92472800019
 20
8985069.2354899999
 30
0.0
  0
VERTEX
  5
7C3
  8
P2DISTRICTS
 10
809980.06642100005
 20
8985080.7956300005
 30
0.0
  0
VERTEX
  5
7C4
  8
P2DISTRICTS
 10
809964.98656800005
 20
8985093.3931799997
 30
0.0
  0
VERTEX
  5
7C5
  8
P2DISTRICTS
 10
809950.66778999998
 20
8985106.7951400001
 30
0.0
  0
VERTEX
  5
7C6
  8
P2DISTRICTS
 10
809936.34642800014
 20
8985120.32632
 30
0.0
  0
VERTEX
  5
7C7
  8
P2DISTRICTS
 10
809922.40412700002
 20
8985134.2258000039
 30
0.0
  0
VERTEX
  5
7C8
  8
P2DISTRICTS
 10
809910.04567700007
 20
8985149.3519399967
 30
0.0
  0
VERTEX
  5
7C9
  8
P2DISTRICTS
 10
809899.57720500021
 20
8985165.9255800005
 30
0.0
  0
VERTEX
  5
7CA
  8
P2DISTRICTS
 10
809887.57862399984
 20
8985181.4511099979
 30
0.0
  0
VERTEX
  5
7CB
  8
P2DISTRICTS
 10
809875.40839500015
 20
8985196.8295699991
 30
0.0
  0
VERTEX
  5
7CC
  8
P2DISTRICTS
 10
809865.35112100013
 20
8985213.6226399988
 30
0.0
  0
VERTEX
  5
7CD
  8
P2DISTRICTS
 10
809856.15831100033
 20
8985231.0018699989
 30
0.0
  0
VERTEX
  5
7CE
  8
P2DISTRICTS
 10
809845.15267099999
 20
8985247.1756500006
 30
0.0
  0
VERTEX
  5
7CF
  8
P2DISTRICTS
 10
809833.48653000011
 20
8985262.9314399995
 30
0.0
  0
VERTEX
  5
7D0
  8
P2DISTRICTS
 10
809822.55817900016
 20
8985279.2085199989
 30
0.0
  0
VERTEX
  5
7D1
  8
P2DISTRICTS
 10
809811.96401999996
 20
8985295.7260400001
 30
0.0
  0
VERTEX
  5
7D2
  8
P2DISTRICTS
 10
809801.2769170003
 20
8985312.1768599991
 30
0.0
  0
SEQEND
  5
7D3
  8
P2DISTRICTS
  0
POLYLINE
  5
9F
  8
P2DISTRICTS
 66
     1
 10
0.0
 20
0.0
 30
0.0
 70
   128
  0
VERTEX
  5
7D4
  8
P2DISTRICTS
 10
812389.7629436783
 20
8987572.8221611008
 30
0.0
  0
VERTEX
  5
7D5
  8
P2DISTRICTS
 10
812360.08395708259
 20
8987516.0645691585
 30
0.0
  0
VERTEX
  5
7D6
  8
P2DISTRICTS
 10
812397.28910372965
 20
8987459.0324098039
 30
0.0
  0
VERTEX
  5
7D7
  8
P2DISTRICTS
 10
812393.64436269412
 20
8987360.2489301972
 30
0.0
  0
VERTEX
  5
7D8
  8
P2DISTRICTS
 10
812391.62569710531
 20
8987305.5370016769
 30
0.0
  0
VERTEX
  5
7D9
  8
P2DISTRICTS
 10
812403.6286576346
 20
8987128.5313249789
 30
0.0
  0
VERTEX
  5
7DA
  8
P2DISTRICTS
 10
812460.20793807763
 20
8987091.3707222473
 30
0.0
  0
VERTEX
  5
7DB
  8
P2DISTRICTS
 10
812816.09701061528
 20
8986735.7617728468
 30
0.0
  0
VERTEX
  5
7DC
  8
P2DISTRICTS
 10
813020.54934828519
 20
8985987.0685849059
 30
0.0
  0
VERTEX
  5
7DD
  8
P2DISTRICTS
 10
813013.08681700018
 20
8985983.5191099998
 30
0.0
  0
VERTEX
  5
7DE
  8
P2DISTRICTS
 10
812995.37538700027
 20
8985975.1092300005
 30
0.0
  0
VERTEX
  5
7DF
  8
P2DISTRICTS
 10
812977.67795799999
 20
8985966.6696800012
 30
0.0
  0
VERTEX
  5
7E0
  8
P2DISTRICTS
 10
812960.01604100014
 20
8985958.1568800006
 30
0.0
  0
VERTEX
  5
7E1
  8
P2DISTRICTS
 10
812942.41733900039
 20
8985949.5145199988
 30
0.0
  0
VERTEX
  5
7E2
  8
P2DISTRICTS
 10
812924.81301899988
 20
8985940.8834100049
 30
0.0
  0
VERTEX
  5
7E3
  8
P2DISTRICTS
 10
812907.18414899998
 20
8985932.3023199998
 30
0.0
  0
VERTEX
  5
7E4
  8
P2DISTRICTS
 10
812889.54702900001
 20
8985923.7379900012
 30
0.0
  0
VERTEX
  5
7E5
  8
P2DISTRICTS
 10
812871.91588099999
 20
8985915.1614900008
 30
0.0
  0
VERTEX
  5
7E6
  8
P2DISTRICTS
 10
812854.30860900029
 20
8985906.5364399981
 30
0.0
  0
VERTEX
  5
7E7
  8
P2DISTRICTS
 10
812836.73548000026
 20
8985897.8419399988
 30
0.0
  0
VERTEX
  5
7E8
  8
P2DISTRICTS
 10
812819.14357399987
 20
8985889.1854299996
 30
0.0
  0
VERTEX
  5
7E9
  8
P2DISTRICTS
 10
812801.53197600006
 20
8985880.5689899996
 30
0.0
  0
VERTEX
  5
7EA
  8
P2DISTRICTS
 10
812783.90578599984
 20
8985871.9824699983
 30
0.0
  0
VERTEX
  5
7EB
  8
P2DISTRICTS
 10
812766.27630200027
 20
8985863.4027600009
 30
0.0
  0
VERTEX
  5
7EC
  8
P2DISTRICTS
 10
812748.65765800001
 20
8985854.8008699995
 30
0.0
  0
VERTEX
  5
7ED
  8
P2DISTRICTS
 10
812731.04900900007
 20
8985846.1784700006
 30
0.0
  0
VERTEX
  5
7EE
  8
P2DISTRICTS
 10
812713.4255680003
 20
8985837.5863100011
 30
0.0
  0
VERTEX
  5
7EF
  8
P2DISTRICTS
 10
812695.78312100039
 20
8985829.0333200004
 30
0.0
  0
VERTEX
  5
7F0
  8
P2DISTRICTS
 10
812678.11923700012
 20
8985820.5246899966
 30
0.0
  0
VERTEX
  5
7F1
  8
P2DISTRICTS
 10
812660.44325100014
 20
8985812.0411399994
 30
0.0
  0
VERTEX
  5
7F2
  8
P2DISTRICTS
 10
812642.76242200029
 20
8985803.5677300002
 30
0.0
  0
VERTEX
  5
7F3
  8
P2DISTRICTS
 10
812625.08131000004
 20
8985795.0949200001
 30
0.0
  0
VERTEX
  5
7F4
  8
P2DISTRICTS
 10
812607.39463600004
 20
8985786.6337199993
 30
0.0
  0
VERTEX
  5
7F5
  8
P2DISTRICTS
 10
812589.68654300005
 20
8985778.2174800001
 30
0.0
  0
VERTEX
  5
7F6
  8
P2DISTRICTS
 10
812571.95239600004
 20
8985769.8561300002
 30
0.0
  0
VERTEX
  5
7F7
  8
P2DISTRICTS
 10
812554.19599100004
 20
8985761.5421399996
 30
0.0
  0
VERTEX
  5
7F8
  8
P2DISTRICTS
 10
812536.41795800009
 20
8985753.2746200003
 30
0.0
  0
VERTEX
  5
7F9
  8
P2DISTRICTS
 10
812518.644921
 20
8985744.9964499995
 30
0.0
  0
VERTEX
  5
7FA
  8
P2DISTRICTS
 10
812500.87608700013
 20
8985736.7091700006
 30
0.0
  0
VERTEX
  5
7FB
  8
P2DISTRICTS
 10
812483.08263800014
 20
8985728.4745800011
 30
0.0
  0
VERTEX
  5
7FC
  8
P2DISTRICTS
 10
812465.25846499996
 20
8985720.3067000005
 30
0.0
  0
VERTEX
  5
7FD
  8
P2DISTRICTS
 10
812447.39600299997
 20
8985712.2232500017
 30
0.0
  0
VERTEX
  5
7FE
  8
P2DISTRICTS
 10
812429.49916800018
 20
8985704.2160999998
 30
0.0
  0
VERTEX
  5
7FF
  8
P2DISTRICTS
 10
812411.62110900029
 20
8985696.167369999
 30
0.0
  0
VERTEX
  5
800
  8
P2DISTRICTS
 10
812393.75568000029
 20
8985688.0901999995
 30
0.0
  0
VERTEX
  5
801
  8
P2DISTRICTS
 10
812375.85742599994
 20
8985680.0855100006
 30
0.0
  0
VERTEX
  5
802
  8
P2DISTRICTS
 10
812357.91846899991
 20
8985672.172960002
 30
0.0
  0
VERTEX
  5
803
  8
P2DISTRICTS
 10
812339.92304000002
 20
8985664.3903400004
 30
0.0
  0
VERTEX
  5
804
  8
P2DISTRICTS
 10
812321.89298800007
 20
8985656.6876500007
 30
0.0
  0
VERTEX
  5
805
  8
P2DISTRICTS
 10
812303.88592300005
 20
8985648.9317600001
 30
0.0
  0
VERTEX
  5
806
  8
P2DISTRICTS
 10
812285.89864700055
 20
8985641.1298800018
 30
0.0
  0
VERTEX
  5
807
  8
P2DISTRICTS
 10
812267.88535899995
 20
8985633.3881399985
 30
0.0
  0
VERTEX
  5
808
  8
P2DISTRICTS
 10
812249.84355500014
 20
8985625.7130999994
 30
0.0
  0
VERTEX
  5
809
  8
P2DISTRICTS
 10
812231.76583199995
 20
8985618.1228299998
 30
0.0
  0
VERTEX
  5
80A
  8
P2DISTRICTS
 10
812213.65322800004
 20
8985610.6161800027
 30
0.0
  0
VERTEX
  5
80B
  8
P2DISTRICTS
 10
812195.49918899999
 20
8985603.2105399966
 30
0.0
  0
VERTEX
  5
80C
  8
P2DISTRICTS
 10
812177.35719200002
 20
8985595.7764100004
 30
0.0
  0
VERTEX
  5
80D
  8
P2DISTRICTS
 10
812159.27104700019
 20
8985588.2063800003
 30
0.0
  0
VERTEX
  5
80E
  8
P2DISTRICTS
 10
812141.16632299998
 20
8985580.6802099999
 30
0.0
  0
VERTEX
  5
80F
  8
P2DISTRICTS
 10
812123.00784600002
 20
8985573.2844200004
 30
0.0
  0
VERTEX
  5
810
  8
P2DISTRICTS
 10
812104.79255799996
 20
8985566.0303100031
 30
0.0
  0
VERTEX
  5
811
  8
P2DISTRICTS
 10
812086.50910200004
 20
8985558.9494599961
 30
0.0
  0
VERTEX
  5
812
  8
P2DISTRICTS
 10
812068.22572600003
 20
8985551.869380001
 30
0.0
  0
VERTEX
  5
813
  8
P2DISTRICTS
 10
812050.03359300015
 20
8985544.5585999992
 30
0.0
  0
VERTEX
  5
814
  8
P2DISTRICTS
 10
812031.80787999998
 20
8985537.3319300003
 30
0.0
  0
VERTEX
  5
815
  8
P2DISTRICTS
 10
812013.5219220001
 20
8985530.2576000001
 30
0.0
  0
VERTEX
  5
816
  8
P2DISTRICTS
 10
811995.19117699994
 20
8985523.2980000004
 30
0.0
  0
VERTEX
  5
817
  8
P2DISTRICTS
 10
811976.81481100025
 20
8985516.4592399988
 30
0.0
  0
VERTEX
  5
818
  8
P2DISTRICTS
 10
811958.37661799975
 20
8985509.7923399992
 30
0.0
  0
VERTEX
  5
819
  8
P2DISTRICTS
 10
811939.8459800001
 20
8985503.3880000021
 30
0.0
  0
VERTEX
  5
81A
  8
P2DISTRICTS
 10
811921.33644700015
 20
8985496.9236200005
 30
0.0
  0
VERTEX
  5
81B
  8
P2DISTRICTS
 10
811902.89578000025
 20
8985490.2629700005
 30
0.0
  0
VERTEX
  5
81C
  8
P2DISTRICTS
 10
811884.36949799978
 20
8985483.8472700007
 30
0.0
  0
VERTEX
  5
81D
  8
P2DISTRICTS
 10
811865.75044900004
 20
8985477.7006700002
 30
0.0
  0
VERTEX
  5
81E
  8
P2DISTRICTS
 10
811847.07242700015
 20
8985471.7335300017
 30
0.0
  0
VERTEX
  5
81F
  8
P2DISTRICTS
 10
811828.34900399973
 20
8985465.9136100002
 30
0.0
  0
VERTEX
  5
820
  8
P2DISTRICTS
 10
811809.5850379999
 20
8985460.2282999996
 30
0.0
  0
VERTEX
  5
821
  8
P2DISTRICTS
 10
811790.77275699971
 20
8985454.7055500038
 30
0.0
  0
VERTEX
  5
822
  8
P2DISTRICTS
 10
811771.95142599999
 20
8985449.2131399997
 30
0.0
  0
VERTEX
  5
823
  8
P2DISTRICTS
 10
811753.168573
 20
8985443.5903399996
 30
0.0
  0
VERTEX
  5
824
  8
P2DISTRICTS
 10
811734.35766099999
 20
8985438.0627899989
 30
0.0
  0
VERTEX
  5
825
  8
P2DISTRICTS
 10
811715.52499099995
 20
8985432.6088899989
 30
0.0
  0
VERTEX
  5
826
  8
P2DISTRICTS
 10
811696.71236400004
 20
8985427.0864600018
 30
0.0
  0
VERTEX
  5
827
  8
P2DISTRICTS
 10
811677.93835899979
 20
8985421.4326000009
 30
0.0
  0
VERTEX
  5
828
  8
P2DISTRICTS
 10
811659.16064799996
 20
8985415.7925600037
 30
0.0
  0
VERTEX
  5
829
  8
P2DISTRICTS
 10
811640.32770500018
 20
8985410.3433899973
 30
0.0
  0
VERTEX
  5
82A
  8
P2DISTRICTS
 10
811621.439732
 20
8985405.0840600021
 30
0.0
  0
VERTEX
  5
82B
  8
P2DISTRICTS
 10
811602.54469000013
 20
8985399.8489999995
 30
0.0
  0
VERTEX
  5
82C
  8
P2DISTRICTS
 10
811583.6231740003
 20
8985394.7124199998
 30
0.0
  0
VERTEX
  5
82D
  8
P2DISTRICTS
 10
811564.66371899995
 20
8985389.7146000005
 30
0.0
  0
VERTEX
  5
82E
  8
P2DISTRICTS
 10
811545.74363100005
 20
8985384.5764000006
 30
0.0
  0
VERTEX
  5
82F
  8
P2DISTRICTS
 10
811526.90498400002
 20
8985379.1462299991
 30
0.0
  0
VERTEX
  5
830
  8
P2DISTRICTS
 10
811508.11407600006
 20
8985373.5461299997
 30
0.0
  0
VERTEX
  5
831
  8
P2DISTRICTS
 10
811489.34523700026
 20
8985367.8703700006
 30
0.0
  0
VERTEX
  5
832
  8
P2DISTRICTS
 10
811470.60338900005
 20
8985362.1096500009
 30
0.0
  0
VERTEX
  5
833
  8
P2DISTRICTS
 10
811451.92254199996
 20
8985356.1591700017
 30
0.0
  0
VERTEX
  5
834
  8
P2DISTRICTS
 10
811433.33221000002
 20
8985349.9297599979
 30
0.0
  0
VERTEX
  5
835
  8
P2DISTRICTS
 10
811414.78121900035
 20
8985343.5888600033
 30
0.0
  0
VERTEX
  5
836
  8
P2DISTRICTS
 10
811396.26451400004
 20
8985337.1332900003
 30
0.0
  0
VERTEX
  5
837
  8
P2DISTRICTS
 10
811377.82081299997
 20
8985330.4498000015
 30
0.0
  0
VERTEX
  5
838
  8
P2DISTRICTS
 10
811359.53983500006
 20
8985323.3580200002
 30
0.0
  0
VERTEX
  5
839
  8
P2DISTRICTS
 10
811341.56631400005
 20
8985315.547530001
 30
0.0
  0
VERTEX
  5
83A
  8
P2DISTRICTS
 10
811323.83808799996
 20
8985307.1687499993
 30
0.0
  0
VERTEX
  5
83B
  8
P2DISTRICTS
 10
811306.04874200001
 20
8985298.92062
 30
0.0
  0
VERTEX
  5
83C
  8
P2DISTRICTS
 10
811288.13362800004
 20
8985290.9562600013
 30
0.0
  0
VERTEX
  5
83D
  8
P2DISTRICTS
 10
811270.23797399981
 20
8985282.949570002
 30
0.0
  0
VERTEX
  5
83E
  8
P2DISTRICTS
 10
811252.27842400025
 20
8985275.0800899994
 30
0.0
  0
VERTEX
  5
83F
  8
P2DISTRICTS
 10
811234.18845899997
 20
8985267.4917699993
 30
0.0
  0
VERTEX
  5
840
  8
P2DISTRICTS
 10
811216.13249300013
 20
8985259.8342499994
 30
0.0
  0
VERTEX
  5
841
  8
P2DISTRICTS
 10
811198.38823799998
 20
8985251.5156999994
 30
0.0
  0
VERTEX
  5
842
  8
P2DISTRICTS
 10
811180.93056999985
 20
8985242.5783300009
 30
0.0
  0
SEQEND
  5
843
  8
P2DISTRICTS
  0
ENDSEC
  0
EOF
