  0
SECTION
  2
HEADER
  9
$ACADVER
  1
AC1009
  9
$INSBASE
 10
0.0
 20
0.0
 30
0.0
  9
$EXTMIN
 10
627.60458405611996
 20
4661.6094866331641
 30
10.0
  9
$EXTMAX
 10
667.1771816905682
 20
4696.0195677394058
 30
10.0
  9
$LIMMIN
 10
0.0
 20
0.0
  9
$LIMMAX
 10
12.0
 20
9.0
  9
$ORTHOMODE
 70
     0
  9
$REGENMODE
 70
     1
  9
$FILLMODE
 70
     1
  9
$QTEXTMODE
 70
     0
  9
$MIRRTEXT
 70
     1
  9
$DRAGMODE
 70
     2
  9
$LTSCALE
 40
1.0
  9
$OSMODE
 70
   613
  9
$ATTMODE
 70
     1
  9
$TEXTSIZE
 40
0.5
  9
$TRACEWID
 40
0.05
  9
$TEXTSTYLE
  7
STANDARD
  9
$CLAYER
  8
CLUSTERS
  9
$CELTYPE
  6
BYLAYER
  9
$CECOLOR
 62
   256
  9
$DIMSCALE
 40
1.0
  9
$DIMASZ
 40
0.18
  9
$DIMEXO
 40
0.0625
  9
$DIMDLI
 40
0.38
  9
$DIMRND
 40
0.0
  9
$DIMDLE
 40
0.0
  9
$DIMEXE
 40
0.18
  9
$DIMTP
 40
0.0
  9
$DIMTM
 40
0.0
  9
$DIMTXT
 40
0.18
  9
$DIMCEN
 40
0.09
  9
$DIMTSZ
 40
0.0
  9
$DIMTOL
 70
     0
  9
$DIMLIM
 70
     0
  9
$DIMTIH
 70
     1
  9
$DIMTOH
 70
     1
  9
$DIMSE1
 70
     0
  9
$DIMSE2
 70
     0
  9
$DIMTAD
 70
     0
  9
$DIMZIN
 70
     0
  9
$DIMBLK
  1

  9
$DIMASO
 70
     1
  9
$DIMSHO
 70
     1
  9
$DIMPOST
  1

  9
$DIMAPOST
  1

  9
$DIMALT
 70
     0
  9
$DIMALTD
 70
     2
  9
$DIMALTF
 40
25.399999999999999
  9
$DIMLFAC
 40
1.0
  9
$DIMTOFL
 70
     0
  9
$DIMTVP
 40
0.0
  9
$DIMTIX
 70
     0
  9
$DIMSOXD
 70
     0
  9
$DIMSAH
 70
     0
  9
$DIMBLK1
  1

  9
$DIMBLK2
  1

  9
$DIMSTYLE
  2
STANDARD
  9
$DIMCLRD
 70
     0
  9
$DIMCLRE
 70
     0
  9
$DIMCLRT
 70
     0
  9
$DIMTFAC
 40
1.0
  9
$DIMGAP
 40
0.09
  9
$LUNITS
 70
     2
  9
$LUPREC
 70
     4
  9
$SKETCHINC
 40
0.1
  9
$FILLETRAD
 40
0.5
  9
$AUNITS
 70
     0
  9
$AUPREC
 70
     0
  9
$MENU
  1
.
  9
$ELEVATION
 40
0.0
  9
$PELEVATION
 40
0.0
  9
$THICKNESS
 40
0.0
  9
$LIMCHECK
 70
     0
  9
$BLIPMODE
 70
     0
  9
$CHAMFERA
 40
0.5
  9
$CHAMFERB
 40
0.5
  9
$SKPOLY
 70
     0
  9
$TDCREATE
 40
2454381.8473497801
  9
$TDUPDATE
 40
2455808.6554721869
  9
$TDINDWG
 40
0.275796088
  9
$TDUSRTIMER
 40
0.275796088
  9
$USRTIMER
 70
     1
  9
$ANGBASE
 50
0.0
  9
$ANGDIR
 70
     1
  9
$PDMODE
 70
    66
  9
$PDSIZE
 40
0.0
  9
$PLINEWID
 40
0.0
  9
$COORDS
 70
     1
  9
$SPLFRAME
 70
     0
  9
$SPLINETYPE
 70
     6
  9
$SPLINESEGS
 70
     8
  9
$ATTDIA
 70
     0
  9
$ATTREQ
 70
     1
  9
$HANDLING
 70
     1
  9
$HANDSEED
  5
11F6
  9
$SURFTAB1
 70
     6
  9
$SURFTAB2
 70
     6
  9
$SURFTYPE
 70
     6
  9
$SURFU
 70
     6
  9
$SURFV
 70
     6
  9
$UCSNAME
  2

  9
$UCSORG
 10
0.0
 20
0.0
 30
0.0
  9
$UCSXDIR
 10
1.0
 20
0.0
 30
0.0
  9
$UCSYDIR
 10
0.0
 20
1.0
 30
0.0
  9
$PUCSNAME
  2

  9
$PUCSORG
 10
0.0
 20
0.0
 30
0.0
  9
$PUCSXDIR
 10
1.0
 20
0.0
 30
0.0
  9
$PUCSYDIR
 10
0.0
 20
1.0
 30
0.0
  9
$USERI1
 70
     0
  9
$USERI2
 70
     0
  9
$USERI3
 70
     0
  9
$USERI4
 70
     0
  9
$USERI5
 70
     0
  9
$USERR1
 40
0.0
  9
$USERR2
 40
0.0
  9
$USERR3
 40
0.0
  9
$USERR4
 40
0.0
  9
$USERR5
 40
0.0
  9
$WORLDVIEW
 70
     1
  9
$SHADEDGE
 70
     3
  9
$SHADEDIF
 70
    70
  9
$TILEMODE
 70
     1
  9
$MAXACTVP
 70
    64
  9
$PLIMCHECK
 70
     0
  9
$PEXTMIN
 10
0.0
 20
0.0
 30
0.0
  9
$PEXTMAX
 10
0.0
 20
0.0
 30
0.0
  9
$PLIMMIN
 10
0.0
 20
0.0
  9
$PLIMMAX
 10
12.0
 20
9.0
  9
$UNITMODE
 70
     0
  9
$VISRETAIN
 70
     1
  9
$PLINEGEN
 70
     0
  9
$PSLTSCALE
 70
     1
  0
ENDSEC
  0
SECTION
  2
TABLES
  0
TABLE
  2
VPORT
 70
     1
  0
VPORT
  2
*ACTIVE
 70
     0
 10
0.0
 20
0.0
 11
1.0
 21
1.0
 12
648.06645335549013
 22
4693.4160238555851
 13
0.0
 23
0.0
 14
0.5
 24
0.5
 15
0.5
 25
0.5
 16
0.0
 26
0.0
 36
1.0
 17
0.0
 27
0.0
 37
0.0
 40
72.187092024790616
 41
1.336206896551724
 42
50.0
 43
0.0
 44
0.0
 50
0.0
 51
0.0
 71
     0
 72
   100
 73
     1
 74
     2
 75
     0
 76
     0
 77
     0
 78
     0
  0
ENDTAB
  0
TABLE
  2
LTYPE
 70
     1
  0
LTYPE
  2
CONTINUOUS
 70
     0
  3
Solid line
 72
    65
 73
     0
 40
0.0
  0
ENDTAB
  0
TABLE
  2
LAYER
 70
     3
  0
LAYER
  2
0
 70
     0
 62
    -7
  6
CONTINUOUS
  0
LAYER
  2
CLUSTERS
 70
     0
 62
     6
  6
CONTINUOUS
  0
ENDTAB
  0
TABLE
  2
STYLE
 70
     3
  0
STYLE
  2
STANDARD
 70
     0
 40
0.0
 41
1.0
 50
0.0
 71
     0
 42
0.5
  3
txt
  4

  0
STYLE
  2
LEGEND
 70
     0
 40
0.0
 41
1.0
 50
0.0
 71
     0
 42
0.5
  3
txt
  4

  0
ENDTAB
  0
TABLE
  2
VIEW
 70
     0
  0
ENDTAB
  0
TABLE
  2
UCS
 70
     0
  0
ENDTAB
  0
TABLE
  2
APPID
 70
     7
  0
APPID
  2
ACAD
 70
     0
  0
APPID
  2
ACADANNOTATIVE
 70
     0
  0
APPID
  2
ADE
 70
     0
  0
APPID
  2
ACMAPDMDISPLAYSTYLEREGAPP
 70
     0
  0
APPID
  2
MAPGWS
 70
     0
  0
APPID
  2
DCO15
 70
     0
  0
APPID
  2
ACAD_MLEADERVER
 70
     0
  0
ENDTAB
  0
TABLE
  2
DIMSTYLE
 70
     2
  0
DIMSTYLE
  2
STANDARD
 70
     0
  3

  4

  5

  6

  7

 40
1.0
 41
0.18
 42
0.0625
 43
0.38
 44
0.18
 45
0.0
 46
0.0
 47
0.0
 48
0.0
140
0.18
141
0.09
142
0.0
143
25.399999999999999
144
1.0
145
0.0
146
1.0
147
0.09
 71
     0
 72
     0
 73
     1
 74
     1
 75
     0
 76
     0
 77
     0
 78
     0
170
     0
171
     2
172
     0
173
     0
174
     0
175
     0
176
     0
177
     0
178
     0
  0
ENDTAB
  0
ENDSEC
  0
SECTION
  2
BLOCKS
  0
BLOCK
  8
0
  2
$MODEL_SPACE
 70
     0
 10
0.0
 20
0.0
 30
0.0
  3
$MODEL_SPACE
  1

  0
ENDBLK
  5
944
  8
0
  0
BLOCK
 67
     1
  8
0
  2
$PAPER_SPACE
 70
     0
 10
0.0
 20
0.0
 30
0.0
  3
$PAPER_SPACE
  1

  0
ENDBLK
  5
940
 67
     1
  8
0
  0
ENDSEC
  0
SECTION
  2
ENTITIES
  0
POLYLINE
  5
28
  8
CLUSTERS
 66
     1
 10
0.0
 20
0.0
 30
10.0
 70
   129
  0
VERTEX
  5
97D
  8
CLUSTERS
 10
631.51157886299995
 20
4695.9856801899978
 30
10.0
  0
VERTEX
  5
97E
  8
CLUSTERS
 10
631.51416122000001
 20
4695.9875067200001
 30
10.0
  0
VERTEX
  5
97F
  8
CLUSTERS
 10
631.51642677199993
 20
4695.9856801899978
 30
10.0
  0
VERTEX
  5
980
  8
CLUSTERS
 10
631.51416122000001
 20
4695.9831098599998
 30
10.0
  0
VERTEX
  5
981
  8
CLUSTERS
 10
631.51157886299995
 20
4695.9856801899978
 30
10.0
  0
SEQEND
  5
982
  8
CLUSTERS
  0
POLYLINE
  5
2A
  8
CLUSTERS
 66
     1
 10
0.0
 20
0.0
 30
10.0
 70
   129
  0
VERTEX
  5
983
  8
CLUSTERS
 10
631.47022274400001
 20
4694.5823388999997
 30
10.0
  0
VERTEX
  5
984
  8
CLUSTERS
 10
631.41394335500001
 20
4694.6742179800003
 30
10.0
  0
VERTEX
  5
985
  8
CLUSTERS
 10
631.40680198199993
 20
4694.6825775699999
 30
10.0
  0
VERTEX
  5
986
  8
CLUSTERS
 10
631.35528200299996
 20
4694.7828162300002
 30
10.0
  0
VERTEX
  5
987
  8
CLUSTERS
 10
631.3137254899998
 20
4694.8323567500001
 30
10.0
  0
VERTEX
  5
988
  8
CLUSTERS
 10
631.21350762500003
 20
4694.8411480000004
 30
10.0
  0
VERTEX
  5
989
  8
CLUSTERS
 10
631.17839062600001
 20
4694.8830548899996
 30
10.0
  0
VERTEX
  5
98A
  8
CLUSTERS
 10
631.21350762500003
 20
4694.9177013300014
 30
10.0
  0
VERTEX
  5
98B
  8
CLUSTERS
 10
631.3137254899998
 20
4694.92011508
 30
10.0
  0
VERTEX
  5
98C
  8
CLUSTERS
 10
631.40486158500005
 20
4694.8830548899996
 30
10.0
  0
VERTEX
  5
98D
  8
CLUSTERS
 10
631.41394335500001
 20
4694.876301209998
 30
10.0
  0
VERTEX
  5
98E
  8
CLUSTERS
 10
631.41428078699994
 20
4694.8830548899996
 30
10.0
  0
VERTEX
  5
98F
  8
CLUSTERS
 10
631.50219635799999
 20
4694.9832935599989
 30
10.0
  0
VERTEX
  5
990
  8
CLUSTERS
 10
631.51416122000001
 20
4694.9900177199997
 30
10.0
  0
VERTEX
  5
991
  8
CLUSTERS
 10
631.61437908499988
 20
4695.0486493899998
 30
10.0
  0
VERTEX
  5
992
  8
CLUSTERS
 10
631.70439005399976
 20
4694.9832935599989
 30
10.0
  0
VERTEX
  5
993
  8
CLUSTERS
 10
631.71459694999999
 20
4694.9798876699979
 30
10.0
  0
VERTEX
  5
994
  8
CLUSTERS
 10
631.80377895299989
 20
4694.8830548899996
 30
10.0
  0
VERTEX
  5
995
  8
CLUSTERS
 10
631.80984101199999
 20
4694.7828162300002
 30
10.0
  0
VERTEX
  5
996
  8
CLUSTERS
 10
631.79357056599997
 20
4694.6825775699999
 30
10.0
  0
VERTEX
  5
997
  8
CLUSTERS
 10
631.71459694999999
 20
4694.6020689400002
 30
10.0
  0
VERTEX
  5
998
  8
CLUSTERS
 10
631.62938296900006
 20
4694.5823388999997
 30
10.0
  0
VERTEX
  5
999
  8
CLUSTERS
 10
631.61437908499988
 20
4694.5712962600001
 30
10.0
  0
VERTEX
  5
99A
  8
CLUSTERS
 10
631.51416122000001
 20
4694.5434144800001
 30
10.0
  0
VERTEX
  5
99B
  8
CLUSTERS
 10
631.47022274400001
 20
4694.5823388999997
 30
10.0
  0
SEQEND
  5
99C
  8
CLUSTERS
  0
POLYLINE
  5
2B
  8
CLUSTERS
 66
     1
 10
0.0
 20
0.0
 30
10.0
 70
   129
  0
VERTEX
  5
99D
  8
CLUSTERS
 10
629.95728984499999
 20
4694.381861580001
 30
10.0
  0
VERTEX
  5
99E
  8
CLUSTERS
 10
629.93202944799998
 20
4694.4821002400013
 30
10.0
  0
VERTEX
  5
99F
  8
CLUSTERS
 10
630.01089324600002
 20
4694.5636951300003
 30
10.0
  0
VERTEX
  5
9A0
  8
CLUSTERS
 10
630.07821687599994
 20
4694.5823388999997
 30
10.0
  0
VERTEX
  5
9A1
  8
CLUSTERS
 10
630.1111111109999
 20
4694.6200093899988
 30
10.0
  0
VERTEX
  5
9A2
  8
CLUSTERS
 10
630.17106181099984
 20
4694.6825775699999
 30
10.0
  0
VERTEX
  5
9A3
  8
CLUSTERS
 10
630.211328976
 20
4694.7157830100023
 30
10.0
  0
VERTEX
  5
9A4
  8
CLUSTERS
 10
630.31154684099977
 20
4694.7111198299999
 30
10.0
  0
VERTEX
  5
9A5
  8
CLUSTERS
 10
630.36414033300002
 20
4694.7828162300002
 30
10.0
  0
VERTEX
  5
9A6
  8
CLUSTERS
 10
630.41176470599987
 20
4694.8263987
 30
10.0
  0
VERTEX
  5
9A7
  8
CLUSTERS
 10
630.47030225799995
 20
4694.7828162300002
 30
10.0
  0
VERTEX
  5
9A8
  8
CLUSTERS
 10
630.41176470599987
 20
4694.7062640900003
 30
10.0
  0
VERTEX
  5
9A9
  8
CLUSTERS
 10
630.37036699600003
 20
4694.6825775699999
 30
10.0
  0
VERTEX
  5
9AA
  8
CLUSTERS
 10
630.41176470599987
 20
4694.6779171599992
 30
10.0
  0
VERTEX
  5
9AB
  8
CLUSTERS
 10
630.51198257099998
 20
4694.6732305899995
 30
10.0
  0
VERTEX
  5
9AC
  8
CLUSTERS
 10
630.61220043599985
 20
4694.6267765199991
 30
10.0
  0
VERTEX
  5
9AD
  8
CLUSTERS
 10
630.65485352099995
 20
4694.5823388999997
 30
10.0
  0
VERTEX
  5
9AE
  8
CLUSTERS
 10
630.61220043599985
 20
4694.5188903000017
 30
10.0
  0
VERTEX
  5
9AF
  8
CLUSTERS
 10
630.56345167699976
 20
4694.4821002400013
 30
10.0
  0
VERTEX
  5
9B0
  8
CLUSTERS
 10
630.51198257099998
 20
4694.4481502999997
 30
10.0
  0
VERTEX
  5
9B1
  8
CLUSTERS
 10
630.41176470599987
 20
4694.38685257
 30
10.0
  0
VERTEX
  5
9B2
  8
CLUSTERS
 10
630.40148160199999
 20
4694.381861580001
 30
10.0
  0
VERTEX
  5
9B3
  8
CLUSTERS
 10
630.31154684099977
 20
4694.3212202399991
 30
10.0
  0
VERTEX
  5
9B4
  8
CLUSTERS
 10
630.211328976
 20
4694.3170326400004
 30
10.0
  0
VERTEX
  5
9B5
  8
CLUSTERS
 10
630.1111111109999
 20
4694.3120645600002
 30
10.0
  0
VERTEX
  5
9B6
  8
CLUSTERS
 10
630.01089324600002
 20
4694.3185153900004
 30
10.0
  0
VERTEX
  5
9B7
  8
CLUSTERS
 10
629.95728984499999
 20
4694.381861580001
 30
10.0
  0
SEQEND
  5
9B8
  8
CLUSTERS
  0
POLYLINE
  5
2C
  8
CLUSTERS
 66
     1
 10
0.0
 20
0.0
 30
10.0
 70
   129
  0
VERTEX
  5
9B9
  8
CLUSTERS
 10
646.35234184000001
 20
4694.2816229099999
 30
10.0
  0
VERTEX
  5
9BA
  8
CLUSTERS
 10
646.34640522899986
 20
4694.316710369998
 30
10.0
  0
VERTEX
  5
9BB
  8
CLUSTERS
 10
646.25594270199986
 20
4694.381861580001
 30
10.0
  0
VERTEX
  5
9BC
  8
CLUSTERS
 10
646.24618736399975
 20
4694.3828600699999
 30
10.0
  0
VERTEX
  5
9BD
  8
CLUSTERS
 10
646.15200923700002
 20
4694.4821002400013
 30
10.0
  0
VERTEX
  5
9BE
  8
CLUSTERS
 10
646.16463739499977
 20
4694.5823388999997
 30
10.0
  0
VERTEX
  5
9BF
  8
CLUSTERS
 10
646.24618736399975
 20
4694.6633594399991
 30
10.0
  0
VERTEX
  5
9C0
  8
CLUSTERS
 10
646.34640522899986
 20
4694.6579961899997
 30
10.0
  0
VERTEX
  5
9C1
  8
CLUSTERS
 10
646.423622464
 20
4694.5823388999997
 30
10.0
  0
VERTEX
  5
9C2
  8
CLUSTERS
 10
646.44543998199993
 20
4694.4821002400013
 30
10.0
  0
VERTEX
  5
9C3
  8
CLUSTERS
 10
646.44662309399985
 20
4694.4812216199998
 30
10.0
  0
VERTEX
  5
9C4
  8
CLUSTERS
 10
646.54684095899995
 20
4694.4603328599987
 30
10.0
  0
VERTEX
  5
9C5
  8
CLUSTERS
 10
646.62462864500003
 20
4694.381861580001
 30
10.0
  0
VERTEX
  5
9C6
  8
CLUSTERS
 10
646.54684095899995
 20
4694.2946286400002
 30
10.0
  0
VERTEX
  5
9C7
  8
CLUSTERS
 10
646.54251670199994
 20
4694.2816229099999
 30
10.0
  0
VERTEX
  5
9C8
  8
CLUSTERS
 10
646.44662309399985
 20
4694.1860808399979
 30
10.0
  0
VERTEX
  5
9C9
  8
CLUSTERS
 10
646.35234184000001
 20
4694.2816229099999
 30
10.0
  0
SEQEND
  5
9CA
  8
CLUSTERS
  0
POLYLINE
  5
2D
  8
CLUSTERS
 66
     1
 10
0.0
 20
0.0
 30
10.0
 70
   129
  0
VERTEX
  5
9CB
  8
CLUSTERS
 10
632.13564353300001
 20
4694.0811455800022
 30
10.0
  0
VERTEX
  5
9CC
  8
CLUSTERS
 10
632.11546840999995
 20
4694.0907795000003
 30
10.0
  0
VERTEX
  5
9CD
  8
CLUSTERS
 10
632.01525054499984
 20
4694.11448234
 30
10.0
  0
VERTEX
  5
9CE
  8
CLUSTERS
 10
631.94880328699981
 20
4694.1813842499996
 30
10.0
  0
VERTEX
  5
9CF
  8
CLUSTERS
 10
631.91503267999985
 20
4694.2677409400003
 30
10.0
  0
VERTEX
  5
9D0
  8
CLUSTERS
 10
631.90369924799995
 20
4694.2816229099999
 30
10.0
  0
VERTEX
  5
9D1
  8
CLUSTERS
 10
631.91503267999985
 20
4694.2932035000003
 30
10.0
  0
VERTEX
  5
9D2
  8
CLUSTERS
 10
632.01525054499984
 20
4694.3707132999989
 30
10.0
  0
VERTEX
  5
9D3
  8
CLUSTERS
 10
632.11546840999995
 20
4694.3415619499992
 30
10.0
  0
VERTEX
  5
9D4
  8
CLUSTERS
 10
632.17439250400002
 20
4694.2816229099999
 30
10.0
  0
VERTEX
  5
9D5
  8
CLUSTERS
 10
632.17670061800004
 20
4694.1813842499996
 30
10.0
  0
VERTEX
  5
9D6
  8
CLUSTERS
 10
632.21568627500005
 20
4694.1210929199979
 30
10.0
  0
VERTEX
  5
9D7
  8
CLUSTERS
 10
632.24130149199993
 20
4694.0811455800022
 30
10.0
  0
VERTEX
  5
9D8
  8
CLUSTERS
 10
632.21568627500005
 20
4694.0561989799999
 30
10.0
  0
VERTEX
  5
9D9
  8
CLUSTERS
 10
632.13564353300001
 20
4694.0811455800022
 30
10.0
  0
SEQEND
  5
9DA
  8
CLUSTERS
  0
POLYLINE
  5
2E
  8
CLUSTERS
 66
     1
 10
0.0
 20
0.0
 30
10.0
 70
   129
  0
VERTEX
  5
9DB
  8
CLUSTERS
 10
650.26085080300004
 20
4692.9785202900002
 30
10.0
  0
VERTEX
  5
9DC
  8
CLUSTERS
 10
650.26578327899995
 20
4693.0787589499978
 30
10.0
  0
VERTEX
  5
9DD
  8
CLUSTERS
 10
650.25490196099986
 20
4693.0839035600002
 30
10.0
  0
VERTEX
  5
9DE
  8
CLUSTERS
 10
650.15468409599976
 20
4693.16819708
 30
10.0
  0
VERTEX
  5
9DF
  8
CLUSTERS
 10
650.14332082600004
 20
4693.1789976099999
 30
10.0
  0
VERTEX
  5
9E0
  8
CLUSTERS
 10
650.05650009299995
 20
4693.2792362800001
 30
10.0
  0
VERTEX
  5
9E1
  8
CLUSTERS
 10
650.05602699600001
 20
4693.3794749400013
 30
10.0
  0
VERTEX
  5
9E2
  8
CLUSTERS
 10
650.15468409599976
 20
4693.4776905199988
 30
10.0
  0
VERTEX
  5
9E3
  8
CLUSTERS
 10
650.25490196099986
 20
4693.474918179998
 30
10.0
  0
VERTEX
  5
9E4
  8
CLUSTERS
 10
650.35065501600002
 20
4693.3794749400013
 30
10.0
  0
VERTEX
  5
9E5
  8
CLUSTERS
 10
650.35509033000005
 20
4693.2792362800001
 30
10.0
  0
VERTEX
  5
9E6
  8
CLUSTERS
 10
650.35511982599985
 20
4693.27920146
 30
10.0
  0
VERTEX
  5
9E7
  8
CLUSTERS
 10
650.45321300099999
 20
4693.1789976099999
 30
10.0
  0
VERTEX
  5
9E8
  8
CLUSTERS
 10
650.44356447500002
 20
4693.0787589499978
 30
10.0
  0
VERTEX
  5
9E9
  8
CLUSTERS
 10
650.45533769099995
 20
4693.0209113099991
 30
10.0
  0
VERTEX
  5
9EA
  8
CLUSTERS
 10
650.4851957999997
 20
4692.9785202900002
 30
10.0
  0
VERTEX
  5
9EB
  8
CLUSTERS
 10
650.45533769099995
 20
4692.9475870799988
 30
10.0
  0
VERTEX
  5
9EC
  8
CLUSTERS
 10
650.35511982599985
 20
4692.8854407700001
 30
10.0
  0
VERTEX
  5
9ED
  8
CLUSTERS
 10
650.26085080300004
 20
4692.9785202900002
 30
10.0
  0
SEQEND
  5
9EE
  8
CLUSTERS
  0
POLYLINE
  5
2F
  8
CLUSTERS
 66
     1
 10
0.0
 20
0.0
 30
10.0
 70
   129
  0
VERTEX
  5
9EF
  8
CLUSTERS
 10
629.72095445000002
 20
4692.7780429599989
 30
10.0
  0
VERTEX
  5
9F0
  8
CLUSTERS
 10
629.7124694449999
 20
4692.8782816199991
 30
10.0
  0
VERTEX
  5
9F1
  8
CLUSTERS
 10
629.71023965099994
 20
4692.8825084199998
 30
10.0
  0
VERTEX
  5
9F2
  8
CLUSTERS
 10
629.61002178599995
 20
4692.9027198499998
 30
10.0
  0
VERTEX
  5
9F3
  8
CLUSTERS
 10
629.549788347
 20
4692.9785202900002
 30
10.0
  0
VERTEX
  5
9F4
  8
CLUSTERS
 10
629.61002178599995
 20
4693.0392068000001
 30
10.0
  0
VERTEX
  5
9F5
  8
CLUSTERS
 10
629.71023965099994
 20
4693.0527045600002
 30
10.0
  0
VERTEX
  5
9F6
  8
CLUSTERS
 10
629.80863076599996
 20
4692.9785202900002
 30
10.0
  0
VERTEX
  5
9F7
  8
CLUSTERS
 10
629.81045751599993
 20
4692.9775674599978
 30
10.0
  0
VERTEX
  5
9F8
  8
CLUSTERS
 10
629.91067538100003
 20
4692.9529172599978
 30
10.0
  0
VERTEX
  5
9F9
  8
CLUSTERS
 10
629.99672035699984
 20
4692.8782816199991
 30
10.0
  0
VERTEX
  5
9FA
  8
CLUSTERS
 10
630.01089324600002
 20
4692.8148850600001
 30
10.0
  0
VERTEX
  5
9FB
  8
CLUSTERS
 10
630.03093243399985
 20
4692.7780429599989
 30
10.0
  0
VERTEX
  5
9FC
  8
CLUSTERS
 10
630.01089324600002
 20
4692.7522463799978
 30
10.0
  0
VERTEX
  5
9FD
  8
CLUSTERS
 10
629.91067538100003
 20
4692.6785294499996
 30
10.0
  0
VERTEX
  5
9FE
  8
CLUSTERS
 10
629.81045751599993
 20
4692.6795561400004
 30
10.0
  0
VERTEX
  5
9FF
  8
CLUSTERS
 10
629.72095445000002
 20
4692.7780429599989
 30
10.0
  0
SEQEND
  5
A00
  8
CLUSTERS
  0
POLYLINE
  5
30
  8
CLUSTERS
 66
     1
 10
0.0
 20
0.0
 30
10.0
 70
   129
  0
VERTEX
  5
A01
  8
CLUSTERS
 10
636.73288901399985
 20
4692.5775656300002
 30
10.0
  0
VERTEX
  5
A02
  8
CLUSTERS
 10
636.7254901959999
 20
4692.5848025799978
 30
10.0
  0
VERTEX
  5
A03
  8
CLUSTERS
 10
636.63877129399987
 20
4692.6778043000004
 30
10.0
  0
VERTEX
  5
A04
  8
CLUSTERS
 10
636.7254901959999
 20
4692.7649710100004
 30
10.0
  0
VERTEX
  5
A05
  8
CLUSTERS
 10
636.825708061
 20
4692.7755843599989
 30
10.0
  0
VERTEX
  5
A06
  8
CLUSTERS
 10
636.92592592599976
 20
4692.7688313500003
 30
10.0
  0
VERTEX
  5
A07
  8
CLUSTERS
 10
637.01924990700002
 20
4692.6778043000004
 30
10.0
  0
VERTEX
  5
A08
  8
CLUSTERS
 10
637.02614379099987
 20
4692.5893608400002
 30
10.0
  0
VERTEX
  5
A09
  8
CLUSTERS
 10
637.094974804
 20
4692.5775656300002
 30
10.0
  0
VERTEX
  5
A0A
  8
CLUSTERS
 10
637.02614379099987
 20
4692.5694013700013
 30
10.0
  0
VERTEX
  5
A0B
  8
CLUSTERS
 10
636.92592592599976
 20
4692.5232818900004
 30
10.0
  0
VERTEX
  5
A0C
  8
CLUSTERS
 10
636.825708061
 20
4692.487535899998
 30
10.0
  0
VERTEX
  5
A0D
  8
CLUSTERS
 10
636.73288901399985
 20
4692.5775656300002
 30
10.0
  0
SEQEND
  5
A0E
  8
CLUSTERS
  0
POLYLINE
  5
31
  8
CLUSTERS
 66
     1
 10
0.0
 20
0.0
 30
10.0
 70
   129
  0
VERTEX
  5
A0F
  8
CLUSTERS
 10
657.89838473899988
 20
4692.477326969999
 30
10.0
  0
VERTEX
  5
A10
  8
CLUSTERS
 10
657.871459695
 20
4692.49919804
 30
10.0
  0
VERTEX
  5
A11
  8
CLUSTERS
 10
657.80694663400004
 20
4692.5775656300002
 30
10.0
  0
VERTEX
  5
A12
  8
CLUSTERS
 10
657.79525253999975
 20
4692.6778043000004
 30
10.0
  0
VERTEX
  5
A13
  8
CLUSTERS
 10
657.871459695
 20
4692.7642358700032
 30
10.0
  0
VERTEX
  5
A14
  8
CLUSTERS
 10
657.87717717500004
 20
4692.7780429599989
 30
10.0
  0
VERTEX
  5
A15
  8
CLUSTERS
 10
657.97167755999976
 20
4692.8668251700001
 30
10.0
  0
VERTEX
  5
A16
  8
CLUSTERS
 10
658.07189542499987
 20
4692.78927879
 30
10.0
  0
VERTEX
  5
A17
  8
CLUSTERS
 10
658.08363487199995
 20
4692.7780429599989
 30
10.0
  0
VERTEX
  5
A18
  8
CLUSTERS
 10
658.17211328999997
 20
4692.7415540800002
 30
10.0
  0
VERTEX
  5
A19
  8
CLUSTERS
 10
658.23459554300007
 20
4692.6778043000004
 30
10.0
  0
VERTEX
  5
A1A
  8
CLUSTERS
 10
658.27233115499985
 20
4692.6162792599998
 30
10.0
  0
VERTEX
  5
A1B
  8
CLUSTERS
 10
658.30983793699988
 20
4692.5775656300002
 30
10.0
  0
VERTEX
  5
A1C
  8
CLUSTERS
 10
658.27233115499985
 20
4692.5377292700014
 30
10.0
  0
VERTEX
  5
A1D
  8
CLUSTERS
 10
658.17211328999997
 20
4692.4915345999998
 30
10.0
  0
VERTEX
  5
A1E
  8
CLUSTERS
 10
658.07189542499987
 20
4692.4776857699999
 30
10.0
  0
VERTEX
  5
A1F
  8
CLUSTERS
 10
658.06739689899985
 20
4692.477326969999
 30
10.0
  0
VERTEX
  5
A20
  8
CLUSTERS
 10
657.97167755999976
 20
4692.4212018099997
 30
10.0
  0
VERTEX
  5
A21
  8
CLUSTERS
 10
657.89838473899988
 20
4692.477326969999
 30
10.0
  0
SEQEND
  5
A22
  8
CLUSTERS
  0
POLYLINE
  5
32
  8
CLUSTERS
 66
     1
 10
0.0
 20
0.0
 30
10.0
 70
   129
  0
VERTEX
  5
A23
  8
CLUSTERS
 10
634.14657860299997
 20
4692.477326969999
 30
10.0
  0
VERTEX
  5
A24
  8
CLUSTERS
 10
634.11982570800001
 20
4692.4879998899987
 30
10.0
  0
VERTEX
  5
A25
  8
CLUSTERS
 10
634.0196078429999
 20
4692.4881195600001
 30
10.0
  0
VERTEX
  5
A26
  8
CLUSTERS
 10
633.91938997800003
 20
4692.4910417700003
 30
10.0
  0
VERTEX
  5
A27
  8
CLUSTERS
 10
633.81917211300004
 20
4692.5638090100001
 30
10.0
  0
VERTEX
  5
A28
  8
CLUSTERS
 10
633.80549235199976
 20
4692.5775656300002
 30
10.0
  0
VERTEX
  5
A29
  8
CLUSTERS
 10
633.72679983099977
 20
4692.6778043000004
 30
10.0
  0
VERTEX
  5
A2A
  8
CLUSTERS
 10
633.72793177400001
 20
4692.7780429599989
 30
10.0
  0
VERTEX
  5
A2B
  8
CLUSTERS
 10
633.81917211300004
 20
4692.8703136800023
 30
10.0
  0
VERTEX
  5
A2C
  8
CLUSTERS
 10
633.91938997800003
 20
4692.87784405
 30
10.0
  0
VERTEX
  5
A2D
  8
CLUSTERS
 10
634.0196078429999
 20
4692.8780460400003
 30
10.0
  0
VERTEX
  5
A2E
  8
CLUSTERS
 10
634.11982570800001
 20
4692.864596909998
 30
10.0
  0
VERTEX
  5
A2F
  8
CLUSTERS
 10
634.20329382
 20
4692.7780429599989
 30
10.0
  0
VERTEX
  5
A30
  8
CLUSTERS
 10
634.21674879300008
 20
4692.6778043000004
 30
10.0
  0
VERTEX
  5
A31
  8
CLUSTERS
 10
634.22004357299977
 20
4692.6729774599999
 30
10.0
  0
VERTEX
  5
A32
  8
CLUSTERS
 10
634.24049272499985
 20
4692.6778043000004
 30
10.0
  0
VERTEX
  5
A33
  8
CLUSTERS
 10
634.32026143799987
 20
4692.72263793
 30
10.0
  0
VERTEX
  5
A34
  8
CLUSTERS
 10
634.36745720800002
 20
4692.6778043000004
 30
10.0
  0
VERTEX
  5
A35
  8
CLUSTERS
 10
634.32026143799987
 20
4692.6149080799987
 30
10.0
  0
VERTEX
  5
A36
  8
CLUSTERS
 10
634.30975091799996
 20
4692.5775656300002
 30
10.0
  0
VERTEX
  5
A37
  8
CLUSTERS
 10
634.27391566800009
 20
4692.477326969999
 30
10.0
  0
VERTEX
  5
A38
  8
CLUSTERS
 10
634.22004357299977
 20
4692.4272634599993
 30
10.0
  0
VERTEX
  5
A39
  8
CLUSTERS
 10
634.14657860299997
 20
4692.477326969999
 30
10.0
  0
SEQEND
  5
A3A
  8
CLUSTERS
  0
POLYLINE
  5
33
  8
CLUSTERS
 66
     1
 10
0.0
 20
0.0
 30
10.0
 70
   129
  0
VERTEX
  5
A3B
  8
CLUSTERS
 10
647.49259003999975
 20
4692.3770883099978
 30
10.0
  0
VERTEX
  5
A3C
  8
CLUSTERS
 10
647.46528672699992
 20
4692.477326969999
 30
10.0
  0
VERTEX
  5
A3D
  8
CLUSTERS
 10
647.44880174299976
 20
4692.5144601800002
 30
10.0
  0
VERTEX
  5
A3E
  8
CLUSTERS
 10
647.38291012199977
 20
4692.5775656300002
 30
10.0
  0
VERTEX
  5
A3F
  8
CLUSTERS
 10
647.348583878
 20
4692.5901370099991
 30
10.0
  0
VERTEX
  5
A40
  8
CLUSTERS
 10
647.2483660129999
 20
4692.5857683300001
 30
10.0
  0
VERTEX
  5
A41
  8
CLUSTERS
 10
647.14814814800002
 20
4692.5975969499978
 30
10.0
  0
VERTEX
  5
A42
  8
CLUSTERS
 10
647.06937817300002
 20
4692.6778043000004
 30
10.0
  0
VERTEX
  5
A43
  8
CLUSTERS
 10
647.06189374799999
 20
4692.7780429599989
 30
10.0
  0
VERTEX
  5
A44
  8
CLUSTERS
 10
647.14814814800002
 20
4692.8641049999987
 30
10.0
  0
VERTEX
  5
A45
  8
CLUSTERS
 10
647.2483660129999
 20
4692.8641834999999
 30
10.0
  0
VERTEX
  5
A46
  8
CLUSTERS
 10
647.348583878
 20
4692.8020353000002
 30
10.0
  0
VERTEX
  5
A47
  8
CLUSTERS
 10
647.37290521300008
 20
4692.7780429599989
 30
10.0
  0
VERTEX
  5
A48
  8
CLUSTERS
 10
647.44880174299976
 20
4692.7609115400001
 30
10.0
  0
VERTEX
  5
A49
  8
CLUSTERS
 10
647.54901960799987
 20
4692.7001296199987
 30
10.0
  0
VERTEX
  5
A4A
  8
CLUSTERS
 10
647.57136320899986
 20
4692.6778043000004
 30
10.0
  0
VERTEX
  5
A4B
  8
CLUSTERS
 10
647.59407391900004
 20
4692.5775656300002
 30
10.0
  0
VERTEX
  5
A4C
  8
CLUSTERS
 10
647.64923747300008
 20
4692.5486893099978
 30
10.0
  0
VERTEX
  5
A4D
  8
CLUSTERS
 10
647.72050594199993
 20
4692.477326969999
 30
10.0
  0
VERTEX
  5
A4E
  8
CLUSTERS
 10
647.73199562100001
 20
4692.3770883099978
 30
10.0
  0
VERTEX
  5
A4F
  8
CLUSTERS
 10
647.64923747300008
 20
4692.293242069999
 30
10.0
  0
VERTEX
  5
A50
  8
CLUSTERS
 10
647.54901960799987
 20
4692.3199512499996
 30
10.0
  0
VERTEX
  5
A51
  8
CLUSTERS
 10
647.49259003999975
 20
4692.3770883099978
 30
10.0
  0
SEQEND
  5
A52
  8
CLUSTERS
  0
POLYLINE
  5
34
  8
CLUSTERS
 66
     1
 10
0.0
 20
0.0
 30
10.0
 70
   129
  0
VERTEX
  5
A53
  8
CLUSTERS
 10
651.05911892999995
 20
4692.076372319998
 30
10.0
  0
VERTEX
  5
A54
  8
CLUSTERS
 10
651.05664488000002
 20
4692.0780691299988
 30
10.0
  0
VERTEX
  5
A55
  8
CLUSTERS
 10
650.95963400499977
 20
4692.1766109800001
 30
10.0
  0
VERTEX
  5
A56
  8
CLUSTERS
 10
650.95642701500003
 20
4692.1970021999987
 30
10.0
  0
VERTEX
  5
A57
  8
CLUSTERS
 10
650.88073728500001
 20
4692.2768496400004
 30
10.0
  0
VERTEX
  5
A58
  8
CLUSTERS
 10
650.85679112900004
 20
4692.3770883099978
 30
10.0
  0
VERTEX
  5
A59
  8
CLUSTERS
 10
650.86137962500004
 20
4692.477326969999
 30
10.0
  0
VERTEX
  5
A5A
  8
CLUSTERS
 10
650.86428743099975
 20
4692.5775656300002
 30
10.0
  0
VERTEX
  5
A5B
  8
CLUSTERS
 10
650.87224885800003
 20
4692.6778043000004
 30
10.0
  0
VERTEX
  5
A5C
  8
CLUSTERS
 10
650.95642701500003
 20
4692.7614169799999
 30
10.0
  0
VERTEX
  5
A5D
  8
CLUSTERS
 10
651.05664488000002
 20
4692.7491051899979
 30
10.0
  0
VERTEX
  5
A5E
  8
CLUSTERS
 10
651.12836453299997
 20
4692.6778043000004
 30
10.0
  0
VERTEX
  5
A5F
  8
CLUSTERS
 10
651.13883042700002
 20
4692.5775656300002
 30
10.0
  0
VERTEX
  5
A60
  8
CLUSTERS
 10
651.15441677900003
 20
4692.477326969999
 30
10.0
  0
VERTEX
  5
A61
  8
CLUSTERS
 10
651.1568627449999
 20
4692.4765945799991
 30
10.0
  0
VERTEX
  5
A62
  8
CLUSTERS
 10
651.25708061
 20
4692.4544211599987
 30
10.0
  0
VERTEX
  5
A63
  8
CLUSTERS
 10
651.33404795900003
 20
4692.3770883099978
 30
10.0
  0
VERTEX
  5
A64
  8
CLUSTERS
 10
651.35606796000002
 20
4692.2768496400004
 30
10.0
  0
VERTEX
  5
A65
  8
CLUSTERS
 10
651.35515709699985
 20
4692.1766109800001
 30
10.0
  0
VERTEX
  5
A66
  8
CLUSTERS
 10
651.32083586699991
 20
4692.076372319998
 30
10.0
  0
VERTEX
  5
A67
  8
CLUSTERS
 10
651.25708061
 20
4692.0130511099987
 30
10.0
  0
VERTEX
  5
A68
  8
CLUSTERS
 10
651.1568627449999
 20
4691.9820816800002
 30
10.0
  0
VERTEX
  5
A69
  8
CLUSTERS
 10
651.05911892999995
 20
4692.076372319998
 30
10.0
  0
SEQEND
  5
A6A
  8
CLUSTERS
  0
POLYLINE
  5
35
  8
CLUSTERS
 66
     1
 10
0.0
 20
0.0
 30
10.0
 70
   129
  0
VERTEX
  5
A6B
  8
CLUSTERS
 10
634.56205697999985
 20
4691.8758949900002
 30
10.0
  0
VERTEX
  5
A6C
  8
CLUSTERS
 10
634.52069716799997
 20
4691.9052729599989
 30
10.0
  0
VERTEX
  5
A6D
  8
CLUSTERS
 10
634.47097202999998
 20
4691.9761336499978
 30
10.0
  0
VERTEX
  5
A6E
  8
CLUSTERS
 10
634.42491551800003
 20
4692.076372319998
 30
10.0
  0
VERTEX
  5
A6F
  8
CLUSTERS
 10
634.42047930299998
 20
4692.0809016000003
 30
10.0
  0
VERTEX
  5
A70
  8
CLUSTERS
 10
634.33083125899975
 20
4692.1766109800001
 30
10.0
  0
VERTEX
  5
A71
  8
CLUSTERS
 10
634.33756921300005
 20
4692.2768496400004
 30
10.0
  0
VERTEX
  5
A72
  8
CLUSTERS
 10
634.42047930299998
 20
4692.360233899999
 30
10.0
  0
VERTEX
  5
A73
  8
CLUSTERS
 10
634.50992441799997
 20
4692.3770883099978
 30
10.0
  0
VERTEX
  5
A74
  8
CLUSTERS
 10
634.52069716799997
 20
4692.3877058599992
 30
10.0
  0
VERTEX
  5
A75
  8
CLUSTERS
 10
634.563166733
 20
4692.477326969999
 30
10.0
  0
VERTEX
  5
A76
  8
CLUSTERS
 10
634.62091503299996
 20
4692.5340087000004
 30
10.0
  0
VERTEX
  5
A77
  8
CLUSTERS
 10
634.72113289800006
 20
4692.5614428599993
 30
10.0
  0
VERTEX
  5
A78
  8
CLUSTERS
 10
634.82135076300005
 20
4692.5480503700001
 30
10.0
  0
VERTEX
  5
A79
  8
CLUSTERS
 10
634.89641917199992
 20
4692.477326969999
 30
10.0
  0
VERTEX
  5
A7A
  8
CLUSTERS
 10
634.91191581299995
 20
4692.3770883099978
 30
10.0
  0
VERTEX
  5
A7B
  8
CLUSTERS
 10
634.90615070599995
 20
4692.2768496400004
 30
10.0
  0
VERTEX
  5
A7C
  8
CLUSTERS
 10
634.86583838599995
 20
4692.1766109800001
 30
10.0
  0
VERTEX
  5
A7D
  8
CLUSTERS
 10
634.82135076300005
 20
4692.129195999998
 30
10.0
  0
VERTEX
  5
A7E
  8
CLUSTERS
 10
634.72113289800006
 20
4692.0782503800001
 30
10.0
  0
VERTEX
  5
A7F
  8
CLUSTERS
 10
634.71549609699991
 20
4692.076372319998
 30
10.0
  0
VERTEX
  5
A80
  8
CLUSTERS
 10
634.67740477400002
 20
4691.9761336499978
 30
10.0
  0
VERTEX
  5
A81
  8
CLUSTERS
 10
634.65931936799996
 20
4691.8758949900002
 30
10.0
  0
VERTEX
  5
A82
  8
CLUSTERS
 10
634.62091503299996
 20
4691.8389249100001
 30
10.0
  0
VERTEX
  5
A83
  8
CLUSTERS
 10
634.56205697999985
 20
4691.8758949900002
 30
10.0
  0
SEQEND
  5
A84
  8
CLUSTERS
  0
POLYLINE
  5
36
  8
CLUSTERS
 66
     1
 10
0.0
 20
0.0
 30
10.0
 70
   129
  0
VERTEX
  5
A85
  8
CLUSTERS
 10
645.55981456799975
 20
4691.7756563199991
 30
10.0
  0
VERTEX
  5
A86
  8
CLUSTERS
 10
645.59696845199994
 20
4691.8758949900002
 30
10.0
  0
VERTEX
  5
A87
  8
CLUSTERS
 10
645.54466230900005
 20
4691.9087575100002
 30
10.0
  0
VERTEX
  5
A88
  8
CLUSTERS
 10
645.44444444400006
 20
4691.9101238800004
 30
10.0
  0
VERTEX
  5
A89
  8
CLUSTERS
 10
645.37935534699977
 20
4691.9761336499978
 30
10.0
  0
VERTEX
  5
A8A
  8
CLUSTERS
 10
645.41310374199975
 20
4692.076372319998
 30
10.0
  0
VERTEX
  5
A8B
  8
CLUSTERS
 10
645.44444444400006
 20
4692.1076424800003
 30
10.0
  0
VERTEX
  5
A8C
  8
CLUSTERS
 10
645.49717231399995
 20
4692.076372319998
 30
10.0
  0
VERTEX
  5
A8D
  8
CLUSTERS
 10
645.54466230900005
 20
4692.0588435799991
 30
10.0
  0
VERTEX
  5
A8E
  8
CLUSTERS
 10
645.61108916199976
 20
4691.9761336499978
 30
10.0
  0
VERTEX
  5
A8F
  8
CLUSTERS
 10
645.64488017400004
 20
4691.9227660099996
 30
10.0
  0
VERTEX
  5
A90
  8
CLUSTERS
 10
645.74509803899991
 20
4691.9314266299998
 30
10.0
  0
VERTEX
  5
A91
  8
CLUSTERS
 10
645.80074202900005
 20
4691.8758949900002
 30
10.0
  0
VERTEX
  5
A92
  8
CLUSTERS
 10
645.74509803899991
 20
4691.8163314200001
 30
10.0
  0
VERTEX
  5
A93
  8
CLUSTERS
 10
645.72716819599998
 20
4691.7756563199991
 30
10.0
  0
VERTEX
  5
A94
  8
CLUSTERS
 10
645.64488017400004
 20
4691.6948298999996
 30
10.0
  0
VERTEX
  5
A95
  8
CLUSTERS
 10
645.55981456799975
 20
4691.7756563199991
 30
10.0
  0
SEQEND
  5
A96
  8
CLUSTERS
  0
POLYLINE
  5
37
  8
CLUSTERS
 66
     1
 10
0.0
 20
0.0
 30
10.0
 70
   129
  0
VERTEX
  5
A97
  8
CLUSTERS
 10
643.37930282800005
 20
4691.7756563199991
 30
10.0
  0
VERTEX
  5
A98
  8
CLUSTERS
 10
643.43372491299999
 20
4691.8758949900002
 30
10.0
  0
VERTEX
  5
A99
  8
CLUSTERS
 10
643.440087146
 20
4691.8822565299988
 30
10.0
  0
VERTEX
  5
A9A
  8
CLUSTERS
 10
643.469321326
 20
4691.8758949900002
 30
10.0
  0
VERTEX
  5
A9B
  8
CLUSTERS
 10
643.54030501099976
 20
4691.8547348399979
 30
10.0
  0
VERTEX
  5
A9C
  8
CLUSTERS
 10
643.54151271099977
 20
4691.8758949900002
 30
10.0
  0
VERTEX
  5
A9D
  8
CLUSTERS
 10
643.64052287599986
 20
4691.9694582499997
 30
10.0
  0
VERTEX
  5
A9E
  8
CLUSTERS
 10
643.74074074099985
 20
4691.9378392400004
 30
10.0
  0
VERTEX
  5
A9F
  8
CLUSTERS
 10
643.74635120199991
 20
4691.9761336499978
 30
10.0
  0
VERTEX
  5
AA0
  8
CLUSTERS
 10
643.84095860599984
 20
4692.0705224599988
 30
10.0
  0
VERTEX
  5
AA1
  8
CLUSTERS
 10
643.94117647099995
 20
4692.0670009300002
 30
10.0
  0
VERTEX
  5
AA2
  8
CLUSTERS
 10
644.03239038300001
 20
4691.9761336499978
 30
10.0
  0
VERTEX
  5
AA3
  8
CLUSTERS
 10
644.01936619000003
 20
4691.8758949900002
 30
10.0
  0
VERTEX
  5
AA4
  8
CLUSTERS
 10
643.94117647099995
 20
4691.7969326399989
 30
10.0
  0
VERTEX
  5
AA5
  8
CLUSTERS
 10
643.84095860599984
 20
4691.7855944499979
 30
10.0
  0
VERTEX
  5
AA6
  8
CLUSTERS
 10
643.74074074099985
 20
4691.8128422600003
 30
10.0
  0
VERTEX
  5
AA7
  8
CLUSTERS
 10
643.71942036099995
 20
4691.7756563199991
 30
10.0
  0
VERTEX
  5
AA8
  8
CLUSTERS
 10
643.64052287599986
 20
4691.6976944799999
 30
10.0
  0
VERTEX
  5
AA9
  8
CLUSTERS
 10
643.54030501099976
 20
4691.7364943700004
 30
10.0
  0
VERTEX
  5
AAA
  8
CLUSTERS
 10
643.440087146
 20
4691.7087686200002
 30
10.0
  0
VERTEX
  5
AAB
  8
CLUSTERS
 10
643.37930282800005
 20
4691.7756563199991
 30
10.0
  0
SEQEND
  5
AAC
  8
CLUSTERS
  0
POLYLINE
  5
38
  8
CLUSTERS
 66
     1
 10
0.0
 20
0.0
 30
10.0
 70
   129
  0
VERTEX
  5
AAD
  8
CLUSTERS
 10
632.74408478800001
 20
4691.7756563199991
 30
10.0
  0
VERTEX
  5
AAE
  8
CLUSTERS
 10
632.81699346399989
 20
4691.8735137699996
 30
10.0
  0
VERTEX
  5
AAF
  8
CLUSTERS
 10
632.88171861000001
 20
4691.8758949900002
 30
10.0
  0
VERTEX
  5
AB0
  8
CLUSTERS
 10
632.917211329
 20
4691.8796526399992
 30
10.0
  0
VERTEX
  5
AB1
  8
CLUSTERS
 10
633.01742919399976
 20
4691.8862592900032
 30
10.0
  0
VERTEX
  5
AB2
  8
CLUSTERS
 10
633.01795252599993
 20
4691.9761336499978
 30
10.0
  0
VERTEX
  5
AB3
  8
CLUSTERS
 10
633.11764705899986
 20
4692.0759458499997
 30
10.0
  0
VERTEX
  5
AB4
  8
CLUSTERS
 10
633.21615291499995
 20
4692.076372319998
 30
10.0
  0
VERTEX
  5
AB5
  8
CLUSTERS
 10
633.21786492399985
 20
4692.0768175699995
 30
10.0
  0
VERTEX
  5
AB6
  8
CLUSTERS
 10
633.21868419999976
 20
4692.076372319998
 30
10.0
  0
VERTEX
  5
AB7
  8
CLUSTERS
 10
633.31808278899985
 20
4692.0706322699998
 30
10.0
  0
VERTEX
  5
AB8
  8
CLUSTERS
 10
633.41322626500005
 20
4691.9761336499978
 30
10.0
  0
VERTEX
  5
AB9
  8
CLUSTERS
 10
633.40973659099996
 20
4691.8758949900002
 30
10.0
  0
VERTEX
  5
ABA
  8
CLUSTERS
 10
633.36537954599999
 20
4691.7756563199991
 30
10.0
  0
VERTEX
  5
ABB
  8
CLUSTERS
 10
633.31808278899985
 20
4691.7287154899996
 30
10.0
  0
VERTEX
  5
ABC
  8
CLUSTERS
 10
633.21786492399985
 20
4691.6886829699979
 30
10.0
  0
VERTEX
  5
ABD
  8
CLUSTERS
 10
633.11764705899986
 20
4691.6917947900001
 30
10.0
  0
VERTEX
  5
ABE
  8
CLUSTERS
 10
633.02915365800004
 20
4691.7756563199991
 30
10.0
  0
VERTEX
  5
ABF
  8
CLUSTERS
 10
633.01742919399976
 20
4691.8697794500013
 30
10.0
  0
VERTEX
  5
AC0
  8
CLUSTERS
 10
632.917211329
 20
4691.8674068500013
 30
10.0
  0
VERTEX
  5
AC1
  8
CLUSTERS
 10
632.90457857800004
 20
4691.7756563199991
 30
10.0
  0
VERTEX
  5
AC2
  8
CLUSTERS
 10
632.81699346399989
 20
4691.6981889099998
 30
10.0
  0
VERTEX
  5
AC3
  8
CLUSTERS
 10
632.74408478800001
 20
4691.7756563199991
 30
10.0
  0
SEQEND
  5
AC4
  8
CLUSTERS
  0
POLYLINE
  5
39
  8
CLUSTERS
 66
     1
 10
0.0
 20
0.0
 30
10.0
 70
   129
  0
VERTEX
  5
AC5
  8
CLUSTERS
 10
639.54124618799995
 20
4691.3747016699999
 30
10.0
  0
VERTEX
  5
AC6
  8
CLUSTERS
 10
639.53159041399999
 20
4691.3783859799996
 30
10.0
  0
VERTEX
  5
AC7
  8
CLUSTERS
 10
639.43286663000004
 20
4691.4749403300002
 30
10.0
  0
VERTEX
  5
AC8
  8
CLUSTERS
 10
639.53159041399999
 20
4691.5689342799997
 30
10.0
  0
VERTEX
  5
AC9
  8
CLUSTERS
 10
639.63180827899976
 20
4691.5727885699998
 30
10.0
  0
VERTEX
  5
ACA
  8
CLUSTERS
 10
639.73202614399986
 20
4691.5693920100002
 30
10.0
  0
VERTEX
  5
ACB
  8
CLUSTERS
 10
639.82756607800002
 20
4691.4749403300002
 30
10.0
  0
VERTEX
  5
ACC
  8
CLUSTERS
 10
639.80842722199998
 20
4691.3747016699999
 30
10.0
  0
VERTEX
  5
ACD
  8
CLUSTERS
 10
639.73202614399986
 20
4691.2990982000001
 30
10.0
  0
VERTEX
  5
ACE
  8
CLUSTERS
 10
639.63180827899976
 20
4691.2893119500013
 30
10.0
  0
VERTEX
  5
ACF
  8
CLUSTERS
 10
639.54124618799995
 20
4691.3747016699999
 30
10.0
  0
SEQEND
  5
AD0
  8
CLUSTERS
  0
POLYLINE
  5
3A
  8
CLUSTERS
 66
     1
 10
0.0
 20
0.0
 30
10.0
 70
   129
  0
VERTEX
  5
AD1
  8
CLUSTERS
 10
634.92760118800004
 20
4691.3747016699999
 30
10.0
  0
VERTEX
  5
AD2
  8
CLUSTERS
 10
634.92156862699994
 20
4691.4015705100001
 30
10.0
  0
VERTEX
  5
AD3
  8
CLUSTERS
 10
634.85367999200002
 20
4691.4749403300002
 30
10.0
  0
VERTEX
  5
AD4
  8
CLUSTERS
 10
634.82533163599999
 20
4691.5751789999986
 30
10.0
  0
VERTEX
  5
AD5
  8
CLUSTERS
 10
634.92156862699994
 20
4691.671906739999
 30
10.0
  0
VERTEX
  5
AD6
  8
CLUSTERS
 10
635.02178649199993
 20
4691.6384350500002
 30
10.0
  0
VERTEX
  5
AD7
  8
CLUSTERS
 10
635.10052216500003
 20
4691.5751789999986
 30
10.0
  0
VERTEX
  5
AD8
  8
CLUSTERS
 10
635.12200435699992
 20
4691.5746425500001
 30
10.0
  0
VERTEX
  5
AD9
  8
CLUSTERS
 10
635.22222222199991
 20
4691.5722584799987
 30
10.0
  0
VERTEX
  5
ADA
  8
CLUSTERS
 10
635.23129846799998
 20
4691.5751789999986
 30
10.0
  0
VERTEX
  5
ADB
  8
CLUSTERS
 10
635.32244008700002
 20
4691.66081055
 30
10.0
  0
VERTEX
  5
ADC
  8
CLUSTERS
 10
635.42265795200001
 20
4691.6411450200012
 30
10.0
  0
VERTEX
  5
ADD
  8
CLUSTERS
 10
635.49099412099974
 20
4691.5751789999986
 30
10.0
  0
VERTEX
  5
ADE
  8
CLUSTERS
 10
635.43258623400004
 20
4691.4749403300002
 30
10.0
  0
VERTEX
  5
ADF
  8
CLUSTERS
 10
635.42265795200001
 20
4691.4647247800003
 30
10.0
  0
VERTEX
  5
AE0
  8
CLUSTERS
 10
635.32244008700002
 20
4691.3897193900002
 30
10.0
  0
VERTEX
  5
AE1
  8
CLUSTERS
 10
635.29169851300003
 20
4691.3747016699999
 30
10.0
  0
VERTEX
  5
AE2
  8
CLUSTERS
 10
635.22222222199991
 20
4691.3134960699999
 30
10.0
  0
VERTEX
  5
AE3
  8
CLUSTERS
 10
635.12200435699992
 20
4691.2774612399999
 30
10.0
  0
VERTEX
  5
AE4
  8
CLUSTERS
 10
635.02178649199993
 20
4691.2782220999998
 30
10.0
  0
VERTEX
  5
AE5
  8
CLUSTERS
 10
634.92760118800004
 20
4691.3747016699999
 30
10.0
  0
SEQEND
  5
AE6
  8
CLUSTERS
  0
POLYLINE
  5
3B
  8
CLUSTERS
 66
     1
 10
0.0
 20
0.0
 30
10.0
 70
   129
  0
VERTEX
  5
AE7
  8
CLUSTERS
 10
635.53039298800002
 20
4691.2744630099996
 30
10.0
  0
VERTEX
  5
AE8
  8
CLUSTERS
 10
635.62309368199999
 20
4691.3707408099999
 30
10.0
  0
VERTEX
  5
AE9
  8
CLUSTERS
 10
635.68859302999977
 20
4691.3747016699999
 30
10.0
  0
VERTEX
  5
AEA
  8
CLUSTERS
 10
635.72331154699975
 20
4691.3980541299998
 30
10.0
  0
VERTEX
  5
AEB
  8
CLUSTERS
 10
635.74441994099993
 20
4691.3747016699999
 30
10.0
  0
VERTEX
  5
AEC
  8
CLUSTERS
 10
635.80804624899997
 20
4691.2744630099996
 30
10.0
  0
VERTEX
  5
AED
  8
CLUSTERS
 10
635.72331154699975
 20
4691.1878223399981
 30
10.0
  0
VERTEX
  5
AEE
  8
CLUSTERS
 10
635.62309368199999
 20
4691.1783375599998
 30
10.0
  0
VERTEX
  5
AEF
  8
CLUSTERS
 10
635.53039298800002
 20
4691.2744630099996
 30
10.0
  0
SEQEND
  5
AF0
  8
CLUSTERS
  0
POLYLINE
  5
3C
  8
CLUSTERS
 66
     1
 10
0.0
 20
0.0
 30
10.0
 70
   129
  0
VERTEX
  5
AF1
  8
CLUSTERS
 10
638.85267131299997
 20
4691.1742243400004
 30
10.0
  0
VERTEX
  5
AF2
  8
CLUSTERS
 10
638.83862362800005
 20
4691.2744630099996
 30
10.0
  0
VERTEX
  5
AF3
  8
CLUSTERS
 10
638.93028322400005
 20
4691.3663203300002
 30
10.0
  0
VERTEX
  5
AF4
  8
CLUSTERS
 10
639.03050108900004
 20
4691.3722300400004
 30
10.0
  0
VERTEX
  5
AF5
  8
CLUSTERS
 10
639.06090064299997
 20
4691.3747016699999
 30
10.0
  0
VERTEX
  5
AF6
  8
CLUSTERS
 10
639.04603344400005
 20
4691.4749403300002
 30
10.0
  0
VERTEX
  5
AF7
  8
CLUSTERS
 10
639.13071895400003
 20
4691.5600076899991
 30
10.0
  0
VERTEX
  5
AF8
  8
CLUSTERS
 10
639.23093681900002
 20
4691.5738183800013
 30
10.0
  0
VERTEX
  5
AF9
  8
CLUSTERS
 10
639.33115468400001
 20
4691.5732218700014
 30
10.0
  0
VERTEX
  5
AFA
  8
CLUSTERS
 10
639.43083186699994
 20
4691.4749403300002
 30
10.0
  0
VERTEX
  5
AFB
  8
CLUSTERS
 10
639.41636446099994
 20
4691.3747016699999
 30
10.0
  0
VERTEX
  5
AFC
  8
CLUSTERS
 10
639.33115468400001
 20
4691.2923996600002
 30
10.0
  0
VERTEX
  5
AFD
  8
CLUSTERS
 10
639.23093681900002
 20
4691.2797664600002
 30
10.0
  0
VERTEX
  5
AFE
  8
CLUSTERS
 10
639.13071895400003
 20
4691.2863056300002
 30
10.0
  0
VERTEX
  5
AFF
  8
CLUSTERS
 10
639.12994540499994
 20
4691.2744630099996
 30
10.0
  0
VERTEX
  5
B00
  8
CLUSTERS
 10
639.12452258799976
 20
4691.1742243400004
 30
10.0
  0
VERTEX
  5
B01
  8
CLUSTERS
 10
639.03050108900004
 20
4691.0810732800001
 30
10.0
  0
VERTEX
  5
B02
  8
CLUSTERS
 10
638.93028322400005
 20
4691.0885791999999
 30
10.0
  0
VERTEX
  5
B03
  8
CLUSTERS
 10
638.85267131299997
 20
4691.1742243400004
 30
10.0
  0
SEQEND
  5
B04
  8
CLUSTERS
  0
POLYLINE
  5
3D
  8
CLUSTERS
 66
     1
 10
0.0
 20
0.0
 30
10.0
 70
   129
  0
VERTEX
  5
B05
  8
CLUSTERS
 10
640.64042265
 20
4691.0739856800001
 30
10.0
  0
VERTEX
  5
B06
  8
CLUSTERS
 10
640.63543988399999
 20
4691.1742243400004
 30
10.0
  0
VERTEX
  5
B07
  8
CLUSTERS
 10
640.734204793
 20
4691.2715103299997
 30
10.0
  0
VERTEX
  5
B08
  8
CLUSTERS
 10
640.773815474
 20
4691.2744630099996
 30
10.0
  0
VERTEX
  5
B09
  8
CLUSTERS
 10
640.734204793
 20
4691.2811178499996
 30
10.0
  0
VERTEX
  5
B0A
  8
CLUSTERS
 10
640.6339869279999
 20
4691.3184749100001
 30
10.0
  0
VERTEX
  5
B0B
  8
CLUSTERS
 10
640.57993574400007
 20
4691.3747016699999
 30
10.0
  0
VERTEX
  5
B0C
  8
CLUSTERS
 10
640.53618026299978
 20
4691.4749403300002
 30
10.0
  0
VERTEX
  5
B0D
  8
CLUSTERS
 10
640.53376906300002
 20
4691.4908991499988
 30
10.0
  0
VERTEX
  5
B0E
  8
CLUSTERS
 10
640.53323183300006
 20
4691.4749403300002
 30
10.0
  0
VERTEX
  5
B0F
  8
CLUSTERS
 10
640.43355119800003
 20
4691.3756249999997
 30
10.0
  0
VERTEX
  5
B10
  8
CLUSTERS
 10
640.42507013699992
 20
4691.3747016699999
 30
10.0
  0
VERTEX
  5
B11
  8
CLUSTERS
 10
640.33333333300004
 20
4691.30237571
 30
10.0
  0
VERTEX
  5
B12
  8
CLUSTERS
 10
640.23311546800005
 20
4691.2937214900012
 30
10.0
  0
VERTEX
  5
B13
  8
CLUSTERS
 10
640.13289760300006
 20
4691.3077567500004
 30
10.0
  0
VERTEX
  5
B14
  8
CLUSTERS
 10
640.03267973899995
 20
4691.2822806000004
 30
10.0
  0
VERTEX
  5
B15
  8
CLUSTERS
 10
639.94127562300002
 20
4691.3747016699999
 30
10.0
  0
VERTEX
  5
B16
  8
CLUSTERS
 10
639.93246187399996
 20
4691.4316931999983
 30
10.0
  0
VERTEX
  5
B17
  8
CLUSTERS
 10
639.88406304199975
 20
4691.4749403300002
 30
10.0
  0
VERTEX
  5
B18
  8
CLUSTERS
 10
639.87687092199985
 20
4691.5751789999986
 30
10.0
  0
VERTEX
  5
B19
  8
CLUSTERS
 10
639.93246187399996
 20
4691.6367924999977
 30
10.0
  0
VERTEX
  5
B1A
  8
CLUSTERS
 10
639.93537956599994
 20
4691.6754176599989
 30
10.0
  0
VERTEX
  5
B1B
  8
CLUSTERS
 10
639.93246187399996
 20
4691.7008976500001
 30
10.0
  0
VERTEX
  5
B1C
  8
CLUSTERS
 10
639.86383532199989
 20
4691.7756563199991
 30
10.0
  0
VERTEX
  5
B1D
  8
CLUSTERS
 10
639.93246187399996
 20
4691.844377569998
 30
10.0
  0
VERTEX
  5
B1E
  8
CLUSTERS
 10
640.03267973899995
 20
4691.8687574200003
 30
10.0
  0
VERTEX
  5
B1F
  8
CLUSTERS
 10
640.13289760300006
 20
4691.8511603200004
 30
10.0
  0
VERTEX
  5
B20
  8
CLUSTERS
 10
640.21110236200002
 20
4691.7756563199991
 30
10.0
  0
VERTEX
  5
B21
  8
CLUSTERS
 10
640.23311546800005
 20
4691.7587798100003
 30
10.0
  0
VERTEX
  5
B22
  8
CLUSTERS
 10
640.33333333300004
 20
4691.767171219999
 30
10.0
  0
VERTEX
  5
B23
  8
CLUSTERS
 10
640.43355119800003
 20
4691.77062535
 30
10.0
  0
VERTEX
  5
B24
  8
CLUSTERS
 10
640.53376906300002
 20
4691.72393895
 30
10.0
  0
VERTEX
  5
B25
  8
CLUSTERS
 10
640.58243694600003
 20
4691.6754176599989
 30
10.0
  0
VERTEX
  5
B26
  8
CLUSTERS
 10
640.57603223399985
 20
4691.5751789999986
 30
10.0
  0
VERTEX
  5
B27
  8
CLUSTERS
 10
640.6339869279999
 20
4691.5599942199988
 30
10.0
  0
VERTEX
  5
B28
  8
CLUSTERS
 10
640.70315399599997
 20
4691.5751789999986
 30
10.0
  0
VERTEX
  5
B29
  8
CLUSTERS
 10
640.734204793
 20
4691.6036015500003
 30
10.0
  0
VERTEX
  5
B2A
  8
CLUSTERS
 10
640.76521282299996
 20
4691.5751789999986
 30
10.0
  0
VERTEX
  5
B2B
  8
CLUSTERS
 10
640.83442265799977
 20
4691.484898929999
 30
10.0
  0
VERTEX
  5
B2C
  8
CLUSTERS
 10
640.84342750300004
 20
4691.4749403300002
 30
10.0
  0
VERTEX
  5
B2D
  8
CLUSTERS
 10
640.83442265799977
 20
4691.4647717400003
 30
10.0
  0
VERTEX
  5
B2E
  8
CLUSTERS
 10
640.81860977600002
 20
4691.3747016699999
 30
10.0
  0
VERTEX
  5
B2F
  8
CLUSTERS
 10
640.83442265799977
 20
4691.31129048
 30
10.0
  0
VERTEX
  5
B30
  8
CLUSTERS
 10
640.93464052299987
 20
4691.3264492199987
 30
10.0
  0
VERTEX
  5
B31
  8
CLUSTERS
 10
640.943403354
 20
4691.3747016699999
 30
10.0
  0
VERTEX
  5
B32
  8
CLUSTERS
 10
641.03485838799998
 20
4691.4657766600003
 30
10.0
  0
VERTEX
  5
B33
  8
CLUSTERS
 10
641.13507625299997
 20
4691.3840623699998
 30
10.0
  0
VERTEX
  5
B34
  8
CLUSTERS
 10
641.14444491400002
 20
4691.3747016699999
 30
10.0
  0
VERTEX
  5
B35
  8
CLUSTERS
 10
641.13507625299997
 20
4691.3445646800001
 30
10.0
  0
VERTEX
  5
B36
  8
CLUSTERS
 10
641.13377102899994
 20
4691.2744630099996
 30
10.0
  0
VERTEX
  5
B37
  8
CLUSTERS
 10
641.13507625299997
 20
4691.2677655400012
 30
10.0
  0
VERTEX
  5
B38
  8
CLUSTERS
 10
641.21291089500016
 20
4691.1742243400004
 30
10.0
  0
VERTEX
  5
B39
  8
CLUSTERS
 10
641.13507625299997
 20
4691.0951976300012
 30
10.0
  0
VERTEX
  5
B3A
  8
CLUSTERS
 10
641.03485838799998
 20
4691.0793830999992
 30
10.0
  0
VERTEX
  5
B3B
  8
CLUSTERS
 10
641.03112074399985
 20
4691.0739856800001
 30
10.0
  0
VERTEX
  5
B3C
  8
CLUSTERS
 10
640.93464052299987
 20
4690.98102664
 30
10.0
  0
VERTEX
  5
B3D
  8
CLUSTERS
 10
640.83442265799977
 20
4690.9743810199998
 30
10.0
  0
VERTEX
  5
B3E
  8
CLUSTERS
 10
640.734204793
 20
4690.9786338200001
 30
10.0
  0
VERTEX
  5
B3F
  8
CLUSTERS
 10
640.64042265
 20
4691.0739856800001
 30
10.0
  0
SEQEND
  5
B40
  8
CLUSTERS
  0
POLYLINE
  5
3E
  8
CLUSTERS
 66
     1
 10
0.0
 20
0.0
 30
10.0
 70
   129
  0
VERTEX
  5
B41
  8
CLUSTERS
 10
666.75972512800001
 20
4690.8735083499996
 30
10.0
  0
VERTEX
  5
B42
  8
CLUSTERS
 10
666.69063180800003
 20
4690.9043755499979
 30
10.0
  0
VERTEX
  5
B43
  8
CLUSTERS
 10
666.61460542099985
 20
4690.9737470199998
 30
10.0
  0
VERTEX
  5
B44
  8
CLUSTERS
 10
666.59041394300004
 20
4690.9860611000013
 30
10.0
  0
VERTEX
  5
B45
  8
CLUSTERS
 10
666.49019607800005
 20
4691.0658341400003
 30
10.0
  0
VERTEX
  5
B46
  8
CLUSTERS
 10
666.48255353900004
 20
4691.0739856800001
 30
10.0
  0
VERTEX
  5
B47
  8
CLUSTERS
 10
666.49019607800005
 20
4691.0817543700014
 30
10.0
  0
VERTEX
  5
B48
  8
CLUSTERS
 10
666.56689544899996
 20
4691.1742243400004
 30
10.0
  0
VERTEX
  5
B49
  8
CLUSTERS
 10
666.59041394300004
 20
4691.19602958
 30
10.0
  0
VERTEX
  5
B4A
  8
CLUSTERS
 10
666.69063180800003
 20
4691.2442514399991
 30
10.0
  0
VERTEX
  5
B4B
  8
CLUSTERS
 10
666.76143733900005
 20
4691.1742243400004
 30
10.0
  0
VERTEX
  5
B4C
  8
CLUSTERS
 10
666.78874913499999
 20
4691.0739856800001
 30
10.0
  0
VERTEX
  5
B4D
  8
CLUSTERS
 10
666.79084967299991
 20
4691.0724818400004
 30
10.0
  0
VERTEX
  5
B4E
  8
CLUSTERS
 10
666.86834825799997
 20
4691.0739856800001
 30
10.0
  0
VERTEX
  5
B4F
  8
CLUSTERS
 10
666.89106753800002
 20
4691.0773451599998
 30
10.0
  0
VERTEX
  5
B50
  8
CLUSTERS
 10
666.89456124900005
 20
4691.0739856800001
 30
10.0
  0
VERTEX
  5
B51
  8
CLUSTERS
 10
666.99128540300001
 20
4691.0220473700001
 30
10.0
  0
VERTEX
  5
B52
  8
CLUSTERS
 10
667.04474820600001
 20
4690.9737470199998
 30
10.0
  0
VERTEX
  5
B53
  8
CLUSTERS
 10
667.09150326799988
 20
4690.90667201
 30
10.0
  0
VERTEX
  5
B54
  8
CLUSTERS
 10
667.13614658799975
 20
4690.8735083499996
 30
10.0
  0
VERTEX
  5
B55
  8
CLUSTERS
 10
667.09150326799988
 20
4690.83806121
 30
10.0
  0
VERTEX
  5
B56
  8
CLUSTERS
 10
667.00591206399974
 20
4690.8735083499996
 30
10.0
  0
VERTEX
  5
B57
  8
CLUSTERS
 10
666.99128540300001
 20
4690.8804055000001
 30
10.0
  0
VERTEX
  5
B58
  8
CLUSTERS
 10
666.98453272099994
 20
4690.8735083499996
 30
10.0
  0
VERTEX
  5
B59
  8
CLUSTERS
 10
666.89106753800002
 20
4690.8221332000003
 30
10.0
  0
VERTEX
  5
B5A
  8
CLUSTERS
 10
666.79084967299991
 20
4690.850102209999
 30
10.0
  0
VERTEX
  5
B5B
  8
CLUSTERS
 10
666.75972512800001
 20
4690.8735083499996
 30
10.0
  0
SEQEND
  5
B5C
  8
CLUSTERS
  0
POLYLINE
  5
3F
  8
CLUSTERS
 66
     1
 10
0.0
 20
0.0
 30
10.0
 70
   129
  0
VERTEX
  5
B5D
  8
CLUSTERS
 10
658.07344340400005
 20
4690.5727923599998
 30
10.0
  0
VERTEX
  5
B5E
  8
CLUSTERS
 10
658.07189542499987
 20
4690.5728228400003
 30
10.0
  0
VERTEX
  5
B5F
  8
CLUSTERS
 10
657.97167755999976
 20
4690.5754344500001
 30
10.0
  0
VERTEX
  5
B60
  8
CLUSTERS
 10
657.87436603299977
 20
4690.6730310299999
 30
10.0
  0
VERTEX
  5
B61
  8
CLUSTERS
 10
657.872666568
 20
4690.7732696900011
 30
10.0
  0
VERTEX
  5
B62
  8
CLUSTERS
 10
657.97167755999976
 20
4690.8706541900001
 30
10.0
  0
VERTEX
  5
B63
  8
CLUSTERS
 10
658.07189542499987
 20
4690.8709857900012
 30
10.0
  0
VERTEX
  5
B64
  8
CLUSTERS
 10
658.17211328999997
 20
4690.8727909999989
 30
10.0
  0
VERTEX
  5
B65
  8
CLUSTERS
 10
658.27233115499985
 20
4690.87252248
 30
10.0
  0
VERTEX
  5
B66
  8
CLUSTERS
 10
658.37150700000018
 20
4690.7732696900011
 30
10.0
  0
VERTEX
  5
B67
  8
CLUSTERS
 10
658.36991316800004
 20
4690.6730310299999
 30
10.0
  0
VERTEX
  5
B68
  8
CLUSTERS
 10
658.37254901999995
 20
4690.6300575900004
 30
10.0
  0
VERTEX
  5
B69
  8
CLUSTERS
 10
658.41455660999998
 20
4690.5727923599998
 30
10.0
  0
VERTEX
  5
B6A
  8
CLUSTERS
 10
658.37254901999995
 20
4690.52964032
 30
10.0
  0
VERTEX
  5
B6B
  8
CLUSTERS
 10
658.27233115499985
 20
4690.4891261299999
 30
10.0
  0
VERTEX
  5
B6C
  8
CLUSTERS
 10
658.17211328999997
 20
4690.5373121700004
 30
10.0
  0
VERTEX
  5
B6D
  8
CLUSTERS
 10
658.07344340400005
 20
4690.5727923599998
 30
10.0
  0
SEQEND
  5
B6E
  8
CLUSTERS
  0
POLYLINE
  5
40
  8
CLUSTERS
 66
     1
 10
0.0
 20
0.0
 30
10.0
 70
   129
  0
VERTEX
  5
B6F
  8
CLUSTERS
 10
638.65625262599985
 20
4690.5727923599998
 30
10.0
  0
VERTEX
  5
B70
  8
CLUSTERS
 10
638.64088158599998
 20
4690.6730310299999
 30
10.0
  0
VERTEX
  5
B71
  8
CLUSTERS
 10
638.66877166500001
 20
4690.7732696900011
 30
10.0
  0
VERTEX
  5
B72
  8
CLUSTERS
 10
638.72984749499994
 20
4690.8348207400013
 30
10.0
  0
VERTEX
  5
B73
  8
CLUSTERS
 10
638.76910778900003
 20
4690.8735083499996
 30
10.0
  0
VERTEX
  5
B74
  8
CLUSTERS
 10
638.77289733799978
 20
4690.9737470199998
 30
10.0
  0
VERTEX
  5
B75
  8
CLUSTERS
 10
638.83006535899995
 20
4691.0547040000001
 30
10.0
  0
VERTEX
  5
B76
  8
CLUSTERS
 10
638.93028322400005
 20
4691.0487624799998
 30
10.0
  0
VERTEX
  5
B77
  8
CLUSTERS
 10
638.99451523699997
 20
4690.9737470199998
 30
10.0
  0
VERTEX
  5
B78
  8
CLUSTERS
 10
639.02075279500002
 20
4690.8735083499996
 30
10.0
  0
VERTEX
  5
B79
  8
CLUSTERS
 10
639.01117542700001
 20
4690.7732696900011
 30
10.0
  0
VERTEX
  5
B7A
  8
CLUSTERS
 10
638.93028322400005
 20
4690.6911451599999
 30
10.0
  0
VERTEX
  5
B7B
  8
CLUSTERS
 10
638.89031880499999
 20
4690.6730310299999
 30
10.0
  0
VERTEX
  5
B7C
  8
CLUSTERS
 10
638.87458955499994
 20
4690.5727923599998
 30
10.0
  0
VERTEX
  5
B7D
  8
CLUSTERS
 10
638.83006535899995
 20
4690.5281673899999
 30
10.0
  0
VERTEX
  5
B7E
  8
CLUSTERS
 10
638.72984749499994
 20
4690.4981866300013
 30
10.0
  0
VERTEX
  5
B7F
  8
CLUSTERS
 10
638.65625262599985
 20
4690.5727923599998
 30
10.0
  0
SEQEND
  5
B80
  8
CLUSTERS
  0
POLYLINE
  5
41
  8
CLUSTERS
 66
     1
 10
0.0
 20
0.0
 30
10.0
 70
   129
  0
VERTEX
  5
B81
  8
CLUSTERS
 10
643.39078523599994
 20
4690.3723150400001
 30
10.0
  0
VERTEX
  5
B82
  8
CLUSTERS
 10
643.440087146
 20
4690.4214693100002
 30
10.0
  0
VERTEX
  5
B83
  8
CLUSTERS
 10
643.54030501099976
 20
4690.3889627099998
 30
10.0
  0
VERTEX
  5
B84
  8
CLUSTERS
 10
643.57657218600002
 20
4690.4725537000013
 30
10.0
  0
VERTEX
  5
B85
  8
CLUSTERS
 10
643.64052287599986
 20
4690.5363570700001
 30
10.0
  0
VERTEX
  5
B86
  8
CLUSTERS
 10
643.72603090600001
 20
4690.4725537000013
 30
10.0
  0
VERTEX
  5
B87
  8
CLUSTERS
 10
643.74074074099985
 20
4690.3989953999981
 30
10.0
  0
VERTEX
  5
B88
  8
CLUSTERS
 10
643.75062846200001
 20
4690.3723150400001
 30
10.0
  0
VERTEX
  5
B89
  8
CLUSTERS
 10
643.74074074099985
 20
4690.36231245
 30
10.0
  0
VERTEX
  5
B8A
  8
CLUSTERS
 10
643.64052287599986
 20
4690.2869464799987
 30
10.0
  0
VERTEX
  5
B8B
  8
CLUSTERS
 10
643.54030501099976
 20
4690.3220453100002
 30
10.0
  0
VERTEX
  5
B8C
  8
CLUSTERS
 10
643.440087146
 20
4690.3059335400003
 30
10.0
  0
VERTEX
  5
B8D
  8
CLUSTERS
 10
643.39078523599994
 20
4690.3723150400001
 30
10.0
  0
SEQEND
  5
B8E
  8
CLUSTERS
  0
POLYLINE
  5
42
  8
CLUSTERS
 66
     1
 10
0.0
 20
0.0
 30
10.0
 70
   129
  0
VERTEX
  5
B8F
  8
CLUSTERS
 10
632.73157138099998
 20
4690.3723150400001
 30
10.0
  0
VERTEX
  5
B90
  8
CLUSTERS
 10
632.73791106500005
 20
4690.4725537000013
 30
10.0
  0
VERTEX
  5
B91
  8
CLUSTERS
 10
632.81699346399989
 20
4690.54845209
 30
10.0
  0
VERTEX
  5
B92
  8
CLUSTERS
 10
632.917211329
 20
4690.4941501999983
 30
10.0
  0
VERTEX
  5
B93
  8
CLUSTERS
 10
633.01742919399976
 20
4690.5301956200001
 30
10.0
  0
VERTEX
  5
B94
  8
CLUSTERS
 10
633.08000027599996
 20
4690.4725537000013
 30
10.0
  0
VERTEX
  5
B95
  8
CLUSTERS
 10
633.01742919399976
 20
4690.4095524499999
 30
10.0
  0
VERTEX
  5
B96
  8
CLUSTERS
 10
632.95724668299999
 20
4690.3723150400001
 30
10.0
  0
VERTEX
  5
B97
  8
CLUSTERS
 10
632.917211329
 20
4690.3333921399999
 30
10.0
  0
VERTEX
  5
B98
  8
CLUSTERS
 10
632.81699346399989
 20
4690.2821199500004
 30
10.0
  0
VERTEX
  5
B99
  8
CLUSTERS
 10
632.73157138099998
 20
4690.3723150400001
 30
10.0
  0
SEQEND
  5
B9A
  8
CLUSTERS
  0
POLYLINE
  5
43
  8
CLUSTERS
 66
     1
 10
0.0
 20
0.0
 30
10.0
 70
   129
  0
VERTEX
  5
B9B
  8
CLUSTERS
 10
635.99859293899976
 20
4690.2720763699999
 30
10.0
  0
VERTEX
  5
B9C
  8
CLUSTERS
 10
635.94420737500002
 20
4690.3723150400001
 30
10.0
  0
VERTEX
  5
B9D
  8
CLUSTERS
 10
635.99077583300004
 20
4690.4725537000013
 30
10.0
  0
VERTEX
  5
B9E
  8
CLUSTERS
 10
636.02396514199995
 20
4690.505738089998
 30
10.0
  0
VERTEX
  5
B9F
  8
CLUSTERS
 10
636.12418300699994
 20
4690.5387459800004
 30
10.0
  0
VERTEX
  5
BA0
  8
CLUSTERS
 10
636.1928097739999
 20
4690.4725537000013
 30
10.0
  0
VERTEX
  5
BA1
  8
CLUSTERS
 10
636.21277126199993
 20
4690.3723150400001
 30
10.0
  0
VERTEX
  5
BA2
  8
CLUSTERS
 10
636.12418300699994
 20
4690.2835244099979
 30
10.0
  0
VERTEX
  5
BA3
  8
CLUSTERS
 10
636.05554156900007
 20
4690.2720763699999
 30
10.0
  0
VERTEX
  5
BA4
  8
CLUSTERS
 10
636.02396514199995
 20
4690.2462610100001
 30
10.0
  0
VERTEX
  5
BA5
  8
CLUSTERS
 10
635.99859293899976
 20
4690.2720763699999
 30
10.0
  0
SEQEND
  5
BA6
  8
CLUSTERS
  0
POLYLINE
  5
44
  8
CLUSTERS
 66
     1
 10
0.0
 20
0.0
 30
10.0
 70
   129
  0
VERTEX
  5
BA7
  8
CLUSTERS
 10
663.81083392599999
 20
4688.8687350800001
 30
10.0
  0
VERTEX
  5
BA8
  8
CLUSTERS
 10
663.78431372499995
 20
4688.8997636200002
 30
10.0
  0
VERTEX
  5
BA9
  8
CLUSTERS
 10
663.68532747899985
 20
4688.9689737500003
 30
10.0
  0
VERTEX
  5
BAA
  8
CLUSTERS
 10
663.68409586099995
 20
4688.9710130900003
 30
10.0
  0
VERTEX
  5
BAB
  8
CLUSTERS
 10
663.63303662999999
 20
4689.0692124099978
 30
10.0
  0
VERTEX
  5
BAC
  8
CLUSTERS
 10
663.68409586099995
 20
4689.1212935800004
 30
10.0
  0
VERTEX
  5
BAD
  8
CLUSTERS
 10
663.75947617400004
 20
4689.169451069999
 30
10.0
  0
VERTEX
  5
BAE
  8
CLUSTERS
 10
663.70675971200001
 20
4689.2696897400001
 30
10.0
  0
VERTEX
  5
BAF
  8
CLUSTERS
 10
663.68409586099995
 20
4689.3129235799997
 30
10.0
  0
VERTEX
  5
BB0
  8
CLUSTERS
 10
663.63918360800005
 20
4689.3699283999977
 30
10.0
  0
VERTEX
  5
BB1
  8
CLUSTERS
 10
663.59506185199984
 20
4689.4701670599998
 30
10.0
  0
VERTEX
  5
BB2
  8
CLUSTERS
 10
663.58649092400003
 20
4689.5704057299999
 30
10.0
  0
VERTEX
  5
BB3
  8
CLUSTERS
 10
663.58685384199975
 20
4689.6706443900002
 30
10.0
  0
VERTEX
  5
BB4
  8
CLUSTERS
 10
663.59826935399985
 20
4689.7708830499978
 30
10.0
  0
VERTEX
  5
BB5
  8
CLUSTERS
 10
663.68409586099995
 20
4689.8579014599991
 30
10.0
  0
VERTEX
  5
BB6
  8
CLUSTERS
 10
663.78431372499995
 20
4689.8698611999998
 30
10.0
  0
VERTEX
  5
BB7
  8
CLUSTERS
 10
663.88361027300004
 20
4689.7708830499978
 30
10.0
  0
VERTEX
  5
BB8
  8
CLUSTERS
 10
663.88453159000017
 20
4689.7357842899992
 30
10.0
  0
VERTEX
  5
BB9
  8
CLUSTERS
 10
663.93173839899987
 20
4689.6706443900002
 30
10.0
  0
VERTEX
  5
BBA
  8
CLUSTERS
 10
663.98344086600002
 20
4689.5704057299999
 30
10.0
  0
VERTEX
  5
BBB
  8
CLUSTERS
 10
663.98474945500004
 20
4689.5624445100002
 30
10.0
  0
VERTEX
  5
BBC
  8
CLUSTERS
 10
664.06973036599993
 20
4689.4701670599998
 30
10.0
  0
VERTEX
  5
BBD
  8
CLUSTERS
 10
664.07323217099974
 20
4689.3699283999977
 30
10.0
  0
VERTEX
  5
BBE
  8
CLUSTERS
 10
663.98474945500004
 20
4689.2777731300002
 30
10.0
  0
VERTEX
  5
BBF
  8
CLUSTERS
 10
663.91673364899987
 20
4689.2696897400001
 30
10.0
  0
VERTEX
  5
BC0
  8
CLUSTERS
 10
663.88453159000017
 20
4689.2458559799998
 30
10.0
  0
VERTEX
  5
BC1
  8
CLUSTERS
 10
663.807180915
 20
4689.169451069999
 30
10.0
  0
VERTEX
  5
BC2
  8
CLUSTERS
 10
663.88453159000017
 20
4689.1069746800003
 30
10.0
  0
VERTEX
  5
BC3
  8
CLUSTERS
 10
663.98474945500004
 20
4689.1041201999979
 30
10.0
  0
VERTEX
  5
BC4
  8
CLUSTERS
 10
664.01837969699977
 20
4689.0692124099978
 30
10.0
  0
VERTEX
  5
BC5
  8
CLUSTERS
 10
663.98474945500004
 20
4689.0334371399986
 30
10.0
  0
VERTEX
  5
BC6
  8
CLUSTERS
 10
663.88453159000017
 20
4688.9747539
 30
10.0
  0
VERTEX
  5
BC7
  8
CLUSTERS
 10
663.88229398700003
 20
4688.9689737500003
 30
10.0
  0
VERTEX
  5
BC8
  8
CLUSTERS
 10
663.88453159000017
 20
4688.9671693899991
 30
10.0
  0
VERTEX
  5
BC9
  8
CLUSTERS
 10
663.98474945500004
 20
4688.9348004599988
 30
10.0
  0
VERTEX
  5
BCA
  8
CLUSTERS
 10
664.04865760699977
 20
4688.8687350800001
 30
10.0
  0
VERTEX
  5
BCB
  8
CLUSTERS
 10
663.98474945500004
 20
4688.79560692
 30
10.0
  0
VERTEX
  5
BCC
  8
CLUSTERS
 10
663.88453159000017
 20
4688.7846899200013
 30
10.0
  0
VERTEX
  5
BCD
  8
CLUSTERS
 10
663.81083392599999
 20
4688.8687350800001
 30
10.0
  0
SEQEND
  5
BCE
  8
CLUSTERS
  0
POLYLINE
  5
45
  8
CLUSTERS
 66
     1
 10
0.0
 20
0.0
 30
10.0
 70
   129
  0
VERTEX
  5
BCF
  8
CLUSTERS
 10
657.25083090299995
 20
4688.8687350800001
 30
10.0
  0
VERTEX
  5
BD0
  8
CLUSTERS
 10
657.20361952899987
 20
4688.9689737500003
 30
10.0
  0
VERTEX
  5
BD1
  8
CLUSTERS
 10
657.27015250500017
 20
4689.0348667099997
 30
10.0
  0
VERTEX
  5
BD2
  8
CLUSTERS
 10
657.37037037000005
 20
4688.9835716000007
 30
10.0
  0
VERTEX
  5
BD3
  8
CLUSTERS
 10
657.385025627
 20
4688.9689737500003
 30
10.0
  0
VERTEX
  5
BD4
  8
CLUSTERS
 10
657.47058823500004
 20
4688.9114914899992
 30
10.0
  0
VERTEX
  5
BD5
  8
CLUSTERS
 10
657.513201288
 20
4688.8687350800001
 30
10.0
  0
VERTEX
  5
BD6
  8
CLUSTERS
 10
657.47058823500004
 20
4688.8201543699997
 30
10.0
  0
VERTEX
  5
BD7
  8
CLUSTERS
 10
657.37037037000005
 20
4688.7849418599981
 30
10.0
  0
VERTEX
  5
BD8
  8
CLUSTERS
 10
657.27015250500017
 20
4688.8493042399978
 30
10.0
  0
VERTEX
  5
BD9
  8
CLUSTERS
 10
657.25083090299995
 20
4688.8687350800001
 30
10.0
  0
SEQEND
  5
BDA
  8
CLUSTERS
  0
POLYLINE
  5
46
  8
CLUSTERS
 66
     1
 10
0.0
 20
0.0
 30
10.0
 70
   129
  0
VERTEX
  5
BDB
  8
CLUSTERS
 10
633.44974558499985
 20
4688.467780429999
 30
10.0
  0
VERTEX
  5
BDC
  8
CLUSTERS
 10
633.44149618400002
 20
4688.5680190900002
 30
10.0
  0
VERTEX
  5
BDD
  8
CLUSTERS
 10
633.51851851900005
 20
4688.6477444900002
 30
10.0
  0
VERTEX
  5
BDE
  8
CLUSTERS
 10
633.56651954899985
 20
4688.6682577600004
 30
10.0
  0
VERTEX
  5
BDF
  8
CLUSTERS
 10
633.51851851900005
 20
4688.7132794699992
 30
10.0
  0
VERTEX
  5
BE0
  8
CLUSTERS
 10
633.41830065399995
 20
4688.6959653199992
 30
10.0
  0
VERTEX
  5
BE1
  8
CLUSTERS
 10
633.34803696300003
 20
4688.768496419998
 30
10.0
  0
VERTEX
  5
BE2
  8
CLUSTERS
 10
633.41830065399995
 20
4688.8389900700004
 30
10.0
  0
VERTEX
  5
BE3
  8
CLUSTERS
 10
633.51851851900005
 20
4688.8195421399996
 30
10.0
  0
VERTEX
  5
BE4
  8
CLUSTERS
 10
633.61873638300005
 20
4688.8438193399988
 30
10.0
  0
VERTEX
  5
BE5
  8
CLUSTERS
 10
633.69876807200001
 20
4688.768496419998
 30
10.0
  0
VERTEX
  5
BE6
  8
CLUSTERS
 10
633.67323750900005
 20
4688.6682577600004
 30
10.0
  0
VERTEX
  5
BE7
  8
CLUSTERS
 10
633.71895424800005
 20
4688.6020416499987
 30
10.0
  0
VERTEX
  5
BE8
  8
CLUSTERS
 10
633.74766611699999
 20
4688.5680190900002
 30
10.0
  0
VERTEX
  5
BE9
  8
CLUSTERS
 10
633.71895424800005
 20
4688.5004446100002
 30
10.0
  0
VERTEX
  5
BEA
  8
CLUSTERS
 10
633.71681773699993
 20
4688.467780429999
 30
10.0
  0
VERTEX
  5
BEB
  8
CLUSTERS
 10
633.61873638300005
 20
4688.3751620599978
 30
10.0
  0
VERTEX
  5
BEC
  8
CLUSTERS
 10
633.51851851900005
 20
4688.3971322699999
 30
10.0
  0
VERTEX
  5
BED
  8
CLUSTERS
 10
633.44974558499985
 20
4688.467780429999
 30
10.0
  0
SEQEND
  5
BEE
  8
CLUSTERS
  0
POLYLINE
  5
47
  8
CLUSTERS
 66
     1
 10
0.0
 20
0.0
 30
10.0
 70
   129
  0
VERTEX
  5
BEF
  8
CLUSTERS
 10
641.31775357599997
 20
4687.1646778000013
 30
10.0
  0
VERTEX
  5
BF0
  8
CLUSTERS
 10
641.25234619399998
 20
4687.2649164699997
 30
10.0
  0
VERTEX
  5
BF1
  8
CLUSTERS
 10
641.33551198300006
 20
4687.352568559998
 30
10.0
  0
VERTEX
  5
BF2
  8
CLUSTERS
 10
641.43572984699995
 20
4687.349316429998
 30
10.0
  0
VERTEX
  5
BF3
  8
CLUSTERS
 10
641.53594771199994
 20
4687.2972533299999
 30
10.0
  0
VERTEX
  5
BF4
  8
CLUSTERS
 10
641.56758676100003
 20
4687.3651551299999
 30
10.0
  0
VERTEX
  5
BF5
  8
CLUSTERS
 10
641.53594771199994
 20
4687.3869136800013
 30
10.0
  0
VERTEX
  5
BF6
  8
CLUSTERS
 10
641.45970623900007
 20
4687.4653937900002
 30
10.0
  0
VERTEX
  5
BF7
  8
CLUSTERS
 10
641.53594771199994
 20
4687.5519348799999
 30
10.0
  0
VERTEX
  5
BF8
  8
CLUSTERS
 10
641.63616557699993
 20
4687.5503366399998
 30
10.0
  0
VERTEX
  5
BF9
  8
CLUSTERS
 10
641.73638344199992
 20
4687.4756117400002
 30
10.0
  0
VERTEX
  5
BFA
  8
CLUSTERS
 10
641.74661882199985
 20
4687.4653937900002
 30
10.0
  0
VERTEX
  5
BFB
  8
CLUSTERS
 10
641.82619439899997
 20
4687.3651551299999
 30
10.0
  0
VERTEX
  5
BFC
  8
CLUSTERS
 10
641.73638344199992
 20
4687.2752634099998
 30
10.0
  0
VERTEX
  5
BFD
  8
CLUSTERS
 10
641.63616557699993
 20
4687.2989843900004
 30
10.0
  0
VERTEX
  5
BFE
  8
CLUSTERS
 10
641.56592336000017
 20
4687.2649164699997
 30
10.0
  0
VERTEX
  5
BFF
  8
CLUSTERS
 10
641.63616557699993
 20
4687.1826192500002
 30
10.0
  0
VERTEX
  5
C00
  8
CLUSTERS
 10
641.65386799099986
 20
4687.1646778000013
 30
10.0
  0
VERTEX
  5
C01
  8
CLUSTERS
 10
641.63616557699993
 20
4687.1469144499988
 30
10.0
  0
VERTEX
  5
C02
  8
CLUSTERS
 10
641.53594771199994
 20
4687.0746080500003
 30
10.0
  0
VERTEX
  5
C03
  8
CLUSTERS
 10
641.43572984699995
 20
4687.0823611999976
 30
10.0
  0
VERTEX
  5
C04
  8
CLUSTERS
 10
641.33551198300006
 20
4687.1468155299999
 30
10.0
  0
VERTEX
  5
C05
  8
CLUSTERS
 10
641.31775357599997
 20
4687.1646778000013
 30
10.0
  0
SEQEND
  5
C06
  8
CLUSTERS
  0
POLYLINE
  5
48
  8
CLUSTERS
 66
     1
 10
0.0
 20
0.0
 30
10.0
 70
   129
  0
VERTEX
  5
C07
  8
CLUSTERS
 10
639.04797396599986
 20
4687.1646778000013
 30
10.0
  0
VERTEX
  5
C08
  8
CLUSTERS
 10
639.03915469800006
 20
4687.2649164699997
 30
10.0
  0
VERTEX
  5
C09
  8
CLUSTERS
 10
639.03736886800004
 20
4687.3651551299999
 30
10.0
  0
VERTEX
  5
C0A
  8
CLUSTERS
 10
639.13071895400003
 20
4687.4585212800002
 30
10.0
  0
VERTEX
  5
C0B
  8
CLUSTERS
 10
639.22469409999985
 20
4687.3651551299999
 30
10.0
  0
VERTEX
  5
C0C
  8
CLUSTERS
 10
639.23093681900002
 20
4687.3394353599997
 30
10.0
  0
VERTEX
  5
C0D
  8
CLUSTERS
 10
639.30346466799995
 20
4687.2649164699997
 30
10.0
  0
VERTEX
  5
C0E
  8
CLUSTERS
 10
639.25744605499995
 20
4687.1646778000013
 30
10.0
  0
VERTEX
  5
C0F
  8
CLUSTERS
 10
639.23093681900002
 20
4687.13815325
 30
10.0
  0
VERTEX
  5
C10
  8
CLUSTERS
 10
639.13071895400003
 20
4687.0816755399992
 30
10.0
  0
VERTEX
  5
C11
  8
CLUSTERS
 10
639.04797396599986
 20
4687.1646778000013
 30
10.0
  0
SEQEND
  5
C12
  8
CLUSTERS
  0
POLYLINE
  5
49
  8
CLUSTERS
 66
     1
 10
0.0
 20
0.0
 30
10.0
 70
   129
  0
VERTEX
  5
C13
  8
CLUSTERS
 10
662.70142562099977
 20
4687.0644391400001
 30
10.0
  0
VERTEX
  5
C14
  8
CLUSTERS
 10
662.781730057
 20
4687.1646778000013
 30
10.0
  0
VERTEX
  5
C15
  8
CLUSTERS
 10
662.68191721100004
 20
4687.2378583500004
 30
10.0
  0
VERTEX
  5
C16
  8
CLUSTERS
 10
662.65542310599994
 20
4687.2649164699997
 30
10.0
  0
VERTEX
  5
C17
  8
CLUSTERS
 10
662.68191721100004
 20
4687.2916905499997
 30
10.0
  0
VERTEX
  5
C18
  8
CLUSTERS
 10
662.70702583299976
 20
4687.2649164699997
 30
10.0
  0
VERTEX
  5
C19
  8
CLUSTERS
 10
662.78213507600003
 20
4687.1650442099999
 30
10.0
  0
VERTEX
  5
C1A
  8
CLUSTERS
 10
662.78250198199999
 20
4687.1646778000013
 30
10.0
  0
VERTEX
  5
C1B
  8
CLUSTERS
 10
662.87423432799994
 20
4687.0644391400001
 30
10.0
  0
VERTEX
  5
C1C
  8
CLUSTERS
 10
662.78213507600003
 20
4686.9868811300003
 30
10.0
  0
VERTEX
  5
C1D
  8
CLUSTERS
 10
662.70142562099977
 20
4687.0644391400001
 30
10.0
  0
SEQEND
  5
C1E
  8
CLUSTERS
  0
POLYLINE
  5
4A
  8
CLUSTERS
 66
     1
 10
0.0
 20
0.0
 30
10.0
 70
   129
  0
VERTEX
  5
C1F
  8
CLUSTERS
 10
662.95257365899977
 20
4686.9642004799998
 30
10.0
  0
VERTEX
  5
C20
  8
CLUSTERS
 10
662.98257080600001
 20
4686.9858739199999
 30
10.0
  0
VERTEX
  5
C21
  8
CLUSTERS
 10
663.082788671
 20
4687.0104215399997
 30
10.0
  0
VERTEX
  5
C22
  8
CLUSTERS
 10
663.18300653599988
 20
4686.9769785500002
 30
10.0
  0
VERTEX
  5
C23
  8
CLUSTERS
 10
663.19579068899998
 20
4686.9642004799998
 30
10.0
  0
VERTEX
  5
C24
  8
CLUSTERS
 10
663.18300653599988
 20
4686.9510258
 30
10.0
  0
VERTEX
  5
C25
  8
CLUSTERS
 10
663.082788671
 20
4686.9169926499999
 30
10.0
  0
VERTEX
  5
C26
  8
CLUSTERS
 10
662.98257080600001
 20
4686.9421024000003
 30
10.0
  0
VERTEX
  5
C27
  8
CLUSTERS
 10
662.95257365899977
 20
4686.9642004799998
 30
10.0
  0
SEQEND
  5
C28
  8
CLUSTERS
  0
POLYLINE
  5
4B
  8
CLUSTERS
 66
     1
 10
0.0
 20
0.0
 30
10.0
 70
   129
  0
VERTEX
  5
C29
  8
CLUSTERS
 10
640.25473393699986
 20
4686.9642004799998
 30
10.0
  0
VERTEX
  5
C2A
  8
CLUSTERS
 10
640.23728135699992
 20
4687.0644391400001
 30
10.0
  0
VERTEX
  5
C2B
  8
CLUSTERS
 10
640.23311546800005
 20
4687.0837914699996
 30
10.0
  0
VERTEX
  5
C2C
  8
CLUSTERS
 10
640.14610427699995
 20
4687.1646778000013
 30
10.0
  0
VERTEX
  5
C2D
  8
CLUSTERS
 10
640.23311546800005
 20
4687.24480219
 30
10.0
  0
VERTEX
  5
C2E
  8
CLUSTERS
 10
640.33333333300004
 20
4687.2419728000004
 30
10.0
  0
VERTEX
  5
C2F
  8
CLUSTERS
 10
640.43355119800003
 20
4687.25631221
 30
10.0
  0
VERTEX
  5
C30
  8
CLUSTERS
 10
640.53376906300002
 20
4687.1913025100002
 30
10.0
  0
VERTEX
  5
C31
  8
CLUSTERS
 10
640.56044478699994
 20
4687.1646778000013
 30
10.0
  0
VERTEX
  5
C32
  8
CLUSTERS
 10
640.61846585499995
 20
4687.0644391400001
 30
10.0
  0
VERTEX
  5
C33
  8
CLUSTERS
 10
640.53376906300002
 20
4686.9696098900013
 30
10.0
  0
VERTEX
  5
C34
  8
CLUSTERS
 10
640.53088059900006
 20
4686.9642004799998
 30
10.0
  0
VERTEX
  5
C35
  8
CLUSTERS
 10
640.43355119800003
 20
4686.8724792700004
 30
10.0
  0
VERTEX
  5
C36
  8
CLUSTERS
 10
640.33333333300004
 20
4686.8854266699991
 30
10.0
  0
VERTEX
  5
C37
  8
CLUSTERS
 10
640.25473393699986
 20
4686.9642004799998
 30
10.0
  0
SEQEND
  5
C38
  8
CLUSTERS
  0
POLYLINE
  5
4C
  8
CLUSTERS
 66
     1
 10
0.0
 20
0.0
 30
10.0
 70
   129
  0
VERTEX
  5
C39
  8
CLUSTERS
 10
631.21649945299976
 20
4686.8639618099996
 30
10.0
  0
VERTEX
  5
C3A
  8
CLUSTERS
 10
631.21350762500003
 20
4686.8914572599979
 30
10.0
  0
VERTEX
  5
C3B
  8
CLUSTERS
 10
631.15991709900004
 20
4686.9642004799998
 30
10.0
  0
VERTEX
  5
C3C
  8
CLUSTERS
 10
631.13277460199993
 20
4687.0644391400001
 30
10.0
  0
VERTEX
  5
C3D
  8
CLUSTERS
 10
631.21350762500003
 20
4687.14580406
 30
10.0
  0
VERTEX
  5
C3E
  8
CLUSTERS
 10
631.3137254899998
 20
4687.1543872399989
 30
10.0
  0
VERTEX
  5
C3F
  8
CLUSTERS
 10
631.41394335500001
 20
4687.1565155600001
 30
10.0
  0
VERTEX
  5
C40
  8
CLUSTERS
 10
631.51363912400006
 20
4687.0644391400001
 30
10.0
  0
VERTEX
  5
C41
  8
CLUSTERS
 10
631.51416122000001
 20
4687.0639440100013
 30
10.0
  0
VERTEX
  5
C42
  8
CLUSTERS
 10
631.51754264999977
 20
4687.0644391400001
 30
10.0
  0
VERTEX
  5
C43
  8
CLUSTERS
 10
631.52700658000003
 20
4687.1646778000013
 30
10.0
  0
VERTEX
  5
C44
  8
CLUSTERS
 10
631.51416122000001
 20
4687.1727539499998
 30
10.0
  0
VERTEX
  5
C45
  8
CLUSTERS
 10
631.41394335500001
 20
4687.1777941500013
 30
10.0
  0
VERTEX
  5
C46
  8
CLUSTERS
 10
631.33733115899975
 20
4687.2649164699997
 30
10.0
  0
VERTEX
  5
C47
  8
CLUSTERS
 10
631.41394335500001
 20
4687.3488056699998
 30
10.0
  0
VERTEX
  5
C48
  8
CLUSTERS
 10
631.46293367999999
 20
4687.3651551299999
 30
10.0
  0
VERTEX
  5
C49
  8
CLUSTERS
 10
631.51416122000001
 20
4687.4045293400013
 30
10.0
  0
VERTEX
  5
C4A
  8
CLUSTERS
 10
631.56014888000004
 20
4687.3651551299999
 30
10.0
  0
VERTEX
  5
C4B
  8
CLUSTERS
 10
631.61437908499988
 20
4687.3295212800003
 30
10.0
  0
VERTEX
  5
C4C
  8
CLUSTERS
 10
631.71459694999999
 20
4687.3136554800003
 30
10.0
  0
VERTEX
  5
C4D
  8
CLUSTERS
 10
631.76935866400004
 20
4687.2649164699997
 30
10.0
  0
VERTEX
  5
C4E
  8
CLUSTERS
 10
631.81481481499975
 20
4687.1791848100002
 30
10.0
  0
VERTEX
  5
C4F
  8
CLUSTERS
 10
631.82641015599995
 20
4687.1646778000013
 30
10.0
  0
VERTEX
  5
C50
  8
CLUSTERS
 10
631.81481481499975
 20
4687.1431337100012
 30
10.0
  0
VERTEX
  5
C51
  8
CLUSTERS
 10
631.80131597699994
 20
4687.0644391400001
 30
10.0
  0
VERTEX
  5
C52
  8
CLUSTERS
 10
631.71459694999999
 20
4686.9862283000002
 30
10.0
  0
VERTEX
  5
C53
  8
CLUSTERS
 10
631.61437908499988
 20
4686.98607283
 30
10.0
  0
VERTEX
  5
C54
  8
CLUSTERS
 10
631.61055448800005
 20
4686.9642004799998
 30
10.0
  0
VERTEX
  5
C55
  8
CLUSTERS
 10
631.56174742699977
 20
4686.8639618099996
 30
10.0
  0
VERTEX
  5
C56
  8
CLUSTERS
 10
631.51416122000001
 20
4686.8172546899996
 30
10.0
  0
VERTEX
  5
C57
  8
CLUSTERS
 10
631.41394335500001
 20
4686.7699891900002
 30
10.0
  0
VERTEX
  5
C58
  8
CLUSTERS
 10
631.3137254899998
 20
4686.7675371100004
 30
10.0
  0
VERTEX
  5
C59
  8
CLUSTERS
 10
631.21649945299976
 20
4686.8639618099996
 30
10.0
  0
SEQEND
  5
C5A
  8
CLUSTERS
  0
POLYLINE
  5
4D
  8
CLUSTERS
 66
     1
 10
0.0
 20
0.0
 30
10.0
 70
   129
  0
VERTEX
  5
C5B
  8
CLUSTERS
 10
640.37506863099975
 20
4686.5632458199989
 30
10.0
  0
VERTEX
  5
C5C
  8
CLUSTERS
 10
640.41013320100001
 20
4686.66348449
 30
10.0
  0
VERTEX
  5
C5D
  8
CLUSTERS
 10
640.43355119800003
 20
4686.6872296700003
 30
10.0
  0
VERTEX
  5
C5E
  8
CLUSTERS
 10
640.45416345000001
 20
4686.7637231500003
 30
10.0
  0
VERTEX
  5
C5F
  8
CLUSTERS
 10
640.53376906300002
 20
4686.85133047
 30
10.0
  0
VERTEX
  5
C60
  8
CLUSTERS
 10
640.58970899799976
 20
4686.8639618099996
 30
10.0
  0
VERTEX
  5
C61
  8
CLUSTERS
 10
640.6339869279999
 20
4686.8947803700003
 30
10.0
  0
VERTEX
  5
C62
  8
CLUSTERS
 10
640.66669959499995
 20
4686.8639618099996
 30
10.0
  0
VERTEX
  5
C63
  8
CLUSTERS
 10
640.734204793
 20
4686.8611136999998
 30
10.0
  0
VERTEX
  5
C64
  8
CLUSTERS
 10
640.74488078399975
 20
4686.8639618099996
 30
10.0
  0
VERTEX
  5
C65
  8
CLUSTERS
 10
640.83442265799977
 20
4686.9525229199999
 30
10.0
  0
VERTEX
  5
C66
  8
CLUSTERS
 10
640.92328305499996
 20
4686.8639618099996
 30
10.0
  0
VERTEX
  5
C67
  8
CLUSTERS
 10
640.93464052299987
 20
4686.83231901
 30
10.0
  0
VERTEX
  5
C68
  8
CLUSTERS
 10
641.00254251199976
 20
4686.7637231500003
 30
10.0
  0
VERTEX
  5
C69
  8
CLUSTERS
 10
641.01041509300001
 20
4686.66348449
 30
10.0
  0
VERTEX
  5
C6A
  8
CLUSTERS
 10
640.93464052299987
 20
4686.5875395399989
 30
10.0
  0
VERTEX
  5
C6B
  8
CLUSTERS
 10
640.83442265799977
 20
4686.5697304799978
 30
10.0
  0
VERTEX
  5
C6C
  8
CLUSTERS
 10
640.734204793
 20
4686.5690685999989
 30
10.0
  0
VERTEX
  5
C6D
  8
CLUSTERS
 10
640.63782289599999
 20
4686.66348449
 30
10.0
  0
VERTEX
  5
C6E
  8
CLUSTERS
 10
640.6339869279999
 20
4686.6640347599978
 30
10.0
  0
VERTEX
  5
C6F
  8
CLUSTERS
 10
640.59795167200002
 20
4686.66348449
 30
10.0
  0
VERTEX
  5
C70
  8
CLUSTERS
 10
640.62718543000005
 20
4686.5632458199989
 30
10.0
  0
VERTEX
  5
C71
  8
CLUSTERS
 10
640.53376906300002
 20
4686.4700251699996
 30
10.0
  0
VERTEX
  5
C72
  8
CLUSTERS
 10
640.43355119800003
 20
4686.5045265299996
 30
10.0
  0
VERTEX
  5
C73
  8
CLUSTERS
 10
640.37506863099975
 20
4686.5632458199989
 30
10.0
  0
SEQEND
  5
C74
  8
CLUSTERS
  0
POLYLINE
  5
4E
  8
CLUSTERS
 66
     1
 10
0.0
 20
0.0
 30
10.0
 70
   129
  0
VERTEX
  5
C75
  8
CLUSTERS
 10
627.62958282900001
 20
4685.4606205299979
 30
10.0
  0
VERTEX
  5
C76
  8
CLUSTERS
 10
627.63057603599975
 20
4685.56085919
 30
10.0
  0
VERTEX
  5
C77
  8
CLUSTERS
 10
627.70588235299988
 20
4685.6352344300012
 30
10.0
  0
VERTEX
  5
C78
  8
CLUSTERS
 10
627.80610021799998
 20
4685.6382246599987
 30
10.0
  0
VERTEX
  5
C79
  8
CLUSTERS
 10
627.80916767999986
 20
4685.6610978500003
 30
10.0
  0
VERTEX
  5
C7A
  8
CLUSTERS
 10
627.80782161199988
 20
4685.7613365200004
 30
10.0
  0
VERTEX
  5
C7B
  8
CLUSTERS
 10
627.90631808299975
 20
4685.8610362099998
 30
10.0
  0
VERTEX
  5
C7C
  8
CLUSTERS
 10
627.94843288000004
 20
4685.8615751799998
 30
10.0
  0
VERTEX
  5
C7D
  8
CLUSTERS
 10
628.00653594799996
 20
4685.8833492599997
 30
10.0
  0
VERTEX
  5
C7E
  8
CLUSTERS
 10
628.04828345899989
 20
4685.8615751799998
 30
10.0
  0
VERTEX
  5
C7F
  8
CLUSTERS
 10
628.10675381300007
 20
4685.8585863999997
 30
10.0
  0
VERTEX
  5
C80
  8
CLUSTERS
 10
628.20086304500001
 20
4685.7613365200004
 30
10.0
  0
VERTEX
  5
C81
  8
CLUSTERS
 10
628.19332432199997
 20
4685.6610978500003
 30
10.0
  0
VERTEX
  5
C82
  8
CLUSTERS
 10
628.10675381300007
 20
4685.568708329999
 30
10.0
  0
VERTEX
  5
C83
  8
CLUSTERS
 10
628.04564861099993
 20
4685.56085919
 30
10.0
  0
VERTEX
  5
C84
  8
CLUSTERS
 10
628.00653594799996
 20
4685.5375431499979
 30
10.0
  0
VERTEX
  5
C85
  8
CLUSTERS
 10
627.90631808299975
 20
4685.4820220299998
 30
10.0
  0
VERTEX
  5
C86
  8
CLUSTERS
 10
627.90179955799999
 20
4685.4606205299979
 30
10.0
  0
VERTEX
  5
C87
  8
CLUSTERS
 10
627.80610021799998
 20
4685.38358419
 30
10.0
  0
VERTEX
  5
C88
  8
CLUSTERS
 10
627.70588235299988
 20
4685.3818927900002
 30
10.0
  0
VERTEX
  5
C89
  8
CLUSTERS
 10
627.62958282900001
 20
4685.4606205299979
 30
10.0
  0
SEQEND
  5
C8A
  8
CLUSTERS
  0
POLYLINE
  5
4F
  8
CLUSTERS
 66
     1
 10
0.0
 20
0.0
 30
10.0
 70
   129
  0
VERTEX
  5
C8B
  8
CLUSTERS
 10
636.85341863999975
 20
4684.8591885400001
 30
10.0
  0
VERTEX
  5
C8C
  8
CLUSTERS
 10
636.825708061
 20
4684.9181896999999
 30
10.0
  0
VERTEX
  5
C8D
  8
CLUSTERS
 10
636.78402074300004
 20
4684.9594272100003
 30
10.0
  0
VERTEX
  5
C8E
  8
CLUSTERS
 10
636.7254901959999
 20
4685.0500267899988
 30
10.0
  0
VERTEX
  5
C8F
  8
CLUSTERS
 10
636.62527233100002
 20
4684.9628304099988
 30
10.0
  0
VERTEX
  5
C90
  8
CLUSTERS
 10
636.53232538500004
 20
4685.0596658699988
 30
10.0
  0
VERTEX
  5
C91
  8
CLUSTERS
 10
636.58160487400005
 20
4685.1599045299981
 30
10.0
  0
VERTEX
  5
C92
  8
CLUSTERS
 10
636.62527233100002
 20
4685.2035150900001
 30
10.0
  0
VERTEX
  5
C93
  8
CLUSTERS
 10
636.67539367699999
 20
4685.1599045299981
 30
10.0
  0
VERTEX
  5
C94
  8
CLUSTERS
 10
636.7254901959999
 20
4685.0714488800004
 30
10.0
  0
VERTEX
  5
C95
  8
CLUSTERS
 10
636.825708061
 20
4685.1038268299981
 30
10.0
  0
VERTEX
  5
C96
  8
CLUSTERS
 10
636.92592592599976
 20
4685.1274135499998
 30
10.0
  0
VERTEX
  5
C97
  8
CLUSTERS
 10
636.997181286
 20
4685.0596658699988
 30
10.0
  0
VERTEX
  5
C98
  8
CLUSTERS
 10
637.02614379099987
 20
4685.0435562599996
 30
10.0
  0
VERTEX
  5
C99
  8
CLUSTERS
 10
637.12525163500004
 20
4684.9594272100003
 30
10.0
  0
VERTEX
  5
C9A
  8
CLUSTERS
 10
637.10037376000002
 20
4684.8591885400001
 30
10.0
  0
VERTEX
  5
C9B
  8
CLUSTERS
 10
637.02614379099987
 20
4684.7855861500002
 30
10.0
  0
VERTEX
  5
C9C
  8
CLUSTERS
 10
636.92592592599976
 20
4684.7866675799996
 30
10.0
  0
VERTEX
  5
C9D
  8
CLUSTERS
 10
636.85341863999975
 20
4684.8591885400001
 30
10.0
  0
SEQEND
  5
C9E
  8
CLUSTERS
  0
POLYLINE
  5
50
  8
CLUSTERS
 66
     1
 10
0.0
 20
0.0
 30
10.0
 70
   129
  0
VERTEX
  5
C9F
  8
CLUSTERS
 10
633.02801427099985
 20
4684.6587112200004
 30
10.0
  0
VERTEX
  5
CA0
  8
CLUSTERS
 10
633.01742919399976
 20
4684.6765871300022
 30
10.0
  0
VERTEX
  5
CA1
  8
CLUSTERS
 10
632.94549959000005
 20
4684.7589498799989
 30
10.0
  0
VERTEX
  5
CA2
  8
CLUSTERS
 10
632.917211329
 20
4684.7734593599998
 30
10.0
  0
VERTEX
  5
CA3
  8
CLUSTERS
 10
632.81699346399989
 20
4684.77435289
 30
10.0
  0
VERTEX
  5
CA4
  8
CLUSTERS
 10
632.71677559900002
 20
4684.85837765
 30
10.0
  0
VERTEX
  5
CA5
  8
CLUSTERS
 10
632.71597817600002
 20
4684.8591885400001
 30
10.0
  0
VERTEX
  5
CA6
  8
CLUSTERS
 10
632.63645660600002
 20
4684.9594272100003
 30
10.0
  0
VERTEX
  5
CA7
  8
CLUSTERS
 10
632.71677559900002
 20
4685.0402182899998
 30
10.0
  0
VERTEX
  5
CA8
  8
CLUSTERS
 10
632.81699346399989
 20
4685.0484905100002
 30
10.0
  0
VERTEX
  5
CA9
  8
CLUSTERS
 10
632.917211329
 20
4684.9969586999996
 30
10.0
  0
VERTEX
  5
CAA
  8
CLUSTERS
 10
632.95609212900001
 20
4684.9594272100003
 30
10.0
  0
VERTEX
  5
CAB
  8
CLUSTERS
 10
633.00669794500004
 20
4684.8591885400001
 30
10.0
  0
VERTEX
  5
CAC
  8
CLUSTERS
 10
633.01742919399976
 20
4684.8373436699994
 30
10.0
  0
VERTEX
  5
CAD
  8
CLUSTERS
 10
633.11764705899986
 20
4684.8486064299996
 30
10.0
  0
VERTEX
  5
CAE
  8
CLUSTERS
 10
633.21729668299997
 20
4684.7589498799989
 30
10.0
  0
VERTEX
  5
CAF
  8
CLUSTERS
 10
633.20348811899999
 20
4684.6587112200004
 30
10.0
  0
VERTEX
  5
CB0
  8
CLUSTERS
 10
633.11764705899986
 20
4684.5774450600002
 30
10.0
  0
VERTEX
  5
CB1
  8
CLUSTERS
 10
633.02801427099985
 20
4684.6587112200004
 30
10.0
  0
SEQEND
  5
CB2
  8
CLUSTERS
  0
POLYLINE
  5
51
  8
CLUSTERS
 66
     1
 10
0.0
 20
0.0
 30
10.0
 70
   129
  0
VERTEX
  5
CB3
  8
CLUSTERS
 10
648.26109454599998
 20
4683.054892600001
 30
10.0
  0
VERTEX
  5
CB4
  8
CLUSTERS
 10
648.35076252699992
 20
4683.1180079799997
 30
10.0
  0
VERTEX
  5
CB5
  8
CLUSTERS
 10
648.36058688199978
 20
4683.1551312600004
 30
10.0
  0
VERTEX
  5
CB6
  8
CLUSTERS
 10
648.36138968499995
 20
4683.2553699299997
 30
10.0
  0
VERTEX
  5
CB7
  8
CLUSTERS
 10
648.35802355999976
 20
4683.35560859
 30
10.0
  0
VERTEX
  5
CB8
  8
CLUSTERS
 10
648.45098039199991
 20
4683.4485851999989
 30
10.0
  0
VERTEX
  5
CB9
  8
CLUSTERS
 10
648.50663800500001
 20
4683.4558472600002
 30
10.0
  0
VERTEX
  5
CBA
  8
CLUSTERS
 10
648.55119825700001
 20
4683.5004124899988
 30
10.0
  0
VERTEX
  5
CBB
  8
CLUSTERS
 10
648.651416122
 20
4683.5460630500002
 30
10.0
  0
VERTEX
  5
CBC
  8
CLUSTERS
 10
648.74161353300008
 20
4683.4558472600002
 30
10.0
  0
VERTEX
  5
CBD
  8
CLUSTERS
 10
648.745669916
 20
4683.35560859
 30
10.0
  0
VERTEX
  5
CBE
  8
CLUSTERS
 10
648.73435747099995
 20
4683.2553699299997
 30
10.0
  0
VERTEX
  5
CBF
  8
CLUSTERS
 10
648.651416122
 20
4683.1724101899999
 30
10.0
  0
VERTEX
  5
CC0
  8
CLUSTERS
 10
648.64246970800002
 20
4683.1551312600004
 30
10.0
  0
VERTEX
  5
CC1
  8
CLUSTERS
 10
648.55119825700001
 20
4683.0638416199999
 30
10.0
  0
VERTEX
  5
CC2
  8
CLUSTERS
 10
648.45098039199991
 20
4683.0647190299978
 30
10.0
  0
VERTEX
  5
CC3
  8
CLUSTERS
 10
648.4138647069999
 20
4683.054892600001
 30
10.0
  0
VERTEX
  5
CC4
  8
CLUSTERS
 10
648.35076252699992
 20
4682.9893523199989
 30
10.0
  0
VERTEX
  5
CC5
  8
CLUSTERS
 10
648.26109454599998
 20
4683.054892600001
 30
10.0
  0
SEQEND
  5
CC6
  8
CLUSTERS
  0
POLYLINE
  5
52
  8
CLUSTERS
 66
     1
 10
0.0
 20
0.0
 30
10.0
 70
   129
  0
VERTEX
  5
CC7
  8
CLUSTERS
 10
650.99478115900001
 20
4682.7541766100003
 30
10.0
  0
VERTEX
  5
CC8
  8
CLUSTERS
 10
650.95642701500003
 20
4682.7558775500002
 30
10.0
  0
VERTEX
  5
CC9
  8
CLUSTERS
 10
650.85620915000004
 20
4682.80181662
 30
10.0
  0
VERTEX
  5
CCA
  8
CLUSTERS
 10
650.80363430599994
 20
4682.8544152699988
 30
10.0
  0
VERTEX
  5
CCB
  8
CLUSTERS
 10
650.76712013699989
 20
4682.9546539399998
 30
10.0
  0
VERTEX
  5
CCC
  8
CLUSTERS
 10
650.78235553099989
 20
4683.054892600001
 30
10.0
  0
VERTEX
  5
CCD
  8
CLUSTERS
 10
650.85620915000004
 20
4683.1287608599978
 30
10.0
  0
VERTEX
  5
CCE
  8
CLUSTERS
 10
650.95642701500003
 20
4683.1426064400002
 30
10.0
  0
VERTEX
  5
CCF
  8
CLUSTERS
 10
651.052543044
 20
4683.054892600001
 30
10.0
  0
VERTEX
  5
CD0
  8
CLUSTERS
 10
651.05664488000002
 20
4683.0523978199999
 30
10.0
  0
VERTEX
  5
CD1
  8
CLUSTERS
 10
651.14899436600001
 20
4682.9546539399998
 30
10.0
  0
VERTEX
  5
CD2
  8
CLUSTERS
 10
651.1568627449999
 20
4682.9505058300001
 30
10.0
  0
VERTEX
  5
CD3
  8
CLUSTERS
 10
651.25292726800001
 20
4682.8544152699988
 30
10.0
  0
VERTEX
  5
CD4
  8
CLUSTERS
 10
651.19454874999997
 20
4682.7541766100003
 30
10.0
  0
VERTEX
  5
CD5
  8
CLUSTERS
 10
651.1568627449999
 20
4682.7164868500004
 30
10.0
  0
VERTEX
  5
CD6
  8
CLUSTERS
 10
651.05664488000002
 20
4682.6923831000004
 30
10.0
  0
VERTEX
  5
CD7
  8
CLUSTERS
 10
650.99478115900001
 20
4682.7541766100003
 30
10.0
  0
SEQEND
  5
CD8
  8
CLUSTERS
  0
POLYLINE
  5
53
  8
CLUSTERS
 66
     1
 10
0.0
 20
0.0
 30
10.0
 70
   129
  0
VERTEX
  5
CD9
  8
CLUSTERS
 10
647.96716993300004
 20
4681.7517899799977
 30
10.0
  0
VERTEX
  5
CDA
  8
CLUSTERS
 10
647.95156974099996
 20
4681.852028639998
 30
10.0
  0
VERTEX
  5
CDB
  8
CLUSTERS
 10
648.05010893199994
 20
4681.9505883000002
 30
10.0
  0
VERTEX
  5
CDC
  8
CLUSTERS
 10
648.15032679699993
 20
4681.9509164099991
 30
10.0
  0
VERTEX
  5
CDD
  8
CLUSTERS
 10
648.18373212199992
 20
4681.9522673000001
 30
10.0
  0
VERTEX
  5
CDE
  8
CLUSTERS
 10
648.15032679699993
 20
4681.974057899999
 30
10.0
  0
VERTEX
  5
CDF
  8
CLUSTERS
 10
648.07189537599993
 20
4682.0525059700003
 30
10.0
  0
VERTEX
  5
CE0
  8
CLUSTERS
 10
648.15032679699993
 20
4682.1309536500003
 30
10.0
  0
VERTEX
  5
CE1
  8
CLUSTERS
 10
648.25054466199992
 20
4682.110978579999
 30
10.0
  0
VERTEX
  5
CE2
  8
CLUSTERS
 10
648.30900516899976
 20
4682.0525059700003
 30
10.0
  0
VERTEX
  5
CE3
  8
CLUSTERS
 10
648.35076252699992
 20
4682.0246619500003
 30
10.0
  0
VERTEX
  5
CE4
  8
CLUSTERS
 10
648.42314210999984
 20
4681.9522673000001
 30
10.0
  0
VERTEX
  5
CE5
  8
CLUSTERS
 10
648.40325763899978
 20
4681.852028639998
 30
10.0
  0
VERTEX
  5
CE6
  8
CLUSTERS
 10
648.35076252699992
 20
4681.79952263
 30
10.0
  0
VERTEX
  5
CE7
  8
CLUSTERS
 10
648.25054466199992
 20
4681.8186147400002
 30
10.0
  0
VERTEX
  5
CE8
  8
CLUSTERS
 10
648.24896145699995
 20
4681.7517899799977
 30
10.0
  0
VERTEX
  5
CE9
  8
CLUSTERS
 10
648.15032679699993
 20
4681.6531348600001
 30
10.0
  0
VERTEX
  5
CEA
  8
CLUSTERS
 10
648.05010893199994
 20
4681.6688337799978
 30
10.0
  0
VERTEX
  5
CEB
  8
CLUSTERS
 10
647.96716993300004
 20
4681.7517899799977
 30
10.0
  0
SEQEND
  5
CEC
  8
CLUSTERS
  0
POLYLINE
  5
54
  8
CLUSTERS
 66
     1
 10
0.0
 20
0.0
 30
10.0
 70
   129
  0
VERTEX
  5
CED
  8
CLUSTERS
 10
635.58645700399995
 20
4681.4510739899988
 30
10.0
  0
VERTEX
  5
CEE
  8
CLUSTERS
 10
635.54173645200001
 20
4681.5513126499991
 30
10.0
  0
VERTEX
  5
CEF
  8
CLUSTERS
 10
635.54879097800006
 20
4681.6515513099994
 30
10.0
  0
VERTEX
  5
CF0
  8
CLUSTERS
 10
635.55462614700002
 20
4681.7517899799977
 30
10.0
  0
VERTEX
  5
CF1
  8
CLUSTERS
 10
635.62309368199999
 20
4681.8434271799997
 30
10.0
  0
VERTEX
  5
CF2
  8
CLUSTERS
 10
635.62896823899985
 20
4681.852028639998
 30
10.0
  0
VERTEX
  5
CF3
  8
CLUSTERS
 10
635.72331154699975
 20
4681.9288743999987
 30
10.0
  0
VERTEX
  5
CF4
  8
CLUSTERS
 10
635.82352941199986
 20
4681.8884900499988
 30
10.0
  0
VERTEX
  5
CF5
  8
CLUSTERS
 10
635.86108161799996
 20
4681.852028639998
 30
10.0
  0
VERTEX
  5
CF6
  8
CLUSTERS
 10
635.92374727699985
 20
4681.8163228599979
 30
10.0
  0
VERTEX
  5
CF7
  8
CLUSTERS
 10
636.02396514199995
 20
4681.8458303199986
 30
10.0
  0
VERTEX
  5
CF8
  8
CLUSTERS
 10
636.12418300699994
 20
4681.8161567999987
 30
10.0
  0
VERTEX
  5
CF9
  8
CLUSTERS
 10
636.18927423399998
 20
4681.7517899799977
 30
10.0
  0
VERTEX
  5
CFA
  8
CLUSTERS
 10
636.22440087099994
 20
4681.7152986299998
 30
10.0
  0
VERTEX
  5
CFB
  8
CLUSTERS
 10
636.28779686099995
 20
4681.6515513099994
 30
10.0
  0
VERTEX
  5
CFC
  8
CLUSTERS
 10
636.32461873599993
 20
4681.5696299499996
 30
10.0
  0
VERTEX
  5
CFD
  8
CLUSTERS
 10
636.34229342900005
 20
4681.5513126499991
 30
10.0
  0
VERTEX
  5
CFE
  8
CLUSTERS
 10
636.32461873599993
 20
4681.531712439999
 30
10.0
  0
VERTEX
  5
CFF
  8
CLUSTERS
 10
636.23736002800001
 20
4681.4510739899988
 30
10.0
  0
VERTEX
  5
D00
  8
CLUSTERS
 10
636.22440087099994
 20
4681.4395738100002
 30
10.0
  0
VERTEX
  5
D01
  8
CLUSTERS
 10
636.21220157000005
 20
4681.4510739899988
 30
10.0
  0
VERTEX
  5
D02
  8
CLUSTERS
 10
636.12418300699994
 20
4681.4613941300004
 30
10.0
  0
VERTEX
  5
D03
  8
CLUSTERS
 10
636.02396514199995
 20
4681.4597534599989
 30
10.0
  0
VERTEX
  5
D04
  8
CLUSTERS
 10
635.92374727699985
 20
4681.461485159999
 30
10.0
  0
VERTEX
  5
D05
  8
CLUSTERS
 10
635.82352941199986
 20
4681.5336658899987
 30
10.0
  0
VERTEX
  5
D06
  8
CLUSTERS
 10
635.72331154699975
 20
4681.4663615899999
 30
10.0
  0
VERTEX
  5
D07
  8
CLUSTERS
 10
635.67017426999985
 20
4681.4510739899988
 30
10.0
  0
VERTEX
  5
D08
  8
CLUSTERS
 10
635.62309368199999
 20
4681.4143984900002
 30
10.0
  0
VERTEX
  5
D09
  8
CLUSTERS
 10
635.58645700399995
 20
4681.4510739899988
 30
10.0
  0
SEQEND
  5
D0A
  8
CLUSTERS
  0
POLYLINE
  5
55
  8
CLUSTERS
 66
     1
 10
0.0
 20
0.0
 30
10.0
 70
   129
  0
VERTEX
  5
D0B
  8
CLUSTERS
 10
633.22604634100003
 20
4681.4510739899988
 30
10.0
  0
VERTEX
  5
D0C
  8
CLUSTERS
 10
633.21830908300001
 20
4681.5513126499991
 30
10.0
  0
VERTEX
  5
D0D
  8
CLUSTERS
 10
633.21786492399985
 20
4681.55592084
 30
10.0
  0
VERTEX
  5
D0E
  8
CLUSTERS
 10
633.12709196599985
 20
4681.6515513099994
 30
10.0
  0
VERTEX
  5
D0F
  8
CLUSTERS
 10
633.16073054399999
 20
4681.7517899799977
 30
10.0
  0
VERTEX
  5
D10
  8
CLUSTERS
 10
633.21786492399985
 20
4681.809158
 30
10.0
  0
VERTEX
  5
D11
  8
CLUSTERS
 10
633.31808278899985
 20
4681.8428654999998
 30
10.0
  0
VERTEX
  5
D12
  8
CLUSTERS
 10
633.41830065399995
 20
4681.8470132599987
 30
10.0
  0
VERTEX
  5
D13
  8
CLUSTERS
 10
633.51851851900005
 20
4681.8514224
 30
10.0
  0
VERTEX
  5
D14
  8
CLUSTERS
 10
633.55648783200002
 20
4681.852028639998
 30
10.0
  0
VERTEX
  5
D15
  8
CLUSTERS
 10
633.52583725599993
 20
4681.9522673000001
 30
10.0
  0
VERTEX
  5
D16
  8
CLUSTERS
 10
633.526495662
 20
4682.0525059700003
 30
10.0
  0
VERTEX
  5
D17
  8
CLUSTERS
 10
633.61873638300005
 20
4682.1449755199992
 30
10.0
  0
VERTEX
  5
D18
  8
CLUSTERS
 10
633.71895424800005
 20
4682.1375337899999
 30
10.0
  0
VERTEX
  5
D19
  8
CLUSTERS
 10
633.79435512600003
 20
4682.1527446299979
 30
10.0
  0
VERTEX
  5
D1A
  8
CLUSTERS
 10
633.74647006400005
 20
4682.25298329
 30
10.0
  0
VERTEX
  5
D1B
  8
CLUSTERS
 10
633.81917211300004
 20
4682.325850119998
 30
10.0
  0
VERTEX
  5
D1C
  8
CLUSTERS
 10
633.91938997800003
 20
4682.3395694600003
 30
10.0
  0
VERTEX
  5
D1D
  8
CLUSTERS
 10
634.00861428600001
 20
4682.25298329
 30
10.0
  0
VERTEX
  5
D1E
  8
CLUSTERS
 10
633.98617087499986
 20
4682.1527446299979
 30
10.0
  0
VERTEX
  5
D1F
  8
CLUSTERS
 10
633.91938997800003
 20
4682.08788482
 30
10.0
  0
VERTEX
  5
D20
  8
CLUSTERS
 10
633.81917211300004
 20
4682.1234914599991
 30
10.0
  0
VERTEX
  5
D21
  8
CLUSTERS
 10
633.80664337799988
 20
4682.0525059700003
 30
10.0
  0
VERTEX
  5
D22
  8
CLUSTERS
 10
633.807327708
 20
4681.9522673000001
 30
10.0
  0
VERTEX
  5
D23
  8
CLUSTERS
 10
633.72537308300002
 20
4681.852028639998
 30
10.0
  0
VERTEX
  5
D24
  8
CLUSTERS
 10
633.81917211300004
 20
4681.8495045299978
 30
10.0
  0
VERTEX
  5
D25
  8
CLUSTERS
 10
633.91889992199992
 20
4681.7517899799977
 30
10.0
  0
VERTEX
  5
D26
  8
CLUSTERS
 10
633.87610096799995
 20
4681.6515513099994
 30
10.0
  0
VERTEX
  5
D27
  8
CLUSTERS
 10
633.81917211300004
 20
4681.5959360399993
 30
10.0
  0
VERTEX
  5
D28
  8
CLUSTERS
 10
633.71895424800005
 20
4681.5557238000001
 30
10.0
  0
VERTEX
  5
D29
  8
CLUSTERS
 10
633.61873638300005
 20
4681.5595682100002
 30
10.0
  0
VERTEX
  5
D2A
  8
CLUSTERS
 10
633.59531712800003
 20
4681.5513126499991
 30
10.0
  0
VERTEX
  5
D2B
  8
CLUSTERS
 10
633.56730404899974
 20
4681.4510739899988
 30
10.0
  0
VERTEX
  5
D2C
  8
CLUSTERS
 10
633.51851851900005
 20
4681.3997579899988
 30
10.0
  0
VERTEX
  5
D2D
  8
CLUSTERS
 10
633.41830065399995
 20
4681.3525960499992
 30
10.0
  0
VERTEX
  5
D2E
  8
CLUSTERS
 10
633.31808278899985
 20
4681.3588349199999
 30
10.0
  0
VERTEX
  5
D2F
  8
CLUSTERS
 10
633.22604634100003
 20
4681.4510739899988
 30
10.0
  0
SEQEND
  5
D30
  8
CLUSTERS
  0
POLYLINE
  5
56
  8
CLUSTERS
 66
     1
 10
0.0
 20
0.0
 30
10.0
 70
   129
  0
VERTEX
  5
D31
  8
CLUSTERS
 10
632.62043646400002
 20
4681.4510739899988
 30
10.0
  0
VERTEX
  5
D32
  8
CLUSTERS
 10
632.71677559900002
 20
4681.5482782199997
 30
10.0
  0
VERTEX
  5
D33
  8
CLUSTERS
 10
632.77183894999985
 20
4681.5513126499991
 30
10.0
  0
VERTEX
  5
D34
  8
CLUSTERS
 10
632.72248715199999
 20
4681.6515513099994
 30
10.0
  0
VERTEX
  5
D35
  8
CLUSTERS
 10
632.81699346399989
 20
4681.7493404200004
 30
10.0
  0
VERTEX
  5
D36
  8
CLUSTERS
 10
632.89279985199994
 20
4681.7517899799977
 30
10.0
  0
VERTEX
  5
D37
  8
CLUSTERS
 10
632.917211329
 20
4681.7628817000004
 30
10.0
  0
VERTEX
  5
D38
  8
CLUSTERS
 10
632.92949338999995
 20
4681.7517899799977
 30
10.0
  0
VERTEX
  5
D39
  8
CLUSTERS
 10
633.01383376299998
 20
4681.6515513099994
 30
10.0
  0
VERTEX
  5
D3A
  8
CLUSTERS
 10
632.99719688000005
 20
4681.5513126499991
 30
10.0
  0
VERTEX
  5
D3B
  8
CLUSTERS
 10
633.00723158499977
 20
4681.4510739899988
 30
10.0
  0
VERTEX
  5
D3C
  8
CLUSTERS
 10
632.917211329
 20
4681.3620347599999
 30
10.0
  0
VERTEX
  5
D3D
  8
CLUSTERS
 10
632.81699346399989
 20
4681.3521378300002
 30
10.0
  0
VERTEX
  5
D3E
  8
CLUSTERS
 10
632.71677559900002
 20
4681.3539184199999
 30
10.0
  0
VERTEX
  5
D3F
  8
CLUSTERS
 10
632.62043646400002
 20
4681.4510739899988
 30
10.0
  0
SEQEND
  5
D40
  8
CLUSTERS
  0
POLYLINE
  5
57
  8
CLUSTERS
 66
     1
 10
0.0
 20
0.0
 30
10.0
 70
   129
  0
VERTEX
  5
D41
  8
CLUSTERS
 10
647.191721143
 20
4681.3508353200004
 30
10.0
  0
VERTEX
  5
D42
  8
CLUSTERS
 10
647.21078432699994
 20
4681.4510739899988
 30
10.0
  0
VERTEX
  5
D43
  8
CLUSTERS
 10
647.2483660129999
 20
4681.4886634799977
 30
10.0
  0
VERTEX
  5
D44
  8
CLUSTERS
 10
647.348583878
 20
4681.5346065000003
 30
10.0
  0
VERTEX
  5
D45
  8
CLUSTERS
 10
647.34968515100002
 20
4681.5513126499991
 30
10.0
  0
VERTEX
  5
D46
  8
CLUSTERS
 10
647.348583878
 20
4681.5538185699997
 30
10.0
  0
VERTEX
  5
D47
  8
CLUSTERS
 10
647.26881862200003
 20
4681.6515513099994
 30
10.0
  0
VERTEX
  5
D48
  8
CLUSTERS
 10
647.348583878
 20
4681.7313331400001
 30
10.0
  0
VERTEX
  5
D49
  8
CLUSTERS
 10
647.44880174299976
 20
4681.7425086900002
 30
10.0
  0
VERTEX
  5
D4A
  8
CLUSTERS
 10
647.45342004500003
 20
4681.7517899799977
 30
10.0
  0
VERTEX
  5
D4B
  8
CLUSTERS
 10
647.54901960799987
 20
4681.8474093699988
 30
10.0
  0
VERTEX
  5
D4C
  8
CLUSTERS
 10
647.64461915300001
 20
4681.7517899799977
 30
10.0
  0
VERTEX
  5
D4D
  8
CLUSTERS
 10
647.64495466699975
 20
4681.6515513099994
 30
10.0
  0
VERTEX
  5
D4E
  8
CLUSTERS
 10
647.54901960799987
 20
4681.5535012600003
 30
10.0
  0
VERTEX
  5
D4F
  8
CLUSTERS
 10
647.54374500800009
 20
4681.5513126499991
 30
10.0
  0
VERTEX
  5
D50
  8
CLUSTERS
 10
647.44880174299976
 20
4681.4610978500004
 30
10.0
  0
VERTEX
  5
D51
  8
CLUSTERS
 10
647.38198985099984
 20
4681.4510739899988
 30
10.0
  0
VERTEX
  5
D52
  8
CLUSTERS
 10
647.35769458599975
 20
4681.3508353200004
 30
10.0
  0
VERTEX
  5
D53
  8
CLUSTERS
 10
647.348583878
 20
4681.3417227199998
 30
10.0
  0
VERTEX
  5
D54
  8
CLUSTERS
 10
647.2483660129999
 20
4681.2941786999991
 30
10.0
  0
VERTEX
  5
D55
  8
CLUSTERS
 10
647.191721143
 20
4681.3508353200004
 30
10.0
  0
SEQEND
  5
D56
  8
CLUSTERS
  0
POLYLINE
  5
58
  8
CLUSTERS
 66
     1
 10
0.0
 20
0.0
 30
10.0
 70
   129
  0
VERTEX
  5
D57
  8
CLUSTERS
 10
633.25942664699994
 20
4680.9498806700003
 30
10.0
  0
VERTEX
  5
D58
  8
CLUSTERS
 10
633.22890342599999
 20
4681.0501193299997
 30
10.0
  0
VERTEX
  5
D59
  8
CLUSTERS
 10
633.21786492399985
 20
4681.0933855800004
 30
10.0
  0
VERTEX
  5
D5A
  8
CLUSTERS
 10
633.11764705899986
 20
4681.0938602300002
 30
10.0
  0
VERTEX
  5
D5B
  8
CLUSTERS
 10
633.06143477099999
 20
4681.1503579999999
 30
10.0
  0
VERTEX
  5
D5C
  8
CLUSTERS
 10
633.04822193400003
 20
4681.2505966599992
 30
10.0
  0
VERTEX
  5
D5D
  8
CLUSTERS
 10
633.11764705899986
 20
4681.3209053
 30
10.0
  0
VERTEX
  5
D5E
  8
CLUSTERS
 10
633.21786492399985
 20
4681.3376558500013
 30
10.0
  0
VERTEX
  5
D5F
  8
CLUSTERS
 10
633.31808278899985
 20
4681.3009961300004
 30
10.0
  0
VERTEX
  5
D60
  8
CLUSTERS
 10
633.36434357199994
 20
4681.2505966599992
 30
10.0
  0
VERTEX
  5
D61
  8
CLUSTERS
 10
633.31808278899985
 20
4681.2011040099987
 30
10.0
  0
VERTEX
  5
D62
  8
CLUSTERS
 10
633.27944103699997
 20
4681.1503579999999
 30
10.0
  0
VERTEX
  5
D63
  8
CLUSTERS
 10
633.31808278899985
 20
4681.1410566100003
 30
10.0
  0
VERTEX
  5
D64
  8
CLUSTERS
 10
633.41830065399995
 20
4681.11549586
 30
10.0
  0
VERTEX
  5
D65
  8
CLUSTERS
 10
633.48448938599995
 20
4681.0501193299997
 30
10.0
  0
VERTEX
  5
D66
  8
CLUSTERS
 10
633.41830065399995
 20
4680.982652319999
 30
10.0
  0
VERTEX
  5
D67
  8
CLUSTERS
 10
633.38049946199999
 20
4680.9498806700003
 30
10.0
  0
VERTEX
  5
D68
  8
CLUSTERS
 10
633.31808278899985
 20
4680.8912137899979
 30
10.0
  0
VERTEX
  5
D69
  8
CLUSTERS
 10
633.25942664699994
 20
4680.9498806700003
 30
10.0
  0
SEQEND
  5
D6A
  8
CLUSTERS
  0
POLYLINE
  5
59
  8
CLUSTERS
 66
     1
 10
0.0
 20
0.0
 30
10.0
 70
   129
  0
VERTEX
  5
D6B
  8
CLUSTERS
 10
645.76331882099987
 20
4680.6491646799996
 30
10.0
  0
VERTEX
  5
D6C
  8
CLUSTERS
 10
645.76514100300005
 20
4680.7494033399998
 30
10.0
  0
VERTEX
  5
D6D
  8
CLUSTERS
 10
645.84531590400002
 20
4680.8295949800004
 30
10.0
  0
VERTEX
  5
D6E
  8
CLUSTERS
 10
645.94553376900001
 20
4680.758547469999
 30
10.0
  0
VERTEX
  5
D6F
  8
CLUSTERS
 10
646.04575163399988
 20
4680.8468963900013
 30
10.0
  0
VERTEX
  5
D70
  8
CLUSTERS
 10
646.14596949899999
 20
4680.8476256200001
 30
10.0
  0
VERTEX
  5
D71
  8
CLUSTERS
 10
646.24618736399975
 20
4680.84674533
 30
10.0
  0
VERTEX
  5
D72
  8
CLUSTERS
 10
646.34350901899995
 20
4680.7494033399998
 30
10.0
  0
VERTEX
  5
D73
  8
CLUSTERS
 10
646.30086587000005
 20
4680.6491646799996
 30
10.0
  0
VERTEX
  5
D74
  8
CLUSTERS
 10
646.24618736399975
 20
4680.5944722200002
 30
10.0
  0
VERTEX
  5
D75
  8
CLUSTERS
 10
646.14596949899999
 20
4680.549462240001
 30
10.0
  0
VERTEX
  5
D76
  8
CLUSTERS
 10
646.04575163399988
 20
4680.5494096000002
 30
10.0
  0
VERTEX
  5
D77
  8
CLUSTERS
 10
645.94601726899998
 20
4680.6491646799996
 30
10.0
  0
VERTEX
  5
D78
  8
CLUSTERS
 10
645.94553376900001
 20
4680.7402528099992
 30
10.0
  0
VERTEX
  5
D79
  8
CLUSTERS
 10
645.92732510099995
 20
4680.6491646799996
 30
10.0
  0
VERTEX
  5
D7A
  8
CLUSTERS
 10
645.84531590400002
 20
4680.567150169999
 30
10.0
  0
VERTEX
  5
D7B
  8
CLUSTERS
 10
645.76331882099987
 20
4680.6491646799996
 30
10.0
  0
SEQEND
  5
D7C
  8
CLUSTERS
  0
POLYLINE
  5
5A
  8
CLUSTERS
 66
     1
 10
0.0
 20
0.0
 30
10.0
 70
   129
  0
VERTEX
  5
D7D
  8
CLUSTERS
 10
632.74944566099998
 20
4680.3484486899997
 30
10.0
  0
VERTEX
  5
D7E
  8
CLUSTERS
 10
632.72794468199993
 20
4680.44868735
 30
10.0
  0
VERTEX
  5
D7F
  8
CLUSTERS
 10
632.71677559900002
 20
4680.4630941200003
 30
10.0
  0
VERTEX
  5
D80
  8
CLUSTERS
 10
632.61655773400003
 20
4680.473651809999
 30
10.0
  0
VERTEX
  5
D81
  8
CLUSTERS
 10
632.51633986900003
 20
4680.4983645900002
 30
10.0
  0
VERTEX
  5
D82
  8
CLUSTERS
 10
632.46359866800003
 20
4680.5489260100012
 30
10.0
  0
VERTEX
  5
D83
  8
CLUSTERS
 10
632.51633986900003
 20
4680.6008155299996
 30
10.0
  0
VERTEX
  5
D84
  8
CLUSTERS
 10
632.521021507
 20
4680.6491646799996
 30
10.0
  0
VERTEX
  5
D85
  8
CLUSTERS
 10
632.51633986900003
 20
4680.7132433500001
 30
10.0
  0
VERTEX
  5
D86
  8
CLUSTERS
 10
632.48247138599993
 20
4680.7494033399998
 30
10.0
  0
VERTEX
  5
D87
  8
CLUSTERS
 10
632.44337370899996
 20
4680.8496420000001
 30
10.0
  0
VERTEX
  5
D88
  8
CLUSTERS
 10
632.51633986900003
 20
4680.9227594200001
 30
10.0
  0
VERTEX
  5
D89
  8
CLUSTERS
 10
632.61655773400003
 20
4680.9192051500004
 30
10.0
  0
VERTEX
  5
D8A
  8
CLUSTERS
 10
632.69152298799986
 20
4680.8496420000001
 30
10.0
  0
VERTEX
  5
D8B
  8
CLUSTERS
 10
632.71677559900002
 20
4680.7928578999999
 30
10.0
  0
VERTEX
  5
D8C
  8
CLUSTERS
 10
632.81699346399989
 20
4680.846343199998
 30
10.0
  0
VERTEX
  5
D8D
  8
CLUSTERS
 10
632.917211329
 20
4680.8273948699989
 30
10.0
  0
VERTEX
  5
D8E
  8
CLUSTERS
 10
632.98813729699998
 20
4680.7494033399998
 30
10.0
  0
VERTEX
  5
D8F
  8
CLUSTERS
 10
632.917211329
 20
4680.6731843599991
 30
10.0
  0
VERTEX
  5
D90
  8
CLUSTERS
 10
632.90421439399995
 20
4680.6491646799996
 30
10.0
  0
VERTEX
  5
D91
  8
CLUSTERS
 10
632.81699346399989
 20
4680.5564392899996
 30
10.0
  0
VERTEX
  5
D92
  8
CLUSTERS
 10
632.81046612499995
 20
4680.5489260100012
 30
10.0
  0
VERTEX
  5
D93
  8
CLUSTERS
 10
632.81699346399989
 20
4680.5439657300003
 30
10.0
  0
VERTEX
  5
D94
  8
CLUSTERS
 10
632.90998558699994
 20
4680.44868735
 30
10.0
  0
VERTEX
  5
D95
  8
CLUSTERS
 10
632.88863611800002
 20
4680.3484486899997
 30
10.0
  0
VERTEX
  5
D96
  8
CLUSTERS
 10
632.81699346399989
 20
4680.2810630900003
 30
10.0
  0
VERTEX
  5
D97
  8
CLUSTERS
 10
632.74944566099998
 20
4680.3484486899997
 30
10.0
  0
SEQEND
  5
D98
  8
CLUSTERS
  0
POLYLINE
  5
5B
  8
CLUSTERS
 66
     1
 10
0.0
 20
0.0
 30
10.0
 70
   129
  0
VERTEX
  5
D99
  8
CLUSTERS
 10
631.52062927300005
 20
4680.0477326999999
 30
10.0
  0
VERTEX
  5
D9A
  8
CLUSTERS
 10
631.51416122000001
 20
4680.0488334600004
 30
10.0
  0
VERTEX
  5
D9B
  8
CLUSTERS
 10
631.41565369800003
 20
4680.1479713600002
 30
10.0
  0
VERTEX
  5
D9C
  8
CLUSTERS
 10
631.42446848199995
 20
4680.2482100200023
 30
10.0
  0
VERTEX
  5
D9D
  8
CLUSTERS
 10
631.41736974599985
 20
4680.3484486899997
 30
10.0
  0
VERTEX
  5
D9E
  8
CLUSTERS
 10
631.51416122000001
 20
4680.4475999199994
 30
10.0
  0
VERTEX
  5
D9F
  8
CLUSTERS
 10
631.514580486
 20
4680.44868735
 30
10.0
  0
VERTEX
  5
DA0
  8
CLUSTERS
 10
631.51601005299995
 20
4680.5489260100012
 30
10.0
  0
VERTEX
  5
DA1
  8
CLUSTERS
 10
631.61437908499988
 20
4680.6479176699986
 30
10.0
  0
VERTEX
  5
DA2
  8
CLUSTERS
 10
631.71459694999999
 20
4680.6447554599999
 30
10.0
  0
VERTEX
  5
DA3
  8
CLUSTERS
 10
631.81481481499975
 20
4680.6450448300002
 30
10.0
  0
VERTEX
  5
DA4
  8
CLUSTERS
 10
631.91503267999985
 20
4680.6394564199991
 30
10.0
  0
VERTEX
  5
DA5
  8
CLUSTERS
 10
631.94281768799976
 20
4680.6491646799996
 30
10.0
  0
VERTEX
  5
DA6
  8
CLUSTERS
 10
632.01525054499984
 20
4680.7169496099978
 30
10.0
  0
VERTEX
  5
DA7
  8
CLUSTERS
 10
632.06712722899999
 20
4680.7494033399998
 30
10.0
  0
VERTEX
  5
DA8
  8
CLUSTERS
 10
632.035440075
 20
4680.8496420000001
 30
10.0
  0
VERTEX
  5
DA9
  8
CLUSTERS
 10
632.11546840999995
 20
4680.9240755500014
 30
10.0
  0
VERTEX
  5
DAA
  8
CLUSTERS
 10
632.21568627500005
 20
4680.8840811199998
 30
10.0
  0
VERTEX
  5
DAB
  8
CLUSTERS
 10
632.25225319100002
 20
4680.8496420000001
 30
10.0
  0
VERTEX
  5
DAC
  8
CLUSTERS
 10
632.23934267100003
 20
4680.7494033399998
 30
10.0
  0
VERTEX
  5
DAD
  8
CLUSTERS
 10
632.31590413900005
 20
4680.7180822399996
 30
10.0
  0
VERTEX
  5
DAE
  8
CLUSTERS
 10
632.37931186699996
 20
4680.6491646799996
 30
10.0
  0
VERTEX
  5
DAF
  8
CLUSTERS
 10
632.37710810999999
 20
4680.5489260100012
 30
10.0
  0
VERTEX
  5
DB0
  8
CLUSTERS
 10
632.40484445299978
 20
4680.44868735
 30
10.0
  0
VERTEX
  5
DB1
  8
CLUSTERS
 10
632.41612200400004
 20
4680.4155419199997
 30
10.0
  0
VERTEX
  5
DB2
  8
CLUSTERS
 10
632.45444827599999
 20
4680.3484486899997
 30
10.0
  0
VERTEX
  5
DB3
  8
CLUSTERS
 10
632.41612200400004
 20
4680.303272029998
 30
10.0
  0
VERTEX
  5
DB4
  8
CLUSTERS
 10
632.40450852900005
 20
4680.2482100200023
 30
10.0
  0
VERTEX
  5
DB5
  8
CLUSTERS
 10
632.31590413900005
 20
4680.1556185400004
 30
10.0
  0
VERTEX
  5
DB6
  8
CLUSTERS
 10
632.26286546499989
 20
4680.1479713600002
 30
10.0
  0
VERTEX
  5
DB7
  8
CLUSTERS
 10
632.21568627500005
 20
4680.1176149599987
 30
10.0
  0
VERTEX
  5
DB8
  8
CLUSTERS
 10
632.11546840999995
 20
4680.1286444999978
 30
10.0
  0
VERTEX
  5
DB9
  8
CLUSTERS
 10
632.08676180500004
 20
4680.1479713600002
 30
10.0
  0
VERTEX
  5
DBA
  8
CLUSTERS
 10
632.01525054499984
 20
4680.1689662400013
 30
10.0
  0
VERTEX
  5
DBB
  8
CLUSTERS
 10
631.91503267999985
 20
4680.1493709200004
 30
10.0
  0
VERTEX
  5
DBC
  8
CLUSTERS
 10
631.81481481499975
 20
4680.1490694100003
 30
10.0
  0
VERTEX
  5
DBD
  8
CLUSTERS
 10
631.77304356699995
 20
4680.1479713600002
 30
10.0
  0
VERTEX
  5
DBE
  8
CLUSTERS
 10
631.71459694999999
 20
4680.1019337999978
 30
10.0
  0
VERTEX
  5
DBF
  8
CLUSTERS
 10
631.68515990100002
 20
4680.0477326999999
 30
10.0
  0
VERTEX
  5
DC0
  8
CLUSTERS
 10
631.61437908499988
 20
4679.9857095199986
 30
10.0
  0
VERTEX
  5
DC1
  8
CLUSTERS
 10
631.52062927300005
 20
4680.0477326999999
 30
10.0
  0
SEQEND
  5
DC2
  8
CLUSTERS
  0
POLYLINE
  5
5C
  8
CLUSTERS
 66
     1
 10
0.0
 20
0.0
 30
10.0
 70
   129
  0
VERTEX
  5
DC3
  8
CLUSTERS
 10
628.83017150900002
 20
4679.8472553700003
 30
10.0
  0
VERTEX
  5
DC4
  8
CLUSTERS
 10
628.80827886700001
 20
4679.8526859000012
 30
10.0
  0
VERTEX
  5
DC5
  8
CLUSTERS
 10
628.71710117299995
 20
4679.9474940299988
 30
10.0
  0
VERTEX
  5
DC6
  8
CLUSTERS
 10
628.72220030099993
 20
4680.0477326999999
 30
10.0
  0
VERTEX
  5
DC7
  8
CLUSTERS
 10
628.70806100200002
 20
4680.0483920400002
 30
10.0
  0
VERTEX
  5
DC8
  8
CLUSTERS
 10
628.60784313699992
 20
4680.0651000500002
 30
10.0
  0
VERTEX
  5
DC9
  8
CLUSTERS
 10
628.52773833900005
 20
4680.1479713600002
 30
10.0
  0
VERTEX
  5
DCA
  8
CLUSTERS
 10
628.523446197
 20
4680.2482100200023
 30
10.0
  0
VERTEX
  5
DCB
  8
CLUSTERS
 10
628.60784313699992
 20
4680.3346612399991
 30
10.0
  0
VERTEX
  5
DCC
  8
CLUSTERS
 10
628.70806100200002
 20
4680.34597794
 30
10.0
  0
VERTEX
  5
DCD
  8
CLUSTERS
 10
628.80827886700001
 20
4680.3352492000004
 30
10.0
  0
VERTEX
  5
DCE
  8
CLUSTERS
 10
628.89633612399984
 20
4680.2482100200023
 30
10.0
  0
VERTEX
  5
DCF
  8
CLUSTERS
 10
628.90849673199989
 20
4680.2317376000001
 30
10.0
  0
VERTEX
  5
DD0
  8
CLUSTERS
 10
629.00871459699999
 20
4680.2458668799991
 30
10.0
  0
VERTEX
  5
DD1
  8
CLUSTERS
 10
629.01114552900003
 20
4680.2482100200023
 30
10.0
  0
VERTEX
  5
DD2
  8
CLUSTERS
 10
629.00871459699999
 20
4680.2575663799989
 30
10.0
  0
VERTEX
  5
DD3
  8
CLUSTERS
 10
628.97417628300002
 20
4680.3484486899997
 30
10.0
  0
VERTEX
  5
DD4
  8
CLUSTERS
 10
628.90849673199989
 20
4680.415759819999
 30
10.0
  0
VERTEX
  5
DD5
  8
CLUSTERS
 10
628.87750374799975
 20
4680.44868735
 30
10.0
  0
VERTEX
  5
DD6
  8
CLUSTERS
 10
628.88360365199992
 20
4680.5489260100012
 30
10.0
  0
VERTEX
  5
DD7
  8
CLUSTERS
 10
628.80849607300001
 20
4680.6491646799996
 30
10.0
  0
VERTEX
  5
DD8
  8
CLUSTERS
 10
628.80827886700001
 20
4680.6779989400011
 30
10.0
  0
VERTEX
  5
DD9
  8
CLUSTERS
 10
628.78970816000003
 20
4680.7494033399998
 30
10.0
  0
VERTEX
  5
DDA
  8
CLUSTERS
 10
628.80827886700001
 20
4680.7689761399997
 30
10.0
  0
VERTEX
  5
DDB
  8
CLUSTERS
 10
628.90849673199989
 20
4680.8454891499996
 30
10.0
  0
VERTEX
  5
DDC
  8
CLUSTERS
 10
629.00871459699999
 20
4680.8444788099996
 30
10.0
  0
VERTEX
  5
DDD
  8
CLUSTERS
 10
629.10893246199976
 20
4680.8101768999977
 30
10.0
  0
VERTEX
  5
DDE
  8
CLUSTERS
 10
629.16768968899999
 20
4680.7494033399998
 30
10.0
  0
VERTEX
  5
DDF
  8
CLUSTERS
 10
629.20100316100002
 20
4680.6491646799996
 30
10.0
  0
VERTEX
  5
DE0
  8
CLUSTERS
 10
629.10893246199976
 20
4680.5518111299989
 30
10.0
  0
VERTEX
  5
DE1
  8
CLUSTERS
 10
629.07743894099997
 20
4680.5489260100012
 30
10.0
  0
VERTEX
  5
DE2
  8
CLUSTERS
 10
629.00871459699999
 20
4680.4950356400004
 30
10.0
  0
VERTEX
  5
DE3
  8
CLUSTERS
 10
628.95335350699975
 20
4680.44868735
 30
10.0
  0
VERTEX
  5
DE4
  8
CLUSTERS
 10
629.00871459699999
 20
4680.3951126600023
 30
10.0
  0
VERTEX
  5
DE5
  8
CLUSTERS
 10
629.10893246199976
 20
4680.4306238099989
 30
10.0
  0
VERTEX
  5
DE6
  8
CLUSTERS
 10
629.20915032699986
 20
4680.3584841600004
 30
10.0
  0
VERTEX
  5
DE7
  8
CLUSTERS
 10
629.21858237900005
 20
4680.3484486899997
 30
10.0
  0
VERTEX
  5
DE8
  8
CLUSTERS
 10
629.20915032699986
 20
4680.3130145200003
 30
10.0
  0
VERTEX
  5
DE9
  8
CLUSTERS
 10
629.19992979800008
 20
4680.2482100200023
 30
10.0
  0
VERTEX
  5
DEA
  8
CLUSTERS
 10
629.10893246199976
 20
4680.1669653199979
 30
10.0
  0
VERTEX
  5
DEB
  8
CLUSTERS
 10
629.09051879399988
 20
4680.1479713600002
 30
10.0
  0
VERTEX
  5
DEC
  8
CLUSTERS
 10
629.10893246199976
 20
4680.1233148900001
 30
10.0
  0
VERTEX
  5
DED
  8
CLUSTERS
 10
629.17125290499985
 20
4680.0477326999999
 30
10.0
  0
VERTEX
  5
DEE
  8
CLUSTERS
 10
629.20139752199975
 20
4679.9474940299988
 30
10.0
  0
VERTEX
  5
DEF
  8
CLUSTERS
 10
629.15177644799996
 20
4679.8472553700003
 30
10.0
  0
VERTEX
  5
DF0
  8
CLUSTERS
 10
629.10893246199976
 20
4679.8037149399988
 30
10.0
  0
VERTEX
  5
DF1
  8
CLUSTERS
 10
629.00871459699999
 20
4679.7588675699999
 30
10.0
  0
VERTEX
  5
DF2
  8
CLUSTERS
 10
628.90849673199989
 20
4679.78096869
 30
10.0
  0
VERTEX
  5
DF3
  8
CLUSTERS
 10
628.83017150900002
 20
4679.8472553700003
 30
10.0
  0
SEQEND
  5
DF4
  8
CLUSTERS
  0
POLYLINE
  5
5D
  8
CLUSTERS
 66
     1
 10
0.0
 20
0.0
 30
10.0
 70
   129
  0
VERTEX
  5
DF5
  8
CLUSTERS
 10
661.58917904299994
 20
4678.8448687399978
 30
10.0
  0
VERTEX
  5
DF6
  8
CLUSTERS
 10
661.57952069700002
 20
4678.9005023399986
 30
10.0
  0
VERTEX
  5
DF7
  8
CLUSTERS
 10
661.54133228000001
 20
4678.945107399999
 30
10.0
  0
VERTEX
  5
DF8
  8
CLUSTERS
 10
661.47930283199992
 20
4678.9500447600003
 30
10.0
  0
VERTEX
  5
DF9
  8
CLUSTERS
 10
661.38212234000002
 20
4679.0453460600002
 30
10.0
  0
VERTEX
  5
DFA
  8
CLUSTERS
 10
661.47930283199992
 20
4679.1407011499978
 30
10.0
  0
VERTEX
  5
DFB
  8
CLUSTERS
 10
661.57952069700002
 20
4679.1391138699992
 30
10.0
  0
VERTEX
  5
DFC
  8
CLUSTERS
 10
661.67591039499985
 20
4679.0453460600002
 30
10.0
  0
VERTEX
  5
DFD
  8
CLUSTERS
 10
661.6797385619999
 20
4679.0441926800013
 30
10.0
  0
VERTEX
  5
DFE
  8
CLUSTERS
 10
661.779956427
 20
4679.0427074400004
 30
10.0
  0
VERTEX
  5
DFF
  8
CLUSTERS
 10
661.87685871300005
 20
4678.945107399999
 30
10.0
  0
VERTEX
  5
E00
  8
CLUSTERS
 10
661.85700362800003
 20
4678.8448687399978
 30
10.0
  0
VERTEX
  5
E01
  8
CLUSTERS
 10
661.779956427
 20
4678.7678018300012
 30
10.0
  0
VERTEX
  5
E02
  8
CLUSTERS
 10
661.6797385619999
 20
4678.758101129999
 30
10.0
  0
VERTEX
  5
E03
  8
CLUSTERS
 10
661.58917904299994
 20
4678.8448687399978
 30
10.0
  0
SEQEND
  5
E04
  8
CLUSTERS
  0
POLYLINE
  5
5E
  8
CLUSTERS
 66
     1
 10
0.0
 20
0.0
 30
10.0
 70
   129
  0
VERTEX
  5
E05
  8
CLUSTERS
 10
652.76045958099985
 20
4678.8448687399978
 30
10.0
  0
VERTEX
  5
E06
  8
CLUSTERS
 10
652.76034858399998
 20
4678.8449057099997
 30
10.0
  0
VERTEX
  5
E07
  8
CLUSTERS
 10
652.72023974699994
 20
4678.945107399999
 30
10.0
  0
VERTEX
  5
E08
  8
CLUSTERS
 10
652.76034858399998
 20
4678.9827310399978
 30
10.0
  0
VERTEX
  5
E09
  8
CLUSTERS
 10
652.80207238399998
 20
4679.0453460600002
 30
10.0
  0
VERTEX
  5
E0A
  8
CLUSTERS
 10
652.86056644899975
 20
4679.1192574699999
 30
10.0
  0
VERTEX
  5
E0B
  8
CLUSTERS
 10
652.88553443699993
 20
4679.1455847300003
 30
10.0
  0
VERTEX
  5
E0C
  8
CLUSTERS
 10
652.96078431399985
 20
4679.2059469200003
 30
10.0
  0
VERTEX
  5
E0D
  8
CLUSTERS
 10
652.96571666299997
 20
4679.2458233899997
 30
10.0
  0
VERTEX
  5
E0E
  8
CLUSTERS
 10
653.06100217900007
 20
4679.3411178999986
 30
10.0
  0
VERTEX
  5
E0F
  8
CLUSTERS
 10
653.16122004399995
 20
4679.3222383399998
 30
10.0
  0
VERTEX
  5
E10
  8
CLUSTERS
 10
653.25288358899991
 20
4679.2458233899997
 30
10.0
  0
VERTEX
  5
E11
  8
CLUSTERS
 10
653.26143790799995
 20
4679.2159305100004
 30
10.0
  0
VERTEX
  5
E12
  8
CLUSTERS
 10
653.30286383700002
 20
4679.1455847300003
 30
10.0
  0
VERTEX
  5
E13
  8
CLUSTERS
 10
653.36165577300005
 20
4679.1233314700003
 30
10.0
  0
VERTEX
  5
E14
  8
CLUSTERS
 10
653.43960442399998
 20
4679.0453460600002
 30
10.0
  0
VERTEX
  5
E15
  8
CLUSTERS
 10
653.39034135199995
 20
4678.945107399999
 30
10.0
  0
VERTEX
  5
E16
  8
CLUSTERS
 10
653.36165577300005
 20
4678.9164394999998
 30
10.0
  0
VERTEX
  5
E17
  8
CLUSTERS
 10
653.26143790799995
 20
4678.8676360999998
 30
10.0
  0
VERTEX
  5
E18
  8
CLUSTERS
 10
653.16122004399995
 20
4678.8726765499987
 30
10.0
  0
VERTEX
  5
E19
  8
CLUSTERS
 10
653.08216140100001
 20
4678.945107399999
 30
10.0
  0
VERTEX
  5
E1A
  8
CLUSTERS
 10
653.06100217900007
 20
4678.9539456499997
 30
10.0
  0
VERTEX
  5
E1B
  8
CLUSTERS
 10
652.96078431399985
 20
4678.9522229499999
 30
10.0
  0
VERTEX
  5
E1C
  8
CLUSTERS
 10
652.95539524799995
 20
4678.945107399999
 30
10.0
  0
VERTEX
  5
E1D
  8
CLUSTERS
 10
652.87725757700002
 20
4678.8448687399978
 30
10.0
  0
VERTEX
  5
E1E
  8
CLUSTERS
 10
652.86056644899975
 20
4678.8281796399988
 30
10.0
  0
VERTEX
  5
E1F
  8
CLUSTERS
 10
652.76045958099985
 20
4678.8448687399978
 30
10.0
  0
SEQEND
  5
E20
  8
CLUSTERS
  0
POLYLINE
  5
5F
  8
CLUSTERS
 66
     1
 10
0.0
 20
0.0
 30
10.0
 70
   129
  0
VERTEX
  5
E21
  8
CLUSTERS
 10
643.85635749300002
 20
4676.3389021499988
 30
10.0
  0
VERTEX
  5
E22
  8
CLUSTERS
 10
643.86583757400001
 20
4676.43914081
 30
10.0
  0
VERTEX
  5
E23
  8
CLUSTERS
 10
643.84419990599997
 20
4676.5393794700003
 30
10.0
  0
VERTEX
  5
E24
  8
CLUSTERS
 10
643.85963166099987
 20
4676.6396181399996
 30
10.0
  0
VERTEX
  5
E25
  8
CLUSTERS
 10
643.88407709199976
 20
4676.7398568000008
 30
10.0
  0
VERTEX
  5
E26
  8
CLUSTERS
 10
643.88259959800007
 20
4676.8400954700001
 30
10.0
  0
VERTEX
  5
E27
  8
CLUSTERS
 10
643.94117647099995
 20
4676.9012384899997
 30
10.0
  0
VERTEX
  5
E28
  8
CLUSTERS
 10
644.04139433599994
 20
4676.8788065199997
 30
10.0
  0
VERTEX
  5
E29
  8
CLUSTERS
 10
644.08091700699993
 20
4676.8400954700001
 30
10.0
  0
VERTEX
  5
E2A
  8
CLUSTERS
 10
644.14161220000005
 20
4676.8386620600004
 30
10.0
  0
VERTEX
  5
E2B
  8
CLUSTERS
 10
644.24183006500004
 20
4676.8203457199988
 30
10.0
  0
VERTEX
  5
E2C
  8
CLUSTERS
 10
644.32220407499995
 20
4676.7398568000008
 30
10.0
  0
VERTEX
  5
E2D
  8
CLUSTERS
 10
644.24581054199996
 20
4676.6396181399996
 30
10.0
  0
VERTEX
  5
E2E
  8
CLUSTERS
 10
644.24183006500004
 20
4676.6355662100004
 30
10.0
  0
VERTEX
  5
E2F
  8
CLUSTERS
 10
644.23841383199999
 20
4676.5393794700003
 30
10.0
  0
VERTEX
  5
E30
  8
CLUSTERS
 10
644.14161220000005
 20
4676.4425683999971
 30
10.0
  0
VERTEX
  5
E31
  8
CLUSTERS
 10
644.12306505699985
 20
4676.43914081
 30
10.0
  0
VERTEX
  5
E32
  8
CLUSTERS
 10
644.12123546199985
 20
4676.3389021499988
 30
10.0
  0
VERTEX
  5
E33
  8
CLUSTERS
 10
644.04139433599994
 20
4676.2590892999988
 30
10.0
  0
VERTEX
  5
E34
  8
CLUSTERS
 10
643.94117647099995
 20
4676.2540730700002
 30
10.0
  0
VERTEX
  5
E35
  8
CLUSTERS
 10
643.85635749300002
 20
4676.3389021499988
 30
10.0
  0
SEQEND
  5
E36
  8
CLUSTERS
  0
POLYLINE
  5
60
  8
CLUSTERS
 66
     1
 10
0.0
 20
0.0
 30
10.0
 70
   129
  0
VERTEX
  5
E37
  8
CLUSTERS
 10
652.26921878999985
 20
4675.8377088300003
 30
10.0
  0
VERTEX
  5
E38
  8
CLUSTERS
 10
652.25925925900003
 20
4675.8546096699993
 30
10.0
  0
VERTEX
  5
E39
  8
CLUSTERS
 10
652.17603047599994
 20
4675.9379474899997
 30
10.0
  0
VERTEX
  5
E3A
  8
CLUSTERS
 10
652.17035664100001
 20
4676.0381861599999
 30
10.0
  0
VERTEX
  5
E3B
  8
CLUSTERS
 10
652.21750106399975
 20
4676.1384248200002
 30
10.0
  0
VERTEX
  5
E3C
  8
CLUSTERS
 10
652.25925925900003
 20
4676.1802066500004
 30
10.0
  0
VERTEX
  5
E3D
  8
CLUSTERS
 10
652.30918774799977
 20
4676.2386634799977
 30
10.0
  0
VERTEX
  5
E3E
  8
CLUSTERS
 10
652.35947712399991
 20
4676.2944595199997
 30
10.0
  0
VERTEX
  5
E3F
  8
CLUSTERS
 10
652.44308336300003
 20
4676.2386634799977
 30
10.0
  0
VERTEX
  5
E40
  8
CLUSTERS
 10
652.45969498900001
 20
4676.1403574899978
 30
10.0
  0
VERTEX
  5
E41
  8
CLUSTERS
 10
652.46008640299988
 20
4676.1384248200002
 30
10.0
  0
VERTEX
  5
E42
  8
CLUSTERS
 10
652.45969498900001
 20
4676.1379821999999
 30
10.0
  0
VERTEX
  5
E43
  8
CLUSTERS
 10
652.45429807799997
 20
4676.0381861599999
 30
10.0
  0
VERTEX
  5
E44
  8
CLUSTERS
 10
652.45969498900001
 20
4675.970420579999
 30
10.0
  0
VERTEX
  5
E45
  8
CLUSTERS
 10
652.489547926
 20
4675.9379474899997
 30
10.0
  0
VERTEX
  5
E46
  8
CLUSTERS
 10
652.45969498900001
 20
4675.9079156099979
 30
10.0
  0
VERTEX
  5
E47
  8
CLUSTERS
 10
652.44966280099993
 20
4675.8377088300003
 30
10.0
  0
VERTEX
  5
E48
  8
CLUSTERS
 10
652.35947712399991
 20
4675.7475532199987
 30
10.0
  0
VERTEX
  5
E49
  8
CLUSTERS
 10
652.26921878999985
 20
4675.8377088300003
 30
10.0
  0
SEQEND
  5
E4A
  8
CLUSTERS
  0
POLYLINE
  5
61
  8
CLUSTERS
 66
     1
 10
0.0
 20
0.0
 30
10.0
 70
   129
  0
VERTEX
  5
E4B
  8
CLUSTERS
 10
631.015447967
 20
4674.1336515499997
 30
10.0
  0
VERTEX
  5
E4C
  8
CLUSTERS
 10
631.02306171199984
 20
4674.23389021
 30
10.0
  0
VERTEX
  5
E4D
  8
CLUSTERS
 10
631.11328976000004
 20
4674.3261963799996
 30
10.0
  0
VERTEX
  5
E4E
  8
CLUSTERS
 10
631.13038195499985
 20
4674.3341288800002
 30
10.0
  0
VERTEX
  5
E4F
  8
CLUSTERS
 10
631.21350762500003
 20
4674.4126124599998
 30
10.0
  0
VERTEX
  5
E50
  8
CLUSTERS
 10
631.3137254899998
 20
4674.3978611499997
 30
10.0
  0
VERTEX
  5
E51
  8
CLUSTERS
 10
631.38490076400001
 20
4674.3341288800002
 30
10.0
  0
VERTEX
  5
E52
  8
CLUSTERS
 10
631.41394335500001
 20
4674.2378595600003
 30
10.0
  0
VERTEX
  5
E53
  8
CLUSTERS
 10
631.46888641899977
 20
4674.3341288800002
 30
10.0
  0
VERTEX
  5
E54
  8
CLUSTERS
 10
631.51416122000001
 20
4674.3688422699979
 30
10.0
  0
VERTEX
  5
E55
  8
CLUSTERS
 10
631.61437908499988
 20
4674.3952984099997
 30
10.0
  0
VERTEX
  5
E56
  8
CLUSTERS
 10
631.68116009599999
 20
4674.3341288800002
 30
10.0
  0
VERTEX
  5
E57
  8
CLUSTERS
 10
631.69163820899985
 20
4674.23389021
 30
10.0
  0
VERTEX
  5
E58
  8
CLUSTERS
 10
631.61437908499988
 20
4674.1624906799989
 30
10.0
  0
VERTEX
  5
E59
  8
CLUSTERS
 10
631.51416122000001
 20
4674.1476380699987
 30
10.0
  0
VERTEX
  5
E5A
  8
CLUSTERS
 10
631.41394335500001
 20
4674.2311877599986
 30
10.0
  0
VERTEX
  5
E5B
  8
CLUSTERS
 10
631.3137254899998
 20
4674.1368316899998
 30
10.0
  0
VERTEX
  5
E5C
  8
CLUSTERS
 10
631.30669345399997
 20
4674.1336515499997
 30
10.0
  0
VERTEX
  5
E5D
  8
CLUSTERS
 10
631.21350762500003
 20
4674.0535302099997
 30
10.0
  0
VERTEX
  5
E5E
  8
CLUSTERS
 10
631.11328976000004
 20
4674.0538436200013
 30
10.0
  0
VERTEX
  5
E5F
  8
CLUSTERS
 10
631.015447967
 20
4674.1336515499997
 30
10.0
  0
SEQEND
  5
E60
  8
CLUSTERS
  0
POLYLINE
  5
62
  8
CLUSTERS
 66
     1
 10
0.0
 20
0.0
 30
10.0
 70
   129
  0
VERTEX
  5
E61
  8
CLUSTERS
 10
659.46256321400006
 20
4674.0334128900004
 30
10.0
  0
VERTEX
  5
E62
  8
CLUSTERS
 10
659.43184404199985
 20
4674.1336515499997
 30
10.0
  0
VERTEX
  5
E63
  8
CLUSTERS
 10
659.43441423000002
 20
4674.23389021
 30
10.0
  0
VERTEX
  5
E64
  8
CLUSTERS
 10
659.40385982299995
 20
4674.3341288800002
 30
10.0
  0
VERTEX
  5
E65
  8
CLUSTERS
 10
659.47494553399974
 20
4674.40452078
 30
10.0
  0
VERTEX
  5
E66
  8
CLUSTERS
 10
659.56944007499999
 20
4674.3341288800002
 30
10.0
  0
VERTEX
  5
E67
  8
CLUSTERS
 10
659.51975816499987
 20
4674.23389021
 30
10.0
  0
VERTEX
  5
E68
  8
CLUSTERS
 10
659.51712095900007
 20
4674.1336515499997
 30
10.0
  0
VERTEX
  5
E69
  8
CLUSTERS
 10
659.487069787
 20
4674.0334128900004
 30
10.0
  0
VERTEX
  5
E6A
  8
CLUSTERS
 10
659.47494553399974
 20
4674.0212920999993
 30
10.0
  0
VERTEX
  5
E6B
  8
CLUSTERS
 10
659.46256321400006
 20
4674.0334128900004
 30
10.0
  0
SEQEND
  5
E6C
  8
CLUSTERS
  0
POLYLINE
  5
63
  8
CLUSTERS
 66
     1
 10
0.0
 20
0.0
 30
10.0
 70
   129
  0
VERTEX
  5
E6D
  8
CLUSTERS
 10
651.58752143599997
 20
4673.9331742200002
 30
10.0
  0
VERTEX
  5
E6E
  8
CLUSTERS
 10
651.57579562800004
 20
4674.0334128900004
 30
10.0
  0
VERTEX
  5
E6F
  8
CLUSTERS
 10
651.55773420499997
 20
4674.0587127899989
 30
10.0
  0
VERTEX
  5
E70
  8
CLUSTERS
 10
651.48288675900005
 20
4674.1336515499997
 30
10.0
  0
VERTEX
  5
E71
  8
CLUSTERS
 10
651.45751633999987
 20
4674.1435425500013
 30
10.0
  0
VERTEX
  5
E72
  8
CLUSTERS
 10
651.35729847499977
 20
4674.199890609998
 30
10.0
  0
VERTEX
  5
E73
  8
CLUSTERS
 10
651.32340316699992
 20
4674.23389021
 30
10.0
  0
VERTEX
  5
E74
  8
CLUSTERS
 10
651.35729847499977
 20
4674.2678915899978
 30
10.0
  0
VERTEX
  5
E75
  8
CLUSTERS
 10
651.45751633999987
 20
4674.3243216399987
 30
10.0
  0
VERTEX
  5
E76
  8
CLUSTERS
 10
651.55773420499997
 20
4674.3314063400012
 30
10.0
  0
VERTEX
  5
E77
  8
CLUSTERS
 10
651.65795206999985
 20
4674.3319288900002
 30
10.0
  0
VERTEX
  5
E78
  8
CLUSTERS
 10
651.75816993499996
 20
4674.3287830700001
 30
10.0
  0
VERTEX
  5
E79
  8
CLUSTERS
 10
651.85290977399995
 20
4674.23389021
 30
10.0
  0
VERTEX
  5
E7A
  8
CLUSTERS
 10
651.85554196800001
 20
4674.1336515499997
 30
10.0
  0
VERTEX
  5
E7B
  8
CLUSTERS
 10
651.75816993499996
 20
4674.0348029300003
 30
10.0
  0
VERTEX
  5
E7C
  8
CLUSTERS
 10
651.74862396100002
 20
4674.0334128900004
 30
10.0
  0
VERTEX
  5
E7D
  8
CLUSTERS
 10
651.73600511099994
 20
4673.9331742200002
 30
10.0
  0
VERTEX
  5
E7E
  8
CLUSTERS
 10
651.65795206999985
 20
4673.8651753100003
 30
10.0
  0
VERTEX
  5
E7F
  8
CLUSTERS
 10
651.58752143599997
 20
4673.9331742200002
 30
10.0
  0
SEQEND
  5
E80
  8
CLUSTERS
  0
POLYLINE
  5
64
  8
CLUSTERS
 66
     1
 10
0.0
 20
0.0
 30
10.0
 70
   129
  0
VERTEX
  5
E81
  8
CLUSTERS
 10
650.98921868599996
 20
4673.9331742200002
 30
10.0
  0
VERTEX
  5
E82
  8
CLUSTERS
 10
650.98190891699994
 20
4674.0334128900004
 30
10.0
  0
VERTEX
  5
E83
  8
CLUSTERS
 10
651.05664488000002
 20
4674.10819249
 30
10.0
  0
VERTEX
  5
E84
  8
CLUSTERS
 10
651.1568627449999
 20
4674.1142257600004
 30
10.0
  0
VERTEX
  5
E85
  8
CLUSTERS
 10
651.23769556699995
 20
4674.0334128900004
 30
10.0
  0
VERTEX
  5
E86
  8
CLUSTERS
 10
651.24035965199994
 20
4673.9331742200002
 30
10.0
  0
VERTEX
  5
E87
  8
CLUSTERS
 10
651.1568627449999
 20
4673.8428021700001
 30
10.0
  0
VERTEX
  5
E88
  8
CLUSTERS
 10
651.05664488000002
 20
4673.8627321599988
 30
10.0
  0
VERTEX
  5
E89
  8
CLUSTERS
 10
650.98921868599996
 20
4673.9331742200002
 30
10.0
  0
SEQEND
  5
E8A
  8
CLUSTERS
  0
POLYLINE
  5
65
  8
CLUSTERS
 66
     1
 10
0.0
 20
0.0
 30
10.0
 70
   129
  0
VERTEX
  5
E8B
  8
CLUSTERS
 10
650.99531584299996
 20
4673.3317422399996
 30
10.0
  0
VERTEX
  5
E8C
  8
CLUSTERS
 10
650.95642701500003
 20
4673.3416474899996
 30
10.0
  0
VERTEX
  5
E8D
  8
CLUSTERS
 10
650.85620915000004
 20
4673.3597976700003
 30
10.0
  0
VERTEX
  5
E8E
  8
CLUSTERS
 10
650.78411448099985
 20
4673.4319809099998
 30
10.0
  0
VERTEX
  5
E8F
  8
CLUSTERS
 10
650.80924241199989
 20
4673.5322195700001
 30
10.0
  0
VERTEX
  5
E90
  8
CLUSTERS
 10
650.772873366
 20
4673.6324582300012
 30
10.0
  0
VERTEX
  5
E91
  8
CLUSTERS
 10
650.85620915000004
 20
4673.7161958899987
 30
10.0
  0
VERTEX
  5
E92
  8
CLUSTERS
 10
650.95642701500003
 20
4673.7240538200003
 30
10.0
  0
VERTEX
  5
E93
  8
CLUSTERS
 10
650.96768174099986
 20
4673.7326968999987
 30
10.0
  0
VERTEX
  5
E94
  8
CLUSTERS
 10
651.05664488000002
 20
4673.8210098600002
 30
10.0
  0
VERTEX
  5
E95
  8
CLUSTERS
 10
651.1568627449999
 20
4673.8325212899999
 30
10.0
  0
VERTEX
  5
E96
  8
CLUSTERS
 10
651.25708061
 20
4673.8328013299988
 30
10.0
  0
VERTEX
  5
E97
  8
CLUSTERS
 10
651.35729847499977
 20
4673.83230774
 30
10.0
  0
VERTEX
  5
E98
  8
CLUSTERS
 10
651.45671156200001
 20
4673.7326968999987
 30
10.0
  0
VERTEX
  5
E99
  8
CLUSTERS
 10
651.45710858999996
 20
4673.6324582300012
 30
10.0
  0
VERTEX
  5
E9A
  8
CLUSTERS
 10
651.35729847499977
 20
4673.5325394800002
 30
10.0
  0
VERTEX
  5
E9B
  8
CLUSTERS
 10
651.35691869899995
 20
4673.5322195700001
 30
10.0
  0
VERTEX
  5
E9C
  8
CLUSTERS
 10
651.35001095899975
 20
4673.4319809099998
 30
10.0
  0
VERTEX
  5
E9D
  8
CLUSTERS
 10
651.25708061
 20
4673.3392439600002
 30
10.0
  0
VERTEX
  5
E9E
  8
CLUSTERS
 10
651.1568627449999
 20
4673.3322799099988
 30
10.0
  0
VERTEX
  5
E9F
  8
CLUSTERS
 10
651.12636377399986
 20
4673.3317422399996
 30
10.0
  0
VERTEX
  5
EA0
  8
CLUSTERS
 10
651.05664488000002
 20
4673.2712023699978
 30
10.0
  0
VERTEX
  5
EA1
  8
CLUSTERS
 10
650.99531584299996
 20
4673.3317422399996
 30
10.0
  0
SEQEND
  5
EA2
  8
CLUSTERS
  0
POLYLINE
  5
66
  8
CLUSTERS
 66
     1
 10
0.0
 20
0.0
 30
10.0
 70
   129
  0
VERTEX
  5
EA3
  8
CLUSTERS
 10
641.23927660000004
 20
4672.8305489300001
 30
10.0
  0
VERTEX
  5
EA4
  8
CLUSTERS
 10
641.24521642900004
 20
4672.9307875900004
 30
10.0
  0
VERTEX
  5
EA5
  8
CLUSTERS
 10
641.33551198300006
 20
4673.02643145
 30
10.0
  0
VERTEX
  5
EA6
  8
CLUSTERS
 10
641.34227708799995
 20
4673.0310262499997
 30
10.0
  0
VERTEX
  5
EA7
  8
CLUSTERS
 10
641.43572984699995
 20
4673.117193
 30
10.0
  0
VERTEX
  5
EA8
  8
CLUSTERS
 10
641.52186692299995
 20
4673.0310262499997
 30
10.0
  0
VERTEX
  5
EA9
  8
CLUSTERS
 10
641.50252148699985
 20
4672.9307875900004
 30
10.0
  0
VERTEX
  5
EAA
  8
CLUSTERS
 10
641.52558815899999
 20
4672.8305489300001
 30
10.0
  0
VERTEX
  5
EAB
  8
CLUSTERS
 10
641.43572984699995
 20
4672.7409814599978
 30
10.0
  0
VERTEX
  5
EAC
  8
CLUSTERS
 10
641.33551198300006
 20
4672.7352871800003
 30
10.0
  0
VERTEX
  5
EAD
  8
CLUSTERS
 10
641.23927660000004
 20
4672.8305489300001
 30
10.0
  0
SEQEND
  5
EAE
  8
CLUSTERS
  0
POLYLINE
  5
67
  8
CLUSTERS
 66
     1
 10
0.0
 20
0.0
 30
10.0
 70
   129
  0
VERTEX
  5
EAF
  8
CLUSTERS
 10
634.45359606599993
 20
4672.2291169500004
 30
10.0
  0
VERTEX
  5
EB0
  8
CLUSTERS
 10
634.422116448
 20
4672.3293556099989
 30
10.0
  0
VERTEX
  5
EB1
  8
CLUSTERS
 10
634.42074908899986
 20
4672.4295942700001
 30
10.0
  0
VERTEX
  5
EB2
  8
CLUSTERS
 10
634.42130343300005
 20
4672.5298329400002
 30
10.0
  0
VERTEX
  5
EB3
  8
CLUSTERS
 10
634.42047930299998
 20
4672.5474931600002
 30
10.0
  0
VERTEX
  5
EB4
  8
CLUSTERS
 10
634.35569187099998
 20
4672.6300715999987
 30
10.0
  0
VERTEX
  5
EB5
  8
CLUSTERS
 10
634.34810840499995
 20
4672.730310259999
 30
10.0
  0
VERTEX
  5
EB6
  8
CLUSTERS
 10
634.42047930299998
 20
4672.8044522299988
 30
10.0
  0
VERTEX
  5
EB7
  8
CLUSTERS
 10
634.52069716799997
 20
4672.8153996700012
 30
10.0
  0
VERTEX
  5
EB8
  8
CLUSTERS
 10
634.62091503299996
 20
4672.8103567300004
 30
10.0
  0
VERTEX
  5
EB9
  8
CLUSTERS
 10
634.72113289800006
 20
4672.7932983299997
 30
10.0
  0
VERTEX
  5
EBA
  8
CLUSTERS
 10
634.78488023900002
 20
4672.730310259999
 30
10.0
  0
VERTEX
  5
EBB
  8
CLUSTERS
 10
634.72113289800006
 20
4672.6335217100004
 30
10.0
  0
VERTEX
  5
EBC
  8
CLUSTERS
 10
634.71808029800002
 20
4672.6300715999987
 30
10.0
  0
VERTEX
  5
EBD
  8
CLUSTERS
 10
634.72113289800006
 20
4672.6287991999989
 30
10.0
  0
VERTEX
  5
EBE
  8
CLUSTERS
 10
634.80734301099994
 20
4672.5298329400002
 30
10.0
  0
VERTEX
  5
EBF
  8
CLUSTERS
 10
634.81495762199995
 20
4672.4295942700001
 30
10.0
  0
VERTEX
  5
EC0
  8
CLUSTERS
 10
634.79085318599994
 20
4672.3293556099989
 30
10.0
  0
VERTEX
  5
EC1
  8
CLUSTERS
 10
634.72113289800006
 20
4672.2555764400004
 30
10.0
  0
VERTEX
  5
EC2
  8
CLUSTERS
 10
634.68471048599997
 20
4672.2291169500004
 30
10.0
  0
VERTEX
  5
EC3
  8
CLUSTERS
 10
634.62091503299996
 20
4672.1741180999998
 30
10.0
  0
VERTEX
  5
EC4
  8
CLUSTERS
 10
634.52069716799997
 20
4672.1635487900003
 30
10.0
  0
VERTEX
  5
EC5
  8
CLUSTERS
 10
634.45359606599993
 20
4672.2291169500004
 30
10.0
  0
SEQEND
  5
EC6
  8
CLUSTERS
  0
POLYLINE
  5
68
  8
CLUSTERS
 66
     1
 10
0.0
 20
0.0
 30
10.0
 70
   129
  0
VERTEX
  5
EC7
  8
CLUSTERS
 10
655.74406049499999
 20
4672.1288782800002
 30
10.0
  0
VERTEX
  5
EC8
  8
CLUSTERS
 10
655.76568372700001
 20
4672.2291169500004
 30
10.0
  0
VERTEX
  5
EC9
  8
CLUSTERS
 10
655.76688453199995
 20
4672.2303253
 30
10.0
  0
VERTEX
  5
ECA
  8
CLUSTERS
 10
655.86710239699994
 20
4672.2834294699996
 30
10.0
  0
VERTEX
  5
ECB
  8
CLUSTERS
 10
655.96732026099994
 20
4672.3093111999997
 30
10.0
  0
VERTEX
  5
ECC
  8
CLUSTERS
 10
656.06753812599993
 20
4672.3119396700013
 30
10.0
  0
VERTEX
  5
ECD
  8
CLUSTERS
 10
656.15505993599993
 20
4672.2291169500004
 30
10.0
  0
VERTEX
  5
ECE
  8
CLUSTERS
 10
656.16775599100004
 20
4672.2228539199996
 30
10.0
  0
VERTEX
  5
ECF
  8
CLUSTERS
 10
656.26797385599991
 20
4672.1663820599997
 30
10.0
  0
VERTEX
  5
ED0
  8
CLUSTERS
 10
656.36819172100002
 20
4672.2170153699999
 30
10.0
  0
VERTEX
  5
ED1
  8
CLUSTERS
 10
656.46840958600001
 20
4672.2198122199979
 30
10.0
  0
VERTEX
  5
ED2
  8
CLUSTERS
 10
656.55825084499975
 20
4672.1288782800002
 30
10.0
  0
VERTEX
  5
ED3
  8
CLUSTERS
 10
656.46840958600001
 20
4672.03712808
 30
10.0
  0
VERTEX
  5
ED4
  8
CLUSTERS
 10
656.36819172100002
 20
4672.0419249899996
 30
10.0
  0
VERTEX
  5
ED5
  8
CLUSTERS
 10
656.26797385599991
 20
4672.09235842
 30
10.0
  0
VERTEX
  5
ED6
  8
CLUSTERS
 10
656.16775599100004
 20
4672.0369886899998
 30
10.0
  0
VERTEX
  5
ED7
  8
CLUSTERS
 10
656.06753812599993
 20
4672.0386058599997
 30
10.0
  0
VERTEX
  5
ED8
  8
CLUSTERS
 10
655.96732026099994
 20
4672.0492543099999
 30
10.0
  0
VERTEX
  5
ED9
  8
CLUSTERS
 10
655.86710239699994
 20
4672.0601101599987
 30
10.0
  0
VERTEX
  5
EDA
  8
CLUSTERS
 10
655.76688453199995
 20
4672.1061622500001
 30
10.0
  0
VERTEX
  5
EDB
  8
CLUSTERS
 10
655.74406049499999
 20
4672.1288782800002
 30
10.0
  0
SEQEND
  5
EDC
  8
CLUSTERS
  0
POLYLINE
  5
69
  8
CLUSTERS
 66
     1
 10
0.0
 20
0.0
 30
10.0
 70
   129
  0
VERTEX
  5
EDD
  8
CLUSTERS
 10
630.83361950699975
 20
4672.1288782800002
 30
10.0
  0
VERTEX
  5
EDE
  8
CLUSTERS
 10
630.81754611500003
 20
4672.2291169500004
 30
10.0
  0
VERTEX
  5
EDF
  8
CLUSTERS
 10
630.81447574000003
 20
4672.3293556099989
 30
10.0
  0
VERTEX
  5
EE0
  8
CLUSTERS
 10
630.85174591099985
 20
4672.4295942700001
 30
10.0
  0
VERTEX
  5
EE1
  8
CLUSTERS
 10
630.91285403099994
 20
4672.4902872800003
 30
10.0
  0
VERTEX
  5
EE2
  8
CLUSTERS
 10
630.93395476499995
 20
4672.5298329400002
 30
10.0
  0
VERTEX
  5
EE3
  8
CLUSTERS
 10
631.01307189500005
 20
4672.62503044
 30
10.0
  0
VERTEX
  5
EE4
  8
CLUSTERS
 10
631.05138671700001
 20
4672.6300715999987
 30
10.0
  0
VERTEX
  5
EE5
  8
CLUSTERS
 10
631.11328976000004
 20
4672.6520906499991
 30
10.0
  0
VERTEX
  5
EE6
  8
CLUSTERS
 10
631.21350762500003
 20
4672.6558056699978
 30
10.0
  0
VERTEX
  5
EE7
  8
CLUSTERS
 10
631.25242849599999
 20
4672.6300715999987
 30
10.0
  0
VERTEX
  5
EE8
  8
CLUSTERS
 10
631.3137254899998
 20
4672.6068984399999
 30
10.0
  0
VERTEX
  5
EE9
  8
CLUSTERS
 10
631.37771625100004
 20
4672.5298329400002
 30
10.0
  0
VERTEX
  5
EEA
  8
CLUSTERS
 10
631.3137254899998
 20
4672.4616500100001
 30
10.0
  0
VERTEX
  5
EEB
  8
CLUSTERS
 10
631.21350762500003
 20
4672.4306046000002
 30
10.0
  0
VERTEX
  5
EEC
  8
CLUSTERS
 10
631.19942137199985
 20
4672.4295942700001
 30
10.0
  0
VERTEX
  5
EED
  8
CLUSTERS
 10
631.21350762500003
 20
4672.41605712
 30
10.0
  0
VERTEX
  5
EEE
  8
CLUSTERS
 10
631.27135307099991
 20
4672.3293556099989
 30
10.0
  0
VERTEX
  5
EEF
  8
CLUSTERS
 10
631.23777998000003
 20
4672.2291169500004
 30
10.0
  0
VERTEX
  5
EF0
  8
CLUSTERS
 10
631.21350762500003
 20
4672.2030939400001
 30
10.0
  0
VERTEX
  5
EF1
  8
CLUSTERS
 10
631.13563059699993
 20
4672.1288782800002
 30
10.0
  0
VERTEX
  5
EF2
  8
CLUSTERS
 10
631.11328976000004
 20
4672.1076936700001
 30
10.0
  0
VERTEX
  5
EF3
  8
CLUSTERS
 10
631.01307189500005
 20
4672.0429933699979
 30
10.0
  0
VERTEX
  5
EF4
  8
CLUSTERS
 10
630.91285403099994
 20
4672.0576278500012
 30
10.0
  0
VERTEX
  5
EF5
  8
CLUSTERS
 10
630.83361950699975
 20
4672.1288782800002
 30
10.0
  0
SEQEND
  5
EF6
  8
CLUSTERS
  0
POLYLINE
  5
6A
  8
CLUSTERS
 66
     1
 10
0.0
 20
0.0
 30
10.0
 70
   129
  0
VERTEX
  5
EF7
  8
CLUSTERS
 10
637.74854555599995
 20
4672.0286396199999
 30
10.0
  0
VERTEX
  5
EF8
  8
CLUSTERS
 10
637.72902486299995
 20
4672.1288782800002
 30
10.0
  0
VERTEX
  5
EF9
  8
CLUSTERS
 10
637.82788671000003
 20
4672.2262142600002
 30
10.0
  0
VERTEX
  5
EFA
  8
CLUSTERS
 10
637.83847130399988
 20
4672.2291169500004
 30
10.0
  0
VERTEX
  5
EFB
  8
CLUSTERS
 10
637.92810457499979
 20
4672.3208749699997
 30
10.0
  0
VERTEX
  5
EFC
  8
CLUSTERS
 10
637.931411013
 20
4672.3293556099989
 30
10.0
  0
VERTEX
  5
EFD
  8
CLUSTERS
 10
637.96201564599994
 20
4672.4295942700001
 30
10.0
  0
VERTEX
  5
EFE
  8
CLUSTERS
 10
638.02832244000001
 20
4672.4998506299989
 30
10.0
  0
VERTEX
  5
EFF
  8
CLUSTERS
 10
638.087766106
 20
4672.5298329400002
 30
10.0
  0
VERTEX
  5
F00
  8
CLUSTERS
 10
638.128540305
 20
4672.5671708299978
 30
10.0
  0
VERTEX
  5
F01
  8
CLUSTERS
 10
638.14985742299996
 20
4672.6300715999987
 30
10.0
  0
VERTEX
  5
F02
  8
CLUSTERS
 10
638.22875816999988
 20
4672.7094922200004
 30
10.0
  0
VERTEX
  5
F03
  8
CLUSTERS
 10
638.27211234900005
 20
4672.730310259999
 30
10.0
  0
VERTEX
  5
F04
  8
CLUSTERS
 10
638.32897603499998
 20
4672.7854272000004
 30
10.0
  0
VERTEX
  5
F05
  8
CLUSTERS
 10
638.42919389999975
 20
4672.8219476100012
 30
10.0
  0
VERTEX
  5
F06
  8
CLUSTERS
 10
638.52941176499985
 20
4672.7732733999992
 30
10.0
  0
VERTEX
  5
F07
  8
CLUSTERS
 10
638.58377247600004
 20
4672.730310259999
 30
10.0
  0
VERTEX
  5
F08
  8
CLUSTERS
 10
638.62962962999995
 20
4672.6984819500003
 30
10.0
  0
VERTEX
  5
F09
  8
CLUSTERS
 10
638.68806602899997
 20
4672.6300715999987
 30
10.0
  0
VERTEX
  5
F0A
  8
CLUSTERS
 10
638.70658792799975
 20
4672.5298329400002
 30
10.0
  0
VERTEX
  5
F0B
  8
CLUSTERS
 10
638.62962962999995
 20
4672.4459173799996
 30
10.0
  0
VERTEX
  5
F0C
  8
CLUSTERS
 10
638.56549840100001
 20
4672.4295942700001
 30
10.0
  0
VERTEX
  5
F0D
  8
CLUSTERS
 10
638.52941176499985
 20
4672.4037430400003
 30
10.0
  0
VERTEX
  5
F0E
  8
CLUSTERS
 10
638.42919389999975
 20
4672.3983403800003
 30
10.0
  0
VERTEX
  5
F0F
  8
CLUSTERS
 10
638.32897603499998
 20
4672.4010689400002
 30
10.0
  0
VERTEX
  5
F10
  8
CLUSTERS
 10
638.32569778300001
 20
4672.3293556099989
 30
10.0
  0
VERTEX
  5
F11
  8
CLUSTERS
 10
638.22875816999988
 20
4672.2323774099996
 30
10.0
  0
VERTEX
  5
F12
  8
CLUSTERS
 10
638.22273174099985
 20
4672.2291169500004
 30
10.0
  0
VERTEX
  5
F13
  8
CLUSTERS
 10
638.128540305
 20
4672.1392878099996
 30
10.0
  0
VERTEX
  5
F14
  8
CLUSTERS
 10
638.02832244000001
 20
4672.1513502899998
 30
10.0
  0
VERTEX
  5
F15
  8
CLUSTERS
 10
638.01927053600002
 20
4672.1288782800002
 30
10.0
  0
VERTEX
  5
F16
  8
CLUSTERS
 10
637.94973505899998
 20
4672.0286396199999
 30
10.0
  0
VERTEX
  5
F17
  8
CLUSTERS
 10
637.92810457499979
 20
4672.0077152900003
 30
10.0
  0
VERTEX
  5
F18
  8
CLUSTERS
 10
637.82788671000003
 20
4671.9556364799992
 30
10.0
  0
VERTEX
  5
F19
  8
CLUSTERS
 10
637.74854555599995
 20
4672.0286396199999
 30
10.0
  0
SEQEND
  5
F1A
  8
CLUSTERS
  0
POLYLINE
  5
6B
  8
CLUSTERS
 66
     1
 10
0.0
 20
0.0
 30
10.0
 70
   129
  0
VERTEX
  5
F1B
  8
CLUSTERS
 10
649.15973018900002
 20
4671.8281622900004
 30
10.0
  0
VERTEX
  5
F1C
  8
CLUSTERS
 10
649.15250544699995
 20
4671.8313495599978
 30
10.0
  0
VERTEX
  5
F1D
  8
CLUSTERS
 10
649.05565373900004
 20
4671.9284009499979
 30
10.0
  0
VERTEX
  5
F1E
  8
CLUSTERS
 10
649.07980040500001
 20
4672.0286396199999
 30
10.0
  0
VERTEX
  5
F1F
  8
CLUSTERS
 10
649.15250544699995
 20
4672.1024865500003
 30
10.0
  0
VERTEX
  5
F20
  8
CLUSTERS
 10
649.25272331199994
 20
4672.1282603
 30
10.0
  0
VERTEX
  5
F21
  8
CLUSTERS
 10
649.35294117599994
 20
4672.03089937
 30
10.0
  0
VERTEX
  5
F22
  8
CLUSTERS
 10
649.43745327400006
 20
4672.1288782800002
 30
10.0
  0
VERTEX
  5
F23
  8
CLUSTERS
 10
649.45315904099994
 20
4672.1391934699977
 30
10.0
  0
VERTEX
  5
F24
  8
CLUSTERS
 10
649.46343716000001
 20
4672.1288782800002
 30
10.0
  0
VERTEX
  5
F25
  8
CLUSTERS
 10
649.50374633000001
 20
4672.0286396199999
 30
10.0
  0
VERTEX
  5
F26
  8
CLUSTERS
 10
649.45315904099994
 20
4671.9773232699999
 30
10.0
  0
VERTEX
  5
F27
  8
CLUSTERS
 10
649.35294117599994
 20
4672.0261422800004
 30
10.0
  0
VERTEX
  5
F28
  8
CLUSTERS
 10
649.35269007399995
 20
4671.9284009499979
 30
10.0
  0
VERTEX
  5
F29
  8
CLUSTERS
 10
649.34543151000003
 20
4671.8281622900004
 30
10.0
  0
VERTEX
  5
F2A
  8
CLUSTERS
 10
649.25272331199994
 20
4671.7359911100002
 30
10.0
  0
VERTEX
  5
F2B
  8
CLUSTERS
 10
649.15973018900002
 20
4671.8281622900004
 30
10.0
  0
SEQEND
  5
F2C
  8
CLUSTERS
  0
POLYLINE
  5
6C
  8
CLUSTERS
 66
     1
 10
0.0
 20
0.0
 30
10.0
 70
   129
  0
VERTEX
  5
F2D
  8
CLUSTERS
 10
646.450966376
 20
4671.627684959999
 30
10.0
  0
VERTEX
  5
F2E
  8
CLUSTERS
 10
646.44662309399985
 20
4671.6815852599993
 30
10.0
  0
VERTEX
  5
F2F
  8
CLUSTERS
 10
646.40154550599993
 20
4671.7279236300001
 30
10.0
  0
VERTEX
  5
F30
  8
CLUSTERS
 10
646.44662309399985
 20
4671.8019685700001
 30
10.0
  0
VERTEX
  5
F31
  8
CLUSTERS
 10
646.54684095899995
 20
4671.818105469998
 30
10.0
  0
VERTEX
  5
F32
  8
CLUSTERS
 10
646.64705882400006
 20
4671.8251471699978
 30
10.0
  0
VERTEX
  5
F33
  8
CLUSTERS
 10
646.74727668800006
 20
4671.8060641000002
 30
10.0
  0
VERTEX
  5
F34
  8
CLUSTERS
 10
646.82486051199999
 20
4671.7279236300001
 30
10.0
  0
VERTEX
  5
F35
  8
CLUSTERS
 10
646.83984639199969
 20
4671.627684959999
 30
10.0
  0
VERTEX
  5
F36
  8
CLUSTERS
 10
646.74727668800006
 20
4671.5351469200023
 30
10.0
  0
VERTEX
  5
F37
  8
CLUSTERS
 10
646.64705882400006
 20
4671.5300022700003
 30
10.0
  0
VERTEX
  5
F38
  8
CLUSTERS
 10
646.54684095899995
 20
4671.53184762
 30
10.0
  0
VERTEX
  5
F39
  8
CLUSTERS
 10
646.450966376
 20
4671.627684959999
 30
10.0
  0
SEQEND
  5
F3A
  8
CLUSTERS
  0
POLYLINE
  5
6D
  8
CLUSTERS
 66
     1
 10
0.0
 20
0.0
 30
10.0
 70
   129
  0
VERTEX
  5
F3B
  8
CLUSTERS
 10
635.22904801100003
 20
4671.1264916500004
 30
10.0
  0
VERTEX
  5
F3C
  8
CLUSTERS
 10
635.22222222199991
 20
4671.1267214299987
 30
10.0
  0
VERTEX
  5
F3D
  8
CLUSTERS
 10
635.12200435699992
 20
4671.1274226400001
 30
10.0
  0
VERTEX
  5
F3E
  8
CLUSTERS
 10
635.02286408300006
 20
4671.2267303099989
 30
10.0
  0
VERTEX
  5
F3F
  8
CLUSTERS
 10
635.02281367900002
 20
4671.3269689699991
 30
10.0
  0
VERTEX
  5
F40
  8
CLUSTERS
 10
635.03082317099995
 20
4671.4272076399993
 30
10.0
  0
VERTEX
  5
F41
  8
CLUSTERS
 10
635.12200435699992
 20
4671.5209843299981
 30
10.0
  0
VERTEX
  5
F42
  8
CLUSTERS
 10
635.16015538099998
 20
4671.5274462999978
 30
10.0
  0
VERTEX
  5
F43
  8
CLUSTERS
 10
635.22222222199991
 20
4671.5745599399979
 30
10.0
  0
VERTEX
  5
F44
  8
CLUSTERS
 10
635.32244008700002
 20
4671.5647656499987
 30
10.0
  0
VERTEX
  5
F45
  8
CLUSTERS
 10
635.42265795200001
 20
4671.5645434999988
 30
10.0
  0
VERTEX
  5
F46
  8
CLUSTERS
 10
635.52287581699989
 20
4671.6073475800013
 30
10.0
  0
VERTEX
  5
F47
  8
CLUSTERS
 10
635.62309368199999
 20
4671.6170139799988
 30
10.0
  0
VERTEX
  5
F48
  8
CLUSTERS
 10
635.71434653599999
 20
4671.627684959999
 30
10.0
  0
VERTEX
  5
F49
  8
CLUSTERS
 10
635.72331154699975
 20
4671.6324918800001
 30
10.0
  0
VERTEX
  5
F4A
  8
CLUSTERS
 10
635.72893775599994
 20
4671.627684959999
 30
10.0
  0
VERTEX
  5
F4B
  8
CLUSTERS
 10
635.82352941199986
 20
4671.601448389999
 30
10.0
  0
VERTEX
  5
F4C
  8
CLUSTERS
 10
635.89618221399985
 20
4671.5274462999978
 30
10.0
  0
VERTEX
  5
F4D
  8
CLUSTERS
 10
635.82352941199986
 20
4671.4534788000001
 30
10.0
  0
VERTEX
  5
F4E
  8
CLUSTERS
 10
635.75929493299975
 20
4671.4272076399993
 30
10.0
  0
VERTEX
  5
F4F
  8
CLUSTERS
 10
635.72331154699975
 20
4671.3950072799998
 30
10.0
  0
VERTEX
  5
F50
  8
CLUSTERS
 10
635.62309368199999
 20
4671.3554138500003
 30
10.0
  0
VERTEX
  5
F51
  8
CLUSTERS
 10
635.52287581699989
 20
4671.3457375500011
 30
10.0
  0
VERTEX
  5
F52
  8
CLUSTERS
 10
635.50111133699977
 20
4671.3269689699991
 30
10.0
  0
VERTEX
  5
F53
  8
CLUSTERS
 10
635.48996159199987
 20
4671.2267303099989
 30
10.0
  0
VERTEX
  5
F54
  8
CLUSTERS
 10
635.50332710600003
 20
4671.1264916500004
 30
10.0
  0
VERTEX
  5
F55
  8
CLUSTERS
 10
635.42265795200001
 20
4671.0471193800004
 30
10.0
  0
VERTEX
  5
F56
  8
CLUSTERS
 10
635.32244008700002
 20
4671.0481620399987
 30
10.0
  0
VERTEX
  5
F57
  8
CLUSTERS
 10
635.22904801100003
 20
4671.1264916500004
 30
10.0
  0
SEQEND
  5
F58
  8
CLUSTERS
  0
POLYLINE
  5
6E
  8
CLUSTERS
 66
     1
 10
0.0
 20
0.0
 30
10.0
 70
   129
  0
VERTEX
  5
F59
  8
CLUSTERS
 10
633.34086406500001
 20
4671.0262529800002
 30
10.0
  0
VERTEX
  5
F5A
  8
CLUSTERS
 10
633.32113243100002
 20
4671.1264916500004
 30
10.0
  0
VERTEX
  5
F5B
  8
CLUSTERS
 10
633.31808278899985
 20
4671.1269449499987
 30
10.0
  0
VERTEX
  5
F5C
  8
CLUSTERS
 10
633.218477957
 20
4671.2267303099989
 30
10.0
  0
VERTEX
  5
F5D
  8
CLUSTERS
 10
633.21786492399985
 20
4671.2307289399987
 30
10.0
  0
VERTEX
  5
F5E
  8
CLUSTERS
 10
633.13251301100001
 20
4671.3269689699991
 30
10.0
  0
VERTEX
  5
F5F
  8
CLUSTERS
 10
633.12596239599998
 20
4671.4272076399993
 30
10.0
  0
VERTEX
  5
F60
  8
CLUSTERS
 10
633.11772978699992
 20
4671.5274462999978
 30
10.0
  0
VERTEX
  5
F61
  8
CLUSTERS
 10
633.11889444400003
 20
4671.627684959999
 30
10.0
  0
VERTEX
  5
F62
  8
CLUSTERS
 10
633.15709287799996
 20
4671.7279236300001
 30
10.0
  0
VERTEX
  5
F63
  8
CLUSTERS
 10
633.21786492399985
 20
4671.7693684499991
 30
10.0
  0
VERTEX
  5
F64
  8
CLUSTERS
 10
633.31808278899985
 20
4671.8148023499998
 30
10.0
  0
VERTEX
  5
F65
  8
CLUSTERS
 10
633.41830065399995
 20
4671.8009176300002
 30
10.0
  0
VERTEX
  5
F66
  8
CLUSTERS
 10
633.50317262199985
 20
4671.7279236300001
 30
10.0
  0
VERTEX
  5
F67
  8
CLUSTERS
 10
633.51851851900005
 20
4671.7045679499988
 30
10.0
  0
VERTEX
  5
F68
  8
CLUSTERS
 10
633.61873638300005
 20
4671.6681630499988
 30
10.0
  0
VERTEX
  5
F69
  8
CLUSTERS
 10
633.71895424800005
 20
4671.6835345299987
 30
10.0
  0
VERTEX
  5
F6A
  8
CLUSTERS
 10
633.78415136699994
 20
4671.627684959999
 30
10.0
  0
VERTEX
  5
F6B
  8
CLUSTERS
 10
633.81917211300004
 20
4671.5744046700001
 30
10.0
  0
VERTEX
  5
F6C
  8
CLUSTERS
 10
633.91938997800003
 20
4671.5439243399978
 30
10.0
  0
VERTEX
  5
F6D
  8
CLUSTERS
 10
633.95394539400002
 20
4671.5274462999978
 30
10.0
  0
VERTEX
  5
F6E
  8
CLUSTERS
 10
634.0196078429999
 20
4671.5219393699999
 30
10.0
  0
VERTEX
  5
F6F
  8
CLUSTERS
 10
634.11982570800001
 20
4671.4668965600013
 30
10.0
  0
VERTEX
  5
F70
  8
CLUSTERS
 10
634.22004357299977
 20
4671.4942748499998
 30
10.0
  0
VERTEX
  5
F71
  8
CLUSTERS
 10
634.28206387
 20
4671.5274462999978
 30
10.0
  0
VERTEX
  5
F72
  8
CLUSTERS
 10
634.32026143799987
 20
4671.5574891599999
 30
10.0
  0
VERTEX
  5
F73
  8
CLUSTERS
 10
634.38569532500003
 20
4671.5274462999978
 30
10.0
  0
VERTEX
  5
F74
  8
CLUSTERS
 10
634.42047930299998
 20
4671.524775079999
 30
10.0
  0
VERTEX
  5
F75
  8
CLUSTERS
 10
634.52069716799997
 20
4671.4822556600002
 30
10.0
  0
VERTEX
  5
F76
  8
CLUSTERS
 10
634.574210494
 20
4671.4272076399993
 30
10.0
  0
VERTEX
  5
F77
  8
CLUSTERS
 10
634.61101720500017
 20
4671.3269689699991
 30
10.0
  0
VERTEX
  5
F78
  8
CLUSTERS
 10
634.594256954
 20
4671.2267303099989
 30
10.0
  0
VERTEX
  5
F79
  8
CLUSTERS
 10
634.52069716799997
 20
4671.14946986
 30
10.0
  0
VERTEX
  5
F7A
  8
CLUSTERS
 10
634.42047930299998
 20
4671.12673705
 30
10.0
  0
VERTEX
  5
F7B
  8
CLUSTERS
 10
634.37853590400005
 20
4671.1264916500004
 30
10.0
  0
VERTEX
  5
F7C
  8
CLUSTERS
 10
634.32026143799987
 20
4671.1118896500002
 30
10.0
  0
VERTEX
  5
F7D
  8
CLUSTERS
 10
634.27810821499997
 20
4671.1264916500004
 30
10.0
  0
VERTEX
  5
F7E
  8
CLUSTERS
 10
634.22004357299977
 20
4671.1268695799999
 30
10.0
  0
VERTEX
  5
F7F
  8
CLUSTERS
 10
634.11982570800001
 20
4671.1344761999999
 30
10.0
  0
VERTEX
  5
F80
  8
CLUSTERS
 10
634.04348409900001
 20
4671.1264916500004
 30
10.0
  0
VERTEX
  5
F81
  8
CLUSTERS
 10
634.0196078429999
 20
4671.1128520599996
 30
10.0
  0
VERTEX
  5
F82
  8
CLUSTERS
 10
633.91938997800003
 20
4671.0927027400003
 30
10.0
  0
VERTEX
  5
F83
  8
CLUSTERS
 10
633.82003395699996
 20
4671.1264916500004
 30
10.0
  0
VERTEX
  5
F84
  8
CLUSTERS
 10
633.81917211300004
 20
4671.1265240199991
 30
10.0
  0
VERTEX
  5
F85
  8
CLUSTERS
 10
633.81903314699969
 20
4671.1264916500004
 30
10.0
  0
VERTEX
  5
F86
  8
CLUSTERS
 10
633.71895424800005
 20
4671.0422953999987
 30
10.0
  0
VERTEX
  5
F87
  8
CLUSTERS
 10
633.62833545399985
 20
4671.0262529800002
 30
10.0
  0
VERTEX
  5
F88
  8
CLUSTERS
 10
633.61873638300005
 20
4671.0202412500003
 30
10.0
  0
VERTEX
  5
F89
  8
CLUSTERS
 10
633.51851851900005
 20
4670.9345842499997
 30
10.0
  0
VERTEX
  5
F8A
  8
CLUSTERS
 10
633.41830065399995
 20
4670.9349276200001
 30
10.0
  0
VERTEX
  5
F8B
  8
CLUSTERS
 10
633.34086406500001
 20
4671.0262529800002
 30
10.0
  0
SEQEND
  5
F8C
  8
CLUSTERS
  0
POLYLINE
  5
6F
  8
CLUSTERS
 66
     1
 10
0.0
 20
0.0
 30
10.0
 70
   129
  0
VERTEX
  5
F8D
  8
CLUSTERS
 10
653.00187150900001
 20
4670.6252983300001
 30
10.0
  0
VERTEX
  5
F8E
  8
CLUSTERS
 10
652.969323239
 20
4670.7255369900004
 30
10.0
  0
VERTEX
  5
F8F
  8
CLUSTERS
 10
652.96597373999998
 20
4670.8257756599996
 30
10.0
  0
VERTEX
  5
F90
  8
CLUSTERS
 10
652.98461533400007
 20
4670.926014319999
 30
10.0
  0
VERTEX
  5
F91
  8
CLUSTERS
 10
653.06100217900007
 20
4671.0046167399987
 30
10.0
  0
VERTEX
  5
F92
  8
CLUSTERS
 10
653.067388188
 20
4671.0262529800002
 30
10.0
  0
VERTEX
  5
F93
  8
CLUSTERS
 10
653.16122004399995
 20
4671.1200148199978
 30
10.0
  0
VERTEX
  5
F94
  8
CLUSTERS
 10
653.26143790799995
 20
4671.0928714800002
 30
10.0
  0
VERTEX
  5
F95
  8
CLUSTERS
 10
653.36165577300005
 20
4671.0335048200013
 30
10.0
  0
VERTEX
  5
F96
  8
CLUSTERS
 10
653.46187363800004
 20
4671.1229967600002
 30
10.0
  0
VERTEX
  5
F97
  8
CLUSTERS
 10
653.49536318699995
 20
4671.1264916500004
 30
10.0
  0
VERTEX
  5
F98
  8
CLUSTERS
 10
653.56209150300003
 20
4671.1845472699997
 30
10.0
  0
VERTEX
  5
F99
  8
CLUSTERS
 10
653.66230936800002
 20
4671.1518167000004
 30
10.0
  0
VERTEX
  5
F9A
  8
CLUSTERS
 10
653.68750201900002
 20
4671.1264916500004
 30
10.0
  0
VERTEX
  5
F9B
  8
CLUSTERS
 10
653.75162210600001
 20
4671.0262529800002
 30
10.0
  0
VERTEX
  5
F9C
  8
CLUSTERS
 10
653.73702083599994
 20
4670.926014319999
 30
10.0
  0
VERTEX
  5
F9D
  8
CLUSTERS
 10
653.66230936800002
 20
4670.8511747299999
 30
10.0
  0
VERTEX
  5
F9E
  8
CLUSTERS
 10
653.56209150300003
 20
4670.831525669998
 30
10.0
  0
VERTEX
  5
F9F
  8
CLUSTERS
 10
653.46187363800004
 20
4670.8349006199996
 30
10.0
  0
VERTEX
  5
FA0
  8
CLUSTERS
 10
653.37031385699993
 20
4670.926014319999
 30
10.0
  0
VERTEX
  5
FA1
  8
CLUSTERS
 10
653.36165577300005
 20
4671.0183714599989
 30
10.0
  0
VERTEX
  5
FA2
  8
CLUSTERS
 10
653.31667143899995
 20
4670.926014319999
 30
10.0
  0
VERTEX
  5
FA3
  8
CLUSTERS
 10
653.330674864
 20
4670.8257756599996
 30
10.0
  0
VERTEX
  5
FA4
  8
CLUSTERS
 10
653.36165577300005
 20
4670.8188041100002
 30
10.0
  0
VERTEX
  5
FA5
  8
CLUSTERS
 10
653.45419390699999
 20
4670.7255369900004
 30
10.0
  0
VERTEX
  5
FA6
  8
CLUSTERS
 10
653.46014865999985
 20
4670.6252983300001
 30
10.0
  0
VERTEX
  5
FA7
  8
CLUSTERS
 10
653.36165577300005
 20
4670.5266056600003
 30
10.0
  0
VERTEX
  5
FA8
  8
CLUSTERS
 10
653.26143790799995
 20
4670.5251639799981
 30
10.0
  0
VERTEX
  5
FA9
  8
CLUSTERS
 10
653.16122004399995
 20
4670.5260208700001
 30
10.0
  0
VERTEX
  5
FAA
  8
CLUSTERS
 10
653.06100217900007
 20
4670.5646921000007
 30
10.0
  0
VERTEX
  5
FAB
  8
CLUSTERS
 10
653.00187150900001
 20
4670.6252983300001
 30
10.0
  0
SEQEND
  5
FAC
  8
CLUSTERS
  0
POLYLINE
  5
70
  8
CLUSTERS
 66
     1
 10
0.0
 20
0.0
 30
10.0
 70
   129
  0
VERTEX
  5
FAD
  8
CLUSTERS
 10
648.05960934799987
 20
4670.5250596699998
 30
10.0
  0
VERTEX
  5
FAE
  8
CLUSTERS
 10
648.05010893199994
 20
4670.5450764300003
 30
10.0
  0
VERTEX
  5
FAF
  8
CLUSTERS
 10
647.98356700999989
 20
4670.6252983300001
 30
10.0
  0
VERTEX
  5
FB0
  8
CLUSTERS
 10
648.05010893199994
 20
4670.6925130400004
 30
10.0
  0
VERTEX
  5
FB1
  8
CLUSTERS
 10
648.15032679699993
 20
4670.7080658599998
 30
10.0
  0
VERTEX
  5
FB2
  8
CLUSTERS
 10
648.23248240999988
 20
4670.6252983300001
 30
10.0
  0
VERTEX
  5
FB3
  8
CLUSTERS
 10
648.23313542900007
 20
4670.5250596699998
 30
10.0
  0
VERTEX
  5
FB4
  8
CLUSTERS
 10
648.15032679699993
 20
4670.4424091499977
 30
10.0
  0
VERTEX
  5
FB5
  8
CLUSTERS
 10
648.05960934799987
 20
4670.5250596699998
 30
10.0
  0
SEQEND
  5
FB6
  8
CLUSTERS
  0
POLYLINE
  5
71
  8
CLUSTERS
 66
     1
 10
0.0
 20
0.0
 30
10.0
 70
   129
  0
VERTEX
  5
FB7
  8
CLUSTERS
 10
649.04598122900006
 20
4669.1217183799999
 30
10.0
  0
VERTEX
  5
FB8
  8
CLUSTERS
 10
649.00467578600001
 20
4669.2219570400002
 30
10.0
  0
VERTEX
  5
FB9
  8
CLUSTERS
 10
649.05228758199985
 20
4669.3169532900001
 30
10.0
  0
VERTEX
  5
FBA
  8
CLUSTERS
 10
649.05238463599994
 20
4669.3221956999996
 30
10.0
  0
VERTEX
  5
FBB
  8
CLUSTERS
 10
649.05488204199992
 20
4669.4224343699998
 30
10.0
  0
VERTEX
  5
FBC
  8
CLUSTERS
 10
649.05448015599995
 20
4669.5226730300001
 30
10.0
  0
VERTEX
  5
FBD
  8
CLUSTERS
 10
649.15250544699995
 20
4669.6218884999998
 30
10.0
  0
VERTEX
  5
FBE
  8
CLUSTERS
 10
649.25272331199994
 20
4669.5824503800004
 30
10.0
  0
VERTEX
  5
FBF
  8
CLUSTERS
 10
649.31086512299999
 20
4669.5226730300001
 30
10.0
  0
VERTEX
  5
FC0
  8
CLUSTERS
 10
649.33961363100002
 20
4669.4224343699998
 30
10.0
  0
VERTEX
  5
FC1
  8
CLUSTERS
 10
649.35294117599994
 20
4669.3689468599978
 30
10.0
  0
VERTEX
  5
FC2
  8
CLUSTERS
 10
649.39415786199993
 20
4669.3221956999996
 30
10.0
  0
VERTEX
  5
FC3
  8
CLUSTERS
 10
649.35294117599994
 20
4669.2663055199992
 30
10.0
  0
VERTEX
  5
FC4
  8
CLUSTERS
 10
649.35201649099974
 20
4669.2219570400002
 30
10.0
  0
VERTEX
  5
FC5
  8
CLUSTERS
 10
649.34783462199994
 20
4669.1217183799999
 30
10.0
  0
VERTEX
  5
FC6
  8
CLUSTERS
 10
649.25272331199994
 20
4669.02666073
 30
10.0
  0
VERTEX
  5
FC7
  8
CLUSTERS
 10
649.15250544699995
 20
4669.0219125899994
 30
10.0
  0
VERTEX
  5
FC8
  8
CLUSTERS
 10
649.05228758199985
 20
4669.1149066199987
 30
10.0
  0
VERTEX
  5
FC9
  8
CLUSTERS
 10
649.04598122900006
 20
4669.1217183799999
 30
10.0
  0
SEQEND
  5
FCA
  8
CLUSTERS
  0
POLYLINE
  5
72
  8
CLUSTERS
 66
     1
 10
0.0
 20
0.0
 30
10.0
 70
   129
  0
VERTEX
  5
FCB
  8
CLUSTERS
 10
646.87699266699985
 20
4668.720763719999
 30
10.0
  0
VERTEX
  5
FCC
  8
CLUSTERS
 10
646.84749455300005
 20
4668.7369361199999
 30
10.0
  0
VERTEX
  5
FCD
  8
CLUSTERS
 10
646.76664225699994
 20
4668.8210023900001
 30
10.0
  0
VERTEX
  5
FCE
  8
CLUSTERS
 10
646.78245540399985
 20
4668.9212410500004
 30
10.0
  0
VERTEX
  5
FCF
  8
CLUSTERS
 10
646.84749455300005
 20
4668.9873506699996
 30
10.0
  0
VERTEX
  5
FD0
  8
CLUSTERS
 10
646.92183514300007
 20
4668.9212410500004
 30
10.0
  0
VERTEX
  5
FD1
  8
CLUSTERS
 10
646.94771241800004
 20
4668.8868521199993
 30
10.0
  0
VERTEX
  5
FD2
  8
CLUSTERS
 10
647.00295850700002
 20
4668.8210023900001
 30
10.0
  0
VERTEX
  5
FD3
  8
CLUSTERS
 10
647.01350855400005
 20
4668.720763719999
 30
10.0
  0
VERTEX
  5
FD4
  8
CLUSTERS
 10
646.94771241800004
 20
4668.6318811299989
 30
10.0
  0
VERTEX
  5
FD5
  8
CLUSTERS
 10
646.87699266699985
 20
4668.720763719999
 30
10.0
  0
SEQEND
  5
FD6
  8
CLUSTERS
  0
POLYLINE
  5
73
  8
CLUSTERS
 66
     1
 10
0.0
 20
0.0
 30
10.0
 70
   129
  0
VERTEX
  5
FD7
  8
CLUSTERS
 10
643.84757121199993
 20
4668.319809069998
 30
10.0
  0
VERTEX
  5
FD8
  8
CLUSTERS
 10
643.84095860599984
 20
4668.3277371699987
 30
10.0
  0
VERTEX
  5
FD9
  8
CLUSTERS
 10
643.74074074099985
 20
4668.3236760399986
 30
10.0
  0
VERTEX
  5
FDA
  8
CLUSTERS
 10
643.64052287599986
 20
4668.3497350500002
 30
10.0
  0
VERTEX
  5
FDB
  8
CLUSTERS
 10
643.57055478199993
 20
4668.4200477300001
 30
10.0
  0
VERTEX
  5
FDC
  8
CLUSTERS
 10
643.599846834
 20
4668.5202863999984
 30
10.0
  0
VERTEX
  5
FDD
  8
CLUSTERS
 10
643.64052287599986
 20
4668.562990139998
 30
10.0
  0
VERTEX
  5
FDE
  8
CLUSTERS
 10
643.74074074099985
 20
4668.6186341800003
 30
10.0
  0
VERTEX
  5
FDF
  8
CLUSTERS
 10
643.84095860599984
 20
4668.6194811799996
 30
10.0
  0
VERTEX
  5
FE0
  8
CLUSTERS
 10
643.94117647099995
 20
4668.6198800800003
 30
10.0
  0
VERTEX
  5
FE1
  8
CLUSTERS
 10
643.94132826999999
 20
4668.6205250599978
 30
10.0
  0
VERTEX
  5
FE2
  8
CLUSTERS
 10
643.991876832
 20
4668.720763719999
 30
10.0
  0
VERTEX
  5
FE3
  8
CLUSTERS
 10
644.04139433599994
 20
4668.7672671999981
 30
10.0
  0
VERTEX
  5
FE4
  8
CLUSTERS
 10
644.14161220000005
 20
4668.8103154
 30
10.0
  0
VERTEX
  5
FE5
  8
CLUSTERS
 10
644.24183006500004
 20
4668.7304211399996
 30
10.0
  0
VERTEX
  5
FE6
  8
CLUSTERS
 10
644.25132780299975
 20
4668.720763719999
 30
10.0
  0
VERTEX
  5
FE7
  8
CLUSTERS
 10
644.31045244899985
 20
4668.6205250599978
 30
10.0
  0
VERTEX
  5
FE8
  8
CLUSTERS
 10
644.28185320000011
 20
4668.5202863999984
 30
10.0
  0
VERTEX
  5
FE9
  8
CLUSTERS
 10
644.24183006500004
 20
4668.4743509099999
 30
10.0
  0
VERTEX
  5
FEA
  8
CLUSTERS
 10
644.22388008199994
 20
4668.4200477300001
 30
10.0
  0
VERTEX
  5
FEB
  8
CLUSTERS
 10
644.14161220000005
 20
4668.33796411
 30
10.0
  0
VERTEX
  5
FEC
  8
CLUSTERS
 10
644.1313664449998
 20
4668.319809069998
 30
10.0
  0
VERTEX
  5
FED
  8
CLUSTERS
 10
644.04139433599994
 20
4668.2262833100012
 30
10.0
  0
VERTEX
  5
FEE
  8
CLUSTERS
 10
643.94117647099995
 20
4668.2246143599978
 30
10.0
  0
VERTEX
  5
FEF
  8
CLUSTERS
 10
643.84757121199993
 20
4668.319809069998
 30
10.0
  0
SEQEND
  5
FF0
  8
CLUSTERS
  0
POLYLINE
  5
74
  8
CLUSTERS
 66
     1
 10
0.0
 20
0.0
 30
10.0
 70
   129
  0
VERTEX
  5
FF1
  8
CLUSTERS
 10
651.57811723199995
 20
4668.1193317400002
 30
10.0
  0
VERTEX
  5
FF2
  8
CLUSTERS
 10
651.55773420499997
 20
4668.11993996
 30
10.0
  0
VERTEX
  5
FF3
  8
CLUSTERS
 10
651.45751633999987
 20
4668.2158467299987
 30
10.0
  0
VERTEX
  5
FF4
  8
CLUSTERS
 10
651.45417253699986
 20
4668.2195704100004
 30
10.0
  0
VERTEX
  5
FF5
  8
CLUSTERS
 10
651.43645493199995
 20
4668.319809069998
 30
10.0
  0
VERTEX
  5
FF6
  8
CLUSTERS
 10
651.45751633999987
 20
4668.3559637199978
 30
10.0
  0
VERTEX
  5
FF7
  8
CLUSTERS
 10
651.46123406800007
 20
4668.4200477300001
 30
10.0
  0
VERTEX
  5
FF8
  8
CLUSTERS
 10
651.50529809400007
 20
4668.5202863999984
 30
10.0
  0
VERTEX
  5
FF9
  8
CLUSTERS
 10
651.55773420499997
 20
4668.5734692400001
 30
10.0
  0
VERTEX
  5
FFA
  8
CLUSTERS
 10
651.65795206999985
 20
4668.6181463900002
 30
10.0
  0
VERTEX
  5
FFB
  8
CLUSTERS
 10
651.75816993499996
 20
4668.6160327099997
 30
10.0
  0
VERTEX
  5
FFC
  8
CLUSTERS
 10
651.85838779999995
 20
4668.6110531300001
 30
10.0
  0
VERTEX
  5
FFD
  8
CLUSTERS
 10
651.89815491499985
 20
4668.6205250599978
 30
10.0
  0
VERTEX
  5
FFE
  8
CLUSTERS
 10
651.95860566399995
 20
4668.6629920400001
 30
10.0
  0
VERTEX
  5
FFF
  8
CLUSTERS
 10
652.05882352900005
 20
4668.6926062700004
 30
10.0
  0
VERTEX
  5
1000
  8
CLUSTERS
 10
652.14310740799976
 20
4668.6205250599978
 30
10.0
  0
VERTEX
  5
1001
  8
CLUSTERS
 10
652.15904139400004
 20
4668.60635172
 30
10.0
  0
VERTEX
  5
1002
  8
CLUSTERS
 10
652.23902992800004
 20
4668.5202863999984
 30
10.0
  0
VERTEX
  5
1003
  8
CLUSTERS
 10
652.25775778900004
 20
4668.4200477300001
 30
10.0
  0
VERTEX
  5
1004
  8
CLUSTERS
 10
652.24053976200003
 20
4668.319809069998
 30
10.0
  0
VERTEX
  5
1005
  8
CLUSTERS
 10
652.251423735
 20
4668.2195704100004
 30
10.0
  0
VERTEX
  5
1006
  8
CLUSTERS
 10
652.15904139400004
 20
4668.1271409499996
 30
10.0
  0
VERTEX
  5
1007
  8
CLUSTERS
 10
652.05882352900005
 20
4668.129821049999
 30
10.0
  0
VERTEX
  5
1008
  8
CLUSTERS
 10
652.00144265099993
 20
4668.1193317400002
 30
10.0
  0
VERTEX
  5
1009
  8
CLUSTERS
 10
651.95860566399995
 20
4668.0934386199979
 30
10.0
  0
VERTEX
  5
100A
  8
CLUSTERS
 10
651.873390739
 20
4668.1193317400002
 30
10.0
  0
VERTEX
  5
100B
  8
CLUSTERS
 10
651.85838779999995
 20
4668.1194225899999
 30
10.0
  0
VERTEX
  5
100C
  8
CLUSTERS
 10
651.85783135099985
 20
4668.1193317400002
 30
10.0
  0
VERTEX
  5
100D
  8
CLUSTERS
 10
651.75816993499996
 20
4668.02765344
 30
10.0
  0
VERTEX
  5
100E
  8
CLUSTERS
 10
651.65795206999985
 20
4668.0512683999996
 30
10.0
  0
VERTEX
  5
100F
  8
CLUSTERS
 10
651.57811723199995
 20
4668.1193317400002
 30
10.0
  0
SEQEND
  5
1010
  8
CLUSTERS
  0
POLYLINE
  5
75
  8
CLUSTERS
 66
     1
 10
0.0
 20
0.0
 30
10.0
 70
   129
  0
VERTEX
  5
1011
  8
CLUSTERS
 10
648.75377997700002
 20
4667.8186157500004
 30
10.0
  0
VERTEX
  5
1012
  8
CLUSTERS
 10
648.75955795300001
 20
4667.9188544199978
 30
10.0
  0
VERTEX
  5
1013
  8
CLUSTERS
 10
648.85185185199998
 20
4668.0151356400002
 30
10.0
  0
VERTEX
  5
1014
  8
CLUSTERS
 10
648.865977649
 20
4668.0190930799999
 30
10.0
  0
VERTEX
  5
1015
  8
CLUSTERS
 10
648.95206971699974
 20
4668.0892154000012
 30
10.0
  0
VERTEX
  5
1016
  8
CLUSTERS
 10
649.02715495400003
 20
4668.0190930799999
 30
10.0
  0
VERTEX
  5
1017
  8
CLUSTERS
 10
649.051833827
 20
4667.9188544199978
 30
10.0
  0
VERTEX
  5
1018
  8
CLUSTERS
 10
649.05127781300007
 20
4667.8186157500004
 30
10.0
  0
VERTEX
  5
1019
  8
CLUSTERS
 10
648.95206971699974
 20
4667.7198423
 30
10.0
  0
VERTEX
  5
101A
  8
CLUSTERS
 10
648.85185185199998
 20
4667.7209983599987
 30
10.0
  0
VERTEX
  5
101B
  8
CLUSTERS
 10
648.75377997700002
 20
4667.8186157500004
 30
10.0
  0
SEQEND
  5
101C
  8
CLUSTERS
  0
POLYLINE
  5
76
  8
CLUSTERS
 66
     1
 10
0.0
 20
0.0
 30
10.0
 70
   129
  0
VERTEX
  5
101D
  8
CLUSTERS
 10
655.48000889800005
 20
4667.4176611000003
 30
10.0
  0
VERTEX
  5
101E
  8
CLUSTERS
 10
655.47114820499996
 20
4667.5178997599987
 30
10.0
  0
VERTEX
  5
101F
  8
CLUSTERS
 10
655.49060718099975
 20
4667.618138419999
 30
10.0
  0
VERTEX
  5
1020
  8
CLUSTERS
 10
655.56644880199985
 20
4667.7060030700013
 30
10.0
  0
VERTEX
  5
1021
  8
CLUSTERS
 10
655.58208870999999
 20
4667.7183770899992
 30
10.0
  0
VERTEX
  5
1022
  8
CLUSTERS
 10
655.66666666699984
 20
4667.7847756199999
 30
10.0
  0
VERTEX
  5
1023
  8
CLUSTERS
 10
655.75577496999995
 20
4667.7183770899992
 30
10.0
  0
VERTEX
  5
1024
  8
CLUSTERS
 10
655.76688453199995
 20
4667.7162261900003
 30
10.0
  0
VERTEX
  5
1025
  8
CLUSTERS
 10
655.86018165799999
 20
4667.618138419999
 30
10.0
  0
VERTEX
  5
1026
  8
CLUSTERS
 10
655.86499420199993
 20
4667.5178997599987
 30
10.0
  0
VERTEX
  5
1027
  8
CLUSTERS
 10
655.76688453199995
 20
4667.4197269799988
 30
10.0
  0
VERTEX
  5
1028
  8
CLUSTERS
 10
655.66666666699984
 20
4667.4176725799998
 30
10.0
  0
VERTEX
  5
1029
  8
CLUSTERS
 10
655.66645696300009
 20
4667.4176611000003
 30
10.0
  0
VERTEX
  5
102A
  8
CLUSTERS
 10
655.56644880199985
 20
4667.3336234099997
 30
10.0
  0
VERTEX
  5
102B
  8
CLUSTERS
 10
655.48000889800005
 20
4667.4176611000003
 30
10.0
  0
SEQEND
  5
102C
  8
CLUSTERS
  0
POLYLINE
  5
77
  8
CLUSTERS
 66
     1
 10
0.0
 20
0.0
 30
10.0
 70
   129
  0
VERTEX
  5
102D
  8
CLUSTERS
 10
654.59853677299998
 20
4666.4152744599987
 30
10.0
  0
VERTEX
  5
102E
  8
CLUSTERS
 10
654.59412686999997
 20
4666.5155131299998
 30
10.0
  0
VERTEX
  5
102F
  8
CLUSTERS
 10
654.64476151699989
 20
4666.6157517900001
 30
10.0
  0
VERTEX
  5
1030
  8
CLUSTERS
 10
654.66448801699994
 20
4666.6384099500001
 30
10.0
  0
VERTEX
  5
1031
  8
CLUSTERS
 10
654.76470588199993
 20
4666.7127160199998
 30
10.0
  0
VERTEX
  5
1032
  8
CLUSTERS
 10
654.78652477799994
 20
4666.7159904500013
 30
10.0
  0
VERTEX
  5
1033
  8
CLUSTERS
 10
654.76470588199993
 20
4666.7184966699988
 30
10.0
  0
VERTEX
  5
1034
  8
CLUSTERS
 10
654.67064249400005
 20
4666.8162291199997
 30
10.0
  0
VERTEX
  5
1035
  8
CLUSTERS
 10
654.68092017799995
 20
4666.9164677799999
 30
10.0
  0
VERTEX
  5
1036
  8
CLUSTERS
 10
654.76470588199993
 20
4667.0159676800013
 30
10.0
  0
VERTEX
  5
1037
  8
CLUSTERS
 10
654.76525356900004
 20
4667.0167064400002
 30
10.0
  0
VERTEX
  5
1038
  8
CLUSTERS
 10
654.86492374699992
 20
4667.1050281499993
 30
10.0
  0
VERTEX
  5
1039
  8
CLUSTERS
 10
654.89203635900003
 20
4667.1169451100004
 30
10.0
  0
VERTEX
  5
103A
  8
CLUSTERS
 10
654.87299191800003
 20
4667.2171837699998
 30
10.0
  0
VERTEX
  5
103B
  8
CLUSTERS
 10
654.92869763800002
 20
4667.3174224300001
 30
10.0
  0
VERTEX
  5
103C
  8
CLUSTERS
 10
654.96514161200002
 20
4667.3538924599989
 30
10.0
  0
VERTEX
  5
103D
  8
CLUSTERS
 10
655.02208647899988
 20
4667.3174224300001
 30
10.0
  0
VERTEX
  5
103E
  8
CLUSTERS
 10
655.0653594769999
 20
4667.2720364200004
 30
10.0
  0
VERTEX
  5
103F
  8
CLUSTERS
 10
655.09742889999995
 20
4667.2171837699998
 30
10.0
  0
VERTEX
  5
1040
  8
CLUSTERS
 10
655.0653594769999
 20
4667.1807478899991
 30
10.0
  0
VERTEX
  5
1041
  8
CLUSTERS
 10
655.03237744900002
 20
4667.1169451100004
 30
10.0
  0
VERTEX
  5
1042
  8
CLUSTERS
 10
655.06386747800002
 20
4667.0167064400002
 30
10.0
  0
VERTEX
  5
1043
  8
CLUSTERS
 10
655.0653594769999
 20
4667.0019875099988
 30
10.0
  0
VERTEX
  5
1044
  8
CLUSTERS
 10
655.11566765500004
 20
4666.9164677799999
 30
10.0
  0
VERTEX
  5
1045
  8
CLUSTERS
 10
655.09519035000005
 20
4666.8162291199997
 30
10.0
  0
VERTEX
  5
1046
  8
CLUSTERS
 10
655.0653594769999
 20
4666.7812955400004
 30
10.0
  0
VERTEX
  5
1047
  8
CLUSTERS
 10
654.97018857199998
 20
4666.7159904500013
 30
10.0
  0
VERTEX
  5
1048
  8
CLUSTERS
 10
654.96514161200002
 20
4666.7109714500002
 30
10.0
  0
VERTEX
  5
1049
  8
CLUSTERS
 10
654.94184063099999
 20
4666.6157517900001
 30
10.0
  0
VERTEX
  5
104A
  8
CLUSTERS
 10
654.96159073399986
 20
4666.5155131299998
 30
10.0
  0
VERTEX
  5
104B
  8
CLUSTERS
 10
654.92474739800002
 20
4666.4152744599987
 30
10.0
  0
VERTEX
  5
104C
  8
CLUSTERS
 10
654.86492374699992
 20
4666.3550168199981
 30
10.0
  0
VERTEX
  5
104D
  8
CLUSTERS
 10
654.76470588199993
 20
4666.3163413399989
 30
10.0
  0
VERTEX
  5
104E
  8
CLUSTERS
 10
654.66448801699994
 20
4666.3481950900023
 30
10.0
  0
VERTEX
  5
104F
  8
CLUSTERS
 10
654.59853677299998
 20
4666.4152744599987
 30
10.0
  0
SEQEND
  5
1050
  8
CLUSTERS
  0
POLYLINE
  5
78
  8
CLUSTERS
 66
     1
 10
0.0
 20
0.0
 30
10.0
 70
   129
  0
VERTEX
  5
1051
  8
CLUSTERS
 10
647.76858703699997
 20
4666.4152744599987
 30
10.0
  0
VERTEX
  5
1052
  8
CLUSTERS
 10
647.81085515500001
 20
4666.5155131299998
 30
10.0
  0
VERTEX
  5
1053
  8
CLUSTERS
 10
647.84967320299995
 20
4666.5664088200001
 30
10.0
  0
VERTEX
  5
1054
  8
CLUSTERS
 10
647.85333107199995
 20
4666.6157517900001
 30
10.0
  0
VERTEX
  5
1055
  8
CLUSTERS
 10
647.84967320299995
 20
4666.6295410700004
 30
10.0
  0
VERTEX
  5
1056
  8
CLUSTERS
 10
647.76959668499978
 20
4666.7159904500013
 30
10.0
  0
VERTEX
  5
1057
  8
CLUSTERS
 10
647.84967320299995
 20
4666.8061931100001
 30
10.0
  0
VERTEX
  5
1058
  8
CLUSTERS
 10
647.85497719099999
 20
4666.8162291199997
 30
10.0
  0
VERTEX
  5
1059
  8
CLUSTERS
 10
647.84967320299995
 20
4666.8380256299979
 30
10.0
  0
VERTEX
  5
105A
  8
CLUSTERS
 10
647.78889017799997
 20
4666.9164677799999
 30
10.0
  0
VERTEX
  5
105B
  8
CLUSTERS
 10
647.77820642699999
 20
4667.0167064400002
 30
10.0
  0
VERTEX
  5
105C
  8
CLUSTERS
 10
647.84967320299995
 20
4667.0925500499989
 30
10.0
  0
VERTEX
  5
105D
  8
CLUSTERS
 10
647.94989106800006
 20
4667.0990653500003
 30
10.0
  0
VERTEX
  5
105E
  8
CLUSTERS
 10
648.05010893199994
 20
4667.1001736999979
 30
10.0
  0
VERTEX
  5
105F
  8
CLUSTERS
 10
648.05109621600002
 20
4667.1169451100004
 30
10.0
  0
VERTEX
  5
1060
  8
CLUSTERS
 10
648.06307508600003
 20
4667.2171837699998
 30
10.0
  0
VERTEX
  5
1061
  8
CLUSTERS
 10
648.07966985599978
 20
4667.3174224300001
 30
10.0
  0
VERTEX
  5
1062
  8
CLUSTERS
 10
648.05054080299988
 20
4667.4176611000003
 30
10.0
  0
VERTEX
  5
1063
  8
CLUSTERS
 10
648.055843858
 20
4667.5178997599987
 30
10.0
  0
VERTEX
  5
1064
  8
CLUSTERS
 10
648.15032679699993
 20
4667.6148950200004
 30
10.0
  0
VERTEX
  5
1065
  8
CLUSTERS
 10
648.16624014900003
 20
4667.618138419999
 30
10.0
  0
VERTEX
  5
1066
  8
CLUSTERS
 10
648.25054466199992
 20
4667.6848938599978
 30
10.0
  0
VERTEX
  5
1067
  8
CLUSTERS
 10
648.25811778699995
 20
4667.7183770899992
 30
10.0
  0
VERTEX
  5
1068
  8
CLUSTERS
 10
648.35076252699992
 20
4667.8131916599978
 30
10.0
  0
VERTEX
  5
1069
  8
CLUSTERS
 10
648.45098039199991
 20
4667.8153234600013
 30
10.0
  0
VERTEX
  5
106A
  8
CLUSTERS
 10
648.55119825700001
 20
4667.8162289900001
 30
10.0
  0
VERTEX
  5
106B
  8
CLUSTERS
 10
648.65096492199984
 20
4667.7183770899992
 30
10.0
  0
VERTEX
  5
106C
  8
CLUSTERS
 10
648.651416122
 20
4667.7114837600002
 30
10.0
  0
VERTEX
  5
106D
  8
CLUSTERS
 10
648.70511837100003
 20
4667.618138419999
 30
10.0
  0
VERTEX
  5
106E
  8
CLUSTERS
 10
648.71325588900004
 20
4667.5178997599987
 30
10.0
  0
VERTEX
  5
106F
  8
CLUSTERS
 10
648.72209585099995
 20
4667.4176611000003
 30
10.0
  0
VERTEX
  5
1070
  8
CLUSTERS
 10
648.651416122
 20
4667.3215759299992
 30
10.0
  0
VERTEX
  5
1071
  8
CLUSTERS
 10
648.65096556499986
 20
4667.3174224300001
 30
10.0
  0
VERTEX
  5
1072
  8
CLUSTERS
 10
648.56787172400004
 20
4667.2171837699998
 30
10.0
  0
VERTEX
  5
1073
  8
CLUSTERS
 10
648.55119825700001
 20
4667.2008769499989
 30
10.0
  0
VERTEX
  5
1074
  8
CLUSTERS
 10
648.45415183499995
 20
4667.1169451100004
 30
10.0
  0
VERTEX
  5
1075
  8
CLUSTERS
 10
648.45098039199991
 20
4667.1125693000013
 30
10.0
  0
VERTEX
  5
1076
  8
CLUSTERS
 10
648.44795560800003
 20
4667.0167064400002
 30
10.0
  0
VERTEX
  5
1077
  8
CLUSTERS
 10
648.43487884499984
 20
4666.9164677799999
 30
10.0
  0
VERTEX
  5
1078
  8
CLUSTERS
 10
648.35076252699992
 20
4666.8234956099986
 30
10.0
  0
VERTEX
  5
1079
  8
CLUSTERS
 10
648.34946056000001
 20
4666.8162291199997
 30
10.0
  0
VERTEX
  5
107A
  8
CLUSTERS
 10
648.25054466199992
 20
4666.7173649799997
 30
10.0
  0
VERTEX
  5
107B
  8
CLUSTERS
 10
648.24300850899976
 20
4666.7159904500013
 30
10.0
  0
VERTEX
  5
107C
  8
CLUSTERS
 10
648.24737744000004
 20
4666.6157517900001
 30
10.0
  0
VERTEX
  5
107D
  8
CLUSTERS
 10
648.15032679699993
 20
4666.5190916900001
 30
10.0
  0
VERTEX
  5
107E
  8
CLUSTERS
 10
648.05010893199994
 20
4666.5159246000003
 30
10.0
  0
VERTEX
  5
107F
  8
CLUSTERS
 10
648.03787367400002
 20
4666.5155131299998
 30
10.0
  0
VERTEX
  5
1080
  8
CLUSTERS
 10
648.00241567800003
 20
4666.4152744599987
 30
10.0
  0
VERTEX
  5
1081
  8
CLUSTERS
 10
647.94989106800006
 20
4666.3645796299979
 30
10.0
  0
VERTEX
  5
1082
  8
CLUSTERS
 10
647.84967320299995
 20
4666.334742340001
 30
10.0
  0
VERTEX
  5
1083
  8
CLUSTERS
 10
647.76858703699997
 20
4666.4152744599987
 30
10.0
  0
SEQEND
  5
1084
  8
CLUSTERS
  0
POLYLINE
  5
79
  8
CLUSTERS
 66
     1
 10
0.0
 20
0.0
 30
10.0
 70
   129
  0
VERTEX
  5
1085
  8
CLUSTERS
 10
641.11631096799999
 20
4665.6133651600003
 30
10.0
  0
VERTEX
  5
1086
  8
CLUSTERS
 10
641.04888731000017
 20
4665.7136038199997
 30
10.0
  0
VERTEX
  5
1087
  8
CLUSTERS
 10
641.07108906999974
 20
4665.8138424799999
 30
10.0
  0
VERTEX
  5
1088
  8
CLUSTERS
 10
641.13507625299997
 20
4665.8829813499997
 30
10.0
  0
VERTEX
  5
1089
  8
CLUSTERS
 10
641.18517670499989
 20
4665.9140811500001
 30
10.0
  0
VERTEX
  5
108A
  8
CLUSTERS
 10
641.23529411799996
 20
4666.0142222200002
 30
10.0
  0
VERTEX
  5
108B
  8
CLUSTERS
 10
641.23533307299999
 20
4666.0143198100004
 30
10.0
  0
VERTEX
  5
108C
  8
CLUSTERS
 10
641.33551198300006
 20
4666.1109312500002
 30
10.0
  0
VERTEX
  5
108D
  8
CLUSTERS
 10
641.33830568599979
 20
4666.1145584699998
 30
10.0
  0
VERTEX
  5
108E
  8
CLUSTERS
 10
641.33551198300006
 20
4666.1161904700002
 30
10.0
  0
VERTEX
  5
108F
  8
CLUSTERS
 10
641.23529411799996
 20
4666.1626535100004
 30
10.0
  0
VERTEX
  5
1090
  8
CLUSTERS
 10
641.17283964900003
 20
4666.21479714
 30
10.0
  0
VERTEX
  5
1091
  8
CLUSTERS
 10
641.23529411799996
 20
4666.2697012500003
 30
10.0
  0
VERTEX
  5
1092
  8
CLUSTERS
 10
641.33551198300006
 20
4666.3062147299988
 30
10.0
  0
VERTEX
  5
1093
  8
CLUSTERS
 10
641.43572984699995
 20
4666.3119816999988
 30
10.0
  0
VERTEX
  5
1094
  8
CLUSTERS
 10
641.53594771199994
 20
4666.2906654099997
 30
10.0
  0
VERTEX
  5
1095
  8
CLUSTERS
 10
641.63616557699993
 20
4666.2505198899999
 30
10.0
  0
VERTEX
  5
1096
  8
CLUSTERS
 10
641.671214803
 20
4666.21479714
 30
10.0
  0
VERTEX
  5
1097
  8
CLUSTERS
 10
641.73638344199992
 20
4666.14311447
 30
10.0
  0
VERTEX
  5
1098
  8
CLUSTERS
 10
641.77909293300002
 20
4666.1145584699998
 30
10.0
  0
VERTEX
  5
1099
  8
CLUSTERS
 10
641.83660130699991
 20
4666.1011713899989
 30
10.0
  0
VERTEX
  5
109A
  8
CLUSTERS
 10
641.93681917200001
 20
4666.0567568799979
 30
10.0
  0
VERTEX
  5
109B
  8
CLUSTERS
 10
641.98160096399977
 20
4666.0143198100004
 30
10.0
  0
VERTEX
  5
109C
  8
CLUSTERS
 10
641.93681917200001
 20
4665.9782118499979
 30
10.0
  0
VERTEX
  5
109D
  8
CLUSTERS
 10
641.85995986499995
 20
4665.9140811500001
 30
10.0
  0
VERTEX
  5
109E
  8
CLUSTERS
 10
641.83660130699991
 20
4665.8917007600003
 30
10.0
  0
VERTEX
  5
109F
  8
CLUSTERS
 10
641.73638344199992
 20
4665.8924475499998
 30
10.0
  0
VERTEX
  5
10A0
  8
CLUSTERS
 10
641.71391983199999
 20
4665.9140811500001
 30
10.0
  0
VERTEX
  5
10A1
  8
CLUSTERS
 10
641.63616557699993
 20
4665.9335387499987
 30
10.0
  0
VERTEX
  5
10A2
  8
CLUSTERS
 10
641.53594771199994
 20
4665.9862668300002
 30
10.0
  0
VERTEX
  5
10A3
  8
CLUSTERS
 10
641.47889406000002
 20
4665.9140811500001
 30
10.0
  0
VERTEX
  5
10A4
  8
CLUSTERS
 10
641.43572984699995
 20
4665.886122509999
 30
10.0
  0
VERTEX
  5
10A5
  8
CLUSTERS
 10
641.33551198300006
 20
4665.8691936699979
 30
10.0
  0
VERTEX
  5
10A6
  8
CLUSTERS
 10
641.23529411799996
 20
4665.8660388500002
 30
10.0
  0
VERTEX
  5
10A7
  8
CLUSTERS
 10
641.20238733899987
 20
4665.8138424799999
 30
10.0
  0
VERTEX
  5
10A8
  8
CLUSTERS
 10
641.22346929599985
 20
4665.7136038199997
 30
10.0
  0
VERTEX
  5
10A9
  8
CLUSTERS
 10
641.15477381400001
 20
4665.6133651600003
 30
10.0
  0
VERTEX
  5
10AA
  8
CLUSTERS
 10
641.13507625299997
 20
4665.5939892200004
 30
10.0
  0
VERTEX
  5
10AB
  8
CLUSTERS
 10
641.11631096799999
 20
4665.6133651600003
 30
10.0
  0
SEQEND
  5
10AC
  8
CLUSTERS
  0
POLYLINE
  5
7A
  8
CLUSTERS
 66
     1
 10
0.0
 20
0.0
 30
10.0
 70
   129
  0
VERTEX
  5
10AD
  8
CLUSTERS
 10
637.83077305799975
 20
4665.4128878299998
 30
10.0
  0
VERTEX
  5
10AE
  8
CLUSTERS
 10
637.82788671000003
 20
4665.4327832099989
 30
10.0
  0
VERTEX
  5
10AF
  8
CLUSTERS
 10
637.77103813199994
 20
4665.5131264900001
 30
10.0
  0
VERTEX
  5
10B0
  8
CLUSTERS
 10
637.78266406499995
 20
4665.6133651600003
 30
10.0
  0
VERTEX
  5
10B1
  8
CLUSTERS
 10
637.82788671000003
 20
4665.6708669400023
 30
10.0
  0
VERTEX
  5
10B2
  8
CLUSTERS
 10
637.84166925399995
 20
4665.7136038199997
 30
10.0
  0
VERTEX
  5
10B3
  8
CLUSTERS
 10
637.92810457499979
 20
4665.7961361099988
 30
10.0
  0
VERTEX
  5
10B4
  8
CLUSTERS
 10
638.01032166800007
 20
4665.8138424799999
 30
10.0
  0
VERTEX
  5
10B5
  8
CLUSTERS
 10
638.02832244000001
 20
4665.8304039000013
 30
10.0
  0
VERTEX
  5
10B6
  8
CLUSTERS
 10
638.04776881099997
 20
4665.9140811500001
 30
10.0
  0
VERTEX
  5
10B7
  8
CLUSTERS
 10
638.128540305
 20
4666.0058895499997
 30
10.0
  0
VERTEX
  5
10B8
  8
CLUSTERS
 10
638.13551314599999
 20
4666.0143198100004
 30
10.0
  0
VERTEX
  5
10B9
  8
CLUSTERS
 10
638.22875816999988
 20
4666.1002060600003
 30
10.0
  0
VERTEX
  5
10BA
  8
CLUSTERS
 10
638.32897603499998
 20
4666.0865226100004
 30
10.0
  0
VERTEX
  5
10BB
  8
CLUSTERS
 10
638.41631141400001
 20
4666.0143198100004
 30
10.0
  0
VERTEX
  5
10BC
  8
CLUSTERS
 10
638.42919389999975
 20
4666.0011517200001
 30
10.0
  0
VERTEX
  5
10BD
  8
CLUSTERS
 10
638.43772455099975
 20
4666.0143198100004
 30
10.0
  0
VERTEX
  5
10BE
  8
CLUSTERS
 10
638.52941176499985
 20
4666.1020983300004
 30
10.0
  0
VERTEX
  5
10BF
  8
CLUSTERS
 10
638.61037982599976
 20
4666.0143198100004
 30
10.0
  0
VERTEX
  5
10C0
  8
CLUSTERS
 10
638.57232143900001
 20
4665.9140811500001
 30
10.0
  0
VERTEX
  5
10C1
  8
CLUSTERS
 10
638.62134586599996
 20
4665.8138424799999
 30
10.0
  0
VERTEX
  5
10C2
  8
CLUSTERS
 10
638.62962962999995
 20
4665.7770857899995
 30
10.0
  0
VERTEX
  5
10C3
  8
CLUSTERS
 10
638.66373094199992
 20
4665.7136038199997
 30
10.0
  0
VERTEX
  5
10C4
  8
CLUSTERS
 10
638.62962962999995
 20
4665.6592421699997
 30
10.0
  0
VERTEX
  5
10C5
  8
CLUSTERS
 10
638.62487936800005
 20
4665.6133651600003
 30
10.0
  0
VERTEX
  5
10C6
  8
CLUSTERS
 10
638.52941176499985
 20
4665.5225863200003
 30
10.0
  0
VERTEX
  5
10C7
  8
CLUSTERS
 10
638.42919389999975
 20
4665.5463259600001
 30
10.0
  0
VERTEX
  5
10C8
  8
CLUSTERS
 10
638.32897603499998
 20
4665.5505639000012
 30
10.0
  0
VERTEX
  5
10C9
  8
CLUSTERS
 10
638.32315685599985
 20
4665.5131264900001
 30
10.0
  0
VERTEX
  5
10CA
  8
CLUSTERS
 10
638.22875816999988
 20
4665.4163595199998
 30
10.0
  0
VERTEX
  5
10CB
  8
CLUSTERS
 10
638.19552335800006
 20
4665.4128878299998
 30
10.0
  0
VERTEX
  5
10CC
  8
CLUSTERS
 10
638.128540305
 20
4665.3761715000001
 30
10.0
  0
VERTEX
  5
10CD
  8
CLUSTERS
 10
638.02832244000001
 20
4665.3572728299978
 30
10.0
  0
VERTEX
  5
10CE
  8
CLUSTERS
 10
637.92810457499979
 20
4665.3148759400001
 30
10.0
  0
VERTEX
  5
10CF
  8
CLUSTERS
 10
637.83077305799975
 20
4665.4128878299998
 30
10.0
  0
SEQEND
  5
10D0
  8
CLUSTERS
  0
POLYLINE
  5
7B
  8
CLUSTERS
 66
     1
 10
0.0
 20
0.0
 30
10.0
 70
   129
  0
VERTEX
  5
10D1
  8
CLUSTERS
 10
642.36695705699992
 20
4665.2124105000003
 30
10.0
  0
VERTEX
  5
10D2
  8
CLUSTERS
 10
642.33769063199975
 20
4665.2138307799987
 30
10.0
  0
VERTEX
  5
10D3
  8
CLUSTERS
 10
642.23968555900001
 20
4665.3126491599987
 30
10.0
  0
VERTEX
  5
10D4
  8
CLUSTERS
 10
642.24401059099978
 20
4665.4128878299998
 30
10.0
  0
VERTEX
  5
10D5
  8
CLUSTERS
 10
642.32144517499978
 20
4665.5131264900001
 30
10.0
  0
VERTEX
  5
10D6
  8
CLUSTERS
 10
642.23747276699999
 20
4665.5234737500004
 30
10.0
  0
VERTEX
  5
10D7
  8
CLUSTERS
 10
642.13725490199988
 20
4665.5465896299993
 30
10.0
  0
VERTEX
  5
10D8
  8
CLUSTERS
 10
642.06704071599995
 20
4665.6133651600003
 30
10.0
  0
VERTEX
  5
10D9
  8
CLUSTERS
 10
642.09415014800004
 20
4665.7136038199997
 30
10.0
  0
VERTEX
  5
10DA
  8
CLUSTERS
 10
642.07375144000002
 20
4665.8138424799999
 30
10.0
  0
VERTEX
  5
10DB
  8
CLUSTERS
 10
642.10482175300001
 20
4665.9140811500001
 30
10.0
  0
VERTEX
  5
10DC
  8
CLUSTERS
 10
642.13725490199988
 20
4665.9487026500001
 30
10.0
  0
VERTEX
  5
10DD
  8
CLUSTERS
 10
642.23747276699999
 20
4666.0120497399994
 30
10.0
  0
VERTEX
  5
10DE
  8
CLUSTERS
 10
642.33769063199975
 20
4666.0054338800001
 30
10.0
  0
VERTEX
  5
10DF
  8
CLUSTERS
 10
642.43790849699985
 20
4665.9478596099998
 30
10.0
  0
VERTEX
  5
10E0
  8
CLUSTERS
 10
642.47252242599995
 20
4665.9140811500001
 30
10.0
  0
VERTEX
  5
10E1
  8
CLUSTERS
 10
642.52960999499976
 20
4665.8138424799999
 30
10.0
  0
VERTEX
  5
10E2
  8
CLUSTERS
 10
642.53007097099999
 20
4665.7136038199997
 30
10.0
  0
VERTEX
  5
10E3
  8
CLUSTERS
 10
642.43790849699985
 20
4665.6206808099996
 30
10.0
  0
VERTEX
  5
10E4
  8
CLUSTERS
 10
642.33769063199975
 20
4665.6141830699999
 30
10.0
  0
VERTEX
  5
10E5
  8
CLUSTERS
 10
642.33447063899985
 20
4665.6133651600003
 30
10.0
  0
VERTEX
  5
10E6
  8
CLUSTERS
 10
642.33769063199975
 20
4665.5533716699993
 30
10.0
  0
VERTEX
  5
10E7
  8
CLUSTERS
 10
642.43790849699985
 20
4665.5909040400002
 30
10.0
  0
VERTEX
  5
10E8
  8
CLUSTERS
 10
642.53812636199984
 20
4665.530004799999
 30
10.0
  0
VERTEX
  5
10E9
  8
CLUSTERS
 10
642.56129223799996
 20
4665.5131264900001
 30
10.0
  0
VERTEX
  5
10EA
  8
CLUSTERS
 10
642.63834422699995
 20
4665.5037183200002
 30
10.0
  0
VERTEX
  5
10EB
  8
CLUSTERS
 10
642.73181650799995
 20
4665.4128878299998
 30
10.0
  0
VERTEX
  5
10EC
  8
CLUSTERS
 10
642.73853957899996
 20
4665.3126491599987
 30
10.0
  0
VERTEX
  5
10ED
  8
CLUSTERS
 10
642.72482802900004
 20
4665.2124105000003
 30
10.0
  0
VERTEX
  5
10EE
  8
CLUSTERS
 10
642.63834422699995
 20
4665.1286306900001
 30
10.0
  0
VERTEX
  5
10EF
  8
CLUSTERS
 10
642.53812636199984
 20
4665.1225468399998
 30
10.0
  0
VERTEX
  5
10F0
  8
CLUSTERS
 10
642.43790849699985
 20
4665.1624505299997
 30
10.0
  0
VERTEX
  5
10F1
  8
CLUSTERS
 10
642.36695705699992
 20
4665.2124105000003
 30
10.0
  0
SEQEND
  5
10F2
  8
CLUSTERS
  0
POLYLINE
  5
7C
  8
CLUSTERS
 66
     1
 10
0.0
 20
0.0
 30
10.0
 70
   129
  0
VERTEX
  5
10F3
  8
CLUSTERS
 10
645.384143548
 20
4665.1121718399991
 30
10.0
  0
VERTEX
  5
10F4
  8
CLUSTERS
 10
645.34422658000005
 20
4665.1292129599988
 30
10.0
  0
VERTEX
  5
10F5
  8
CLUSTERS
 10
645.27042372699975
 20
4665.2124105000003
 30
10.0
  0
VERTEX
  5
10F6
  8
CLUSTERS
 10
645.27804067900001
 20
4665.3126491599987
 30
10.0
  0
VERTEX
  5
10F7
  8
CLUSTERS
 10
645.34422658000005
 20
4665.39315386
 30
10.0
  0
VERTEX
  5
10F8
  8
CLUSTERS
 10
645.35013708300005
 20
4665.4128878299998
 30
10.0
  0
VERTEX
  5
10F9
  8
CLUSTERS
 10
645.44444444400006
 20
4665.5073934700004
 30
10.0
  0
VERTEX
  5
10FA
  8
CLUSTERS
 10
645.46621069800005
 20
4665.5131264900001
 30
10.0
  0
VERTEX
  5
10FB
  8
CLUSTERS
 10
645.54466230900005
 20
4665.5875921300003
 30
10.0
  0
VERTEX
  5
10FC
  8
CLUSTERS
 10
645.60962665199975
 20
4665.5131264900001
 30
10.0
  0
VERTEX
  5
10FD
  8
CLUSTERS
 10
645.64488017400004
 20
4665.4794436199991
 30
10.0
  0
VERTEX
  5
10FE
  8
CLUSTERS
 10
645.72109439099995
 20
4665.4128878299998
 30
10.0
  0
VERTEX
  5
10FF
  8
CLUSTERS
 10
645.74509803899991
 20
4665.4004316700002
 30
10.0
  0
VERTEX
  5
1100
  8
CLUSTERS
 10
645.822623034
 20
4665.3126491599987
 30
10.0
  0
VERTEX
  5
1101
  8
CLUSTERS
 10
645.81792425399988
 20
4665.2124105000003
 30
10.0
  0
VERTEX
  5
1102
  8
CLUSTERS
 10
645.74509803899991
 20
4665.1385564900002
 30
10.0
  0
VERTEX
  5
1103
  8
CLUSTERS
 10
645.64488017400004
 20
4665.1189747099997
 30
10.0
  0
VERTEX
  5
1104
  8
CLUSTERS
 10
645.60107532500001
 20
4665.1121718399991
 30
10.0
  0
VERTEX
  5
1105
  8
CLUSTERS
 10
645.54466230900005
 20
4665.0722957899989
 30
10.0
  0
VERTEX
  5
1106
  8
CLUSTERS
 10
645.44444444400006
 20
4665.0680124700002
 30
10.0
  0
VERTEX
  5
1107
  8
CLUSTERS
 10
645.384143548
 20
4665.1121718399991
 30
10.0
  0
SEQEND
  5
1108
  8
CLUSTERS
  0
POLYLINE
  5
7D
  8
CLUSTERS
 66
     1
 10
0.0
 20
0.0
 30
10.0
 70
   129
  0
VERTEX
  5
1109
  8
CLUSTERS
 10
647.17599408800004
 20
4665.011933169998
 30
10.0
  0
VERTEX
  5
110A
  8
CLUSTERS
 10
647.14814814800002
 20
4665.0613379300003
 30
10.0
  0
VERTEX
  5
110B
  8
CLUSTERS
 10
647.09893278199991
 20
4665.1121718399991
 30
10.0
  0
VERTEX
  5
110C
  8
CLUSTERS
 10
647.05407088699985
 20
4665.2124105000003
 30
10.0
  0
VERTEX
  5
110D
  8
CLUSTERS
 10
647.09065691299998
 20
4665.3126491599987
 30
10.0
  0
VERTEX
  5
110E
  8
CLUSTERS
 10
647.14814814800002
 20
4665.3732895900002
 30
10.0
  0
VERTEX
  5
110F
  8
CLUSTERS
 10
647.18684824100001
 20
4665.4128878299998
 30
10.0
  0
VERTEX
  5
1110
  8
CLUSTERS
 10
647.2483660129999
 20
4665.4793200399999
 30
10.0
  0
VERTEX
  5
1111
  8
CLUSTERS
 10
647.25340081599995
 20
4665.5131264900001
 30
10.0
  0
VERTEX
  5
1112
  8
CLUSTERS
 10
647.25895289200002
 20
4665.6133651600003
 30
10.0
  0
VERTEX
  5
1113
  8
CLUSTERS
 10
647.317179796
 20
4665.7136038199997
 30
10.0
  0
VERTEX
  5
1114
  8
CLUSTERS
 10
647.348583878
 20
4665.75480952
 30
10.0
  0
VERTEX
  5
1115
  8
CLUSTERS
 10
647.36338040199985
 20
4665.8138424799999
 30
10.0
  0
VERTEX
  5
1116
  8
CLUSTERS
 10
647.44880174299976
 20
4665.8979333699999
 30
10.0
  0
VERTEX
  5
1117
  8
CLUSTERS
 10
647.54901960799987
 20
4665.9133289199999
 30
10.0
  0
VERTEX
  5
1118
  8
CLUSTERS
 10
647.64923747300008
 20
4665.9129116399999
 30
10.0
  0
VERTEX
  5
1119
  8
CLUSTERS
 10
647.74945533799996
 20
4665.87236545
 30
10.0
  0
VERTEX
  5
111A
  8
CLUSTERS
 10
647.80432551399997
 20
4665.8138424799999
 30
10.0
  0
VERTEX
  5
111B
  8
CLUSTERS
 10
647.82512863299996
 20
4665.7136038199997
 30
10.0
  0
VERTEX
  5
111C
  8
CLUSTERS
 10
647.75760571499995
 20
4665.6133651600003
 30
10.0
  0
VERTEX
  5
111D
  8
CLUSTERS
 10
647.74945533799996
 20
4665.6030237300001
 30
10.0
  0
VERTEX
  5
111E
  8
CLUSTERS
 10
647.71790630600003
 20
4665.5131264900001
 30
10.0
  0
VERTEX
  5
111F
  8
CLUSTERS
 10
647.64923747300008
 20
4665.4238636600003
 30
10.0
  0
VERTEX
  5
1120
  8
CLUSTERS
 10
647.64863774000003
 20
4665.4128878299998
 30
10.0
  0
VERTEX
  5
1121
  8
CLUSTERS
 10
647.54901960799987
 20
4665.3143477299991
 30
10.0
  0
VERTEX
  5
1122
  8
CLUSTERS
 10
647.53359669199995
 20
4665.3126491599987
 30
10.0
  0
VERTEX
  5
1123
  8
CLUSTERS
 10
647.54027985100004
 20
4665.2124105000003
 30
10.0
  0
VERTEX
  5
1124
  8
CLUSTERS
 10
647.54308760799995
 20
4665.1121718399991
 30
10.0
  0
VERTEX
  5
1125
  8
CLUSTERS
 10
647.44880174299976
 20
4665.0187139400032
 30
10.0
  0
VERTEX
  5
1126
  8
CLUSTERS
 10
647.348583878
 20
4665.0148607399997
 30
10.0
  0
VERTEX
  5
1127
  8
CLUSTERS
 10
647.32672344100001
 20
4665.011933169998
 30
10.0
  0
VERTEX
  5
1128
  8
CLUSTERS
 10
647.2483660129999
 20
4664.9421532099996
 30
10.0
  0
VERTEX
  5
1129
  8
CLUSTERS
 10
647.17599408800004
 20
4665.011933169998
 30
10.0
  0
SEQEND
  5
112A
  8
CLUSTERS
  0
POLYLINE
  5
7E
  8
CLUSTERS
 66
     1
 10
0.0
 20
0.0
 30
10.0
 70
   129
  0
VERTEX
  5
112B
  8
CLUSTERS
 10
640.57945456599998
 20
4664.2100238700004
 30
10.0
  0
VERTEX
  5
112C
  8
CLUSTERS
 10
640.53376906300002
 20
4664.2493136000012
 30
10.0
  0
VERTEX
  5
112D
  8
CLUSTERS
 10
640.43355119800003
 20
4664.2177542700001
 30
10.0
  0
VERTEX
  5
112E
  8
CLUSTERS
 10
640.33333333300004
 20
4664.2509538999984
 30
10.0
  0
VERTEX
  5
112F
  8
CLUSTERS
 10
640.27359469600003
 20
4664.3102625299989
 30
10.0
  0
VERTEX
  5
1130
  8
CLUSTERS
 10
640.23738713599994
 20
4664.4105011900001
 30
10.0
  0
VERTEX
  5
1131
  8
CLUSTERS
 10
640.24591622200001
 20
4664.5107398600003
 30
10.0
  0
VERTEX
  5
1132
  8
CLUSTERS
 10
640.33333333300004
 20
4664.6074838699988
 30
10.0
  0
VERTEX
  5
1133
  8
CLUSTERS
 10
640.43355119800003
 20
4664.56834334
 30
10.0
  0
VERTEX
  5
1134
  8
CLUSTERS
 10
640.49561186300002
 20
4664.5107398600003
 30
10.0
  0
VERTEX
  5
1135
  8
CLUSTERS
 10
640.53376906300002
 20
4664.4239296400001
 30
10.0
  0
VERTEX
  5
1136
  8
CLUSTERS
 10
640.57729460400003
 20
4664.4105011900001
 30
10.0
  0
VERTEX
  5
1137
  8
CLUSTERS
 10
640.6339869279999
 20
4664.4056766900003
 30
10.0
  0
VERTEX
  5
1138
  8
CLUSTERS
 10
640.71635366899977
 20
4664.3102625299989
 30
10.0
  0
VERTEX
  5
1139
  8
CLUSTERS
 10
640.68975628099997
 20
4664.2100238700004
 30
10.0
  0
VERTEX
  5
113A
  8
CLUSTERS
 10
640.6339869279999
 20
4664.1598230600002
 30
10.0
  0
VERTEX
  5
113B
  8
CLUSTERS
 10
640.57945456599998
 20
4664.2100238700004
 30
10.0
  0
SEQEND
  5
113C
  8
CLUSTERS
  0
POLYLINE
  5
7F
  8
CLUSTERS
 66
     1
 10
0.0
 20
0.0
 30
10.0
 70
   129
  0
VERTEX
  5
113D
  8
CLUSTERS
 10
640.84189433999995
 20
4663.9093078799997
 30
10.0
  0
VERTEX
  5
113E
  8
CLUSTERS
 10
640.85717889699993
 20
4664.0095465399991
 30
10.0
  0
VERTEX
  5
113F
  8
CLUSTERS
 10
640.85736521399986
 20
4664.1097851999994
 30
10.0
  0
VERTEX
  5
1140
  8
CLUSTERS
 10
640.83663779999995
 20
4664.2100238700004
 30
10.0
  0
VERTEX
  5
1141
  8
CLUSTERS
 10
640.83618863100003
 20
4664.3102625299989
 30
10.0
  0
VERTEX
  5
1142
  8
CLUSTERS
 10
640.83442265799977
 20
4664.3214113499998
 30
10.0
  0
VERTEX
  5
1143
  8
CLUSTERS
 10
640.77495116499995
 20
4664.4105011900001
 30
10.0
  0
VERTEX
  5
1144
  8
CLUSTERS
 10
640.77354505099993
 20
4664.5107398600003
 30
10.0
  0
VERTEX
  5
1145
  8
CLUSTERS
 10
640.820461378
 20
4664.6109785199978
 30
10.0
  0
VERTEX
  5
1146
  8
CLUSTERS
 10
640.82611560600003
 20
4664.7112171799999
 30
10.0
  0
VERTEX
  5
1147
  8
CLUSTERS
 10
640.734204793
 20
4664.761015009999
 30
10.0
  0
VERTEX
  5
1148
  8
CLUSTERS
 10
640.689244433
 20
4664.8114558500001
 30
10.0
  0
VERTEX
  5
1149
  8
CLUSTERS
 10
640.63733711500004
 20
4664.9116945100004
 30
10.0
  0
VERTEX
  5
114A
  8
CLUSTERS
 10
640.6339869279999
 20
4664.9443556000024
 30
10.0
  0
VERTEX
  5
114B
  8
CLUSTERS
 10
640.59244135300003
 20
4665.011933169998
 30
10.0
  0
VERTEX
  5
114C
  8
CLUSTERS
 10
640.53376906300002
 20
4665.0278070900013
 30
10.0
  0
VERTEX
  5
114D
  8
CLUSTERS
 10
640.43355119800003
 20
4665.0322284599997
 30
10.0
  0
VERTEX
  5
114E
  8
CLUSTERS
 10
640.35401496700001
 20
4665.1121718399991
 30
10.0
  0
VERTEX
  5
114F
  8
CLUSTERS
 10
640.43355119800003
 20
4665.2093357800013
 30
10.0
  0
VERTEX
  5
1150
  8
CLUSTERS
 10
640.46707976899995
 20
4665.2124105000003
 30
10.0
  0
VERTEX
  5
1151
  8
CLUSTERS
 10
640.53376906300002
 20
4665.2326337200002
 30
10.0
  0
VERTEX
  5
1152
  8
CLUSTERS
 10
640.56103216999998
 20
4665.2124105000003
 30
10.0
  0
VERTEX
  5
1153
  8
CLUSTERS
 10
640.63060251100001
 20
4665.1121718399991
 30
10.0
  0
VERTEX
  5
1154
  8
CLUSTERS
 10
640.6339869279999
 20
4665.0913410000003
 30
10.0
  0
VERTEX
  5
1155
  8
CLUSTERS
 10
640.63731841900005
 20
4665.1121718399991
 30
10.0
  0
VERTEX
  5
1156
  8
CLUSTERS
 10
640.70027084599985
 20
4665.2124105000003
 30
10.0
  0
VERTEX
  5
1157
  8
CLUSTERS
 10
640.734204793
 20
4665.24256014
 30
10.0
  0
VERTEX
  5
1158
  8
CLUSTERS
 10
640.83442265799977
 20
4665.3084846999991
 30
10.0
  0
VERTEX
  5
1159
  8
CLUSTERS
 10
640.93464052299987
 20
4665.3092980900001
 30
10.0
  0
VERTEX
  5
115A
  8
CLUSTERS
 10
640.97674983599995
 20
4665.3126491599987
 30
10.0
  0
VERTEX
  5
115B
  8
CLUSTERS
 10
641.03485838799998
 20
4665.3470622300001
 30
10.0
  0
VERTEX
  5
115C
  8
CLUSTERS
 10
641.13507625299997
 20
4665.38455385
 30
10.0
  0
VERTEX
  5
115D
  8
CLUSTERS
 10
641.23529411799996
 20
4665.39305315
 30
10.0
  0
VERTEX
  5
115E
  8
CLUSTERS
 10
641.33551198300006
 20
4665.3471763400003
 30
10.0
  0
VERTEX
  5
115F
  8
CLUSTERS
 10
641.35423595500004
 20
4665.4128878299998
 30
10.0
  0
VERTEX
  5
1160
  8
CLUSTERS
 10
641.43572984699995
 20
4665.4931220300004
 30
10.0
  0
VERTEX
  5
1161
  8
CLUSTERS
 10
641.518291976
 20
4665.5131264900001
 30
10.0
  0
VERTEX
  5
1162
  8
CLUSTERS
 10
641.53594771199994
 20
4665.5259918800002
 30
10.0
  0
VERTEX
  5
1163
  8
CLUSTERS
 10
641.62212674800003
 20
4665.6133651600003
 30
10.0
  0
VERTEX
  5
1164
  8
CLUSTERS
 10
641.63616557699993
 20
4665.6251602100001
 30
10.0
  0
VERTEX
  5
1165
  8
CLUSTERS
 10
641.68171221099999
 20
4665.6133651600003
 30
10.0
  0
VERTEX
  5
1166
  8
CLUSTERS
 10
641.73638344199992
 20
4665.6103589599998
 30
10.0
  0
VERTEX
  5
1167
  8
CLUSTERS
 10
641.83660130699991
 20
4665.60634553
 30
10.0
  0
VERTEX
  5
1168
  8
CLUSTERS
 10
641.83885966499975
 20
4665.6133651600003
 30
10.0
  0
VERTEX
  5
1169
  8
CLUSTERS
 10
641.93681917200001
 20
4665.6674277299981
 30
10.0
  0
VERTEX
  5
116A
  8
CLUSTERS
 10
641.9901961459999
 20
4665.6133651600003
 30
10.0
  0
VERTEX
  5
116B
  8
CLUSTERS
 10
641.93681917200001
 20
4665.5206503299996
 30
10.0
  0
VERTEX
  5
116C
  8
CLUSTERS
 10
641.91582080800003
 20
4665.5131264900001
 30
10.0
  0
VERTEX
  5
116D
  8
CLUSTERS
 10
641.93681917200001
 20
4665.5069620699996
 30
10.0
  0
VERTEX
  5
116E
  8
CLUSTERS
 10
641.99137617999997
 20
4665.4128878299998
 30
10.0
  0
VERTEX
  5
116F
  8
CLUSTERS
 10
641.93681917200001
 20
4665.3532756300001
 30
10.0
  0
VERTEX
  5
1170
  8
CLUSTERS
 10
641.89144189399997
 20
4665.3126491599987
 30
10.0
  0
VERTEX
  5
1171
  8
CLUSTERS
 10
641.83660130699991
 20
4665.2481998900003
 30
10.0
  0
VERTEX
  5
1172
  8
CLUSTERS
 10
641.82640283800004
 20
4665.2124105000003
 30
10.0
  0
VERTEX
  5
1173
  8
CLUSTERS
 10
641.73638344199992
 20
4665.1153115000006
 30
10.0
  0
VERTEX
  5
1174
  8
CLUSTERS
 10
641.72775935899995
 20
4665.1121718399991
 30
10.0
  0
VERTEX
  5
1175
  8
CLUSTERS
 10
641.63616557699993
 20
4665.0411836499989
 30
10.0
  0
VERTEX
  5
1176
  8
CLUSTERS
 10
641.53594771199994
 20
4665.015604879999
 30
10.0
  0
VERTEX
  5
1177
  8
CLUSTERS
 10
641.43572984699995
 20
4665.0121682799991
 30
10.0
  0
VERTEX
  5
1178
  8
CLUSTERS
 10
641.43477101600001
 20
4665.011933169998
 30
10.0
  0
VERTEX
  5
1179
  8
CLUSTERS
 10
641.33551198300006
 20
4664.9153579200001
 30
10.0
  0
VERTEX
  5
117A
  8
CLUSTERS
 10
641.23529411799996
 20
4664.9121480000003
 30
10.0
  0
VERTEX
  5
117B
  8
CLUSTERS
 10
641.23470252000004
 20
4664.9116945100004
 30
10.0
  0
VERTEX
  5
117C
  8
CLUSTERS
 10
641.18064309299996
 20
4664.8114558500001
 30
10.0
  0
VERTEX
  5
117D
  8
CLUSTERS
 10
641.23529411799996
 20
4664.7763137900001
 30
10.0
  0
VERTEX
  5
117E
  8
CLUSTERS
 10
641.25405060399999
 20
4664.8114558500001
 30
10.0
  0
VERTEX
  5
117F
  8
CLUSTERS
 10
641.33551198300006
 20
4664.8996738999977
 30
10.0
  0
VERTEX
  5
1180
  8
CLUSTERS
 10
641.43572984699995
 20
4664.8954996399998
 30
10.0
  0
VERTEX
  5
1181
  8
CLUSTERS
 10
641.50269495600003
 20
4664.8114558500001
 30
10.0
  0
VERTEX
  5
1182
  8
CLUSTERS
 10
641.43572984699995
 20
4664.7267147399998
 30
10.0
  0
VERTEX
  5
1183
  8
CLUSTERS
 10
641.42438794699979
 20
4664.7112171799999
 30
10.0
  0
VERTEX
  5
1184
  8
CLUSTERS
 10
641.38305480500003
 20
4664.6109785199978
 30
10.0
  0
VERTEX
  5
1185
  8
CLUSTERS
 10
641.41822710199995
 20
4664.5107398600003
 30
10.0
  0
VERTEX
  5
1186
  8
CLUSTERS
 10
641.43227661699996
 20
4664.4105011900001
 30
10.0
  0
VERTEX
  5
1187
  8
CLUSTERS
 10
641.43572984699995
 20
4664.4062258100003
 30
10.0
  0
VERTEX
  5
1188
  8
CLUSTERS
 10
641.53594771199994
 20
4664.3786621000008
 30
10.0
  0
VERTEX
  5
1189
  8
CLUSTERS
 10
641.59352974699993
 20
4664.3102625299989
 30
10.0
  0
VERTEX
  5
118A
  8
CLUSTERS
 10
641.60245053099993
 20
4664.2100238700004
 30
10.0
  0
VERTEX
  5
118B
  8
CLUSTERS
 10
641.53594771199994
 20
4664.1419302100003
 30
10.0
  0
VERTEX
  5
118C
  8
CLUSTERS
 10
641.47429487999977
 20
4664.1097851999994
 30
10.0
  0
VERTEX
  5
118D
  8
CLUSTERS
 10
641.43572984699995
 20
4664.0751011399989
 30
10.0
  0
VERTEX
  5
118E
  8
CLUSTERS
 10
641.39740148299995
 20
4664.1097851999994
 30
10.0
  0
VERTEX
  5
118F
  8
CLUSTERS
 10
641.35392373000002
 20
4664.2100238700004
 30
10.0
  0
VERTEX
  5
1190
  8
CLUSTERS
 10
641.33551198300006
 20
4664.2868366000002
 30
10.0
  0
VERTEX
  5
1191
  8
CLUSTERS
 10
641.24223103899999
 20
4664.2100238700004
 30
10.0
  0
VERTEX
  5
1192
  8
CLUSTERS
 10
641.23529411799996
 20
4664.2001453999992
 30
10.0
  0
VERTEX
  5
1193
  8
CLUSTERS
 10
641.22941535699999
 20
4664.1097851999994
 30
10.0
  0
VERTEX
  5
1194
  8
CLUSTERS
 10
641.21883671699993
 20
4664.0095465399991
 30
10.0
  0
VERTEX
  5
1195
  8
CLUSTERS
 10
641.13507625299997
 20
4663.9225960699987
 30
10.0
  0
VERTEX
  5
1196
  8
CLUSTERS
 10
641.12735265499975
 20
4663.9093078799997
 30
10.0
  0
VERTEX
  5
1197
  8
CLUSTERS
 10
641.03485838799998
 20
4663.8212365600002
 30
10.0
  0
VERTEX
  5
1198
  8
CLUSTERS
 10
640.93464052299987
 20
4663.8264557100001
 30
10.0
  0
VERTEX
  5
1199
  8
CLUSTERS
 10
640.84189433999995
 20
4663.9093078799997
 30
10.0
  0
SEQEND
  5
119A
  8
CLUSTERS
  0
POLYLINE
  5
80
  8
CLUSTERS
 66
     1
 10
0.0
 20
0.0
 30
10.0
 70
   129
  0
VERTEX
  5
119B
  8
CLUSTERS
 10
639.11624904199994
 20
4661.7040572799979
 30
10.0
  0
VERTEX
  5
119C
  8
CLUSTERS
 10
639.09027878199993
 20
4661.80429594
 30
10.0
  0
VERTEX
  5
119D
  8
CLUSTERS
 10
639.13071895400003
 20
4661.8682894800004
 30
10.0
  0
VERTEX
  5
119E
  8
CLUSTERS
 10
639.14515969199977
 20
4661.9045346100002
 30
10.0
  0
VERTEX
  5
119F
  8
CLUSTERS
 10
639.23093681900002
 20
4661.9829409900003
 30
10.0
  0
VERTEX
  5
11A0
  8
CLUSTERS
 10
639.27739225799996
 20
4662.0047732700014
 30
10.0
  0
VERTEX
  5
11A1
  8
CLUSTERS
 10
639.23093681900002
 20
4662.0180790599998
 30
10.0
  0
VERTEX
  5
11A2
  8
CLUSTERS
 10
639.13423143299997
 20
4662.1050119299998
 30
10.0
  0
VERTEX
  5
11A3
  8
CLUSTERS
 10
639.13071895400003
 20
4662.1173434900002
 30
10.0
  0
VERTEX
  5
11A4
  8
CLUSTERS
 10
639.07759468400002
 20
4662.2052506000009
 30
10.0
  0
VERTEX
  5
11A5
  8
CLUSTERS
 10
639.12001928699999
 20
4662.3054892600003
 30
10.0
  0
VERTEX
  5
11A6
  8
CLUSTERS
 10
639.13071895400003
 20
4662.3183796100002
 30
10.0
  0
VERTEX
  5
11A7
  8
CLUSTERS
 10
639.152574018
 20
4662.4057279199988
 30
10.0
  0
VERTEX
  5
11A8
  8
CLUSTERS
 10
639.23093681900002
 20
4662.4824206499989
 30
10.0
  0
VERTEX
  5
11A9
  8
CLUSTERS
 10
639.33115468400001
 20
4662.499776669998
 30
10.0
  0
VERTEX
  5
11AA
  8
CLUSTERS
 10
639.43137254899989
 20
4662.4966263300003
 30
10.0
  0
VERTEX
  5
11AB
  8
CLUSTERS
 10
639.53159041399999
 20
4662.4158227799981
 30
10.0
  0
VERTEX
  5
11AC
  8
CLUSTERS
 10
639.542073426
 20
4662.4057279199988
 30
10.0
  0
VERTEX
  5
11AD
  8
CLUSTERS
 10
639.62490196199985
 20
4662.3054892600003
 30
10.0
  0
VERTEX
  5
11AE
  8
CLUSTERS
 10
639.63180827899976
 20
4662.2978117800003
 30
10.0
  0
VERTEX
  5
11AF
  8
CLUSTERS
 10
639.72722519000001
 20
4662.2052506000009
 30
10.0
  0
VERTEX
  5
11B0
  8
CLUSTERS
 10
639.73202614399986
 20
4662.1992924999977
 30
10.0
  0
VERTEX
  5
11B1
  8
CLUSTERS
 10
639.81959141799996
 20
4662.1050119299998
 30
10.0
  0
VERTEX
  5
11B2
  8
CLUSTERS
 10
639.83224400899985
 20
4662.0842640199999
 30
10.0
  0
VERTEX
  5
11B3
  8
CLUSTERS
 10
639.90071497999998
 20
4662.0047732700014
 30
10.0
  0
VERTEX
  5
11B4
  8
CLUSTERS
 10
639.91249160300003
 20
4661.9045346100002
 30
10.0
  0
VERTEX
  5
11B5
  8
CLUSTERS
 10
639.87594360799994
 20
4661.80429594
 30
10.0
  0
VERTEX
  5
11B6
  8
CLUSTERS
 10
639.83224400899985
 20
4661.7586282000002
 30
10.0
  0
VERTEX
  5
11B7
  8
CLUSTERS
 10
639.73202614399986
 20
4661.7056623999997
 30
10.0
  0
VERTEX
  5
11B8
  8
CLUSTERS
 10
639.70971018699993
 20
4661.7040572799979
 30
10.0
  0
VERTEX
  5
11B9
  8
CLUSTERS
 10
639.63180827899976
 20
4661.6522690100001
 30
10.0
  0
VERTEX
  5
11BA
  8
CLUSTERS
 10
639.53159041399999
 20
4661.6510644600003
 30
10.0
  0
VERTEX
  5
11BB
  8
CLUSTERS
 10
639.46393001299975
 20
4661.7040572799979
 30
10.0
  0
VERTEX
  5
11BC
  8
CLUSTERS
 10
639.43137254899989
 20
4661.7117382699998
 30
10.0
  0
VERTEX
  5
11BD
  8
CLUSTERS
 10
639.39562222199993
 20
4661.7040572799979
 30
10.0
  0
VERTEX
  5
11BE
  8
CLUSTERS
 10
639.33115468400001
 20
4661.6559274399997
 30
10.0
  0
VERTEX
  5
11BF
  8
CLUSTERS
 10
639.23093681900002
 20
4661.6357715599988
 30
10.0
  0
VERTEX
  5
11C0
  8
CLUSTERS
 10
639.13071895400003
 20
4661.6896202300004
 30
10.0
  0
VERTEX
  5
11C1
  8
CLUSTERS
 10
639.11624904199994
 20
4661.7040572799979
 30
10.0
  0
SEQEND
  5
11C2
  8
CLUSTERS
  0
ENDSEC
  0
EOF
