  0
SECTION
  2
HEADER
  9
$ACADVER
  1
AC1009
  9
$INSBASE
 10
0.0
 20
0.0
 30
0.0
  9
$EXTMIN
 10
461603.67349953909
 20
4709670.4014436491
 30
0.05
  9
$EXTMAX
 10
488894.4973142668
 20
4730234.842643545
 30
24.300000000000001
  9
$LIMMIN
 10
0.0
 20
0.0
  9
$LIMMAX
 10
12.0
 20
9.0
  9
$ORTHOMODE
 70
     0
  9
$REGENMODE
 70
     1
  9
$FILLMODE
 70
     1
  9
$QTEXTMODE
 70
     0
  9
$MIRRTEXT
 70
     1
  9
$DRAGMODE
 70
     2
  9
$LTSCALE
 40
1.0
  9
$OSMODE
 70
    37
  9
$ATTMODE
 70
     1
  9
$TEXTSIZE
 40
0.2
  9
$TRACEWID
 40
0.05
  9
$TEXTSTYLE
  7
STANDARD
  9
$CLAYER
  8
0
  9
$CELTYPE
  6
BYLAYER
  9
$CECOLOR
 62
   256
  9
$DIMSCALE
 40
1.0
  9
$DIMASZ
 40
0.18
  9
$DIMEXO
 40
0.0625
  9
$DIMDLI
 40
0.38
  9
$DIMRND
 40
0.0
  9
$DIMDLE
 40
0.0
  9
$DIMEXE
 40
0.18
  9
$DIMTP
 40
0.0
  9
$DIMTM
 40
0.0
  9
$DIMTXT
 40
0.18
  9
$DIMCEN
 40
0.09
  9
$DIMTSZ
 40
0.0
  9
$DIMTOL
 70
     0
  9
$DIMLIM
 70
     0
  9
$DIMTIH
 70
     1
  9
$DIMTOH
 70
     1
  9
$DIMSE1
 70
     0
  9
$DIMSE2
 70
     0
  9
$DIMTAD
 70
     0
  9
$DIMZIN
 70
     0
  9
$DIMBLK
  1

  9
$DIMASO
 70
     1
  9
$DIMSHO
 70
     1
  9
$DIMPOST
  1

  9
$DIMAPOST
  1

  9
$DIMALT
 70
     0
  9
$DIMALTD
 70
     2
  9
$DIMALTF
 40
25.399999999999999
  9
$DIMLFAC
 40
1.0
  9
$DIMTOFL
 70
     0
  9
$DIMTVP
 40
0.0
  9
$DIMTIX
 70
     0
  9
$DIMSOXD
 70
     0
  9
$DIMSAH
 70
     0
  9
$DIMBLK1
  1

  9
$DIMBLK2
  1

  9
$DIMSTYLE
  2
STANDARD
  9
$DIMCLRD
 70
     0
  9
$DIMCLRE
 70
     0
  9
$DIMCLRT
 70
     0
  9
$DIMTFAC
 40
1.0
  9
$DIMGAP
 40
0.09
  9
$LUNITS
 70
     2
  9
$LUPREC
 70
     4
  9
$SKETCHINC
 40
0.1
  9
$FILLETRAD
 40
0.5
  9
$AUNITS
 70
     0
  9
$AUPREC
 70
     0
  9
$MENU
  1
.
  9
$ELEVATION
 40
0.0
  9
$PELEVATION
 40
0.0
  9
$THICKNESS
 40
0.0
  9
$LIMCHECK
 70
     0
  9
$BLIPMODE
 70
     0
  9
$CHAMFERA
 40
0.5
  9
$CHAMFERB
 40
0.5
  9
$SKPOLY
 70
     0
  9
$TDCREATE
 40
2456320.7140726279
  9
$TDUPDATE
 40
2456320.718710023
  9
$TDINDWG
 40
0.1060957176
  9
$TDUSRTIMER
 40
0.1060725694
  9
$USRTIMER
 70
     1
  9
$ANGBASE
 50
0.0
  9
$ANGDIR
 70
     1
  9
$PDMODE
 70
    66
  9
$PDSIZE
 40
0.0
  9
$PLINEWID
 40
0.0
  9
$COORDS
 70
     1
  9
$SPLFRAME
 70
     0
  9
$SPLINETYPE
 70
     6
  9
$SPLINESEGS
 70
     8
  9
$ATTDIA
 70
     0
  9
$ATTREQ
 70
     1
  9
$HANDLING
 70
     1
  9
$HANDSEED
  5
2B4
  9
$SURFTAB1
 70
     6
  9
$SURFTAB2
 70
     6
  9
$SURFTYPE
 70
     6
  9
$SURFU
 70
     6
  9
$SURFV
 70
     6
  9
$UCSNAME
  2

  9
$UCSORG
 10
0.0
 20
0.0
 30
0.0
  9
$UCSXDIR
 10
1.0
 20
0.0
 30
0.0
  9
$UCSYDIR
 10
0.0
 20
1.0
 30
0.0
  9
$PUCSNAME
  2

  9
$PUCSORG
 10
0.0
 20
0.0
 30
0.0
  9
$PUCSXDIR
 10
1.0
 20
0.0
 30
0.0
  9
$PUCSYDIR
 10
0.0
 20
1.0
 30
0.0
  9
$USERI1
 70
     0
  9
$USERI2
 70
     0
  9
$USERI3
 70
     0
  9
$USERI4
 70
     0
  9
$USERI5
 70
     0
  9
$USERR1
 40
0.0
  9
$USERR2
 40
0.0
  9
$USERR3
 40
0.0
  9
$USERR4
 40
0.0
  9
$USERR5
 40
0.0
  9
$WORLDVIEW
 70
     1
  9
$SHADEDGE
 70
     3
  9
$SHADEDIF
 70
    70
  9
$TILEMODE
 70
     1
  9
$MAXACTVP
 70
    64
  9
$PLIMCHECK
 70
     0
  9
$PEXTMIN
 10
0.0
 20
0.0
 30
0.0
  9
$PEXTMAX
 10
0.0
 20
0.0
 30
0.0
  9
$PLIMMIN
 10
0.0
 20
0.0
  9
$PLIMMAX
 10
12.0
 20
9.0
  9
$UNITMODE
 70
     0
  9
$VISRETAIN
 70
     1
  9
$PLINEGEN
 70
     0
  9
$PSLTSCALE
 70
     1
  0
ENDSEC
  0
SECTION
  2
TABLES
  0
TABLE
  2
VPORT
 70
     1
  0
VPORT
  2
*ACTIVE
 70
     0
 10
0.0
 20
0.0
 11
1.0
 21
1.0
 12
476681.6928385162
 22
4722811.1536543872
 13
0.0
 23
0.0
 14
0.5
 24
0.5
 15
0.5
 25
0.5
 16
0.0
 26
0.0
 36
1.0
 17
0.0
 27
0.0
 37
0.0
 40
39160.40084519051
 41
1.7470817120622559
 42
50.0
 43
0.0
 44
0.0
 50
0.0
 51
0.0
 71
     0
 72
   100
 73
     1
 74
     2
 75
     0
 76
     0
 77
     0
 78
     0
  0
ENDTAB
  0
TABLE
  2
LTYPE
 70
     1
  0
LTYPE
  2
CONTINUOUS
 70
     0
  3
Solid line
 72
    65
 73
     0
 40
0.0
  0
ENDTAB
  0
TABLE
  2
LAYER
 70
     2
  0
LAYER
  2
0
 70
     0
 62
     7
  6
CONTINUOUS
  0
LAYER
  2
3LBA
 70
     0
 62
     2
  6
CONTINUOUS
  0
ENDTAB
  0
TABLE
  2
STYLE
 70
     1
  0
STYLE
  2
STANDARD
 70
     0
 40
0.0
 41
1.0
 50
0.0
 71
     0
 42
0.2
  3
txt
  4

  0
ENDTAB
  0
TABLE
  2
VIEW
 70
     0
  0
ENDTAB
  0
TABLE
  2
UCS
 70
     0
  0
ENDTAB
  0
TABLE
  2
APPID
 70
     4
  0
APPID
  2
ACAD
 70
     0
  0
APPID
  2
DCO15
 70
     0
  0
APPID
  2
ADE
 70
     0
  0
APPID
  2
ACAECLAYERSTANDARD
 70
     0
  0
ENDTAB
  0
TABLE
  2
DIMSTYLE
 70
     1
  0
DIMSTYLE
  2
STANDARD
 70
     0
  3

  4

  5

  6

  7

 40
1.0
 41
0.18
 42
0.0625
 43
0.38
 44
0.18
 45
0.0
 46
0.0
 47
0.0
 48
0.0
140
0.18
141
0.09
142
0.0
143
25.399999999999999
144
1.0
145
0.0
146
1.0
147
0.09
 71
     0
 72
     0
 73
     1
 74
     1
 75
     0
 76
     0
 77
     0
 78
     0
170
     0
171
     2
172
     0
173
     0
174
     0
175
     0
176
     0
177
     0
178
     0
  0
ENDTAB
  0
ENDSEC
  0
SECTION
  2
BLOCKS
  0
BLOCK
  8
0
  2
$MODEL_SPACE
 70
     0
 10
0.0
 20
0.0
 30
0.0
  3
$MODEL_SPACE
  1

  0
ENDBLK
  5
17
  8
0
  0
BLOCK
 67
     1
  8
0
  2
$PAPER_SPACE
 70
     0
 10
0.0
 20
0.0
 30
0.0
  3
$PAPER_SPACE
  1

  0
ENDBLK
  5
1C
 67
     1
  8
0
  0
ENDSEC
  0
SECTION
  2
ENTITIES
  0
POLYLINE
  5
6C
  8
3LBA
 66
     1
 10
0.0
 20
0.0
 30
0.25
 70
     1
1001
DCO15
1071
        2
1071
        2
1000
Jan27
1004
074236303400
  0
VERTEX
  5
CD
  8
3LBA
 10
471199.80399203493
 20
4727794.5708633531
 30
0.25
  0
VERTEX
  5
CE
  8
3LBA
 10
471244.76461039932
 20
4727792.183467865
 30
0.25
  0
VERTEX
  5
CF
  8
3LBA
 10
471229.42765325378
 20
4727732.1536107156
 30
0.25
  0
VERTEX
  5
D0
  8
3LBA
 10
471177.20106869389
 20
4727731.953260011
 30
0.25
  0
VERTEX
  5
D1
  8
3LBA
 10
471196.38376374397
 20
4727794.0451493366
 30
0.25
  0
SEQEND
  5
D2
  8
3LBA
  0
POLYLINE
  5
71
  8
3LBA
 66
     1
 10
0.0
 20
0.0
 30
0.25
 70
     1
1001
DCO15
1071
        2
1071
        2
1000
Jan27
1004
074237363700
  0
VERTEX
  5
D3
  8
3LBA
 10
477998.50006765733
 20
4713421.9999801703
 30
0.25
  0
VERTEX
  5
D4
  8
3LBA
 10
477991.5
 20
4713435.5
 30
0.25
  0
VERTEX
  5
D5
  8
3LBA
 10
477991.5
 20
4713435.5
 30
0.25
  0
VERTEX
  5
D6
  8
3LBA
 10
477978.5
 20
4713455.5
 30
0.25
  0
VERTEX
  5
D7
  8
3LBA
 10
477956.5
 20
4713439.4999999991
 30
0.25
  0
VERTEX
  5
D8
  8
3LBA
 10
477953.00003318151
 20
4713427.000019649
 30
0.25
  0
VERTEX
  5
D9
  8
3LBA
 10
477951.50006765733
 20
4713412.9999801712
 30
0.25
  0
VERTEX
  5
DA
  8
3LBA
 10
477957.0
 20
4713394.0
 30
0.25
  0
VERTEX
  5
DB
  8
3LBA
 10
477980.0
 20
4713386.5
 30
0.25
  0
VERTEX
  5
DC
  8
3LBA
 10
477987.50003318163
 20
4713389.000019649
 30
0.25
  0
SEQEND
  5
DD
  8
3LBA
  0
POLYLINE
  5
72
  8
3LBA
 66
     1
 10
0.0
 20
0.0
 30
0.25
 70
     1
1001
DCO15
1071
        2
1071
        2
1000
Jan27
1004
074139323200
  0
VERTEX
  5
DE
  8
3LBA
 10
488167.99996196671
 20
4717975.0000318689
 30
0.25
  0
VERTEX
  5
DF
  8
3LBA
 10
488161.50005656772
 20
4717966.5000748569
 30
0.25
  0
VERTEX
  5
E0
  8
3LBA
 10
488154.00005656778
 20
4717956.5000748569
 30
0.25
  0
VERTEX
  5
E1
  8
3LBA
 10
488145.50006654579
 20
4717937.5000338834
 30
0.25
  0
VERTEX
  5
E2
  8
3LBA
 10
488159.50006654579
 20
4717929.5000338834
 30
0.25
  0
VERTEX
  5
E3
  8
3LBA
 10
488184.00006654591
 20
4717914.0000338834
 30
0.25
  0
VERTEX
  5
E4
  8
3LBA
 10
488202.50005656772
 20
4717954.5000748569
 30
0.25
  0
VERTEX
  5
E5
  8
3LBA
 10
488184.50005656772
 20
4717971.000074856
 30
0.25
  0
SEQEND
  5
E6
  8
3LBA
  0
POLYLINE
  5
73
  8
3LBA
 66
     1
 10
0.0
 20
0.0
 30
0.25
 70
     1
1001
DCO15
1071
        2
1071
        2
1000
Jan27
1004
074139323100
  0
VERTEX
  5
E7
  8
3LBA
 10
488122.49996196659
 20
4718001.5000318699
 30
0.25
  0
VERTEX
  5
E8
  8
3LBA
 10
488116.00005656772
 20
4717993.0000748569
 30
0.25
  0
VERTEX
  5
E9
  8
3LBA
 10
488108.50005656772
 20
4717983.000074856
 30
0.25
  0
VERTEX
  5
EA
  8
3LBA
 10
488100.00006654591
 20
4717964.0000338843
 30
0.25
  0
VERTEX
  5
EB
  8
3LBA
 10
488114.00006654579
 20
4717956.0000338843
 30
0.25
  0
VERTEX
  5
EC
  8
3LBA
 10
488138.50006654579
 20
4717940.5000338834
 30
0.25
  0
VERTEX
  5
ED
  8
3LBA
 10
488165.0
 20
4717980.5
 30
0.25
  0
VERTEX
  5
EE
  8
3LBA
 10
488139.00005656772
 20
4717997.5000748569
 30
0.25
  0
SEQEND
  5
EF
  8
3LBA
  0
POLYLINE
  5
74
  8
3LBA
 66
     1
 10
0.0
 20
0.0
 30
0.25
 70
     1
1001
DCO15
1071
        2
1071
        2
1000
Jan27
1004
074432333200
  0
VERTEX
  5
F0
  8
3LBA
 10
487969.5
 20
4717783.0
 30
0.25
  0
VERTEX
  5
F1
  8
3LBA
 10
487960.5
 20
4717771.0
 30
0.25
  0
VERTEX
  5
F2
  8
3LBA
 10
487954.5
 20
4717760.0
 30
0.25
  0
VERTEX
  5
F3
  8
3LBA
 10
487944.99999002198
 20
4717748.0000409726
 30
0.25
  0
VERTEX
  5
F4
  8
3LBA
 10
487955.49990624632
 20
4717740.0000339961
 30
0.25
  0
VERTEX
  5
F5
  8
3LBA
 10
487980.99999002198
 20
4717728.5000409735
 30
0.25
  0
VERTEX
  5
F6
  8
3LBA
 10
487998.99999002193
 20
4717760.0000409735
 30
0.25
  0
VERTEX
  5
F7
  8
3LBA
 10
487980.99999002198
 20
4717776.5000409726
 30
0.25
  0
SEQEND
  5
F8
  8
3LBA
  0
POLYLINE
  5
75
  8
3LBA
 66
     1
 10
0.0
 20
0.0
 30
0.25
 70
     1
1001
DCO15
1071
        2
1071
        2
1000
Jan27
1004
074432333300
  0
VERTEX
  5
F9
  8
3LBA
 10
487936.9998954208
 20
4717810.9999979855
 30
0.25
  0
VERTEX
  5
FA
  8
3LBA
 10
487930.49999002193
 20
4717802.5000409726
 30
0.25
  0
VERTEX
  5
FB
  8
3LBA
 10
487922.99999002193
 20
4717792.5000409735
 30
0.25
  0
VERTEX
  5
FC
  8
3LBA
 10
487922.99999002193
 20
4717792.5000409735
 30
0.25
  0
VERTEX
  5
FD
  8
3LBA
 10
487933.0
 20
4717776.5
 30
0.25
  0
VERTEX
  5
FE
  8
3LBA
 10
487952.50000000012
 20
4717760.4999999991
 30
0.25
  0
VERTEX
  5
FF
  8
3LBA
 10
487971.49999002193
 20
4717790.5000409726
 30
0.25
  0
VERTEX
  5
100
  8
3LBA
 10
487953.49999002193
 20
4717807.0000409726
 30
0.25
  0
SEQEND
  5
101
  8
3LBA
  0
POLYLINE
  5
76
  8
3LBA
 66
     1
 10
0.0
 20
0.0
 30
0.25
 70
     1
1001
DCO15
1071
        2
1071
        2
1000
Jan27
1004
074432333700
  0
VERTEX
  5
102
  8
3LBA
 10
487834.4998954208
 20
4717852.9999979855
 30
0.25
  0
VERTEX
  5
103
  8
3LBA
 10
487827.99999002193
 20
4717844.5000409735
 30
0.25
  0
VERTEX
  5
104
  8
3LBA
 10
487820.49999002193
 20
4717834.5000409726
 30
0.25
  0
VERTEX
  5
105
  8
3LBA
 10
487814.99999002198
 20
4717820.5000409726
 30
0.25
  0
VERTEX
  5
106
  8
3LBA
 10
487825.49990624632
 20
4717812.5000339961
 30
0.25
  0
VERTEX
  5
107
  8
3LBA
 10
487850.99999002193
 20
4717801.0000409735
 30
0.25
  0
VERTEX
  5
108
  8
3LBA
 10
487868.99999002198
 20
4717832.5000409735
 30
0.25
  0
VERTEX
  5
109
  8
3LBA
 10
487850.99999002193
 20
4717849.0000409726
 30
0.25
  0
SEQEND
  5
10A
  8
3LBA
  0
POLYLINE
  5
77
  8
3LBA
 66
     1
 10
0.0
 20
0.0
 30
0.25
 70
     1
1001
DCO15
1071
        2
1071
        2
1000
Jan27
1004
074138343500
  0
VERTEX
  5
10B
  8
3LBA
 10
487007.03708303359
 20
4715989.1552963778
 30
0.25
  0
VERTEX
  5
10C
  8
3LBA
 10
487013.0
 20
4716000.4999999991
 30
0.25
  0
VERTEX
  5
10D
  8
3LBA
 10
487013.0
 20
4716017.0
 30
0.25
  0
VERTEX
  5
10E
  8
3LBA
 10
487005.5
 20
4716034.5
 30
0.25
  0
VERTEX
  5
10F
  8
3LBA
 10
487005.5
 20
4716034.5
 30
0.25
  0
VERTEX
  5
110
  8
3LBA
 10
486981.5
 20
4716047.0
 30
0.25
  0
VERTEX
  5
111
  8
3LBA
 10
486962.5
 20
4716030.5
 30
0.25
  0
VERTEX
  5
112
  8
3LBA
 10
486973.38563475991
 20
4715986.5000328273
 30
0.25
  0
VERTEX
  5
113
  8
3LBA
 10
486973.38563475991
 20
4715986.5000328273
 30
0.25
  0
SEQEND
  5
114
  8
3LBA
  0
POLYLINE
  5
78
  8
3LBA
 66
     1
 10
0.0
 20
0.0
 30
0.25
 70
     1
1001
DCO15
1071
        2
1071
        2
1000
Jan27
1004
074138323900
  0
VERTEX
  5
115
  8
3LBA
 10
486537.9999935794
 20
4717802.0000028824
 30
0.25
  0
VERTEX
  5
116
  8
3LBA
 10
486542.00005206681
 20
4717794.0000272561
 30
0.25
  0
VERTEX
  5
117
  8
3LBA
 10
486578.5
 20
4717794.5
 30
0.25
  0
VERTEX
  5
118
  8
3LBA
 10
486582.50005908892
 20
4717804.5000104113
 30
0.25
  0
VERTEX
  5
119
  8
3LBA
 10
486580.00001376221
 20
4717838.5000452567
 30
0.25
  0
VERTEX
  5
11A
  8
3LBA
 10
486538.49999357952
 20
4717837.5000028824
 30
0.25
  0
SEQEND
  5
11B
  8
3LBA
  0
POLYLINE
  5
79
  8
3LBA
 66
     1
 10
0.0
 20
0.0
 30
0.25
 70
     1
1001
DCO15
1071
        2
1071
        2
1000
Jan27
1004
074138333700
  0
VERTEX
  5
11C
  8
3LBA
 10
486824.49994151259
 20
4718026.9999756264
 30
0.25
  0
VERTEX
  5
11D
  8
3LBA
 10
486834.5
 20
4718026.0
 30
0.25
  0
VERTEX
  5
11E
  8
3LBA
 10
486857.00000702211
 20
4718017.9999831552
 30
0.25
  0
VERTEX
  5
11F
  8
3LBA
 10
486869.00000702211
 20
4718029.4999831542
 30
0.25
  0
VERTEX
  5
120
  8
3LBA
 10
486866.4999616954
 20
4718063.5000180006
 30
0.25
  0
VERTEX
  5
121
  8
3LBA
 10
486824.99994151271
 20
4718062.4999756264
 30
0.25
  0
SEQEND
  5
122
  8
3LBA
  0
POLYLINE
  5
7A
  8
3LBA
 66
     1
 10
0.0
 20
0.0
 30
0.25
 70
     1
1001
DCO15
1071
        2
1071
        2
1000
Jan27
1004
074238303800
  0
VERTEX
  5
123
  8
3LBA
 10
483209.11344913102
 20
4714729.3560553957
 30
0.25
  0
VERTEX
  5
124
  8
3LBA
 10
483250.64588854491
 20
4714735.7899632324
 30
0.25
  0
VERTEX
  5
125
  8
3LBA
 10
483256.69991572952
 20
4714755.6708741356
 30
0.25
  0
VERTEX
  5
126
  8
3LBA
 10
483245.45689150301
 20
4714768.6367088836
 30
0.25
  0
VERTEX
  5
127
  8
3LBA
 10
483245.45689150301
 20
4714768.6367088836
 30
0.25
  0
VERTEX
  5
128
  8
3LBA
 10
483215.18709381251
 20
4714763.4503571307
 30
0.25
  0
VERTEX
  5
129
  8
3LBA
 10
483208.26837471791
 20
4714752.213336057
 30
0.25
  0
VERTEX
  5
12A
  8
3LBA
 10
483209.11344913102
 20
4714729.3560553957
 30
0.25
  0
VERTEX
  5
12B
  8
3LBA
 10
483209.11344913102
 20
4714729.3560553957
 30
0.25
  0
SEQEND
  5
12C
  8
3LBA
  0
POLYLINE
  5
7B
  8
3LBA
 66
     1
 10
0.0
 20
0.0
 30
0.25
 70
     1
1001
DCO15
1071
        2
1071
        2
1000
Jan27
1004
074131303800
  0
VERTEX
  5
12D
  8
3LBA
 10
482418.92018024402
 20
4714254.0727175027
 30
0.25
  0
VERTEX
  5
12E
  8
3LBA
 10
482435.73740066658
 20
4714249.1935457475
 30
0.25
  0
VERTEX
  5
12F
  8
3LBA
 10
482435.73740066658
 20
4714249.1935457475
 30
0.25
  0
VERTEX
  5
130
  8
3LBA
 10
482448.75713224668
 20
4714251.9042463172
 30
0.25
  0
VERTEX
  5
131
  8
3LBA
 10
482453.6828233843
 20
4714260.8674134919
 30
0.25
  0
VERTEX
  5
132
  8
3LBA
 10
482450.86863751872
 20
4714276.5624292307
 30
0.25
  0
VERTEX
  5
133
  8
3LBA
 10
482448.24172423629
 20
4714289.8651238382
 30
0.25
  0
VERTEX
  5
134
  8
3LBA
 10
482428.50187133189
 20
4714292.7875741767
 30
0.25
  0
VERTEX
  5
135
  8
3LBA
 10
482410.22430136049
 20
4714279.6365922866
 30
0.25
  0
VERTEX
  5
136
  8
3LBA
 10
482410.24041289568
 20
4714265.9994429247
 30
0.25
  0
SEQEND
  5
137
  8
3LBA
  0
POLYLINE
  5
7C
  8
3LBA
 66
     1
 10
0.0
 20
0.0
 30
0.25
 70
     1
1001
DCO15
1071
        2
1071
        2
1000
Jan27
1004
074133383800
  0
VERTEX
  5
138
  8
3LBA
 10
468127.61371519481
 20
4729778.3842458166
 30
0.25
  0
VERTEX
  5
139
  8
3LBA
 10
468107.2931878469
 20
4729743.572700927
 30
0.25
  0
VERTEX
  5
13A
  8
3LBA
 10
468155.19149748067
 20
4729731.9688526308
 30
0.25
  0
VERTEX
  5
13B
  8
3LBA
 10
468168.25476989092
 20
4729730.5185171394
 30
0.25
  0
VERTEX
  5
13C
  8
3LBA
 10
468175.57394619187
 20
4729761.3577076923
 30
0.25
  0
VERTEX
  5
13D
  8
3LBA
 10
468147.93424254277
 20
4729774.0327735972
 30
0.25
  0
VERTEX
  5
13E
  8
3LBA
 10
468130.86494263139
 20
4729776.8388979817
 30
0.25
  0
SEQEND
  5
13F
  8
3LBA
  0
POLYLINE
  5
7D
  8
3LBA
 66
     1
 10
0.0
 20
0.0
 30
0.25
 70
     1
1001
DCO15
1071
        2
1071
        2
1000
Jan27
1004
074133383300
  0
VERTEX
  5
140
  8
3LBA
 10
468211.77160927531
 20
4730162.386183193
 30
0.25
  0
VERTEX
  5
141
  8
3LBA
 10
468219.04736944818
 20
4730181.082656418
 30
0.25
  0
VERTEX
  5
142
  8
3LBA
 10
468233.59888979391
 20
4730184.1987352893
 30
0.25
  0
VERTEX
  5
143
  8
3LBA
 10
468255.42652618239
 20
4730184.1987352893
 30
0.25
  0
VERTEX
  5
144
  8
3LBA
 10
468262.70228635531
 20
4730177.9665775467
 30
0.25
  0
VERTEX
  5
145
  8
3LBA
 10
468259.58415426267
 20
4730160.3087196527
 30
0.25
  0
VERTEX
  5
146
  8
3LBA
 10
468250.2294021147
 20
4730133.3026251486
 30
0.25
  0
VERTEX
  5
147
  8
3LBA
 10
468234.63838578149
 20
4730124.9930038676
 30
0.25
  0
VERTEX
  5
148
  8
3LBA
 10
468225.28363363369
 20
4730124.9930038676
 30
0.25
  0
VERTEX
  5
149
  8
3LBA
 10
468208.65312131291
 20
4730133.3026251486
 30
0.25
  0
VERTEX
  5
14A
  8
3LBA
 10
468211.77160927531
 20
4730162.386183193
 30
0.25
  0
SEQEND
  5
14B
  8
3LBA
  0
POLYLINE
  5
7E
  8
3LBA
 66
     1
 10
0.0
 20
0.0
 30
0.25
 70
     1
1001
DCO15
1071
        2
1071
        2
1000
Jan27
1004
074235323700
  0
VERTEX
  5
14C
  8
3LBA
 10
470589.2766598473
 20
4728331.3889065906
 30
0.25
  0
VERTEX
  5
14D
  8
3LBA
 10
470598.10851196368
 20
4728361.3069029711
 30
0.25
  0
VERTEX
  5
14E
  8
3LBA
 10
470545.01025534229
 20
4728372.2306088666
 30
0.25
  0
VERTEX
  5
14F
  8
3LBA
 10
470531.7357679375
 20
4728316.8324030172
 30
0.25
  0
VERTEX
  5
150
  8
3LBA
 10
470584.05300982803
 20
4728309.0298133474
 30
0.25
  0
SEQEND
  5
151
  8
3LBA
  0
POLYLINE
  5
7F
  8
3LBA
 66
     1
 10
0.0
 20
0.0
 30
0.25
 70
     1
1001
DCO15
1071
        2
1071
        2
1000
Jan27
1004
074234373300
  0
VERTEX
  5
152
  8
3LBA
 10
467926.10314358171
 20
4729377.7814007159
 30
0.25
  0
VERTEX
  5
153
  8
3LBA
 10
467965.29260494222
 20
4729363.2766485643
 30
0.25
  0
VERTEX
  5
154
  8
3LBA
 10
467984.16153895471
 20
4729399.5385289453
 30
0.25
  0
VERTEX
  5
155
  8
3LBA
 10
467939.1660601219
 20
4729416.9444178278
 30
0.25
  0
VERTEX
  5
156
  8
3LBA
 10
467929.00597438292
 20
4729389.3852490131
 30
0.25
  0
SEQEND
  5
157
  8
3LBA
  0
POLYLINE
  5
80
  8
3LBA
 66
     1
 10
0.0
 20
0.0
 30
0.4
 70
     1
1001
DCO15
1071
        2
1071
        2
1000
Jan27
1004
074431333300
  0
VERTEX
  5
158
  8
3LBA
 10
480782.51681598189
 20
4710844.4857757194
 30
0.4
  0
VERTEX
  5
159
  8
3LBA
 10
480772.34052936122
 20
4710857.0782996723
 30
0.4
  0
VERTEX
  5
15A
  8
3LBA
 10
480817.09713741962
 20
4710883.7842706256
 30
0.4
  0
VERTEX
  5
15B
  8
3LBA
 10
480828.22876122931
 20
4710880.8174126996
 30
0.4
  0
VERTEX
  5
15C
  8
3LBA
 10
480839.8194366339
 20
4710862.2692165021
 30
0.4
  0
VERTEX
  5
15D
  8
3LBA
 10
480823.26271859871
 20
4710847.954974723
 30
0.4
  0
VERTEX
  5
15E
  8
3LBA
 10
480808.88150594919
 20
4710836.7448183391
 30
0.4
  0
VERTEX
  5
15F
  8
3LBA
 10
480794.63145089807
 20
4710830.9246028876
 30
0.4
  0
SEQEND
  5
160
  8
3LBA
  0
POLYLINE
  5
81
  8
3LBA
 66
     1
 10
0.0
 20
0.0
 30
0.5
 70
     1
1001
DCO15
1071
        2
1071
        2
1000
Jan27
1004
074431323500
  0
VERTEX
  5
161
  8
3LBA
 10
480870.78017733572
 20
4711158.8267234992
 30
0.5
  0
VERTEX
  5
162
  8
3LBA
 10
480869.89108982898
 20
4711169.7107211687
 30
0.5
  0
VERTEX
  5
163
  8
3LBA
 10
480869.25626692543
 20
4711210.5045528412
 30
0.5
  0
VERTEX
  5
164
  8
3LBA
 10
480874.69913954649
 20
4711217.304572437
 30
0.5
  0
VERTEX
  5
165
  8
3LBA
 10
480923.40439638222
 20
4711216.3883356014
 30
0.5
  0
VERTEX
  5
166
  8
3LBA
 10
480930.7015892209
 20
4711203.2602703748
 30
0.5
  0
VERTEX
  5
167
  8
3LBA
 10
480931.67453708482
 20
4711167.7658095006
 30
0.5
  0
VERTEX
  5
168
  8
3LBA
 10
480927.78274562961
 20
4711162.9036188647
 30
0.5
  0
SEQEND
  5
169
  8
3LBA
  0
POLYLINE
  5
82
  8
3LBA
 66
     1
 10
0.0
 20
0.0
 30
0.25
 70
     1
1001
DCO15
1071
        2
1071
        2
1000
Jan27
1004
074235313500
  0
VERTEX
  5
16A
  8
3LBA
 10
468358.24481451209
 20
4729996.1902644858
 30
0.25
  0
VERTEX
  5
16B
  8
3LBA
 10
468365.41203436448
 20
4729990.9394352231
 30
0.25
  0
VERTEX
  5
16C
  8
3LBA
 10
468398.85953483533
 20
4729992.3716065893
 30
0.25
  0
VERTEX
  5
16D
  8
3LBA
 10
468404.32996698871
 20
4729999.932539911
 30
0.25
  0
VERTEX
  5
16E
  8
3LBA
 10
468406.30753604131
 20
4730033.5170748942
 30
0.25
  0
VERTEX
  5
16F
  8
3LBA
 10
468401.8588063803
 20
4730041.3963461444
 30
0.25
  0
VERTEX
  5
170
  8
3LBA
 10
468356.73984069109
 20
4730037.8422324201
 30
0.25
  0
VERTEX
  5
171
  8
3LBA
 10
468356.81137054169
 20
4730006.6921558883
 30
0.25
  0
SEQEND
  5
172
  8
3LBA
  0
POLYLINE
  5
83
  8
3LBA
 66
     1
 10
0.0
 20
0.0
 30
0.25
 70
     1
1001
DCO15
1071
        2
1071
        2
1000
Jan27
1004
074235313400
  0
VERTEX
  5
173
  8
3LBA
 10
468411.82387541223
 20
4729997.1292100064
 30
0.25
  0
VERTEX
  5
174
  8
3LBA
 10
468418.9910952645
 20
4729991.8783807429
 30
0.25
  0
VERTEX
  5
175
  8
3LBA
 10
468452.43859573553
 20
4729993.310552109
 30
0.25
  0
VERTEX
  5
176
  8
3LBA
 10
468457.90902788891
 20
4730000.8714854298
 30
0.25
  0
VERTEX
  5
177
  8
3LBA
 10
468459.88659694151
 20
4730034.4560204139
 30
0.25
  0
VERTEX
  5
178
  8
3LBA
 10
468455.43786728039
 20
4730042.3352916632
 30
0.25
  0
VERTEX
  5
179
  8
3LBA
 10
468410.31890159118
 20
4730038.7811779408
 30
0.25
  0
VERTEX
  5
17A
  8
3LBA
 10
468410.39043144177
 20
4730007.631101408
 30
0.25
  0
SEQEND
  5
17B
  8
3LBA
  0
POLYLINE
  5
84
  8
3LBA
 66
     1
 10
0.0
 20
0.0
 30
0.25
 70
     1
1001
DCO15
1071
        2
1071
        2
1000
Jan27
1004
074235313000
  0
VERTEX
  5
17C
  8
3LBA
 10
468615.2515675819
 20
4729996.6425046148
 30
0.25
  0
VERTEX
  5
17D
  8
3LBA
 10
468622.41878743417
 20
4729991.3916753521
 30
0.25
  0
VERTEX
  5
17E
  8
3LBA
 10
468655.86628790508
 20
4729992.8238467192
 30
0.25
  0
VERTEX
  5
17F
  8
3LBA
 10
468661.33672005852
 20
4730000.38478004
 30
0.25
  0
VERTEX
  5
180
  8
3LBA
 10
468663.31428911112
 20
4730033.9693150232
 30
0.25
  0
VERTEX
  5
181
  8
3LBA
 10
468658.86555945
 20
4730041.8485862743
 30
0.25
  0
VERTEX
  5
182
  8
3LBA
 10
468613.74659376091
 20
4730038.29447255
 30
0.25
  0
VERTEX
  5
183
  8
3LBA
 10
468613.81812361151
 20
4730007.1443960182
 30
0.25
  0
SEQEND
  5
184
  8
3LBA
  0
POLYLINE
  5
85
  8
3LBA
 66
     1
 10
0.0
 20
0.0
 30
0.25
 70
     1
1001
DCO15
1071
        2
1071
        2
1000
Jan27
1004
074135383600
  0
VERTEX
  5
185
  8
3LBA
 10
467886.02111111628
 20
4725418.7418952379
 30
0.25
  0
VERTEX
  5
186
  8
3LBA
 10
467912.00744319469
 20
4725412.6843925416
 30
0.25
  0
VERTEX
  5
187
  8
3LBA
 10
467922.40169133007
 20
4725411.8190350141
 30
0.25
  0
VERTEX
  5
188
  8
3LBA
 10
467936.2610447139
 20
4725437.7795279846
 30
0.25
  0
VERTEX
  5
189
  8
3LBA
 10
467918.07075460698
 20
4725449.8943005065
 30
0.25
  0
VERTEX
  5
18A
  8
3LBA
 10
467886.88729846088
 20
4725452.4903730908
 30
0.25
  0
VERTEX
  5
18B
  8
3LBA
 10
467882.55636173789
 20
4725423.0684500057
 30
0.25
  0
SEQEND
  5
18C
  8
3LBA
  0
POLYLINE
  5
86
  8
3LBA
 66
     1
 10
0.0
 20
0.0
 30
0.25
 70
     1
1001
DCO15
1071
        2
1071
        2
1000
Jan27
1004
074135373900
  0
VERTEX
  5
18D
  8
3LBA
 10
467826.06664089859
 20
4725912.0036039865
 30
0.25
  0
VERTEX
  5
18E
  8
3LBA
 10
467864.96820350742
 20
4725899.0493228836
 30
0.25
  0
VERTEX
  5
18F
  8
3LBA
 10
467855.81487372483
 20
4725873.1405278062
 30
0.25
  0
VERTEX
  5
190
  8
3LBA
 10
467839.03382843488
 20
4725873.1405278062
 30
0.25
  0
VERTEX
  5
191
  8
3LBA
 10
467822.252783145
 20
4725880.7606109688
 30
0.25
  0
VERTEX
  5
192
  8
3LBA
 10
467825.3040116959
 20
4725910.4796805028
 30
0.25
  0
SEQEND
  5
193
  8
3LBA
  0
POLYLINE
  5
87
  8
3LBA
 66
     1
 10
0.0
 20
0.0
 30
0.25
 70
     1
1001
DCO15
1071
        2
1071
        2
1000
Jan27
1004
074430393800
  0
VERTEX
  5
194
  8
3LBA
 10
481433.90184254292
 20
4711589.9204965075
 30
0.25
  0
VERTEX
  5
195
  8
3LBA
 10
481389.29963523831
 20
4711614.0937145017
 30
0.25
  0
VERTEX
  5
196
  8
3LBA
 10
481390.22894858773
 20
4711626.1804127693
 30
0.25
  0
VERTEX
  5
197
  8
3LBA
 10
481390.22894858773
 20
4711626.1804127693
 30
0.25
  0
VERTEX
  5
198
  8
3LBA
 10
481407.88396883971
 20
4711640.1264382713
 30
0.25
  0
VERTEX
  5
199
  8
3LBA
 10
481423.6805235084
 20
4711657.7914753221
 30
0.25
  0
VERTEX
  5
19A
  8
3LBA
 10
481439.94060704432
 20
4711645.4420537949
 30
0.25
  0
VERTEX
  5
19B
  8
3LBA
 10
481450.62771056098
 20
4711628.0398292737
 30
0.25
  0
SEQEND
  5
19C
  8
3LBA
  0
POLYLINE
  5
88
  8
3LBA
 66
     1
 10
0.0
 20
0.0
 30
0.2
 70
     1
1001
DCO15
1071
        2
1071
        2
1000
Jan27
1004
074237363600
  0
VERTEX
  5
19D
  8
3LBA
 10
478032.0000344757
 20
4713470.9999605222
 30
0.2
  0
VERTEX
  5
19E
  8
3LBA
 10
478027.49999949132
 20
4713484.4999327054
 30
0.2
  0
VERTEX
  5
19F
  8
3LBA
 10
478027.49999949132
 20
4713484.4999327054
 30
0.2
  0
VERTEX
  5
1A0
  8
3LBA
 10
478016.5
 20
4713496.4999999991
 30
0.2
  0
VERTEX
  5
1A1
  8
3LBA
 10
477989.0
 20
4713483.0
 30
0.2
  0
VERTEX
  5
1A2
  8
3LBA
 10
477986.5
 20
4713476.0
 30
0.2
  0
VERTEX
  5
1A3
  8
3LBA
 10
477985.0000344757
 20
4713461.9999605222
 30
0.2
  0
VERTEX
  5
1A4
  8
3LBA
 10
477994.0
 20
4713439.4999999991
 30
0.2
  0
VERTEX
  5
1A5
  8
3LBA
 10
478007.0
 20
4713424.0
 30
0.2
  0
VERTEX
  5
1A6
  8
3LBA
 10
478021.0
 20
4713438.0
 30
0.2
  0
SEQEND
  5
1A7
  8
3LBA
  0
POLYLINE
  5
89
  8
3LBA
 66
     1
 10
0.0
 20
0.0
 30
0.1
 70
     1
1001
DCO15
1071
        2
1071
        2
1000
Jan27
1004
074237353900
  0
VERTEX
  5
1A8
  8
3LBA
 10
478144.0
 20
4713411.0
 30
0.1
  0
VERTEX
  5
1A9
  8
3LBA
 10
478143.5
 20
4713426.0
 30
0.1
  0
VERTEX
  5
1AA
  8
3LBA
 10
478143.5
 20
4713426.0
 30
0.1
  0
VERTEX
  5
1AB
  8
3LBA
 10
478128.50003447582
 20
4713433.9999605222
 30
0.1
  0
VERTEX
  5
1AC
  8
3LBA
 10
478110.5
 20
4713427.0
 30
0.1
  0
VERTEX
  5
1AD
  8
3LBA
 10
478099.0
 20
4713399.5
 30
0.1
  0
VERTEX
  5
1AE
  8
3LBA
 10
478103.0
 20
4713385.0
 30
0.1
  0
VERTEX
  5
1AF
  8
3LBA
 10
478119.0
 20
4713378.0
 30
0.1
  0
VERTEX
  5
1B0
  8
3LBA
 10
478130.5
 20
4713377.0
 30
0.1
  0
VERTEX
  5
1B1
  8
3LBA
 10
478142.0
 20
4713400.0
 30
0.1
  0
SEQEND
  5
1B2
  8
3LBA
  0
POLYLINE
  5
8A
  8
3LBA
 66
     1
 10
0.0
 20
0.0
 30
0.25
 70
     1
1001
DCO15
1071
        2
1071
        2
1000
Jan27
1004
074237353700
  0
VERTEX
  5
1B3
  8
3LBA
 10
478385.5
 20
4713803.5
 30
0.25
  0
VERTEX
  5
1B4
  8
3LBA
 10
478381.0
 20
4713819.0
 30
0.25
  0
VERTEX
  5
1B5
  8
3LBA
 10
478381.0
 20
4713819.0
 30
0.25
  0
VERTEX
  5
1B6
  8
3LBA
 10
478362.99998181261
 20
4713816.5000014286
 30
0.25
  0
VERTEX
  5
1B7
  8
3LBA
 10
478341.49994682812
 20
4713809.499973611
 30
0.25
  0
VERTEX
  5
1B8
  8
3LBA
 10
478339.99998181249
 20
4713795.5000014277
 30
0.25
  0
VERTEX
  5
1B9
  8
3LBA
 10
478341.99998181249
 20
4713783.0000014277
 30
0.25
  0
VERTEX
  5
1BA
  8
3LBA
 10
478352.99994682812
 20
4713771.499973611
 30
0.25
  0
VERTEX
  5
1BB
  8
3LBA
 10
478370.5
 20
4713781.5
 30
0.25
  0
VERTEX
  5
1BC
  8
3LBA
 10
478380.0
 20
4713788.4999999991
 30
0.25
  0
SEQEND
  5
1BD
  8
3LBA
  0
POLYLINE
  5
8B
  8
3LBA
 66
     1
 10
0.0
 20
0.0
 30
0.25
 70
     1
1001
DCO15
1071
        2
1071
        2
1000
Jan27
1004
074237353300
  0
VERTEX
  5
1BE
  8
3LBA
 10
478351.49998181261
 20
4713824.5000014286
 30
0.25
  0
VERTEX
  5
1BF
  8
3LBA
 10
478346.99994682812
 20
4713837.999973611
 30
0.25
  0
VERTEX
  5
1C0
  8
3LBA
 10
478346.99994682812
 20
4713837.999973611
 30
0.25
  0
VERTEX
  5
1C1
  8
3LBA
 10
478325.49998181249
 20
4713849.0000014277
 30
0.25
  0
VERTEX
  5
1C2
  8
3LBA
 10
478303.99994682812
 20
4713841.99997361
 30
0.25
  0
VERTEX
  5
1C3
  8
3LBA
 10
478302.49998181261
 20
4713828.0000014277
 30
0.25
  0
VERTEX
  5
1C4
  8
3LBA
 10
478304.49998181261
 20
4713815.5000014286
 30
0.25
  0
VERTEX
  5
1C5
  8
3LBA
 10
478315.49994682817
 20
4713803.99997361
 30
0.25
  0
VERTEX
  5
1C6
  8
3LBA
 10
478332.49998181261
 20
4713803.5000014286
 30
0.25
  0
VERTEX
  5
1C7
  8
3LBA
 10
478344.49998181249
 20
4713814.0000014286
 30
0.25
  0
SEQEND
  5
1C8
  8
3LBA
  0
POLYLINE
  5
8C
  8
3LBA
 66
     1
 10
0.0
 20
0.0
 30
0.25
 70
     1
1001
DCO15
1071
        2
1071
        2
1000
Jan27
1004
074237343900
  0
VERTEX
  5
1C9
  8
3LBA
 10
478298.99998181249
 20
4713947.0000014286
 30
0.25
  0
VERTEX
  5
1CA
  8
3LBA
 10
478294.49994682812
 20
4713960.499973611
 30
0.25
  0
VERTEX
  5
1CB
  8
3LBA
 10
478294.49994682812
 20
4713960.499973611
 30
0.25
  0
VERTEX
  5
1CC
  8
3LBA
 10
478272.99998181249
 20
4713971.5000014286
 30
0.25
  0
VERTEX
  5
1CD
  8
3LBA
 10
478251.49994682812
 20
4713964.499973611
 30
0.25
  0
VERTEX
  5
1CE
  8
3LBA
 10
478249.99998181249
 20
4713950.5000014286
 30
0.25
  0
VERTEX
  5
1CF
  8
3LBA
 10
478251.99998181249
 20
4713938.0000014277
 30
0.25
  0
VERTEX
  5
1D0
  8
3LBA
 10
478262.99994682812
 20
4713926.49997361
 30
0.25
  0
VERTEX
  5
1D1
  8
3LBA
 10
478284.0
 20
4713915.4999999991
 30
0.25
  0
VERTEX
  5
1D2
  8
3LBA
 10
478298.5
 20
4713928.5
 30
0.25
  0
SEQEND
  5
1D3
  8
3LBA
  0
POLYLINE
  5
8D
  8
3LBA
 66
     1
 10
0.0
 20
0.0
 30
0.25
 70
     1
1001
DCO15
1071
        2
1071
        2
1000
Jan27
1004
074237343800
  0
VERTEX
  5
1D4
  8
3LBA
 10
478328.5
 20
4714026.0
 30
0.25
  0
VERTEX
  5
1D5
  8
3LBA
 10
478325.0
 20
4714033.5
 30
0.25
  0
VERTEX
  5
1D6
  8
3LBA
 10
478314.5
 20
4714043.5
 30
0.25
  0
VERTEX
  5
1D7
  8
3LBA
 10
478301.0
 20
4714048.5
 30
0.25
  0
VERTEX
  5
1D8
  8
3LBA
 10
478271.5
 20
4714047.5
 30
0.25
  0
VERTEX
  5
1D9
  8
3LBA
 10
478266.5
 20
4714041.0
 30
0.25
  0
VERTEX
  5
1DA
  8
3LBA
 10
478265.5
 20
4714021.0
 30
0.25
  0
VERTEX
  5
1DB
  8
3LBA
 10
478283.0
 20
4714009.5
 30
0.25
  0
VERTEX
  5
1DC
  8
3LBA
 10
478316.0
 20
4714008.0
 30
0.25
  0
VERTEX
  5
1DD
  8
3LBA
 10
478326.0
 20
4714017.0
 30
0.25
  0
SEQEND
  5
1DE
  8
3LBA
  0
POLYLINE
  5
8E
  8
3LBA
 66
     1
 10
0.0
 20
0.0
 30
0.4
 70
     1
1001
DCO15
1071
        2
1071
        2
1000
Jan27
1004
074135333400
  0
VERTEX
  5
1DF
  8
3LBA
 10
474385.69446935679
 20
4726777.460056955
 30
0.4
  0
VERTEX
  5
1E0
  8
3LBA
 10
474396.83225397288
 20
4726790.6143046673
 30
0.4
  0
VERTEX
  5
1E1
  8
3LBA
 10
474398.8572587152
 20
4726807.8159691356
 30
0.4
  0
VERTEX
  5
1E2
  8
3LBA
 10
474377.5942780319
 20
4726820.970216848
 30
0.4
  0
VERTEX
  5
1E3
  8
3LBA
 10
474350.25611076632
 20
4726827.0413419846
 30
0.4
  0
VERTEX
  5
1E4
  8
3LBA
 10
474343.16833563492
 20
4726814.8989962116
 30
0.4
  0
VERTEX
  5
1E5
  8
3LBA
 10
474342.15591944149
 20
4726795.6736233644
 30
0.4
  0
VERTEX
  5
1E6
  8
3LBA
 10
474359.36889063998
 20
4726784.5431795297
 30
0.4
  0
SEQEND
  5
1E7
  8
3LBA
  0
POLYLINE
  5
8F
  8
3LBA
 66
     1
 10
0.0
 20
0.0
 30
0.25
 70
     1
1001
DCO15
1071
        2
1071
        2
1000
Jan27
1004
074135333300
  0
VERTEX
  5
1E8
  8
3LBA
 10
474441.38339243719
 20
4726754.1871718504
 30
0.25
  0
VERTEX
  5
1E9
  8
3LBA
 10
474452.52117705328
 20
4726767.3414195618
 30
0.25
  0
VERTEX
  5
1EA
  8
3LBA
 10
474454.54618179559
 20
4726784.543084031
 30
0.25
  0
VERTEX
  5
1EB
  8
3LBA
 10
474433.2832011123
 20
4726797.6973317424
 30
0.25
  0
VERTEX
  5
1EC
  8
3LBA
 10
474405.94503384671
 20
4726803.76845688
 30
0.25
  0
VERTEX
  5
1ED
  8
3LBA
 10
474398.85725871532
 20
4726791.6261111069
 30
0.25
  0
VERTEX
  5
1EE
  8
3LBA
 10
474397.84484252188
 20
4726772.4007382579
 30
0.25
  0
VERTEX
  5
1EF
  8
3LBA
 10
474415.05781372043
 20
4726761.2702944241
 30
0.25
  0
SEQEND
  5
1F0
  8
3LBA
  0
POLYLINE
  5
90
  8
3LBA
 66
     1
 10
0.0
 20
0.0
 30
0.25
 70
     1
1001
DCO15
1071
        2
1071
        2
1000
Jan27
1004
074430323100
  0
VERTEX
  5
1F1
  8
3LBA
 10
473400.05077246221
 20
4723439.9671887187
 30
0.25
  0
VERTEX
  5
1F2
  8
3LBA
 10
473414.33438962209
 20
4723495.4940183777
 30
0.25
  0
VERTEX
  5
1F3
  8
3LBA
 10
473463.53757532447
 20
4723482.3435906069
 30
0.25
  0
VERTEX
  5
1F4
  8
3LBA
 10
473464.68184347358
 20
4723475.4825020079
 30
0.25
  0
VERTEX
  5
1F5
  8
3LBA
 10
473463.53757532447
 20
4723466.9061651351
 30
0.25
  0
VERTEX
  5
1F6
  8
3LBA
 10
473454.3834301313
 20
4723426.8832278913
 30
0.25
  0
VERTEX
  5
1F7
  8
3LBA
 10
473448.662261741
 20
4723424.0243852669
 30
0.25
  0
SEQEND
  5
1F8
  8
3LBA
  0
POLYLINE
  5
91
  8
3LBA
 66
     1
 10
0.0
 20
0.0
 30
0.25
 70
     1
1001
DCO15
1071
        2
1071
        2
1000
Jan27
1004
074430303600
  0
VERTEX
  5
1F9
  8
3LBA
 10
473667.98894143588
 20
4725016.7870684238
 30
0.25
  0
VERTEX
  5
1FA
  8
3LBA
 10
473718.79158615682
 20
4725000.6514535341
 30
0.25
  0
VERTEX
  5
1FB
  8
3LBA
 10
473709.14209126332
 20
4724964.0073481612
 30
0.25
  0
VERTEX
  5
1FC
  8
3LBA
 10
473699.49259636982
 20
4724946.6496391688
 30
0.25
  0
VERTEX
  5
1FD
  8
3LBA
 10
473655.1048509173
 20
4724968.2562667206
 30
0.25
  0
SEQEND
  5
1FE
  8
3LBA
  0
POLYLINE
  5
92
  8
3LBA
 66
     1
 10
0.0
 20
0.0
 30
0.3
 70
     1
1001
DCO15
1071
        2
1071
        2
1000
Jan27
1004
074430333800
  0
VERTEX
  5
1FF
  8
3LBA
 10
479776.27824616089
 20
4709759.3124691444
 30
0.3
  0
VERTEX
  5
200
  8
3LBA
 10
479714.278246161
 20
4709759.3124691444
 30
0.3
  0
VERTEX
  5
201
  8
3LBA
 10
479712.92089689238
 20
4709705.900594498
 30
0.3
  0
VERTEX
  5
202
  8
3LBA
 10
479712.77824616089
 20
4709696.3124691444
 30
0.3
  0
VERTEX
  5
203
  8
3LBA
 10
479777.27824616089
 20
4709696.3124691444
 30
0.3
  0
VERTEX
  5
204
  8
3LBA
 10
479777.27824616089
 20
4709758.3124691444
 30
0.3
  0
SEQEND
  5
205
  8
3LBA
  0
POLYLINE
  5
93
  8
3LBA
 66
     1
 10
0.0
 20
0.0
 30
0.25
 70
     1
1001
DCO15
1071
        2
1071
        2
1000
Jan27
1004
074235393600
  0
VERTEX
  5
206
  8
3LBA
 10
471362.87668128341
 20
4727838.8234885465
 30
0.25
  0
VERTEX
  5
207
  8
3LBA
 10
471423.05207116232
 20
4727826.0927254641
 30
0.25
  0
VERTEX
  5
208
  8
3LBA
 10
471407.7151140169
 20
4727766.0628683157
 30
0.25
  0
VERTEX
  5
209
  8
3LBA
 10
471346.3679936431
 20
4727780.1123110401
 30
0.25
  0
VERTEX
  5
20A
  8
3LBA
 10
471359.88839671219
 20
4727836.3801945494
 30
0.25
  0
SEQEND
  5
20B
  8
3LBA
  0
POLYLINE
  5
94
  8
3LBA
 66
     1
 10
0.0
 20
0.0
 30
6.4000000000000004
 70
     1
1001
DCO15
1071
        2
1071
        2
1000
Jan27
1004
074235393500
  0
VERTEX
  5
20C
  8
3LBA
 10
471426.24927715759
 20
4727824.8035774967
 30
6.4000000000000004
  0
VERTEX
  5
20D
  8
3LBA
 10
471486.42466703651
 20
4727812.0728144143
 30
6.4000000000000004
  0
VERTEX
  5
20E
  8
3LBA
 10
471471.08770989109
 20
4727752.0429572649
 30
6.4000000000000004
  0
VERTEX
  5
20F
  8
3LBA
 10
471409.74058951729
 20
4727766.0923999902
 30
6.4000000000000004
  0
VERTEX
  5
210
  8
3LBA
 10
471423.26099258638
 20
4727822.3602834987
 30
6.4000000000000004
  0
SEQEND
  5
211
  8
3LBA
  0
POLYLINE
  5
95
  8
3LBA
 66
     1
 10
0.0
 20
0.0
 30
0.6
 70
     1
1001
DCO15
1071
        2
1071
        2
1000
Jan27
1004
074235383400
  0
VERTEX
  5
212
  8
3LBA
 10
471146.57466536138
 20
4727965.9874789212
 30
0.6
  0
VERTEX
  5
213
  8
3LBA
 10
471146.57466536138
 20
4727918.8312217249
 30
0.6
  0
VERTEX
  5
214
  8
3LBA
 10
471204.58329220052
 20
4727922.1040142355
 30
0.6
  0
VERTEX
  5
215
  8
3LBA
 10
471206.68454598001
 20
4727966.2034418425
 30
0.6
  0
SEQEND
  5
216
  8
3LBA
  0
POLYLINE
  5
96
  8
3LBA
 66
     1
 10
0.0
 20
0.0
 30
0.25
 70
     1
1001
DCO15
1071
        2
1071
        2
1000
Jan27
1004
074235383300
  0
VERTEX
  5
217
  8
3LBA
 10
471091.49872874829
 20
4727962.284166838
 30
0.25
  0
VERTEX
  5
218
  8
3LBA
 10
471091.49872874829
 20
4727915.1279096436
 30
0.25
  0
VERTEX
  5
219
  8
3LBA
 10
471145.1231926207
 20
4727917.8645114219
 30
0.25
  0
VERTEX
  5
21A
  8
3LBA
 10
471144.6394864085
 20
4727965.2419548267
 30
0.25
  0
SEQEND
  5
21B
  8
3LBA
  0
POLYLINE
  5
97
  8
3LBA
 66
     1
 10
0.0
 20
0.0
 30
0.1
 70
     1
1001
DCO15
1071
        2
1071
        2
1000
Jan27
1004
074235393200
  0
VERTEX
  5
21C
  8
3LBA
 10
471620.60250402131
 20
4727828.410258729
 30
0.1
  0
VERTEX
  5
21D
  8
3LBA
 10
471669.25463800272
 20
4727816.0840996671
 30
0.1
  0
VERTEX
  5
21E
  8
3LBA
 10
471661.31668620353
 20
4727767.304604888
 30
0.1
  0
VERTEX
  5
21F
  8
3LBA
 10
471599.96956582973
 20
4727781.3540476132
 30
0.1
  0
VERTEX
  5
220
  8
3LBA
 10
471611.69430696493
 20
4727825.6710453052
 30
0.1
  0
SEQEND
  5
221
  8
3LBA
  0
POLYLINE
  5
98
  8
3LBA
 66
     1
 10
0.0
 20
0.0
 30
0.25
 70
     1
1001
DCO15
1071
        2
1071
        2
1000
Jan27
1004
074235393400
  0
VERTEX
  5
222
  8
3LBA
 10
471571.76021613361
 20
4727784.9050807236
 30
0.25
  0
VERTEX
  5
223
  8
3LBA
 10
471631.93560601241
 20
4727772.1743176412
 30
0.25
  0
VERTEX
  5
224
  8
3LBA
 10
471616.59864886699
 20
4727712.1444604928
 30
0.25
  0
VERTEX
  5
225
  8
3LBA
 10
471555.25152849319
 20
4727726.1939032171
 30
0.25
  0
VERTEX
  5
226
  8
3LBA
 10
471568.77193156228
 20
4727782.4617867256
 30
0.25
  0
SEQEND
  5
227
  8
3LBA
  0
POLYLINE
  5
99
  8
3LBA
 66
     1
 10
0.0
 20
0.0
 30
0.25
 70
     1
1001
DCO15
1071
        2
1071
        2
1000
Jan27
1004
074235393300
  0
VERTEX
  5
228
  8
3LBA
 10
471633.4270925172
 20
4727770.5165259894
 30
0.25
  0
VERTEX
  5
229
  8
3LBA
 10
471692.26857221947
 20
4727758.7257540757
 30
0.25
  0
VERTEX
  5
22A
  8
3LBA
 10
471676.93161507411
 20
4727698.6958969282
 30
0.25
  0
VERTEX
  5
22B
  8
3LBA
 10
471619.30081731861
 20
4727712.4194867611
 30
0.25
  0
VERTEX
  5
22C
  8
3LBA
 10
471632.61229896371
 20
4727766.7157794731
 30
0.25
  0
SEQEND
  5
22D
  8
3LBA
  0
POLYLINE
  5
9A
  8
3LBA
 66
     1
 10
0.0
 20
0.0
 30
0.25
 70
     1
1001
DCO15
1071
        2
1071
        2
1000
Jan27
1004
074331373800
  0
VERTEX
  5
22E
  8
3LBA
 10
478415.23074820748
 20
4716484.9037838066
 30
0.25
  0
VERTEX
  5
22F
  8
3LBA
 10
478396.2433318079
 20
4716448.678665651
 30
0.25
  0
VERTEX
  5
230
  8
3LBA
 10
478394.68173268973
 20
4716438.1525324257
 30
0.25
  0
VERTEX
  5
231
  8
3LBA
 10
478440.17100877443
 20
4716418.4691695524
 30
0.25
  0
VERTEX
  5
232
  8
3LBA
 10
478462.69946625852
 20
4716461.6161504509
 30
0.25
  0
VERTEX
  5
233
  8
3LBA
 10
478463.56277207489
 20
4716465.9287793152
 30
0.25
  0
VERTEX
  5
234
  8
3LBA
 10
478418.68290916091
 20
4716485.7664301181
 30
0.25
  0
SEQEND
  5
235
  8
3LBA
  0
POLYLINE
  5
9B
  8
3LBA
 66
     1
 10
0.0
 20
0.0
 30
0.25
 70
     1
1001
DCO15
1071
        2
1071
        2
1000
Jan27
1004
074130393200
  0
VERTEX
  5
236
  8
3LBA
 10
482643.71573040338
 20
4714651.3225159766
 30
0.25
  0
VERTEX
  5
237
  8
3LBA
 10
482664.42211430339
 20
4714658.7947297022
 30
0.25
  0
VERTEX
  5
238
  8
3LBA
 10
482664.42211430339
 20
4714658.7947297022
 30
0.25
  0
VERTEX
  5
239
  8
3LBA
 10
482664.42211430339
 20
4714658.7947297022
 30
0.25
  0
VERTEX
  5
23A
  8
3LBA
 10
482664.42211430339
 20
4714658.7947297022
 30
0.25
  0
VERTEX
  5
23B
  8
3LBA
 10
482669.59875055723
 20
4714692.1325527057
 30
0.25
  0
VERTEX
  5
23C
  8
3LBA
 10
482660.97102346743
 20
4714703.0535559952
 30
0.25
  0
VERTEX
  5
23D
  8
3LBA
 10
482644.67986576172
 20
4714697.1915838476
 30
0.25
  0
VERTEX
  5
23E
  8
3LBA
 10
482640.26480068278
 20
4714688.109039274
 30
0.25
  0
VERTEX
  5
23F
  8
3LBA
 10
482630.48670998099
 20
4714660.9741811659
 30
0.25
  0
SEQEND
  5
240
  8
3LBA
  0
POLYLINE
  5
9C
  8
3LBA
 66
     1
 10
0.0
 20
0.0
 30
0.25
 70
     1
1001
DCO15
1071
        2
1071
        2
1000
Jan27
1004
074331363500
  0
VERTEX
  5
241
  8
3LBA
 10
477748.19492419192
 20
4716542.7095242143
 30
0.25
  0
VERTEX
  5
242
  8
3LBA
 10
477789.53339191742
 20
4716528.194806953
 30
0.25
  0
VERTEX
  5
243
  8
3LBA
 10
477776.12630216288
 20
4716485.7668319102
 30
0.25
  0
VERTEX
  5
244
  8
3LBA
 10
477732.55308340909
 20
4716501.3981276974
 30
0.25
  0
VERTEX
  5
245
  8
3LBA
 10
477745.07491289231
 20
4716544.4113120306
 30
0.25
  0
SEQEND
  5
246
  8
3LBA
  0
POLYLINE
  5
9D
  8
3LBA
 66
     1
 10
0.0
 20
0.0
 30
0.25
 70
     1
1001
DCO15
1071
        2
1071
        2
1000
Jan27
1004
074230323200
  0
VERTEX
  5
247
  8
3LBA
 10
480828.29031473142
 20
4713463.6416927977
 30
0.25
  0
VERTEX
  5
248
  8
3LBA
 10
480815.07912178477
 20
4713483.846977111
 30
0.25
  0
VERTEX
  5
249
  8
3LBA
 10
480791.74900270189
 20
4713468.7336287796
 30
0.25
  0
VERTEX
  5
24A
  8
3LBA
 10
480802.54988126288
 20
4713451.4612939274
 30
0.25
  0
VERTEX
  5
24B
  8
3LBA
 10
480809.4624905035
 20
4713447.5751004796
 30
0.25
  0
VERTEX
  5
24C
  8
3LBA
 10
480829.46872047021
 20
4713460.9520343626
 30
0.25
  0
SEQEND
  5
24D
  8
3LBA
  0
POLYLINE
  5
9E
  8
3LBA
 66
     1
 10
0.0
 20
0.0
 30
0.2
 70
     1
1001
DCO15
1071
        2
1071
        2
1000
Jan27
1004
074235383100
  0
VERTEX
  5
24E
  8
3LBA
 10
471519.36378530931
 20
4728036.2893361822
 30
0.2
  0
VERTEX
  5
24F
  8
3LBA
 10
471579.53917518811
 20
4728023.5585730998
 30
0.2
  0
VERTEX
  5
250
  8
3LBA
 10
471564.20221804269
 20
4727963.5287159514
 30
0.2
  0
VERTEX
  5
251
  8
3LBA
 10
471502.85509766889
 20
4727977.5781586757
 30
0.2
  0
VERTEX
  5
252
  8
3LBA
 10
471516.37550073798
 20
4728033.8460421851
 30
0.2
  0
SEQEND
  5
253
  8
3LBA
  0
POLYLINE
  5
9F
  8
3LBA
 66
     1
 10
0.0
 20
0.0
 30
0.2
 70
     1
1001
DCO15
1071
        2
1071
        2
1000
Jan27
1004
074235383500
  0
VERTEX
  5
254
  8
3LBA
 10
471210.04676449002
 20
4727966.320363163
 30
0.2
  0
VERTEX
  5
255
  8
3LBA
 10
471210.04676449002
 20
4727919.1641059676
 30
0.2
  0
VERTEX
  5
256
  8
3LBA
 10
471268.05539132922
 20
4727922.4368984792
 30
0.2
  0
VERTEX
  5
257
  8
3LBA
 10
471266.79442659899
 20
4727968.6362892613
 30
0.2
  0
SEQEND
  5
258
  8
3LBA
  0
POLYLINE
  5
A0
  8
3LBA
 66
     1
 10
0.0
 20
0.0
 30
0.9
 70
     1
1001
DCO15
1071
        2
1071
        2
1000
Jan27
1004
074235393100
  0
VERTEX
  5
259
  8
3LBA
 10
471322.25846131478
 20
4727920.0042519551
 30
0.9
  0
VERTEX
  5
25A
  8
3LBA
 10
471314.27341366909
 20
4727852.3851564126
 30
0.9
  0
VERTEX
  5
25B
  8
3LBA
 10
471370.16910129308
 20
4727841.0453954386
 30
0.9
  0
VERTEX
  5
25C
  8
3LBA
 10
471376.89318420849
 20
4727921.2640691437
 30
0.9
  0
SEQEND
  5
25D
  8
3LBA
  0
POLYLINE
  5
A1
  8
3LBA
 66
     1
 10
0.0
 20
0.0
 30
0.25
 70
     1
1001
DCO15
1071
        2
1071
        2
1000
Jan27
1004
074236303600
  0
VERTEX
  5
25E
  8
3LBA
 10
471115.61392674252
 20
4727865.1689559706
 30
0.25
  0
VERTEX
  5
25F
  8
3LBA
 10
471096.26355363178
 20
4727805.2218678677
 30
0.25
  0
VERTEX
  5
260
  8
3LBA
 10
471143.64409975969
 20
4727803.6659303559
 30
0.25
  0
VERTEX
  5
261
  8
3LBA
 10
471163.055024673
 20
4727863.014951841
 30
0.25
  0
SEQEND
  5
262
  8
3LBA
  0
POLYLINE
  5
A2
  8
3LBA
 66
     1
 10
0.0
 20
0.0
 30
0.25
 70
     1
1001
DCO15
1071
        2
1071
        2
1000
Jan27
1004
074235393800
  0
VERTEX
  5
263
  8
3LBA
 10
471263.62377841183
 20
4727857.7305902801
 30
0.25
  0
VERTEX
  5
264
  8
3LBA
 10
471306.71293684928
 20
4727850.8187723244
 30
0.25
  0
VERTEX
  5
265
  8
3LBA
 10
471292.39934057731
 20
4727790.5203175703
 30
0.25
  0
VERTEX
  5
266
  8
3LBA
 10
471246.18981673609
 20
4727794.8460046556
 30
0.25
  0
VERTEX
  5
267
  8
3LBA
 10
471259.27396354353
 20
4727850.0396986408
 30
0.25
  0
SEQEND
  5
268
  8
3LBA
  0
POLYLINE
  5
A3
  8
3LBA
 66
     1
 10
0.0
 20
0.0
 30
0.1
 70
     1
1001
DCO15
1071
        2
1071
        2
1000
Jan27
1004
074330353000
  0
VERTEX
  5
269
  8
3LBA
 10
473507.66140587319
 20
4728078.7208198896
 30
0.1
  0
VERTEX
  5
26A
  8
3LBA
 10
473513.83230253099
 20
4728077.4874791829
 30
0.1
  0
VERTEX
  5
26B
  8
3LBA
 10
473539.7501007191
 20
4728130.5223794319
 30
0.1
  0
VERTEX
  5
26C
  8
3LBA
 10
473494.08556212508
 20
4728160.1232705982
 30
0.1
  0
VERTEX
  5
26D
  8
3LBA
 10
473466.7965967902
 20
4728106.3134592138
 30
0.1
  0
SEQEND
  5
26E
  8
3LBA
  0
POLYLINE
  5
A4
  8
3LBA
 66
     1
 10
0.0
 20
0.0
 30
0.25
 70
     1
1001
DCO15
1071
        2
1071
        2
1000
Jan27
1004
074236323700
  0
VERTEX
  5
26F
  8
3LBA
 10
473919.38696938229
 20
4726868.9167890018
 30
0.25
  0
VERTEX
  5
270
  8
3LBA
 10
473924.919814113
 20
4726913.6537122671
 30
0.25
  0
VERTEX
  5
271
  8
3LBA
 10
473975.72195971588
 20
4726907.1191044943
 30
0.25
  0
VERTEX
  5
272
  8
3LBA
 10
473971.69804334379
 20
4726850.8209177582
 30
0.25
  0
VERTEX
  5
273
  8
3LBA
 10
473918.3809097273
 20
4726856.8529045973
 30
0.25
  0
SEQEND
  5
274
  8
3LBA
  0
POLYLINE
  5
A5
  8
3LBA
 66
     1
 10
0.0
 20
0.0
 30
0.25
 70
     1
1001
DCO15
1071
        2
1071
        2
1000
Jan27
1004
074135353000
  0
VERTEX
  5
275
  8
3LBA
 10
474519.0431602298
 20
4725763.5400442211
 30
0.25
  0
VERTEX
  5
276
  8
3LBA
 10
474525.59887393989
 20
4725770.091431235
 30
0.25
  0
VERTEX
  5
277
  8
3LBA
 10
474528.27021179849
 20
4725782.1527942922
 30
0.25
  0
VERTEX
  5
278
  8
3LBA
 10
474521.06040897482
 20
4725803.019786085
 30
0.25
  0
VERTEX
  5
279
  8
3LBA
 10
474499.2250356836
 20
4725806.1371431062
 30
0.25
  0
VERTEX
  5
27A
  8
3LBA
 10
474488.6630907855
 20
4725788.1630868949
 30
0.25
  0
VERTEX
  5
27B
  8
3LBA
 10
474489.31614576618
 20
4725770.2172982357
 30
0.25
  0
VERTEX
  5
27C
  8
3LBA
 10
474503.12233819743
 20
4725765.4118145118
 30
0.25
  0
SEQEND
  5
27D
  8
3LBA
  0
POLYLINE
  5
A6
  8
3LBA
 66
     1
 10
0.0
 20
0.0
 30
0.25
 70
     1
1001
DCO15
1071
        2
1071
        2
1000
Jan27
1004
074135373500
  0
VERTEX
  5
27E
  8
3LBA
 10
474593.60328675201
 20
4726896.3446874786
 30
0.25
  0
VERTEX
  5
27F
  8
3LBA
 10
474583.97843869473
 20
4726892.8470554957
 30
0.25
  0
VERTEX
  5
280
  8
3LBA
 10
474583.97843869473
 20
4726871.8610725906
 30
0.25
  0
VERTEX
  5
281
  8
3LBA
 10
474581.35346446489
 20
4726863.1169448821
 30
0.25
  0
VERTEX
  5
282
  8
3LBA
 10
474578.72849023511
 20
4726855.2472012918
 30
0.25
  0
VERTEX
  5
283
  8
3LBA
 10
474589.22838715417
 20
4726849.1262259455
 30
0.25
  0
VERTEX
  5
284
  8
3LBA
 10
474604.59094972961
 20
4726860.7688281517
 30
0.25
  0
VERTEX
  5
285
  8
3LBA
 10
474612.8531552222
 20
4726874.4843204543
 30
0.25
  0
VERTEX
  5
286
  8
3LBA
 10
474604.97823253291
 20
4726895.4703033576
 30
0.25
  0
SEQEND
  5
287
  8
3LBA
  0
POLYLINE
  5
A7
  8
3LBA
 66
     1
 10
0.0
 20
0.0
 30
0.25
 70
     1
1001
DCO15
1071
        2
1071
        2
1000
Jan27
1004
074135323400
  0
VERTEX
  5
288
  8
3LBA
 10
474200.12757806049
 20
4726980.8094678279
 30
0.25
  0
VERTEX
  5
289
  8
3LBA
 10
474202.35285989119
 20
4726985.3270236254
 30
0.25
  0
VERTEX
  5
28A
  8
3LBA
 10
474207.71121995879
 20
4727005.2796174297
 30
0.25
  0
VERTEX
  5
28B
  8
3LBA
 10
474204.49592814938
 20
4727027.8774237502
 30
0.25
  0
VERTEX
  5
28C
  8
3LBA
 10
474182.66055485839
 20
4727030.9947807696
 30
0.25
  0
VERTEX
  5
28D
  8
3LBA
 10
474175.20497309492
 20
4727017.6974763302
 30
0.25
  0
VERTEX
  5
28E
  8
3LBA
 10
474175.98488172202
 20
4726990.6278579887
 30
0.25
  0
VERTEX
  5
28F
  8
3LBA
 10
474188.11939818121
 20
4726982.4169938127
 30
0.25
  0
SEQEND
  5
290
  8
3LBA
  0
POLYLINE
  5
A8
  8
3LBA
 66
     1
 10
0.0
 20
0.0
 30
0.25
 70
     1
1001
DCO15
1071
        2
1071
        2
1000
Jan27
1004
074135313900
  0
VERTEX
  5
291
  8
3LBA
 10
474360.65483500832
 20
4727318.5863650236
 30
0.25
  0
VERTEX
  5
292
  8
3LBA
 10
474366.5811064408
 20
4727320.6959265396
 30
0.25
  0
VERTEX
  5
293
  8
3LBA
 10
474368.23847690661
 20
4727343.0565146264
 30
0.25
  0
VERTEX
  5
294
  8
3LBA
 10
474363.26619315369
 20
4727354.6507945973
 30
0.25
  0
VERTEX
  5
295
  8
3LBA
 10
474344.6123299945
 20
4727359.7724738047
 30
0.25
  0
VERTEX
  5
296
  8
3LBA
 10
474337.52455486311
 20
4727347.6301280335
 30
0.25
  0
VERTEX
  5
297
  8
3LBA
 10
474336.51213866973
 20
4727328.4047551826
 30
0.25
  0
VERTEX
  5
298
  8
3LBA
 10
474353.72510986822
 20
4727317.2743113488
 30
0.25
  0
SEQEND
  5
299
  8
3LBA
  0
POLYLINE
  5
A9
  8
3LBA
 66
     1
 10
0.0
 20
0.0
 30
0.25
 70
     1
1001
DCO15
1071
        2
1071
        2
1000
Jan27
1004
074236393300
  0
VERTEX
  5
29A
  8
3LBA
 10
475535.54021476558
 20
4719190.8172360966
 30
0.25
  0
VERTEX
  5
29B
  8
3LBA
 10
475549.13337580173
 20
4719194.2133531934
 30
0.25
  0
VERTEX
  5
29C
  8
3LBA
 10
475566.97458278929
 20
4719209.4957846263
 30
0.25
  0
VERTEX
  5
29D
  8
3LBA
 10
475563.57624944142
 20
4719224.7781205596
 30
0.25
  0
VERTEX
  5
29E
  8
3LBA
 10
475546.58475505741
 20
4719232.4193362761
 30
0.25
  0
VERTEX
  5
29F
  8
3LBA
 10
475527.89400782163
 20
4719230.7212777268
 30
0.25
  0
VERTEX
  5
2A0
  8
3LBA
 10
475515.1503870337
 20
4719217.1369048441
 30
0.25
  0
VERTEX
  5
2A1
  8
3LBA
 10
475517.69900777802
 20
4719199.3074333379
 30
0.25
  0
SEQEND
  5
2A2
  8
3LBA
  0
POLYLINE
  5
AA
  8
3LBA
 66
     1
 10
0.0
 20
0.0
 30
0.2
 70
     1
1001
DCO15
1071
        2
1071
        2
1000
Jan27
1004
074331353400
  0
VERTEX
  5
2A3
  8
3LBA
 10
474806.54695294559
 20
4722436.0661129598
 30
0.2
  0
VERTEX
  5
2A4
  8
3LBA
 10
474820.64321967942
 20
4722478.5461307028
 30
0.2
  0
VERTEX
  5
2A5
  8
3LBA
 10
474867.46721009171
 20
4722461.1132644042
 30
0.2
  0
VERTEX
  5
2A6
  8
3LBA
 10
474854.61362649623
 20
4722417.9899688708
 30
0.2
  0
SEQEND
  5
2A7
  8
3LBA
  0
POLYLINE
  5
AB
  8
3LBA
 66
     1
 10
0.0
 20
0.0
 30
0.25
 70
     1
1001
DCO15
1071
        2
1071
        2
1000
Jan27
1004
074231363900
  0
VERTEX
  5
2A8
  8
3LBA
 10
479454.17145835358
 20
4712986.4273666209
 30
0.25
  0
VERTEX
  5
2A9
  8
3LBA
 10
479436.3326863033
 20
4713025.1419698922
 30
0.25
  0
VERTEX
  5
2AA
  8
3LBA
 10
479478.38895447651
 20
4713037.0469670054
 30
0.25
  0
VERTEX
  5
2AB
  8
3LBA
 10
479481.29304215912
 20
4713028.3394772736
 30
0.25
  0
VERTEX
  5
2AC
  8
3LBA
 10
479492.9093928893
 20
4713000.0401581749
 30
0.25
  0
SEQEND
  5
2AD
  8
3LBA
  0
POLYLINE
  5
AC
  8
3LBA
 66
     1
 10
0.0
 20
0.0
 30
0.25
 70
     1
1001
DCO15
1071
        2
1071
        2
1000
Jan27
1004
074231343700
  0
VERTEX
  5
2AE
  8
3LBA
 10
479593.49414369871
 20
4713451.6679346981
 30
0.25
  0
VERTEX
  5
2AF
  8
3LBA
 10
479584.67517564329
 20
4713486.4607656989
 30
0.25
  0
VERTEX
  5
2B0
  8
3LBA
 10
479621.34362680418
 20
4713494.8110343264
 30
0.25
  0
VERTEX
  5
2B1
  8
3LBA
 10
479625.05682136252
 20
4713485.9968468677
 30
0.25
  0
VERTEX
  5
2B2
  8
3LBA
 10
479630.62678783952
 20
4713462.3377073668
 30
0.25
  0
SEQEND
  5
2B3
  8
3LBA
  0
ENDSEC
  0
EOF
