  0
SECTION
  2
HEADER
  9
$ACADVER
  1
AC1009
  9
$INSBASE
 10
0.0
 20
0.0
 30
0.0
  9
$EXTMIN
 10
799353.0088695444865152
 20
557450.0714477095752954
 30
-652.9099999999998545
  9
$EXTMAX
 10
832788.075451223179698
 20
576887.6773977547418326
 30
250.0
  9
$LIMMIN
 10
0.0
 20
0.0
  9
$LIMMAX
 10
12.0
 20
9.0
  9
$ORTHOMODE
 70
     0
  9
$REGENMODE
 70
     1
  9
$FILLMODE
 70
     1
  9
$QTEXTMODE
 70
     0
  9
$MIRRTEXT
 70
     1
  9
$DRAGMODE
 70
     2
  9
$LTSCALE
 40
1.0
  9
$OSMODE
 70
    37
  9
$ATTMODE
 70
     1
  9
$TEXTSIZE
 40
3.0
  9
$TRACEWID
 40
0.05
  9
$TEXTSTYLE
  7
STANDARD
  9
$CLAYER
  8
LEVEL_LINES
  9
$CELTYPE
  6
BYLAYER
  9
$CECOLOR
 62
   256
  9
$DIMSCALE
 40
1.0
  9
$DIMASZ
 40
0.18
  9
$DIMEXO
 40
0.0625
  9
$DIMDLI
 40
0.38
  9
$DIMRND
 40
0.0
  9
$DIMDLE
 40
0.0
  9
$DIMEXE
 40
0.18
  9
$DIMTP
 40
0.0
  9
$DIMTM
 40
0.0
  9
$DIMTXT
 40
0.18
  9
$DIMCEN
 40
0.09
  9
$DIMTSZ
 40
0.0
  9
$DIMTOL
 70
     0
  9
$DIMLIM
 70
     0
  9
$DIMTIH
 70
     1
  9
$DIMTOH
 70
     1
  9
$DIMSE1
 70
     0
  9
$DIMSE2
 70
     0
  9
$DIMTAD
 70
     0
  9
$DIMZIN
 70
     0
  9
$DIMBLK
  1

  9
$DIMASO
 70
     1
  9
$DIMSHO
 70
     1
  9
$DIMPOST
  1

  9
$DIMAPOST
  1

  9
$DIMALT
 70
     0
  9
$DIMALTD
 70
     2
  9
$DIMALTF
 40
25.3999999999999986
  9
$DIMLFAC
 40
1.0
  9
$DIMTOFL
 70
     0
  9
$DIMTVP
 40
0.0
  9
$DIMTIX
 70
     0
  9
$DIMSOXD
 70
     0
  9
$DIMSAH
 70
     0
  9
$DIMBLK1
  1

  9
$DIMBLK2
  1

  9
$DIMSTYLE
  2
STANDARD
  9
$DIMCLRD
 70
     0
  9
$DIMCLRE
 70
     0
  9
$DIMCLRT
 70
     0
  9
$DIMTFAC
 40
1.0
  9
$DIMGAP
 40
0.09
  9
$LUNITS
 70
     2
  9
$LUPREC
 70
     4
  9
$SKETCHINC
 40
0.1
  9
$FILLETRAD
 40
0.5
  9
$AUNITS
 70
     0
  9
$AUPREC
 70
     0
  9
$MENU
  1
.
  9
$ELEVATION
 40
0.0
  9
$PELEVATION
 40
0.0
  9
$THICKNESS
 40
0.0
  9
$LIMCHECK
 70
     0
  9
$BLIPMODE
 70
     0
  9
$CHAMFERA
 40
0.5
  9
$CHAMFERB
 40
0.5
  9
$SKPOLY
 70
     0
  9
$TDCREATE
 40
2457466.5392708331346512
  9
$TDUPDATE
 40
2457947.7103703701868653
  9
$TDINDWG
 40
11.2436679514000009
  9
$TDUSRTIMER
 40
11.2436632870000004
  9
$USRTIMER
 70
     1
  9
$ANGBASE
 50
0.0
  9
$ANGDIR
 70
     0
  9
$PDMODE
 70
     2
  9
$PDSIZE
 40
-0.1
  9
$PLINEWID
 40
0.0
  9
$COORDS
 70
     1
  9
$SPLFRAME
 70
     0
  9
$SPLINETYPE
 70
     6
  9
$SPLINESEGS
 70
     8
  9
$ATTDIA
 70
     1
  9
$ATTREQ
 70
     1
  9
$HANDLING
 70
     1
  9
$HANDSEED
  5
5F9
  9
$SURFTAB1
 70
     6
  9
$SURFTAB2
 70
     6
  9
$SURFTYPE
 70
     6
  9
$SURFU
 70
     6
  9
$SURFV
 70
     6
  9
$UCSNAME
  2

  9
$UCSORG
 10
0.0
 20
0.0
 30
0.0
  9
$UCSXDIR
 10
1.0
 20
0.0
 30
0.0
  9
$UCSYDIR
 10
0.0
 20
1.0
 30
0.0
  9
$PUCSNAME
  2

  9
$PUCSORG
 10
0.0
 20
0.0
 30
0.0
  9
$PUCSXDIR
 10
1.0
 20
0.0
 30
0.0
  9
$PUCSYDIR
 10
0.0
 20
1.0
 30
0.0
  9
$USERI1
 70
     0
  9
$USERI2
 70
     0
  9
$USERI3
 70
     0
  9
$USERI4
 70
     0
  9
$USERI5
 70
     0
  9
$USERR1
 40
0.0
  9
$USERR2
 40
0.0
  9
$USERR3
 40
0.0
  9
$USERR4
 40
0.0
  9
$USERR5
 40
0.0
  9
$WORLDVIEW
 70
     1
  9
$SHADEDGE
 70
     3
  9
$SHADEDIF
 70
    70
  9
$TILEMODE
 70
     1
  9
$MAXACTVP
 70
    64
  9
$PLIMCHECK
 70
     0
  9
$PEXTMIN
 10
1.0000000000000000E+20
 20
1.0000000000000000E+20
 30
1.0000000000000000E+20
  9
$PEXTMAX
 10
-1.0000000000000000E+20
 20
-1.0000000000000000E+20
 30
-1.0000000000000000E+20
  9
$PLIMMIN
 10
0.0
 20
0.0
  9
$PLIMMAX
 10
12.0
 20
9.0
  9
$UNITMODE
 70
     0
  9
$VISRETAIN
 70
     1
  9
$PLINEGEN
 70
     0
  9
$PSLTSCALE
 70
     1
  0
ENDSEC
  0
SECTION
  2
TABLES
  0
TABLE
  2
VPORT
 70
     1
  0
VPORT
  2
*ACTIVE
 70
     0
 10
0.0
 20
0.0
 11
1.0
 21
1.0
 12
467.4084831920480951
 22
-613.0769492248964525
 13
0.0
 23
0.0
 14
0.5
 24
0.5
 15
0.5
 25
0.5
 16
0.0
 26
0.0
 36
143469.5042805626871996
 17
816070.5421142578125
 27
567168.8748779296875
 37
-201.4549865722655966
 40
24701.2710296925797593
 41
2.9203539823008842
 42
50.0
 43
0.0
 44
0.0
 50
0.0
 51
0.0
 71
     0
 72
   100
 73
     1
 74
     3
 75
     0
 76
     0
 77
     0
 78
     0
  0
ENDTAB
  0
TABLE
  2
LTYPE
 70
     1
  0
LTYPE
  2
CONTINUOUS
 70
     0
  3
Solid line
 72
    65
 73
     0
 40
0.0
  0
ENDTAB
  0
TABLE
  2
LAYER
 70
     2
  0
LAYER
  2
0
 70
     0
 62
     7
  6
CONTINUOUS
  0
LAYER
  2
LEVEL_LINES
 70
     0
 62
     8
  6
CONTINUOUS
  0
ENDTAB
  0
TABLE
  2
STYLE
 70
     1
  0
STYLE
  2
STANDARD
 70
     0
 40
0.0
 41
1.0
 50
0.0
 71
     0
 42
3.0
  3
txt
  4

  0
ENDTAB
  0
TABLE
  2
VIEW
 70
     0
  0
ENDTAB
  0
TABLE
  2
UCS
 70
     0
  0
ENDTAB
  0
TABLE
  2
APPID
 70
     5
  0
APPID
  2
ACAD
 70
     0
  0
APPID
  2
ACAD_NAV_VCDISPLAY
 70
     0
  0
APPID
  2
ACAECLAYERSTANDARD
 70
     0
  0
APPID
  2
ACCMTRANSPARENCY
 70
     0
  0
APPID
  2
ACAD_PSEXT
 70
     0
  0
ENDTAB
  0
TABLE
  2
DIMSTYLE
 70
     1
  0
DIMSTYLE
  2
STANDARD
 70
     0
  3

  4

  5

  6

  7

 40
1.0
 41
0.18
 42
0.0625
 43
0.38
 44
0.18
 45
0.0
 46
0.0
 47
0.0
 48
0.0
140
0.18
141
0.09
142
0.0
143
25.3999999999999986
144
1.0
145
0.0
146
1.0
147
0.09
 71
     0
 72
     0
 73
     1
 74
     1
 75
     0
 76
     0
 77
     0
 78
     0
170
     0
171
     2
172
     0
173
     0
174
     0
175
     0
176
     0
177
     0
178
     0
  0
ENDTAB
  0
ENDSEC
  0
SECTION
  2
BLOCKS
  0
BLOCK
  8
0
  2
$MODEL_SPACE
 70
     0
 10
0.0
 20
0.0
 30
0.0
  3
$MODEL_SPACE
  1

  0
ENDBLK
  5
16
  8
0
  0
BLOCK
 67
     1
  8
0
  2
$PAPER_SPACE
 70
     0
 10
0.0
 20
0.0
 30
0.0
  3
$PAPER_SPACE
  1

  0
ENDBLK
  5
1E
 67
     1
  8
0
  0
ENDSEC
  0
SECTION
  2
ENTITIES
  0
POLYLINE
  5
65
  8
LEVEL_LINES
 66
     1
 10
0.0
 20
0.0
 30
-652.9099999999998545
 70
     1
  0
VERTEX
  5
D0
  8
LEVEL_LINES
 10
811943.3518833983689547
 20
560577.4217482859967276
 30
-652.9099999999998545
  0
VERTEX
  5
D1
  8
LEVEL_LINES
 10
811896.6961481327889487
 20
560512.1944449938600883
 30
-652.9099999999998545
  0
VERTEX
  5
D2
  8
LEVEL_LINES
 10
811798.726551120984368
 20
560568.1033642125548795
 30
-652.9099999999998545
  0
VERTEX
  5
D3
  8
LEVEL_LINES
 10
811742.7396688022417948
 20
560647.3075510042253882
 30
-652.9099999999998545
  0
VERTEX
  5
D4
  8
LEVEL_LINES
 10
811775.3986834882525727
 20
560707.876354870153591
 30
-652.9099999999998545
  0
VERTEX
  5
D5
  8
LEVEL_LINES
 10
811952.683030451531522
 20
560651.9674356513423845
 30
-652.9099999999998545
  0
SEQEND
  5
D6
  8
LEVEL_LINES
  0
POLYLINE
  5
66
  8
LEVEL_LINES
 66
     1
 10
0.0
 20
0.0
 30
-652.9099999999998545
 70
     1
  0
VERTEX
  5
D7
  8
LEVEL_LINES
 10
808303.5119575522840023
 20
567773.7672158752102405
 30
-652.9099999999998545
  0
VERTEX
  5
D8
  8
LEVEL_LINES
 10
808461.9031520223943517
 20
567828.7854377606417984
 30
-652.9099999999998545
  0
VERTEX
  5
D9
  8
LEVEL_LINES
 10
808544.5430074472678825
 20
567918.1917798517970368
 30
-652.9099999999998545
  0
VERTEX
  5
DA
  8
LEVEL_LINES
 10
808585.859211637522094
 20
568028.2282236233586445
 30
-652.9099999999998545
  0
VERTEX
  5
DB
  8
LEVEL_LINES
 10
808634.0676557299448177
 20
568165.775163558893837
 30
-652.9099999999998545
  0
VERTEX
  5
DC
  8
LEVEL_LINES
 10
808606.5210372551809996
 20
568220.7933854447910562
 30
-652.9099999999998545
  0
VERTEX
  5
DD
  8
LEVEL_LINES
 10
808475.676461259718053
 20
568207.0395225839456543
 30
-652.9099999999998545
  0
VERTEX
  5
DE
  8
LEVEL_LINES
 10
808413.6984314525034279
 20
568069.4925826481776312
 30
-652.9099999999998545
  0
VERTEX
  5
DF
  8
LEVEL_LINES
 10
808337.9433688845019788
 20
567980.0876257786294445
 30
-652.9099999999998545
  0
VERTEX
  5
E0
  8
LEVEL_LINES
 10
808248.4187206020578742
 20
567918.1917798517970368
 30
-652.9099999999998545
  0
VERTEX
  5
E1
  8
LEVEL_LINES
 10
808234.6454113645013422
 20
567808.1539508589776233
 30
-652.9099999999998545
  0
SEQEND
  5
E2
  8
LEVEL_LINES
  0
POLYLINE
  5
67
  8
LEVEL_LINES
 66
     1
 10
0.0
 20
0.0
 30
-652.9099999999998545
 70
     1
  0
VERTEX
  5
E3
  8
LEVEL_LINES
 10
802507.1195821015862748
 20
571419.3041309433756396
 30
-652.9099999999998545
  0
VERTEX
  5
E4
  8
LEVEL_LINES
 10
802493.6664957879111171
 20
571284.9639784507453442
 30
-652.9099999999998545
  0
VERTEX
  5
E5
  8
LEVEL_LINES
 10
802392.7776572396978736
 20
571197.6423945031128824
 30
-652.9099999999998545
  0
VERTEX
  5
E6
  8
LEVEL_LINES
 10
802460.0356417640578002
 20
571049.8683652833569795
 30
-652.9099999999998545
  0
VERTEX
  5
E7
  8
LEVEL_LINES
 10
802608.0084206497995183
 20
571056.5853036467451602
 30
-652.9099999999998545
  0
VERTEX
  5
E8
  8
LEVEL_LINES
 10
802648.3639560694573447
 20
571157.3407643218524754
 30
-652.9099999999998545
  0
VERTEX
  5
E9
  8
LEVEL_LINES
 10
802648.3639560694573447
 20
571311.8317319048801437
 30
-652.9099999999998545
  0
VERTEX
  5
EA
  8
LEVEL_LINES
 10
802614.7368255684850737
 20
571419.3041309433756396
 30
-652.9099999999998545
  0
SEQEND
  5
EB
  8
LEVEL_LINES
  0
POLYLINE
  5
68
  8
LEVEL_LINES
 66
     1
 10
0.0
 20
0.0
 30
-652.9099999999998545
 70
     1
  0
VERTEX
  5
EC
  8
LEVEL_LINES
 10
813198.2608387497020885
 20
565554.1272984700044617
 30
-652.9099999999998545
  0
VERTEX
  5
ED
  8
LEVEL_LINES
 10
813093.6894365790067241
 20
565710.7736704858252779
 30
-652.9099999999998545
  0
VERTEX
  5
EE
  8
LEVEL_LINES
 10
813093.6894365790067241
 20
565909.1941629863576964
 30
-652.9099999999998545
  0
VERTEX
  5
EF
  8
LEVEL_LINES
 10
813125.0638360482407734
 20
566055.3973511866061017
 30
-652.9099999999998545
  0
VERTEX
  5
F0
  8
LEVEL_LINES
 10
813229.6315146953566
 20
565992.7382482915418223
 30
-652.9099999999998545
  0
VERTEX
  5
F1
  8
LEVEL_LINES
 10
813281.9172157802386209
 20
565804.7623248283052817
 30
-652.9099999999998545
  0
VERTEX
  5
F2
  8
LEVEL_LINES
 10
813323.7472660577623174
 20
565669.0023204440949485
 30
-652.9099999999998545
  0
VERTEX
  5
F3
  8
LEVEL_LINES
 10
813281.9172157802386209
 20
565543.6841146541992202
 30
-652.9099999999998545
  0
SEQEND
  5
F4
  8
LEVEL_LINES
  0
POLYLINE
  5
69
  8
LEVEL_LINES
 66
     1
 10
0.0
 20
0.0
 30
-652.9099999999998545
 70
     1
  0
VERTEX
  5
F5
  8
LEVEL_LINES
 10
814307.4236815904732794
 20
566716.8045337401563302
 30
-652.9099999999998545
  0
VERTEX
  5
F6
  8
LEVEL_LINES
 10
814396.0993667729198933
 20
566708.7536272092256695
 30
-652.9099999999998545
  0
VERTEX
  5
F7
  8
LEVEL_LINES
 10
814508.9556062107440084
 20
566692.6531993685057387
 30
-652.9099999999998545
  0
VERTEX
  5
F8
  8
LEVEL_LINES
 10
814537.1724587118951604
 20
566636.2996240939246491
 30
-652.9099999999998545
  0
VERTEX
  5
F9
  8
LEVEL_LINES
 10
814569.4144388921558857
 20
566547.7451931379036978
 30
-652.9099999999998545
  0
VERTEX
  5
FA
  8
LEVEL_LINES
 10
814593.5987166695995256
 20
566443.0889491197885945
 30
-652.9099999999998545
  0
VERTEX
  5
FB
  8
LEVEL_LINES
 10
814605.6927173193544149
 20
566362.5854246948147193
 30
-652.9099999999998545
  0
VERTEX
  5
FC
  8
LEVEL_LINES
 10
814517.0170321362093091
 20
566382.7113058009417728
 30
-652.9099999999998545
  0
VERTEX
  5
FD
  8
LEVEL_LINES
 10
814496.8653290829388425
 20
566435.0394278099993244
 30
-652.9099999999998545
  0
VERTEX
  5
FE
  8
LEVEL_LINES
 10
814444.4679223268758506
 20
566507.4934309254167601
 30
-652.9099999999998545
  0
VERTEX
  5
FF
  8
LEVEL_LINES
 10
814375.947663719765842
 20
566600.0733151469612494
 30
-652.9099999999998545
  0
VERTEX
  5
100
  8
LEVEL_LINES
 10
814347.7308112187311053
 20
566648.375983890495263
 30
-652.9099999999998545
  0
SEQEND
  5
101
  8
LEVEL_LINES
  0
POLYLINE
  5
6A
  8
LEVEL_LINES
 66
     1
 10
0.0
 20
0.0
 30
-652.9099999999998545
 70
     1
  0
VERTEX
  5
102
  8
LEVEL_LINES
 10
813590.5823259595781565
 20
562699.1015817160950974
 30
-652.9099999999998545
  0
VERTEX
  5
103
  8
LEVEL_LINES
 10
813699.9980307295918465
 20
562668.9577797509264201
 30
-652.9099999999998545
  0
VERTEX
  5
104
  8
LEVEL_LINES
 10
813794.3222993443487212
 20
562759.3891856465488672
 30
-652.9099999999998545
  0
VERTEX
  5
105
  8
LEVEL_LINES
 10
813854.6917674884898588
 20
562906.340393379679881
 30
-652.9099999999998545
  0
VERTEX
  5
106
  8
LEVEL_LINES
 10
813824.5088951772777364
 20
563072.1306115778861567
 30
-652.9099999999998545
  0
VERTEX
  5
107
  8
LEVEL_LINES
 10
813783.0027913468657061
 20
563124.8826113224495202
 30
-652.9099999999998545
  0
VERTEX
  5
108
  8
LEVEL_LINES
 10
813590.5823259595781565
 20
563222.8496214039623737
 30
-652.9099999999998545
  0
VERTEX
  5
109
  8
LEVEL_LINES
 10
813492.4824056643992662
 20
563192.7058194387936965
 30
-652.9099999999998545
  0
VERTEX
  5
10A
  8
LEVEL_LINES
 10
813477.390969509142451
 20
563098.5066114503424615
 30
-652.9099999999998545
  0
VERTEX
  5
10B
  8
LEVEL_LINES
 10
813647.1761424242286012
 20
563087.2032051711576059
 30
-652.9099999999998545
  0
VERTEX
  5
10C
  8
LEVEL_LINES
 10
813699.9980307295918465
 20
563030.6834033337654546
 30
-652.9099999999998545
  0
VERTEX
  5
10D
  8
LEVEL_LINES
 10
813688.6785227319924161
 20
562895.0369871008442715
 30
-652.9099999999998545
  0
VERTEX
  5
10E
  8
LEVEL_LINES
 10
813583.0347461205674335
 20
562744.3179772746516392
 30
-652.9099999999998545
  0
SEQEND
  5
10F
  8
LEVEL_LINES
  0
POLYLINE
  5
6B
  8
LEVEL_LINES
 66
     1
 10
0.0
 20
0.0
 30
-652.9099999999998545
 70
     1
  0
VERTEX
  5
110
  8
LEVEL_LINES
 10
806782.8891593114240095
 20
573226.3331849194364622
 30
-652.9099999999998545
  0
VERTEX
  5
111
  8
LEVEL_LINES
 10
806795.2248308601556346
 20
573227.0576346615562215
 30
-652.9099999999998545
  0
VERTEX
  5
112
  8
LEVEL_LINES
 10
806810.4610421414254233
 20
573236.4782516724662855
 30
-652.9099999999998545
  0
VERTEX
  5
113
  8
LEVEL_LINES
 10
806826.4233192093670368
 20
573253.1447512862505391
 30
-652.9099999999998545
  0
VERTEX
  5
114
  8
LEVEL_LINES
 10
806835.8584510246291757
 20
573268.3623514159116894
 30
-652.9099999999998545
  0
VERTEX
  5
115
  8
LEVEL_LINES
 10
806836.5845168110681698
 20
573280.680767395417206
 30
-652.9099999999998545
  0
VERTEX
  5
116
  8
LEVEL_LINES
 10
806822.7967136893421412
 20
573279.9563176532974467
 30
-652.9099999999998545
  0
VERTEX
  5
117
  8
LEVEL_LINES
 10
806798.1253705928102136
 20
573266.9120667503448203
 30
-652.9099999999998545
  0
VERTEX
  5
118
  8
LEVEL_LINES
 10
806793.7726992862299085
 20
573266.9120667503448203
 30
-652.9099999999998545
  0
VERTEX
  5
119
  8
LEVEL_LINES
 10
806783.6152250980958343
 20
573266.9120667503448203
 30
-652.9099999999998545
  0
VERTEX
  5
11A
  8
LEVEL_LINES
 10
806772.0056193367345259
 20
573264.0142677814001217
 30
-652.9099999999998545
  0
VERTEX
  5
11B
  8
LEVEL_LINES
 10
806772.0056193367345259
 20
573252.4203015441307798
 30
-652.9099999999998545
  0
VERTEX
  5
11C
  8
LEVEL_LINES
 10
806776.3582906442461535
 20
573240.1005003832979128
 30
-652.9099999999998545
  0
VERTEX
  5
11D
  8
LEVEL_LINES
 10
806774.9061590700875968
 20
573232.8546177801908925
 30
-652.9099999999998545
  0
VERTEX
  5
11E
  8
LEVEL_LINES
 10
806777.8104222173569724
 20
573227.7820844036759809
 30
-652.9099999999998545
  0
SEQEND
  5
11F
  8
LEVEL_LINES
  0
POLYLINE
  5
6C
  8
LEVEL_LINES
 66
     1
 10
0.0
 20
0.0
 30
-652.9099999999998545
 70
     1
  0
VERTEX
  5
120
  8
LEVEL_LINES
 10
807222.7807705559534952
 20
573889.2739580852212384
 30
-652.9099999999998545
  0
VERTEX
  5
121
  8
LEVEL_LINES
 10
807276.9080441136611626
 20
573930.7158077735221013
 30
-652.9099999999998545
  0
VERTEX
  5
122
  8
LEVEL_LINES
 10
807303.9698191854404286
 20
573991.9795997386099771
 30
-652.9099999999998545
  0
VERTEX
  5
123
  8
LEVEL_LINES
 10
807323.2702420486602932
 20
574035.6728566668462008
 30
-652.9099999999998545
  0
VERTEX
  5
124
  8
LEVEL_LINES
 10
807320.207628911244683
 20
574101.8923389230621979
 30
-652.9099999999998545
  0
VERTEX
  5
125
  8
LEVEL_LINES
 10
807319.2659384714206681
 20
574122.2534653776092455
 30
-652.9099999999998545
  0
VERTEX
  5
126
  8
LEVEL_LINES
 10
807307.577807633089833
 20
574128.9199935497017577
 30
-652.9099999999998545
  0
VERTEX
  5
127
  8
LEVEL_LINES
 10
807276.9080441136611626
 20
574130.7221142275957391
 30
-652.9099999999998545
  0
VERTEX
  5
128
  8
LEVEL_LINES
 10
807248.0404131104005501
 20
574109.0994364538928494
 30
-652.9099999999998545
  0
VERTEX
  5
129
  8
LEVEL_LINES
 10
807251.6484015582827851
 20
574074.864684296422638
 30
-652.9099999999998545
  0
VERTEX
  5
12A
  8
LEVEL_LINES
 10
807258.8643784559099004
 20
574038.8278114610584453
 30
-652.9099999999998545
  0
VERTEX
  5
12B
  8
LEVEL_LINES
 10
807239.0185802810592577
 20
574002.7909386256942526
 30
-652.9099999999998545
  0
VERTEX
  5
12C
  8
LEVEL_LINES
 10
807215.561070243595168
 20
573968.5548012871295214
 30
-652.9099999999998545
  0
VERTEX
  5
12D
  8
LEVEL_LINES
 10
807193.9094161380780861
 20
573948.7342441912041977
 30
-652.9099999999998545
  0
VERTEX
  5
12E
  8
LEVEL_LINES
 10
807179.4774623437551782
 20
573925.3108309205854312
 30
-652.9099999999998545
  0
VERTEX
  5
12F
  8
LEVEL_LINES
 10
807192.1072836208622903
 20
573880.2647398762637749
 30
-652.9099999999998545
  0
VERTEX
  5
130
  8
LEVEL_LINES
 10
807208.345093347132206
 20
573874.8583778423490003
 30
-652.9099999999998545
  0
SEQEND
  5
131
  8
LEVEL_LINES
  0
POLYLINE
  5
6D
  8
LEVEL_LINES
 66
     1
 10
0.0
 20
0.0
 30
-652.9099999999998545
 70
     1
  0
VERTEX
  5
132
  8
LEVEL_LINES
 10
806760.5300564904464409
 20
573663.1611424701986834
 30
-652.9099999999998545
  0
VERTEX
  5
133
  8
LEVEL_LINES
 10
806757.7077084574848413
 20
573676.0474827218567953
 30
-652.9099999999998545
  0
VERTEX
  5
134
  8
LEVEL_LINES
 10
806744.8060779365478083
 20
573694.973212793818675
 30
-652.9099999999998545
  0
VERTEX
  5
135
  8
LEVEL_LINES
 10
806731.0964665152132511
 20
573705.4437971174484119
 30
-652.9099999999998545
  0
VERTEX
  5
136
  8
LEVEL_LINES
 10
806712.2537307613529265
 20
573719.8347559516550973
 30
-652.9099999999998545
  0
VERTEX
  5
137
  8
LEVEL_LINES
 10
806692.0657350156689063
 20
573735.2531442107865587
 30
-652.9099999999998545
  0
VERTEX
  5
138
  8
LEVEL_LINES
 10
806667.7872533136978745
 20
573740.8795013331109658
 30
-652.9099999999998545
  0
VERTEX
  5
139
  8
LEVEL_LINES
 10
806645.6105977928964421
 20
573733.6308483678149059
 30
-652.9099999999998545
  0
VERTEX
  5
13A
  8
LEVEL_LINES
 10
806636.3392962067155167
 20
573718.7318399030482396
 30
-652.9099999999998545
  0
VERTEX
  5
13B
  8
LEVEL_LINES
 10
806635.1291865621460602
 20
573702.2281553155044094
 30
-652.9099999999998545
  0
VERTEX
  5
13C
  8
LEVEL_LINES
 10
806633.6580822754185647
 20
573682.1649806682253256
 30
-652.9099999999998545
  0
VERTEX
  5
13D
  8
LEVEL_LINES
 10
806639.563772982917726
 20
573665.1751958642853424
 30
-652.9099999999998545
  0
VERTEX
  5
13E
  8
LEVEL_LINES
 10
806668.1931054713204503
 20
573654.7046115406556055
 30
-652.9099999999998545
  0
VERTEX
  5
13F
  8
LEVEL_LINES
 10
806697.2245667035458609
 20
573651.4840653636492789
 30
-652.9099999999998545
  0
VERTEX
  5
140
  8
LEVEL_LINES
 10
806723.8358086459338665
 20
573644.2354123982368037
 30
-652.9099999999998545
  0
VERTEX
  5
141
  8
LEVEL_LINES
 10
806751.2550314896507189
 20
573646.6511683261487633
 30
-652.9099999999998545
  0
VERTEX
  5
142
  8
LEVEL_LINES
 10
806758.9178181020542979
 20
573654.7046115406556055
 30
-652.9099999999998545
  0
SEQEND
  5
143
  8
LEVEL_LINES
  0
POLYLINE
  5
6E
  8
LEVEL_LINES
 66
     1
 10
0.0
 20
0.0
 30
-652.9099999999998545
 70
     1
  0
VERTEX
  5
144
  8
LEVEL_LINES
 10
801494.0185015921015292
 20
568263.8703684018692002
 30
-652.9099999999998545
  0
VERTEX
  5
145
  8
LEVEL_LINES
 10
801471.2386135909473523
 20
568263.8703684018692002
 30
-652.9099999999998545
  0
VERTEX
  5
146
  8
LEVEL_LINES
 10
801441.2129488562932238
 20
568281.4483475895831361
 30
-652.9099999999998545
  0
VERTEX
  5
147
  8
LEVEL_LINES
 10
801401.8675620439462364
 20
568347.6254914585733786
 30
-652.9099999999998545
  0
VERTEX
  5
148
  8
LEVEL_LINES
 10
801401.8675620439462364
 20
568375.5452509941533208
 30
-652.9099999999998545
  0
VERTEX
  5
149
  8
LEVEL_LINES
 10
801419.4681718157371506
 20
568382.7828350175404921
 30
-652.9099999999998545
  0
VERTEX
  5
14A
  8
LEVEL_LINES
 10
801445.3533927039243281
 20
568353.8297285571461543
 30
-652.9099999999998545
  0
VERTEX
  5
14B
  8
LEVEL_LINES
 10
801477.4530027827713639
 20
568301.0957909937715158
 30
-652.9099999999998545
  0
VERTEX
  5
14C
  8
LEVEL_LINES
 10
801489.8743343245005235
 20
568283.5164266226347536
 30
-652.9099999999998545
  0
SEQEND
  5
14D
  8
LEVEL_LINES
  0
POLYLINE
  5
6F
  8
LEVEL_LINES
 66
     1
 10
0.0
 20
0.0
 30
-652.9099999999998545
 70
     1
  0
VERTEX
  5
14E
  8
LEVEL_LINES
 10
801852.8594506433000788
 20
567841.2868835525587201
 30
-652.9099999999998545
  0
VERTEX
  5
14F
  8
LEVEL_LINES
 10
801862.56268505519256
 20
567817.0586381646571681
 30
-652.9099999999998545
  0
VERTEX
  5
150
  8
LEVEL_LINES
 10
801904.6149987349053845
 20
567818.6737621781649068
 30
-652.9099999999998545
  0
VERTEX
  5
151
  8
LEVEL_LINES
 10
801953.1348942158510908
 20
567870.3605009814491495
 30
-652.9099999999998545
  0
VERTEX
  5
152
  8
LEVEL_LINES
 10
801974.1610510556492954
 20
567904.2808756347512826
 30
-652.9099999999998545
  0
VERTEX
  5
153
  8
LEVEL_LINES
 10
801959.6061994382180274
 20
567920.4321157712256536
 30
-652.9099999999998545
  0
VERTEX
  5
154
  8
LEVEL_LINES
 10
801922.4055029641604051
 20
567981.8109838397940621
 30
-652.9099999999998545
  0
VERTEX
  5
155
  8
LEVEL_LINES
 10
801890.0564236961072311
 20
568004.4241052140714601
 30
-652.9099999999998545
  0
VERTEX
  5
156
  8
LEVEL_LINES
 10
801846.3881454210495576
 20
568059.3410920447204262
 30
-652.9099999999998545
  0
VERTEX
  5
157
  8
LEVEL_LINES
 10
801791.396944718901068
 20
568070.6483453237451613
 30
-652.9099999999998545
  0
VERTEX
  5
158
  8
LEVEL_LINES
 10
801778.4580576956504956
 20
568033.4977226428454742
 30
-652.9099999999998545
  0
VERTEX
  5
159
  8
LEVEL_LINES
 10
801817.2747187645873055
 20
568028.6523506020894274
 30
-652.9099999999998545
  0
VERTEX
  5
15A
  8
LEVEL_LINES
 10
801865.7983376657357439
 20
567985.0412318670423701
 30
-652.9099999999998545
  0
VERTEX
  5
15B
  8
LEVEL_LINES
 10
801894.908040901995264
 20
567931.739369050017558
 30
-652.9099999999998545
  0
VERTEX
  5
15C
  8
LEVEL_LINES
 10
801933.7284253912512213
 20
567912.3564957031048834
 30
-652.9099999999998545
  0
VERTEX
  5
15D
  8
LEVEL_LINES
 10
801935.3443899865960702
 20
567888.1282503149705008
 30
-652.9099999999998545
  0
VERTEX
  5
15E
  8
LEVEL_LINES
 10
801904.6149987349053845
 20
567863.9000049269525334
 30
-652.9099999999998545
  0
SEQEND
  5
15F
  8
LEVEL_LINES
  0
POLYLINE
  5
70
  8
LEVEL_LINES
 66
     1
 10
0.0
 20
0.0
 30
-652.9099999999998545
 70
     1
  0
VERTEX
  5
160
  8
LEVEL_LINES
 10
805131.2494846576591954
 20
566469.6088779804995283
 30
-652.9099999999998545
  0
VERTEX
  5
161
  8
LEVEL_LINES
 10
805111.9361013513989747
 20
566512.6368344431975856
 30
-652.9099999999998545
  0
VERTEX
  5
162
  8
LEVEL_LINES
 10
805059.9348074918380007
 20
566505.2177913753548637
 30
-652.9099999999998545
  0
VERTEX
  5
163
  8
LEVEL_LINES
 10
805031.7075549676083028
 20
566466.6404296434484422
 30
-652.9099999999998545
  0
VERTEX
  5
164
  8
LEVEL_LINES
 10
805001.9946575745707378
 20
566417.6783468733774498
 30
-652.9099999999998545
  0
VERTEX
  5
165
  8
LEVEL_LINES
 10
804927.7086906689219177
 20
566377.6174535644240677
 30
-652.9099999999998545
  0
VERTEX
  5
166
  8
LEVEL_LINES
 10
804887.5925557672744617
 20
566318.2678793895756826
 30
-652.9099999999998545
  0
VERTEX
  5
167
  8
LEVEL_LINES
 10
804890.5638455064035952
 20
566272.2728597732493654
 30
-652.9099999999998545
  0
VERTEX
  5
168
  8
LEVEL_LINES
 10
804927.7086906689219177
 20
566260.4032219749642536
 30
-652.9099999999998545
  0
VERTEX
  5
169
  8
LEVEL_LINES
 10
805007.9372370524797589
 20
566309.3666899284580722
 30
-652.9099999999998545
  0
VERTEX
  5
16A
  8
LEVEL_LINES
 10
805048.0496485348558053
 20
566374.6503904106793925
 30
-652.9099999999998545
  0
VERTEX
  5
16B
  8
LEVEL_LINES
 10
805105.9935218732571229
 20
566441.4176224699476734
 30
-652.9099999999998545
  0
SEQEND
  5
16C
  8
LEVEL_LINES
  0
POLYLINE
  5
71
  8
LEVEL_LINES
 66
     1
 10
0.0
 20
0.0
 30
-652.9099999999998545
 70
     1
  0
VERTEX
  5
16D
  8
LEVEL_LINES
 10
805519.3713772104820237
 20
566448.5579055520938709
 30
-652.9099999999998545
  0
VERTEX
  5
16E
  8
LEVEL_LINES
 10
805478.0872526071034372
 20
566437.707672861055471
 30
-652.9099999999998545
  0
VERTEX
  5
16F
  8
LEVEL_LINES
 10
805452.0086410384392366
 20
566459.4081382432486862
 30
-652.9099999999998545
  0
VERTEX
  5
170
  8
LEVEL_LINES
 10
805469.3943820842541754
 20
566500.640551388845779
 30
-652.9099999999998545
  0
VERTEX
  5
171
  8
LEVEL_LINES
 10
805519.3713772104820237
 20
566537.530832897988148
 30
-652.9099999999998545
  0
VERTEX
  5
172
  8
LEVEL_LINES
 10
805562.8287194450385869
 20
566572.2500485900091007
 30
-652.9099999999998545
  0
VERTEX
  5
173
  8
LEVEL_LINES
 10
805604.1198544283397496
 20
566576.5921802256489173
 30
-652.9099999999998545
  0
VERTEX
  5
174
  8
LEVEL_LINES
 10
805641.0575437698280439
 20
566559.2312982800649479
 30
-652.9099999999998545
  0
VERTEX
  5
175
  8
LEVEL_LINES
 10
805625.8450203549582511
 20
566539.6993505168939009
 30
-652.9099999999998545
  0
VERTEX
  5
176
  8
LEVEL_LINES
 10
805595.4269839053740725
 20
566531.0201836439082399
 30
-652.9099999999998545
  0
VERTEX
  5
177
  8
LEVEL_LINES
 10
805586.7341133826412261
 20
566502.8090690072858706
 30
-652.9099999999998545
  0
VERTEX
  5
178
  8
LEVEL_LINES
 10
805567.1751547058811411
 20
566478.9400860067689791
 30
-652.9099999999998545
  0
VERTEX
  5
179
  8
LEVEL_LINES
 10
805547.6161960302852094
 20
566465.9187874976778403
 30
-652.9099999999998545
  0
SEQEND
  5
17A
  8
LEVEL_LINES
  0
POLYLINE
  5
72
  8
LEVEL_LINES
 66
     1
 10
0.0
 20
0.0
 30
-652.9099999999998545
 70
     1
  0
VERTEX
  5
17B
  8
LEVEL_LINES
 10
812716.2409452622523531
 20
565289.3794881325447932
 30
-652.9099999999998545
  0
VERTEX
  5
17C
  8
LEVEL_LINES
 10
812635.0607511871494353
 20
565224.5252673203358427
 30
-652.9099999999998545
  0
VERTEX
  5
17D
  8
LEVEL_LINES
 10
812478.1193863546941429
 20
565294.7842188837239519
 30
-652.9099999999998545
  0
VERTEX
  5
17E
  8
LEVEL_LINES
 10
812375.2911405259510502
 20
565413.6882954050088301
 30
-652.9099999999998545
  0
VERTEX
  5
17F
  8
LEVEL_LINES
 10
812234.5858145081438124
 20
565462.3283239646116272
 30
-652.9099999999998545
  0
VERTEX
  5
180
  8
LEVEL_LINES
 10
812099.2854910497553647
 20
565602.8487752905348316
 30
-652.9099999999998545
  0
VERTEX
  5
181
  8
LEVEL_LINES
 10
812083.0494522344088182
 20
565721.7503036122070625
 30
-652.9099999999998545
  0
VERTEX
  5
182
  8
LEVEL_LINES
 10
812175.0536721864482388
 20
565808.2259956279303879
 30
-652.9099999999998545
  0
VERTEX
  5
183
  8
LEVEL_LINES
 10
812375.2911405259510502
 20
565813.6307263789931312
 30
-652.9099999999998545
  0
VERTEX
  5
184
  8
LEVEL_LINES
 10
812467.2953604781068861
 20
565748.7739573671715334
 30
-652.9099999999998545
  0
VERTEX
  5
185
  8
LEVEL_LINES
 10
812548.4755545533262193
 20
565624.4676982943201438
 30
-652.9099999999998545
  0
VERTEX
  5
186
  8
LEVEL_LINES
 10
812635.0607511871494353
 20
565575.8251215355703607
 30
-652.9099999999998545
  0
VERTEX
  5
187
  8
LEVEL_LINES
 10
812705.4169193854322657
 20
565494.7567084702895954
 30
-652.9099999999998545
  0
VERTEX
  5
188
  8
LEVEL_LINES
 10
812737.8889970160089433
 20
565392.069372401223518
 30
-652.9099999999998545
  0
VERTEX
  5
189
  8
LEVEL_LINES
 10
812716.2409452622523531
 20
565332.6173341404646635
 30
-652.9099999999998545
  0
SEQEND
  5
18A
  8
LEVEL_LINES
  0
POLYLINE
  5
73
  8
LEVEL_LINES
 66
     1
 10
0.0
 20
0.0
 30
-652.9099999999998545
 70
     1
  0
VERTEX
  5
18B
  8
LEVEL_LINES
 10
813228.012666150345467
 20
568343.9060092015424743
 30
-652.9099999999998545
  0
VERTEX
  5
18C
  8
LEVEL_LINES
 10
813071.0502701797522604
 20
568281.8548076377483085
 30
-652.9099999999998545
  0
VERTEX
  5
18D
  8
LEVEL_LINES
 10
812956.5918048372259364
 20
568275.3237727887462825
 30
-652.9099999999998545
  0
VERTEX
  5
18E
  8
LEVEL_LINES
 10
812865.029238790855743
 20
568307.9814952329033986
 30
-652.9099999999998545
  0
VERTEX
  5
18F
  8
LEVEL_LINES
 10
812789.8148776305606589
 20
568307.9814952329033986
 30
-652.9099999999998545
  0
VERTEX
  5
190
  8
LEVEL_LINES
 10
812685.1709435231750831
 20
568321.0461131301708519
 30
-652.9099999999998545
  0
VERTEX
  5
191
  8
LEVEL_LINES
 10
812606.6827351583633572
 20
568350.4370440505445004
 30
-652.9099999999998545
  0
VERTEX
  5
192
  8
LEVEL_LINES
 10
812596.8752143023302779
 20
568399.4236277170712128
 30
-652.9099999999998545
  0
VERTEX
  5
193
  8
LEVEL_LINES
 10
812655.7343601970933378
 20
568409.2214540900895372
 30
-652.9099999999998545
  0
VERTEX
  5
194
  8
LEVEL_LINES
 10
812727.6818845312809572
 20
568402.6904192409710959
 30
-652.9099999999998545
  0
VERTEX
  5
195
  8
LEVEL_LINES
 10
812789.8148776305606589
 20
568425.5503153123427182
 30
-652.9099999999998545
  0
VERTEX
  5
196
  8
LEVEL_LINES
 10
812845.4071866994490847
 20
568441.8791765342466533
 30
-652.9099999999998545
  0
VERTEX
  5
197
  8
LEVEL_LINES
 10
812907.5401797988452017
 20
568435.3481416852446273
 30
-652.9099999999998545
  0
VERTEX
  5
198
  8
LEVEL_LINES
 10
812976.2138569285161793
 20
568454.9437944317469373
 30
-652.9099999999998545
  0
VERTEX
  5
199
  8
LEVEL_LINES
 10
813005.643429874908179
 20
568487.6015168761368841
 30
-652.9099999999998545
  0
VERTEX
  5
19A
  8
LEVEL_LINES
 10
813071.0502701797522604
 20
568500.6635865742573515
 30
-652.9099999999998545
  0
VERTEX
  5
19B
  8
LEVEL_LINES
 10
813126.642579248524271
 20
568507.1946214229101315
 30
-652.9099999999998545
  0
VERTEX
  5
19C
  8
LEVEL_LINES
 10
813205.1237772335298359
 20
568458.2080377564998344
 30
-652.9099999999998545
  0
VERTEX
  5
19D
  8
LEVEL_LINES
 10
813244.3678814157610759
 20
568405.9572107654530555
 30
-652.9099999999998545
  0
VERTEX
  5
19E
  8
LEVEL_LINES
 10
813234.5533501808531582
 20
568366.7659052727976814
 30
-652.9099999999998545
  0
SEQEND
  5
19F
  8
LEVEL_LINES
  0
POLYLINE
  5
74
  8
LEVEL_LINES
  6
CONTINUOUS
 66
     1
 10
0.0
 20
0.0
 30
-0.9999999999999538
 70
     1
  0
VERTEX
  5
1A0
  8
LEVEL_LINES
  6
CONTINUOUS
 10
802370.4999318388290703
 20
568430.6502332172822207
 30
-0.9999999999999538
  0
VERTEX
  5
1A1
  8
LEVEL_LINES
  6
CONTINUOUS
 10
802382.4463679298060015
 20
568532.0626748505746946
 30
-0.9999999999999538
  0
VERTEX
  5
1A2
  8
LEVEL_LINES
  6
CONTINUOUS
 10
802340.6320048954803497
 20
568621.5441065587801859
 30
-0.9999999999999538
  0
VERTEX
  5
1A3
  8
LEVEL_LINES
  6
CONTINUOUS
 10
802131.5626385670620948
 20
568716.991272303275764
 30
-0.9999999999999538
  0
VERTEX
  5
1A4
  8
LEVEL_LINES
  6
CONTINUOUS
 10
801904.5717817168915644
 20
568794.541694086859934
 30
-0.9999999999999538
  0
VERTEX
  5
1A5
  8
LEVEL_LINES
  6
CONTINUOUS
 10
801791.0763532915152609
 20
568907.8851456448901445
 30
-0.9999999999999538
  0
VERTEX
  5
1A6
  8
LEVEL_LINES
  6
CONTINUOUS
 10
801570.0605508722364902
 20
569009.2975859579164535
 30
-0.9999999999999538
  0
VERTEX
  5
1A7
  8
LEVEL_LINES
  6
CONTINUOUS
 10
801378.9102268820861354
 20
569086.848009061650373
 30
-0.9999999999999538
  0
VERTEX
  5
1A8
  8
LEVEL_LINES
  6
CONTINUOUS
 10
801145.9467637846246362
 20
569176.3298962769331411
 30
-0.9999999999999538
  0
VERTEX
  5
1A9
  8
LEVEL_LINES
  6
CONTINUOUS
 10
800883.1153744040057063
 20
569241.9497662829235196
 30
-0.9999999999999538
  0
VERTEX
  5
1AA
  8
LEVEL_LINES
  6
CONTINUOUS
 10
800650.1519113063113764
 20
569241.9497662829235196
 30
-0.9999999999999538
  0
VERTEX
  5
1AB
  8
LEVEL_LINES
  6
CONTINUOUS
 10
800506.7897805250249803
 20
569182.2951734858797863
 30
-0.9999999999999538
  0
VERTEX
  5
1AC
  8
LEVEL_LINES
  6
CONTINUOUS
 10
800512.7636106989812106
 20
569057.0211688303388655
 30
-0.9999999999999538
  0
VERTEX
  5
1AD
  8
LEVEL_LINES
  6
CONTINUOUS
 10
800650.1519113063113764
 20
568985.4355674284743145
 30
-0.9999999999999538
  0
VERTEX
  5
1AE
  8
LEVEL_LINES
  6
CONTINUOUS
 10
800781.5676063270075247
 20
568997.3665773534448817
 30
-0.9999999999999538
  0
VERTEX
  5
1AF
  8
LEVEL_LINES
  6
CONTINUOUS
 10
801080.2395285681122914
 20
568961.5740044058766216
 30
-0.9999999999999538
  0
VERTEX
  5
1B0
  8
LEVEL_LINES
  6
CONTINUOUS
 10
801271.3886286311317235
 20
568872.092572697554715
 30
-0.9999999999999538
  0
VERTEX
  5
1B1
  8
LEVEL_LINES
  6
CONTINUOUS
 10
801396.8304931473685429
 20
568794.541694086859934
 30
-0.9999999999999538
  0
VERTEX
  5
1B2
  8
LEVEL_LINES
  6
CONTINUOUS
 10
801474.4853887122590095
 20
568705.0602623785380274
 30
-0.9999999999999538
  0
VERTEX
  5
1B3
  8
LEVEL_LINES
  6
CONTINUOUS
 10
801576.0331567892571911
 20
568609.6130979543086141
 30
-0.9999999999999538
  0
VERTEX
  5
1B4
  8
LEVEL_LINES
  6
CONTINUOUS
 10
801814.970450061140582
 20
568532.0626748505746946
 30
-0.9999999999999538
  0
VERTEX
  5
1B5
  8
LEVEL_LINES
  6
CONTINUOUS
 10
801964.3064110163832083
 20
568484.339093298651278
 30
-0.9999999999999538
  0
VERTEX
  5
1B6
  8
LEVEL_LINES
  6
CONTINUOUS
 10
802137.5352448143530637
 20
568442.5807876355247572
 30
-0.9999999999999538
  0
SEQEND
  5
1B7
  8
LEVEL_LINES
  6
CONTINUOUS
  0
POLYLINE
  5
75
  8
LEVEL_LINES
  6
CONTINUOUS
 66
     1
 10
0.0
 20
0.0
 30
-0.9999999999999538
 70
     1
  0
VERTEX
  5
1B8
  8
LEVEL_LINES
  6
CONTINUOUS
 10
812354.4178510940400884
 20
567168.7916789348237216
 30
-0.9999999999999538
  0
VERTEX
  5
1B9
  8
LEVEL_LINES
  6
CONTINUOUS
 10
812351.2044692573836073
 20
567179.7004999532364309
 30
-0.9999999999999538
  0
VERTEX
  5
1BA
  8
LEVEL_LINES
  6
CONTINUOUS
 10
812358.2726855027722195
 20
567191.2515525267226622
 30
-0.9999999999999538
  0
VERTEX
  5
1BB
  8
LEVEL_LINES
  6
CONTINUOUS
 10
812380.1212349950801581
 20
567193.8186567197553813
 30
-0.9999999999999538
  0
VERTEX
  5
1BC
  8
LEVEL_LINES
  6
CONTINUOUS
 10
812421.8878562975442037
 20
567157.8824024096829817
 30
-0.9999999999999538
  0
VERTEX
  5
1BD
  8
LEVEL_LINES
  6
CONTINUOUS
 10
812425.1012381340842694
 20
567140.5558235496282578
 30
-0.9999999999999538
  0
VERTEX
  5
1BE
  8
LEVEL_LINES
  6
CONTINUOUS
 10
812444.3790819592541084
 20
567130.9300978005630895
 30
-0.9999999999999538
  0
VERTEX
  5
1BF
  8
LEVEL_LINES
  6
CONTINUOUS
 10
812465.5837306950706989
 20
567109.1115434300154448
 30
-0.9999999999999538
  0
VERTEX
  5
1C0
  8
LEVEL_LINES
  6
CONTINUOUS
 10
812466.869083693716675
 20
567087.2934458863455802
 30
-0.9999999999999538
  0
VERTEX
  5
1C1
  8
LEVEL_LINES
  6
CONTINUOUS
 10
812454.0167796146124601
 20
567077.0259454094339162
 30
-0.9999999999999538
  0
VERTEX
  5
1C2
  8
LEVEL_LINES
  6
CONTINUOUS
 10
812436.02551271521952
 20
567096.2773955871816725
 30
-0.9999999999999538
  0
VERTEX
  5
1C3
  8
LEVEL_LINES
  6
CONTINUOUS
 10
812425.7439146335236728
 20
567122.5879241479560733
 30
-0.9999999999999538
  0
VERTEX
  5
1C4
  8
LEVEL_LINES
  6
CONTINUOUS
 10
812401.3258837310131639
 20
567159.1654976790305227
 30
-0.9999999999999538
  0
VERTEX
  5
1C5
  8
LEVEL_LINES
  6
CONTINUOUS
 10
812364.6994495058897883
 20
567164.2992479174863547
 30
-0.9999999999999538
  0
SEQEND
  5
1C6
  8
LEVEL_LINES
  6
CONTINUOUS
  0
POLYLINE
  5
76
  8
LEVEL_LINES
  6
CONTINUOUS
 66
     1
 10
0.0
 20
0.0
 30
-0.9999999999999538
 70
     1
  0
VERTEX
  5
1C7
  8
LEVEL_LINES
  6
CONTINUOUS
 10
813369.3667010338976979
 20
567964.2164956530323252
 30
-0.9999999999999538
  0
VERTEX
  5
1C8
  8
LEVEL_LINES
  6
CONTINUOUS
 10
813413.7933905123500153
 20
567981.3583420872455463
 30
-0.9999999999999538
  0
VERTEX
  5
1C9
  8
LEVEL_LINES
  6
CONTINUOUS
 10
813433.9868950608652085
 20
568022.7006565118208528
 30
-0.9999999999999538
  0
VERTEX
  5
1CA
  8
LEVEL_LINES
  6
CONTINUOUS
 10
813382.4919893372571096
 20
568073.1186029297532514
 30
-0.9999999999999538
  0
VERTEX
  5
1CB
  8
LEVEL_LINES
  6
CONTINUOUS
 10
813307.7738189436495304
 20
568116.4774709645425901
 30
-0.9999999999999538
  0
VERTEX
  5
1CC
  8
LEVEL_LINES
  6
CONTINUOUS
 10
813255.2702172162244096
 20
568162.8618533349363133
 30
-0.9999999999999538
  0
VERTEX
  5
1CD
  8
LEVEL_LINES
  6
CONTINUOUS
 10
813219.9303599166451022
 20
568214.2878481444204226
 30
-0.9999999999999538
  0
VERTEX
  5
1CE
  8
LEVEL_LINES
  6
CONTINUOUS
 10
813150.2605655780062079
 20
568233.4467050159582868
 30
-0.9999999999999538
  0
VERTEX
  5
1CF
  8
LEVEL_LINES
  6
CONTINUOUS
 10
813090.6875236781779677
 20
568213.2793442460242659
 30
-0.9999999999999538
  0
VERTEX
  5
1D0
  8
LEVEL_LINES
  6
CONTINUOUS
 10
812980.3491665489273146
 20
568117.5147127198288217
 30
-0.9999999999999538
  0
VERTEX
  5
1D1
  8
LEVEL_LINES
  6
CONTINUOUS
 10
812985.6191129850922152
 20
568099.700529032968916
 30
-0.9999999999999538
  0
VERTEX
  5
1D2
  8
LEVEL_LINES
  6
CONTINUOUS
 10
812999.402991478331387
 20
568098.4858535228995606
 30
-0.9999999999999538
  0
VERTEX
  5
1D3
  8
LEVEL_LINES
  6
CONTINUOUS
 10
813079.5808513086521998
 20
568146.7280566126573831
 30
-0.9999999999999538
  0
VERTEX
  5
1D4
  8
LEVEL_LINES
  6
CONTINUOUS
 10
813112.9008684175787494
 20
568172.9455337199615315
 30
-0.9999999999999538
  0
VERTEX
  5
1D5
  8
LEVEL_LINES
  6
CONTINUOUS
 10
813156.3188618927961215
 20
568159.8367958264425397
 30
-0.9999999999999538
  0
VERTEX
  5
1D6
  8
LEVEL_LINES
  6
CONTINUOUS
 10
813191.6587191922590137
 20
568119.5025297933025286
 30
-0.9999999999999538
  0
VERTEX
  5
1D7
  8
LEVEL_LINES
  6
CONTINUOUS
 10
813229.0171924259047955
 20
568097.3190709202317521
 30
-0.9999999999999538
  0
VERTEX
  5
1D8
  8
LEVEL_LINES
  6
CONTINUOUS
 10
813279.5021778893424198
 20
568063.0349225448444486
 30
-0.9999999999999538
  0
VERTEX
  5
1D9
  8
LEVEL_LINES
  6
CONTINUOUS
 10
813322.9201713644433767
 20
568003.5422564673935995
 30
-0.9999999999999538
  0
VERTEX
  5
1DA
  8
LEVEL_LINES
  6
CONTINUOUS
 10
813348.1620522978482768
 20
567976.3167296481551602
 30
-0.9999999999999538
  0
SEQEND
  5
1DB
  8
LEVEL_LINES
  6
CONTINUOUS
  0
POLYLINE
  5
77
  8
LEVEL_LINES
  6
CONTINUOUS
 66
     1
 10
0.0
 20
0.0
 30
-0.9999999999999538
 70
     1
  0
VERTEX
  5
1DC
  8
LEVEL_LINES
  6
CONTINUOUS
 10
812724.2885256997542456
 20
567870.3402447300031781
 30
-0.9999999999999538
  0
VERTEX
  5
1DD
  8
LEVEL_LINES
  6
CONTINUOUS
 10
812684.3605710561387241
 20
567888.5882081855088472
 30
-0.9999999999999538
  0
VERTEX
  5
1DE
  8
LEVEL_LINES
  6
CONTINUOUS
 10
812624.8058910310501233
 20
567929.8151222773594782
 30
-0.9999999999999538
  0
VERTEX
  5
1DF
  8
LEVEL_LINES
  6
CONTINUOUS
 10
812609.2408806765452027
 20
567964.2830907447496429
 30
-0.9999999999999538
  0
VERTEX
  5
1E0
  8
LEVEL_LINES
  6
CONTINUOUS
 10
812584.8779363875510171
 20
568025.1094833206152543
 30
-0.9999999999999538
  0
VERTEX
  5
1E1
  8
LEVEL_LINES
  6
CONTINUOUS
 10
812532.0903331134468317
 20
568055.5224498747847974
 30
-0.9999999999999538
  0
VERTEX
  5
1E2
  8
LEVEL_LINES
  6
CONTINUOUS
 10
812473.213829739834182
 20
568098.1008789953775704
 30
-0.9999999999999538
  0
VERTEX
  5
1E3
  8
LEVEL_LINES
  6
CONTINUOUS
 10
812475.4907404640689492
 20
568116.6777117459569126
 30
-0.9999999999999538
  0
VERTEX
  5
1E4
  8
LEVEL_LINES
  6
CONTINUOUS
 10
812515.695352102862671
 20
568136.2110519657144323
 30
-0.9999999999999538
  0
VERTEX
  5
1E5
  8
LEVEL_LINES
  6
CONTINUOUS
 10
812572.1994612884009257
 20
568115.5925770833855495
 30
-0.9999999999999538
  0
VERTEX
  5
1E6
  8
LEVEL_LINES
  6
CONTINUOUS
 10
812610.2324387322878465
 20
568081.9524849309818819
 30
-0.9999999999999538
  0
VERTEX
  5
1E7
  8
LEVEL_LINES
  6
CONTINUOUS
 10
812663.4766482764389366
 20
568062.4191460314905271
 30
-0.9999999999999538
  0
VERTEX
  5
1E8
  8
LEVEL_LINES
  6
CONTINUOUS
 10
812722.1548401707550511
 20
568054.8227465669624507
 30
-0.9999999999999538
  0
VERTEX
  5
1E9
  8
LEVEL_LINES
  6
CONTINUOUS
 10
812814.5178444215562195
 20
568015.7569797817850485
 30
-0.9999999999999538
  0
VERTEX
  5
1EA
  8
LEVEL_LINES
  6
CONTINUOUS
 10
812864.502154323970899
 20
568016.8421144442399964
 30
-0.9999999999999538
  0
VERTEX
  5
1EB
  8
LEVEL_LINES
  6
CONTINUOUS
 10
812889.4943096054485068
 20
567994.0533702370012179
 30
-0.9999999999999538
  0
VERTEX
  5
1EC
  8
LEVEL_LINES
  6
CONTINUOUS
 10
812865.5891958435531706
 20
567949.5614746323553845
 30
-0.9999999999999538
  0
VERTEX
  5
1ED
  8
LEVEL_LINES
  6
CONTINUOUS
 10
812811.2579447799362242
 20
567928.942999750142917
 30
-0.9999999999999538
  0
VERTEX
  5
1EE
  8
LEVEL_LINES
  6
CONTINUOUS
 10
812788.4386479506501928
 20
567902.8988515556557104
 30
-0.9999999999999538
  0
VERTEX
  5
1EF
  8
LEVEL_LINES
  6
CONTINUOUS
 10
812768.87925076240208
 20
567866.0028985883109272
 30
-0.9999999999999538
  0
SEQEND
  5
1F0
  8
LEVEL_LINES
  6
CONTINUOUS
  0
POLYLINE
  5
78
  8
LEVEL_LINES
  6
CONTINUOUS
 66
     1
 10
0.0
 20
0.0
 30
-0.9999999999999538
 70
     1
  0
VERTEX
  5
1F1
  8
LEVEL_LINES
  6
CONTINUOUS
 10
813601.3459509572712705
 20
565794.4453749322565272
 30
-0.9999999999999538
  0
VERTEX
  5
1F2
  8
LEVEL_LINES
  6
CONTINUOUS
 10
813572.6789108716184273
 20
565802.7159363168757409
 30
-0.9999999999999538
  0
VERTEX
  5
1F3
  8
LEVEL_LINES
  6
CONTINUOUS
 10
813562.486675298656337
 20
565812.2586449645459652
 30
-0.9999999999999538
  0
VERTEX
  5
1F4
  8
LEVEL_LINES
  6
CONTINUOUS
 10
813570.1314641068456694
 20
565817.9844536763848737
 30
-0.9999999999999538
  0
VERTEX
  5
1F5
  8
LEVEL_LINES
  6
CONTINUOUS
 10
813588.6050443627173081
 20
565812.2586449645459652
 30
-0.9999999999999538
  0
VERTEX
  5
1F6
  8
LEVEL_LINES
  6
CONTINUOUS
 10
813602.6202866331441328
 20
565805.2606889901217073
 30
-0.9999999999999538
  0
SEQEND
  5
1F7
  8
LEVEL_LINES
  6
CONTINUOUS
  0
POLYLINE
  5
79
  8
LEVEL_LINES
  6
CONTINUOUS
 66
     1
 10
0.0
 20
0.0
 30
-0.9999999999999538
 70
     1
  0
VERTEX
  5
1F8
  8
LEVEL_LINES
  6
CONTINUOUS
 10
813665.3283651830861345
 20
566218.7184992822585627
 30
-0.9999999999999538
  0
VERTEX
  5
1F9
  8
LEVEL_LINES
  6
CONTINUOUS
 10
813582.7866806336678565
 20
566282.6018784117186442
 30
-0.9999999999999538
  0
VERTEX
  5
1FA
  8
LEVEL_LINES
  6
CONTINUOUS
 10
813510.5645428323186934
 20
566315.5737394744064659
 30
-0.9999999999999538
  0
VERTEX
  5
1FB
  8
LEVEL_LINES
  6
CONTINUOUS
 10
813415.6430744942044839
 20
566366.0623858261387795
 30
-0.9999999999999538
  0
VERTEX
  5
1FC
  8
LEVEL_LINES
  6
CONTINUOUS
 10
813346.5143525663297623
 20
566432.006563458009623
 30
-0.9999999999999538
  0
VERTEX
  5
1FD
  8
LEVEL_LINES
  6
CONTINUOUS
 10
813345.1261715521104634
 20
566464.1897746013710275
 30
-0.9999999999999538
  0
VERTEX
  5
1FE
  8
LEVEL_LINES
  6
CONTINUOUS
 10
813361.541962951188907
 20
566477.9603585680015385
 30
-0.9999999999999538
  0
VERTEX
  5
1FF
  8
LEVEL_LINES
  6
CONTINUOUS
 10
813408.1610970130423084
 20
566467.4684411222115159
 30
-0.9999999999999538
  0
VERTEX
  5
200
  8
LEVEL_LINES
  6
CONTINUOUS
 10
813448.2139146474655718
 20
566423.5348489579046145
 30
-0.9999999999999538
  0
VERTEX
  5
201
  8
LEVEL_LINES
  6
CONTINUOUS
 10
813488.9228739578975365
 20
566392.7154686901485547
 30
-0.9999999999999538
  0
VERTEX
  5
202
  8
LEVEL_LINES
  6
CONTINUOUS
 10
813509.2779659065417945
 20
566372.3880058684153482
 30
-0.9999999999999538
  0
VERTEX
  5
203
  8
LEVEL_LINES
  6
CONTINUOUS
 10
813563.1195587323745713
 20
566362.5520049857441336
 30
-0.9999999999999538
  0
VERTEX
  5
204
  8
LEVEL_LINES
  6
CONTINUOUS
 10
813615.6488672159612179
 20
566331.0771649820962921
 30
-0.9999999999999538
  0
VERTEX
  5
205
  8
LEVEL_LINES
  6
CONTINUOUS
 10
813681.3095852877013385
 20
566283.2089884133310989
 30
-0.9999999999999538
  0
VERTEX
  5
206
  8
LEVEL_LINES
  6
CONTINUOUS
 10
813696.4106444908538833
 20
566251.0782331669470295
 30
-0.9999999999999538
  0
VERTEX
  5
207
  8
LEVEL_LINES
  6
CONTINUOUS
 10
813680.6522190248360857
 20
566228.7834788032341748
 30
-0.9999999999999538
  0
SEQEND
  5
208
  8
LEVEL_LINES
  6
CONTINUOUS
  0
POLYLINE
  5
7A
  8
LEVEL_LINES
  6
CONTINUOUS
 66
     1
 10
0.0
 20
0.0
 30
-0.9999999999999538
 70
     1
  0
VERTEX
  5
209
  8
LEVEL_LINES
  6
CONTINUOUS
 10
811907.5716818319633603
 20
567696.7706700740382075
 30
-0.9999999999999538
  0
VERTEX
  5
20A
  8
LEVEL_LINES
  6
CONTINUOUS
 10
811879.8913031039992347
 20
567704.9007426047464833
 30
-0.9999999999999538
  0
VERTEX
  5
20B
  8
LEVEL_LINES
  6
CONTINUOUS
 10
811848.9546975061530247
 20
567711.4051668832544237
 30
-0.9999999999999538
  0
VERTEX
  5
20C
  8
LEVEL_LINES
  6
CONTINUOUS
 10
811858.7246030342066661
 20
567747.1785821395460516
 30
-0.9999999999999538
  0
VERTEX
  5
20D
  8
LEVEL_LINES
  6
CONTINUOUS
 10
811878.2631895038066432
 20
567807.3431273221503943
 30
-0.9999999999999538
  0
VERTEX
  5
20E
  8
LEVEL_LINES
  6
CONTINUOUS
 10
811860.3527163043618202
 20
567856.1249329880811274
 30
-0.9999999999999538
  0
VERTEX
  5
20F
  8
LEVEL_LINES
  6
CONTINUOUS
 10
811826.1586592488456517
 20
567898.4027712028473616
 30
-0.9999999999999538
  0
VERTEX
  5
210
  8
LEVEL_LINES
  6
CONTINUOUS
 10
811831.0442243065917864
 20
567942.3067158169578761
 30
-0.9999999999999538
  0
VERTEX
  5
211
  8
LEVEL_LINES
  6
CONTINUOUS
 10
811860.3527163043618202
 20
567953.6889998266706243
 30
-0.9999999999999538
  0
VERTEX
  5
212
  8
LEVEL_LINES
  6
CONTINUOUS
 10
811935.2520605595782399
 20
567900.0288776023080572
 30
-0.9999999999999538
  0
VERTEX
  5
213
  8
LEVEL_LINES
  6
CONTINUOUS
 10
811979.2147988866781816
 20
567885.394380793091841
 30
-0.9999999999999538
  0
VERTEX
  5
214
  8
LEVEL_LINES
  6
CONTINUOUS
 10
812016.6638588858768344
 20
567904.9071954811224714
 30
-0.9999999999999538
  0
VERTEX
  5
215
  8
LEVEL_LINES
  6
CONTINUOUS
 10
812041.0880104128737003
 20
567903.2810890815453604
 30
-0.9999999999999538
  0
VERTEX
  5
216
  8
LEVEL_LINES
  6
CONTINUOUS
 10
812050.8566916844574735
 20
567872.385991703835316
 30
-0.9999999999999538
  0
VERTEX
  5
217
  8
LEVEL_LINES
  6
CONTINUOUS
 10
812032.9462184850126505
 20
567830.1081521690357476
 30
-0.9999999999999538
  0
VERTEX
  5
218
  8
LEVEL_LINES
  6
CONTINUOUS
 10
811992.2397073585307226
 20
567794.3347369126277044
 30
-0.9999999999999538
  0
VERTEX
  5
219
  8
LEVEL_LINES
  6
CONTINUOUS
 10
811964.5605528878513724
 20
567758.5608661494916305
 30
-0.9999999999999538
  0
VERTEX
  5
21A
  8
LEVEL_LINES
  6
CONTINUOUS
 10
811938.5082877600798383
 20
567719.5352394138462842
 30
-0.9999999999999538
  0
SEQEND
  5
21B
  8
LEVEL_LINES
  6
CONTINUOUS
  0
POLYLINE
  5
7B
  8
LEVEL_LINES
  6
CONTINUOUS
 66
     1
 10
0.0
 20
0.0
 30
-0.9999999999999538
 70
     1
  0
VERTEX
  5
21C
  8
LEVEL_LINES
  6
CONTINUOUS
 10
803133.1768714018398896
 20
573834.8607289213687181
 30
-0.9999999999999538
  0
VERTEX
  5
21D
  8
LEVEL_LINES
  6
CONTINUOUS
 10
803086.5295817394508049
 20
573846.0008087526075542
 30
-0.9999999999999538
  0
VERTEX
  5
21E
  8
LEVEL_LINES
  6
CONTINUOUS
 10
803036.8390664495527744
 20
573879.420590098714456
 30
-0.9999999999999538
  0
VERTEX
  5
21F
  8
LEVEL_LINES
  6
CONTINUOUS
 10
802999.3177818893454969
 20
573946.2606082977727056
 30
-0.9999999999999538
  0
VERTEX
  5
220
  8
LEVEL_LINES
  6
CONTINUOUS
 10
802967.8817249870626256
 20
573994.8709083986468613
 30
-0.9999999999999538
  0
VERTEX
  5
221
  8
LEVEL_LINES
  6
CONTINUOUS
 10
802947.6000818567117676
 20
574020.1893524301704019
 30
-0.9999999999999538
  0
VERTEX
  5
222
  8
LEVEL_LINES
  6
CONTINUOUS
 10
802948.6136742278467864
 20
574059.6852496488718316
 30
-0.9999999999999538
  0
VERTEX
  5
223
  8
LEVEL_LINES
  6
CONTINUOUS
 10
802992.2201861165231094
 20
574048.5456266447436064
 30
-0.9999999999999538
  0
VERTEX
  5
224
  8
LEVEL_LINES
  6
CONTINUOUS
 10
803032.7822484505595639
 20
574011.0744940411532298
 30
-0.9999999999999538
  0
VERTEX
  5
225
  8
LEVEL_LINES
  6
CONTINUOUS
 10
803084.5011727400124073
 20
573957.400231302017346
 30
-0.9999999999999538
  0
VERTEX
  5
226
  8
LEVEL_LINES
  6
CONTINUOUS
 10
803122.0212330432841554
 20
573928.0313457062002271
 30
-0.9999999999999538
  0
VERTEX
  5
227
  8
LEVEL_LINES
  6
CONTINUOUS
 10
803144.3312855034600943
 20
573870.3061872165417299
 30
-0.9999999999999538
  0
SEQEND
  5
228
  8
LEVEL_LINES
  6
CONTINUOUS
  0
POLYLINE
  5
7C
  8
LEVEL_LINES
  6
CONTINUOUS
 66
     1
 10
0.0
 20
0.0
 30
-0.9999999999999538
 70
     1
  0
VERTEX
  5
229
  8
LEVEL_LINES
  6
CONTINUOUS
 10
806031.9914285378763452
 20
572738.2459963317960501
 30
-0.9999999999999538
  0
VERTEX
  5
22A
  8
LEVEL_LINES
  6
CONTINUOUS
 10
806059.7881011180579662
 20
572767.3936587872449309
 30
-0.9999999999999538
  0
VERTEX
  5
22B
  8
LEVEL_LINES
  6
CONTINUOUS
 10
806095.9236528479959816
 20
572764.6176473012892529
 30
-0.9999999999999538
  0
VERTEX
  5
22C
  8
LEVEL_LINES
  6
CONTINUOUS
 10
806109.8213770096190274
 20
572746.5740307896630839
 30
-0.9999999999999538
  0
VERTEX
  5
22D
  8
LEVEL_LINES
  6
CONTINUOUS
 10
806102.8731270573334768
 20
572706.3227805376518518
 30
-0.9999999999999538
  0
VERTEX
  5
22E
  8
LEVEL_LINES
  6
CONTINUOUS
 10
806047.2797818974358961
 20
572703.5467690516961738
 30
-0.9999999999999538
  0
VERTEX
  5
22F
  8
LEVEL_LINES
  6
CONTINUOUS
 10
806034.7714630072005093
 20
572717.4263696547131985
 30
-0.9999999999999538
  0
SEQEND
  5
230
  8
LEVEL_LINES
  6
CONTINUOUS
  0
POLYLINE
  5
7D
  8
LEVEL_LINES
  6
CONTINUOUS
 66
     1
 10
0.0
 20
0.0
 30
-0.9999999999999538
 70
     1
  0
VERTEX
  5
231
  8
LEVEL_LINES
  6
CONTINUOUS
 10
805697.2610754958586767
 20
572128.5803903829073533
 30
-0.9999999999999538
  0
VERTEX
  5
232
  8
LEVEL_LINES
  6
CONTINUOUS
 10
805655.3952986185904592
 20
572131.1935628153150901
 30
-0.9999999999999538
  0
VERTEX
  5
233
  8
LEVEL_LINES
  6
CONTINUOUS
 10
805614.8381329823751003
 20
572153.4053013982484117
 30
-0.9999999999999538
  0
VERTEX
  5
234
  8
LEVEL_LINES
  6
CONTINUOUS
 10
805571.6637445342494175
 20
572196.5215084271039814
 30
-0.9999999999999538
  0
VERTEX
  5
235
  8
LEVEL_LINES
  6
CONTINUOUS
 10
805548.1136326234554872
 20
572243.5577025184175
 30
-0.9999999999999538
  0
VERTEX
  5
236
  8
LEVEL_LINES
  6
CONTINUOUS
 10
805518.0229117018170655
 20
572278.8348464363953099
 30
-0.9999999999999538
  0
VERTEX
  5
237
  8
LEVEL_LINES
  6
CONTINUOUS
 10
805514.0983009155606851
 20
572327.1778551574097946
 30
-0.9999999999999538
  0
VERTEX
  5
238
  8
LEVEL_LINES
  6
CONTINUOUS
 10
805524.564745299750939
 20
572353.3091239754576236
 30
-0.9999999999999538
  0
VERTEX
  5
239
  8
LEVEL_LINES
  6
CONTINUOUS
 10
805555.9640781227499247
 20
572342.8564342454774305
 30
-0.9999999999999538
  0
VERTEX
  5
23A
  8
LEVEL_LINES
  6
CONTINUOUS
 10
805603.0630773571319878
 20
572284.0611926217097789
 30
-0.9999999999999538
  0
VERTEX
  5
23B
  8
LEVEL_LINES
  6
CONTINUOUS
 10
805656.7039101895643398
 20
572229.1854812329402193
 30
-0.9999999999999538
  0
VERTEX
  5
23C
  8
LEVEL_LINES
  6
CONTINUOUS
 10
805698.569687066716142
 20
572192.6019781918730587
 30
-0.9999999999999538
  0
VERTEX
  5
23D
  8
LEVEL_LINES
  6
CONTINUOUS
 10
805707.727519880165346
 20
572157.3248329537454993
 30
-0.9999999999999538
  0
SEQEND
  5
23E
  8
LEVEL_LINES
  6
CONTINUOUS
  0
POLYLINE
  5
7E
  8
LEVEL_LINES
  6
CONTINUOUS
 66
     1
 10
0.0
 20
0.0
 30
-0.9999999999999538
 70
     1
  0
VERTEX
  5
23F
  8
LEVEL_LINES
  6
CONTINUOUS
 10
806505.3256588090443984
 20
572116.2333905396517366
 30
-0.9999999999999538
  0
VERTEX
  5
240
  8
LEVEL_LINES
  6
CONTINUOUS
 10
806455.0279675018973649
 20
572078.0584471453912556
 30
-0.9999999999999538
  0
VERTEX
  5
241
  8
LEVEL_LINES
  6
CONTINUOUS
 10
806338.3375191149534658
 20
572033.8552807861706242
 30
-0.9999999999999538
  0
VERTEX
  5
242
  8
LEVEL_LINES
  6
CONTINUOUS
 10
806193.4807065324857831
 20
572027.8279701550491154
 30
-0.9999999999999538
  0
VERTEX
  5
243
  8
LEVEL_LINES
  6
CONTINUOUS
 10
805996.3137070046504959
 20
572057.9658911518054083
 30
-0.9999999999999538
  0
VERTEX
  5
244
  8
LEVEL_LINES
  6
CONTINUOUS
 10
805933.943492358434014
 20
572104.1783124501816928
 30
-0.9999999999999538
  0
VERTEX
  5
245
  8
LEVEL_LINES
  6
CONTINUOUS
 10
805923.8846885851817206
 20
572172.491633668076247
 30
-0.9999999999999538
  0
VERTEX
  5
246
  8
LEVEL_LINES
  6
CONTINUOUS
 10
805948.0272867492167279
 20
572226.7406205369625241
 30
-0.9999999999999538
  0
VERTEX
  5
247
  8
LEVEL_LINES
  6
CONTINUOUS
 10
806022.4675762206315994
 20
572226.7406205369625241
 30
-0.9999999999999538
  0
VERTEX
  5
248
  8
LEVEL_LINES
  6
CONTINUOUS
 10
806048.6226696936646476
 20
572176.5101435465039685
 30
-0.9999999999999538
  0
VERTEX
  5
249
  8
LEVEL_LINES
  6
CONTINUOUS
 10
806082.8252955579664558
 20
572136.3254897062433884
 30
-0.9999999999999538
  0
VERTEX
  5
24A
  8
LEVEL_LINES
  6
CONTINUOUS
 10
806219.6345757488161325
 20
572148.381021982175298
 30
-0.9999999999999538
  0
VERTEX
  5
24B
  8
LEVEL_LINES
  6
CONTINUOUS
 10
806316.2061923325527459
 20
572172.491633668076247
 30
-0.9999999999999538
  0
VERTEX
  5
24C
  8
LEVEL_LINES
  6
CONTINUOUS
 10
806428.8740982857998461
 20
572186.5559653765521944
 30
-0.9999999999999538
  0
VERTEX
  5
24D
  8
LEVEL_LINES
  6
CONTINUOUS
 10
806481.1830606447765604
 20
572168.4731224693823606
 30
-0.9999999999999538
  0
VERTEX
  5
24E
  8
LEVEL_LINES
  6
CONTINUOUS
 10
806515.3856868393486366
 20
572162.4453550110338256
 30
-0.9999999999999538
  0
SEQEND
  5
24F
  8
LEVEL_LINES
  6
CONTINUOUS
  0
POLYLINE
  5
7F
  8
LEVEL_LINES
  6
CONTINUOUS
 66
     1
 10
0.0
 20
0.0
 30
-0.9999999999999538
 70
     1
  0
VERTEX
  5
250
  8
LEVEL_LINES
  6
CONTINUOUS
 10
804080.8345606436487287
 20
575511.2829821036430076
 30
-0.9999999999999538
  0
VERTEX
  5
251
  8
LEVEL_LINES
  6
CONTINUOUS
 10
804059.1296515841968358
 20
575509.5304996382910758
 30
-0.9999999999999538
  0
VERTEX
  5
252
  8
LEVEL_LINES
  6
CONTINUOUS
 10
804037.8672795766033232
 20
575513.2502115910174325
 30
-0.9999999999999538
  0
VERTEX
  5
253
  8
LEVEL_LINES
  6
CONTINUOUS
 10
804028.2129707769490778
 20
575514.939170004799962
 30
-0.9999999999999538
  0
VERTEX
  5
254
  8
LEVEL_LINES
  6
CONTINUOUS
 10
804028.882743988535367
 20
575529.0148880624910817
 30
-0.9999999999999538
  0
VERTEX
  5
255
  8
LEVEL_LINES
  6
CONTINUOUS
 10
804036.1177136747865006
 20
575546.3096329398686066
 30
-0.9999999999999538
  0
VERTEX
  5
256
  8
LEVEL_LINES
  6
CONTINUOUS
 10
804057.812331251683645
 20
575560.3179927670862526
 30
-0.9999999999999538
  0
VERTEX
  5
257
  8
LEVEL_LINES
  6
CONTINUOUS
 10
804092.0111995151964948
 20
575566.227349586901255
 30
-0.9999999999999538
  0
VERTEX
  5
258
  8
LEVEL_LINES
  6
CONTINUOUS
 10
804109.1054877404822037
 20
575562.5076376341748983
 30
-0.9999999999999538
  0
VERTEX
  5
259
  8
LEVEL_LINES
  6
CONTINUOUS
 10
804123.5754271134501323
 20
575553.7528923446079716
 30
-0.9999999999999538
  0
VERTEX
  5
25A
  8
LEVEL_LINES
  6
CONTINUOUS
 10
804129.7194910645484924
 20
575541.7117620048811659
 30
-0.9999999999999538
  0
VERTEX
  5
25B
  8
LEVEL_LINES
  6
CONTINUOUS
 10
804119.4073436611797661
 20
575518.2852449277415872
 30
-0.9999999999999538
  0
SEQEND
  5
25C
  8
LEVEL_LINES
  6
CONTINUOUS
  0
POLYLINE
  5
80
  8
LEVEL_LINES
  6
CONTINUOUS
 66
     1
 10
0.0
 20
0.0
 30
-0.9999999999999538
 70
     1
  0
VERTEX
  5
25D
  8
LEVEL_LINES
  6
CONTINUOUS
 10
803962.6204189650015905
 20
574925.9742150021484122
 30
-0.9999999999999538
  0
VERTEX
  5
25E
  8
LEVEL_LINES
  6
CONTINUOUS
 10
803939.350800868938677
 20
574882.8362439911579713
 30
-0.9999999999999538
  0
VERTEX
  5
25F
  8
LEVEL_LINES
  6
CONTINUOUS
 10
803953.4311429803492501
 20
574847.4296846548095345
 30
-0.9999999999999538
  0
VERTEX
  5
260
  8
LEVEL_LINES
  6
CONTINUOUS
 10
804032.7751062148017809
 20
574762.8799971498083323
 30
-0.9999999999999538
  0
VERTEX
  5
261
  8
LEVEL_LINES
  6
CONTINUOUS
 10
804027.4888024639803916
 20
574641.3444119122577831
 30
-0.9999999999999538
  0
VERTEX
  5
262
  8
LEVEL_LINES
  6
CONTINUOUS
 10
803969.2900548931211233
 20
574583.2210929638240486
 30
-0.9999999999999538
  0
VERTEX
  5
263
  8
LEVEL_LINES
  6
CONTINUOUS
 10
803868.7514710038667545
 20
574509.2492988193407655
 30
-0.9999999999999538
  0
VERTEX
  5
264
  8
LEVEL_LINES
  6
CONTINUOUS
 10
803773.4991915253922343
 20
574466.9928192518418655
 30
-0.9999999999999538
  0
VERTEX
  5
265
  8
LEVEL_LINES
  6
CONTINUOUS
 10
803720.5867477053543553
 20
574567.3726177677745
 30
-0.9999999999999538
  0
VERTEX
  5
266
  8
LEVEL_LINES
  6
CONTINUOUS
 10
803691.4379692581715062
 20
574614.6242137546651065
 30
-0.9999999999999538
  0
VERTEX
  5
267
  8
LEVEL_LINES
  6
CONTINUOUS
 10
803680.865361426724121
 20
574663.5102406926453114
 30
-0.9999999999999538
  0
VERTEX
  5
268
  8
LEVEL_LINES
  6
CONTINUOUS
 10
803642.228674108395353
 20
574651.5884676531422883
 30
-0.9999999999999538
  0
VERTEX
  5
269
  8
LEVEL_LINES
  6
CONTINUOUS
 10
803583.2477193988161162
 20
574662.9163337862119079
 30
-0.9999999999999538
  0
VERTEX
  5
26A
  8
LEVEL_LINES
  6
CONTINUOUS
 10
803565.0933998856926337
 20
574696.8999308646889403
 30
-0.9999999999999538
  0
VERTEX
  5
26B
  8
LEVEL_LINES
  6
CONTINUOUS
 10
803561.6971835682634264
 20
574749.0065795563859865
 30
-0.9999999999999538
  0
VERTEX
  5
26C
  8
LEVEL_LINES
  6
CONTINUOUS
 10
803554.6062959581613541
 20
574816.3602139998693019
 30
-0.9999999999999538
  0
VERTEX
  5
26D
  8
LEVEL_LINES
  6
CONTINUOUS
 10
803536.0814801015658304
 20
574837.7082945598522201
 30
-0.9999999999999538
  0
VERTEX
  5
26E
  8
LEVEL_LINES
  6
CONTINUOUS
 10
803526.1089542640838772
 20
574873.2871490061515942
 30
-0.9999999999999538
  0
VERTEX
  5
26F
  8
LEVEL_LINES
  6
CONTINUOUS
 10
803518.9769003936089575
 20
574891.7898410964990035
 30
-0.9999999999999538
  0
VERTEX
  5
270
  8
LEVEL_LINES
  6
CONTINUOUS
 10
803523.9683090536855161
 20
574935.199266423122026
 30
-0.9999999999999538
  0
VERTEX
  5
271
  8
LEVEL_LINES
  6
CONTINUOUS
 10
803503.3028479866916314
 20
574971.4913863968104124
 30
-0.9999999999999538
  0
VERTEX
  5
272
  8
LEVEL_LINES
  6
CONTINUOUS
 10
803455.128035475150682
 20
575011.0046998182078823
 30
-0.9999999999999538
  0
VERTEX
  5
273
  8
LEVEL_LINES
  6
CONTINUOUS
 10
803427.7318913288181648
 20
575033.5070411653723568
 30
-0.9999999999999538
  0
VERTEX
  5
274
  8
LEVEL_LINES
  6
CONTINUOUS
 10
803399.9007788056042045
 20
575055.828872436657548
 30
-0.9999999999999538
  0
VERTEX
  5
275
  8
LEVEL_LINES
  6
CONTINUOUS
 10
803363.1930798597168177
 20
575070.2449240370187908
 30
-0.9999999999999538
  0
VERTEX
  5
276
  8
LEVEL_LINES
  6
CONTINUOUS
 10
803312.6479579287115484
 20
575076.0504437948111445
 30
-0.9999999999999538
  0
VERTEX
  5
277
  8
LEVEL_LINES
  6
CONTINUOUS
 10
803278.0907438000431284
 20
575048.0396285644965246
 30
-0.9999999999999538
  0
VERTEX
  5
278
  8
LEVEL_LINES
  6
CONTINUOUS
 10
803255.6390274105360731
 20
575016.5290609855437651
 30
-0.9999999999999538
  0
VERTEX
  5
279
  8
LEVEL_LINES
  6
CONTINUOUS
 10
803234.6420260623563081
 20
574987.7153206496732309
 30
-0.9999999999999538
  0
VERTEX
  5
27A
  8
LEVEL_LINES
  6
CONTINUOUS
 10
803221.5003731828182936
 20
574948.4155091984430328
 30
-0.9999999999999538
  0
VERTEX
  5
27B
  8
LEVEL_LINES
  6
CONTINUOUS
 10
803208.4081252948381007
 20
574920.905640522367321
 30
-0.9999999999999538
  0
VERTEX
  5
27C
  8
LEVEL_LINES
  6
CONTINUOUS
 10
803184.7926742371637374
 20
574897.3257536517921835
 30
-0.9999999999999538
  0
VERTEX
  5
27D
  8
LEVEL_LINES
  6
CONTINUOUS
 10
803145.4171209202613682
 20
574877.6758485864847898
 30
-0.9999999999999538
  0
VERTEX
  5
27E
  8
LEVEL_LINES
  6
CONTINUOUS
 10
803088.4534908815985546
 20
574876.1883324356749654
 30
-0.9999999999999538
  0
VERTEX
  5
27F
  8
LEVEL_LINES
  6
CONTINUOUS
 10
803031.9345034582074732
 20
574939.2516739279963076
 30
-0.9999999999999538
  0
VERTEX
  5
280
  8
LEVEL_LINES
  6
CONTINUOUS
 10
802988.7547872310969979
 20
575025.5643443200970069
 30
-0.9999999999999538
  0
VERTEX
  5
281
  8
LEVEL_LINES
  6
CONTINUOUS
 10
802999.3558200063416734
 20
575083.1977954312460497
 30
-0.9999999999999538
  0
VERTEX
  5
282
  8
LEVEL_LINES
  6
CONTINUOUS
 10
803094.923285752069205
 20
575186.7898621029453352
 30
-0.9999999999999538
  0
VERTEX
  5
283
  8
LEVEL_LINES
  6
CONTINUOUS
 10
803108.8374807747313753
 20
575225.8084925181465223
 30
-0.9999999999999538
  0
VERTEX
  5
284
  8
LEVEL_LINES
  6
CONTINUOUS
 10
802975.2735596565762535
 20
575339.8732753740623593
 30
-0.9999999999999538
  0
VERTEX
  5
285
  8
LEVEL_LINES
  6
CONTINUOUS
 10
802978.65948416152969
 20
575395.6574547704076394
 30
-0.9999999999999538
  0
VERTEX
  5
286
  8
LEVEL_LINES
  6
CONTINUOUS
 10
803034.5220952240051702
 20
575459.8895976188359782
 30
-0.9999999999999538
  0
VERTEX
  5
287
  8
LEVEL_LINES
  6
CONTINUOUS
 10
803100.5321883179713041
 20
575481.8627430694177747
 30
-0.9999999999999538
  0
VERTEX
  5
288
  8
LEVEL_LINES
  6
CONTINUOUS
 10
803156.3845075678545982
 20
575480.1716167073464021
 30
-0.9999999999999538
  0
VERTEX
  5
289
  8
LEVEL_LINES
  6
CONTINUOUS
 10
803204.8015813615638763
 20
575467.0261042329948395
 30
-0.9999999999999538
  0
VERTEX
  5
28A
  8
LEVEL_LINES
  6
CONTINUOUS
 10
803286.2846321711549535
 20
575469.9673339702421799
 30
-0.9999999999999538
  0
VERTEX
  5
28B
  8
LEVEL_LINES
  6
CONTINUOUS
 10
803401.9515228207455948
 20
575454.7702004649909213
 30
-0.9999999999999538
  0
VERTEX
  5
28C
  8
LEVEL_LINES
  6
CONTINUOUS
 10
803523.7213114914484322
 20
575429.4378100039903075
 30
-0.9999999999999538
  0
VERTEX
  5
28D
  8
LEVEL_LINES
  6
CONTINUOUS
 10
803595.7622615681029856
 20
575393.4639744041487575
 30
-0.9999999999999538
  0
VERTEX
  5
28E
  8
LEVEL_LINES
  6
CONTINUOUS
 10
803627.717568475054577
 20
575374.7196933995001018
 30
-0.9999999999999538
  0
VERTEX
  5
28F
  8
LEVEL_LINES
  6
CONTINUOUS
 10
803726.1769639309495687
 20
575279.1652709911577404
 30
-0.9999999999999538
  0
VERTEX
  5
290
  8
LEVEL_LINES
  6
CONTINUOUS
 10
803870.2897385318065062
 20
575201.5114861370529979
 30
-0.9999999999999538
  0
VERTEX
  5
291
  8
LEVEL_LINES
  6
CONTINUOUS
 10
804021.8433141213608906
 20
575118.3164797626668587
 30
-0.9999999999999538
  0
VERTEX
  5
292
  8
LEVEL_LINES
  6
CONTINUOUS
 10
804028.3064166731201112
 20
575099.7179186783032492
 30
-0.9999999999999538
  0
VERTEX
  5
293
  8
LEVEL_LINES
  6
CONTINUOUS
 10
804030.0456907621119171
 20
575084.0261021672049537
 30
-0.9999999999999538
  0
VERTEX
  5
294
  8
LEVEL_LINES
  6
CONTINUOUS
 10
804004.7387344132876024
 20
575057.0064195230370387
 30
-0.9999999999999538
  0
VERTEX
  5
295
  8
LEVEL_LINES
  6
CONTINUOUS
 10
803955.853803992504254
 20
575038.6992995997425169
 30
-0.9999999999999538
  0
SEQEND
  5
296
  8
LEVEL_LINES
  6
CONTINUOUS
  0
POLYLINE
  5
81
  8
LEVEL_LINES
  6
CONTINUOUS
 66
     1
 10
0.0
 20
0.0
 30
-0.9999999999999538
 70
     1
  0
VERTEX
  5
297
  8
LEVEL_LINES
  6
CONTINUOUS
 10
805274.8715248322114348
 20
566607.3210010732291266
 30
-0.9999999999999538
  0
VERTEX
  5
298
  8
LEVEL_LINES
  6
CONTINUOUS
 10
805268.435802529216744
 20
566603.8010466685518622
 30
-0.9999999999999538
  0
VERTEX
  5
299
  8
LEVEL_LINES
  6
CONTINUOUS
 10
805259.3954095966182649
 20
566604.7195754344575107
 30
-0.9999999999999538
  0
VERTEX
  5
29A
  8
LEVEL_LINES
  6
CONTINUOUS
 10
805249.2817789806285873
 20
566615.2785197129705921
 30
-0.9999999999999538
  0
VERTEX
  5
29B
  8
LEVEL_LINES
  6
CONTINUOUS
 10
805241.6196753033436835
 20
566633.7945231636986136
 30
-0.9999999999999538
  0
VERTEX
  5
29C
  8
LEVEL_LINES
  6
CONTINUOUS
 10
805241.0071021909825504
 20
566643.894662527134642
 30
-0.9999999999999538
  0
VERTEX
  5
29D
  8
LEVEL_LINES
  6
CONTINUOUS
 10
805239.4744347557425499
 20
566646.9548930812161416
 30
-0.9999999999999538
  0
VERTEX
  5
29E
  8
LEVEL_LINES
  6
CONTINUOUS
 10
805240.5476724392501637
 20
566653.2290540601825342
 30
-0.9999999999999538
  0
VERTEX
  5
29F
  8
LEVEL_LINES
  6
CONTINUOUS
 10
805247.7491112151183188
 20
566654.1475841464707628
 30
-0.9999999999999538
  0
VERTEX
  5
2A0
  8
LEVEL_LINES
  6
CONTINUOUS
 10
805261.3875071136280894
 20
566646.9548930812161416
 30
-0.9999999999999538
  0
VERTEX
  5
2A1
  8
LEVEL_LINES
  6
CONTINUOUS
 10
805265.8311318998457864
 20
566633.947764887358062
 30
-0.9999999999999538
  0
VERTEX
  5
2A2
  8
LEVEL_LINES
  6
CONTINUOUS
 10
805269.0483753114240244
 20
566621.8587046716129407
 30
-0.9999999999999538
  0
VERTEX
  5
2A3
  8
LEVEL_LINES
  6
CONTINUOUS
 10
805272.7262839544564486
 20
566616.6553939265431836
 30
-0.9999999999999538
  0
VERTEX
  5
2A4
  8
LEVEL_LINES
  6
CONTINUOUS
 10
805274.4120947503251955
 20
566611.6057843725429848
 30
-0.9999999999999538
  0
SEQEND
  5
2A5
  8
LEVEL_LINES
  6
CONTINUOUS
  0
POLYLINE
  5
82
  8
LEVEL_LINES
  6
CONTINUOUS
 66
     1
 10
0.0
 20
0.0
 30
-0.9999999999999538
 70
     1
  0
VERTEX
  5
2A6
  8
LEVEL_LINES
  6
CONTINUOUS
 10
805312.6744459349429235
 20
566732.7338323133299127
 30
-0.9999999999999538
  0
VERTEX
  5
2A7
  8
LEVEL_LINES
  6
CONTINUOUS
 10
805298.7878097329521552
 20
566721.2430135804461315
 30
-0.9999999999999538
  0
VERTEX
  5
2A8
  8
LEVEL_LINES
  6
CONTINUOUS
 10
805291.2492091278545558
 20
566716.4883822966367006
 30
-0.9999999999999538
  0
VERTEX
  5
2A9
  8
LEVEL_LINES
  6
CONTINUOUS
 10
805270.6180939321639016
 20
566724.4127677691867575
 30
-0.9999999999999538
  0
VERTEX
  5
2AA
  8
LEVEL_LINES
  6
CONTINUOUS
 10
805280.9342689397744834
 20
566735.1111472949851304
 30
-0.9999999999999538
  0
VERTEX
  5
2AB
  8
LEVEL_LINES
  6
CONTINUOUS
 10
805295.6137922642519698
 20
566741.8468752766493708
 30
-0.9999999999999538
  0
VERTEX
  5
2AC
  8
LEVEL_LINES
  6
CONTINUOUS
 10
805307.516976006096229
 20
566741.8468752766493708
 30
-0.9999999999999538
  0
SEQEND
  5
2AD
  8
LEVEL_LINES
  6
CONTINUOUS
  0
POLYLINE
  5
83
  8
LEVEL_LINES
  6
CONTINUOUS
 66
     1
 10
0.0
 20
0.0
 30
-0.9999999999999538
 70
     1
  0
VERTEX
  5
2AE
  8
LEVEL_LINES
  6
CONTINUOUS
 10
805498.181577930576168
 20
566772.2554385989205912
 30
-0.9999999999999538
  0
VERTEX
  5
2AF
  8
LEVEL_LINES
  6
CONTINUOUS
 10
805493.526763696805574
 20
566768.0962867103517056
 30
-0.9999999999999538
  0
VERTEX
  5
2B0
  8
LEVEL_LINES
  6
CONTINUOUS
 10
805489.3622549825813621
 20
566769.5642768037505448
 30
-0.9999999999999538
  0
VERTEX
  5
2B1
  8
LEVEL_LINES
  6
CONTINUOUS
 10
805487.6468032379634678
 20
566775.1914187852526084
 30
-0.9999999999999538
  0
VERTEX
  5
2B2
  8
LEVEL_LINES
  6
CONTINUOUS
 10
805487.6468032379634678
 20
566781.0629183705896139
 30
-0.9999999999999538
  0
VERTEX
  5
2B3
  8
LEVEL_LINES
  6
CONTINUOUS
 10
805493.0364581769099459
 20
566785.9560659659327939
 30
-0.9999999999999538
  0
VERTEX
  5
2B4
  8
LEVEL_LINES
  6
CONTINUOUS
 10
805498.426113115856424
 20
566786.445241960696876
 30
-0.9999999999999538
  0
VERTEX
  5
2B5
  8
LEVEL_LINES
  6
CONTINUOUS
 10
805500.6306352304527536
 20
566779.8397466687019914
 30
-0.9999999999999538
  0
SEQEND
  5
2B6
  8
LEVEL_LINES
  6
CONTINUOUS
  0
POLYLINE
  5
84
  8
LEVEL_LINES
  6
CONTINUOUS
 66
     1
 10
0.0
 20
0.0
 30
-0.9999999999999538
 70
     1
  0
VERTEX
  5
2B7
  8
LEVEL_LINES
  6
CONTINUOUS
 10
805573.6342774360673502
 20
566783.2649041706463322
 30
-0.9999999999999538
  0
VERTEX
  5
2B8
  8
LEVEL_LINES
  6
CONTINUOUS
 10
805565.3052596776979044
 20
566779.3505706737050787
 30
-0.9999999999999538
  0
VERTEX
  5
2B9
  8
LEVEL_LINES
  6
CONTINUOUS
 10
805555.7510960246436298
 20
566783.5092617742484435
 30
-0.9999999999999538
  0
VERTEX
  5
2BA
  8
LEVEL_LINES
  6
CONTINUOUS
 10
805552.321428015246056
 20
566794.2739089545793831
 30
-0.9999999999999538
  0
VERTEX
  5
2BB
  8
LEVEL_LINES
  6
CONTINUOUS
 10
805556.2401663948548958
 20
566803.5705660417443141
 30
-0.9999999999999538
  0
VERTEX
  5
2BC
  8
LEVEL_LINES
  6
CONTINUOUS
 10
805562.6104323732433841
 20
566809.4420656269649044
 30
-0.9999999999999538
  0
VERTEX
  5
2BD
  8
LEVEL_LINES
  6
CONTINUOUS
 10
805575.5942643656162545
 20
566810.9100557202473283
 30
-0.9999999999999538
  0
VERTEX
  5
2BE
  8
LEVEL_LINES
  6
CONTINUOUS
 10
805581.7187600093893707
 20
566806.9957222233060747
 30
-0.9999999999999538
  0
VERTEX
  5
2BF
  8
LEVEL_LINES
  6
CONTINUOUS
 10
805586.1278039087774232
 20
566797.4542467447463423
 30
-0.9999999999999538
  0
VERTEX
  5
2C0
  8
LEVEL_LINES
  6
CONTINUOUS
 10
805577.7987864804454148
 20
566786.6896008844487369
 30
-0.9999999999999538
  0
SEQEND
  5
2C1
  8
LEVEL_LINES
  6
CONTINUOUS
  0
POLYLINE
  5
85
  8
LEVEL_LINES
  6
CONTINUOUS
 66
     1
 10
0.0
 20
0.0
 30
-0.9999999999999538
 70
     1
  0
VERTEX
  5
2C2
  8
LEVEL_LINES
  6
CONTINUOUS
 10
805408.4519739147508517
 20
566741.2449527713470161
 30
-0.9999999999999538
  0
VERTEX
  5
2C3
  8
LEVEL_LINES
  6
CONTINUOUS
 10
805406.1696453002514318
 20
566739.9785237688338384
 30
-0.9999999999999538
  0
VERTEX
  5
2C4
  8
LEVEL_LINES
  6
CONTINUOUS
 10
805404.6493280400754884
 20
566735.6734935229178518
 30
-0.9999999999999538
  0
VERTEX
  5
2C5
  8
LEVEL_LINES
  6
CONTINUOUS
 10
805405.916465058340691
 20
566731.3680038092425093
 30
-0.9999999999999538
  0
VERTEX
  5
2C6
  8
LEVEL_LINES
  6
CONTINUOUS
 10
805409.7203460824675858
 20
566729.3422687667189166
 30
-0.9999999999999538
  0
VERTEX
  5
2C7
  8
LEVEL_LINES
  6
CONTINUOUS
 10
805413.2710468650329858
 20
566727.5691762698115781
 30
-0.9999999999999538
  0
VERTEX
  5
2C8
  8
LEVEL_LINES
  6
CONTINUOUS
 10
805415.8065560512477532
 20
566728.5825032589491457
 30
-0.9999999999999538
  0
VERTEX
  5
2C9
  8
LEVEL_LINES
  6
CONTINUOUS
 10
805418.5964802985545248
 20
566732.634432811755687
 30
-0.9999999999999538
  0
VERTEX
  5
2CA
  8
LEVEL_LINES
  6
CONTINUOUS
 10
805415.8065560512477532
 20
566739.4718602743232623
 30
-0.9999999999999538
  0
SEQEND
  5
2CB
  8
LEVEL_LINES
  6
CONTINUOUS
  0
POLYLINE
  5
86
  8
LEVEL_LINES
  6
CONTINUOUS
 66
     1
 10
0.0
 20
0.0
 30
-0.9999999999999538
 70
     1
  0
VERTEX
  5
2CC
  8
LEVEL_LINES
  6
CONTINUOUS
 10
805635.0113816725788638
 20
566649.2240641510579735
 30
-0.9999999999999538
  0
VERTEX
  5
2CD
  8
LEVEL_LINES
  6
CONTINUOUS
 10
805635.9994029492372647
 20
566653.6657701970543712
 30
-0.9999999999999538
  0
VERTEX
  5
2CE
  8
LEVEL_LINES
  6
CONTINUOUS
 10
805639.2117064229678363
 20
566654.6528665970545262
 30
-0.9999999999999538
  0
VERTEX
  5
2CF
  8
LEVEL_LINES
  6
CONTINUOUS
 10
805644.8952975779538974
 20
566652.6786737972870469
 30
-0.9999999999999538
  0
VERTEX
  5
2D0
  8
LEVEL_LINES
  6
CONTINUOUS
 10
805645.3893082161666825
 20
566647.7431891572196037
 30
-0.9999999999999538
  0
VERTEX
  5
2D1
  8
LEVEL_LINES
  6
CONTINUOUS
 10
805640.4479676734190434
 20
566643.7948022373020649
 30
-0.9999999999999538
  0
VERTEX
  5
2D2
  8
LEVEL_LINES
  6
CONTINUOUS
 10
805635.9994029492372647
 20
566645.7689963574521244
 30
-0.9999999999999538
  0
SEQEND
  5
2D3
  8
LEVEL_LINES
  6
CONTINUOUS
  0
POLYLINE
  5
87
  8
LEVEL_LINES
  6
CONTINUOUS
 66
     1
 10
0.0
 20
0.0
 30
-0.9999999999999538
 70
     1
  0
VERTEX
  5
2D4
  8
LEVEL_LINES
  6
CONTINUOUS
 10
805760.5159938985016197
 20
564107.2888126414036378
 30
-0.9999999999999538
  0
VERTEX
  5
2D5
  8
LEVEL_LINES
  6
CONTINUOUS
 10
805752.1486904649063945
 20
564106.4931518787052482
 30
-0.9999999999999538
  0
VERTEX
  5
2D6
  8
LEVEL_LINES
  6
CONTINUOUS
 10
805742.5846462756162509
 20
564114.8496508895186707
 30
-0.9999999999999538
  0
VERTEX
  5
2D7
  8
LEVEL_LINES
  6
CONTINUOUS
 10
805724.6545338021824136
 20
564126.3897092456463724
 30
-0.9999999999999538
  0
VERTEX
  5
2D8
  8
LEVEL_LINES
  6
CONTINUOUS
 10
805716.6849089143797755
 20
564136.7360480441711843
 30
-0.9999999999999538
  0
VERTEX
  5
2D9
  8
LEVEL_LINES
  6
CONTINUOUS
 10
805716.6849089143797755
 20
564144.2968876126687974
 30
-0.9999999999999538
  0
VERTEX
  5
2DA
  8
LEVEL_LINES
  6
CONTINUOUS
 10
805720.6691039485158399
 20
564151.0620664184680209
 30
-0.9999999999999538
  0
VERTEX
  5
2DB
  8
LEVEL_LINES
  6
CONTINUOUS
 10
805729.8342344426782802
 20
564149.4702867458108813
 30
-0.9999999999999538
  0
VERTEX
  5
2DC
  8
LEVEL_LINES
  6
CONTINUOUS
 10
805739.3970434825168923
 20
564149.4702867458108813
 30
-0.9999999999999538
  0
VERTEX
  5
2DD
  8
LEVEL_LINES
  6
CONTINUOUS
 10
805752.1486904649063945
 20
564140.3176688250387087
 30
-0.9999999999999538
  0
VERTEX
  5
2DE
  8
LEVEL_LINES
  6
CONTINUOUS
 10
805758.5238963814917952
 20
564131.9611698142252862
 30
-0.9999999999999538
  0
VERTEX
  5
2DF
  8
LEVEL_LINES
  6
CONTINUOUS
 10
805763.703596691833809
 20
564120.4206506701884791
 30
-0.9999999999999538
  0
VERTEX
  5
2E0
  8
LEVEL_LINES
  6
CONTINUOUS
 10
805762.5080914156278595
 20
564112.4622117745457217
 30
-0.9999999999999538
  0
SEQEND
  5
2E1
  8
LEVEL_LINES
  6
CONTINUOUS
  0
POLYLINE
  5
88
  8
LEVEL_LINES
  6
CONTINUOUS
 66
     1
 10
0.0
 20
0.0
 30
-0.9999999999999538
 70
     1
  0
VERTEX
  5
2E2
  8
LEVEL_LINES
  6
CONTINUOUS
 10
805666.3674654469359666
 20
566478.8244707774138078
 30
-0.9999999999999538
  0
VERTEX
  5
2E3
  8
LEVEL_LINES
  6
CONTINUOUS
 10
805662.43143662402872
 20
566474.1558946272125468
 30
-0.9999999999999538
  0
VERTEX
  5
2E4
  8
LEVEL_LINES
  6
CONTINUOUS
 10
805661.938661135151051
 20
566465.5559582686983049
 30
-0.9999999999999538
  0
VERTEX
  5
2E5
  8
LEVEL_LINES
  6
CONTINUOUS
 10
805665.6301547731272876
 20
566458.1847151463152841
 30
-0.9999999999999538
  0
VERTEX
  5
2E6
  8
LEVEL_LINES
  6
CONTINUOUS
 10
805673.2564424141310155
 20
566458.4304537937277928
 30
-0.9999999999999538
  0
VERTEX
  5
2E7
  8
LEVEL_LINES
  6
CONTINUOUS
 10
805678.6695628837915137
 20
566462.8532912965165451
 30
-0.9999999999999538
  0
VERTEX
  5
2E8
  8
LEVEL_LINES
  6
CONTINUOUS
 10
805677.1937063863733783
 20
566470.2245344188995659
 30
-0.9999999999999538
  0
VERTEX
  5
2E9
  8
LEVEL_LINES
  6
CONTINUOUS
 10
805673.0106724094366655
 20
566479.0702094245934859
 30
-0.9999999999999538
  0
SEQEND
  5
2EA
  8
LEVEL_LINES
  6
CONTINUOUS
  0
POLYLINE
  5
89
  8
LEVEL_LINES
  6
CONTINUOUS
 66
     1
 10
0.0
 20
0.0
 30
-0.9999999999999538
 70
     1
  0
VERTEX
  5
2EB
  8
LEVEL_LINES
  6
CONTINUOUS
 10
805731.0581455178325996
 20
566498.5783713419223204
 30
-0.9999999999999538
  0
VERTEX
  5
2EC
  8
LEVEL_LINES
  6
CONTINUOUS
 10
805726.7503736491780728
 20
566497.0137425139546394
 30
-0.9999999999999538
  0
VERTEX
  5
2ED
  8
LEVEL_LINES
  6
CONTINUOUS
 10
805718.9166013484355062
 20
566498.9695288789225742
 30
-0.9999999999999538
  0
VERTEX
  5
2EE
  8
LEVEL_LINES
  6
CONTINUOUS
 10
805717.7420913041569293
 20
566507.1833697671536356
 30
-0.9999999999999538
  0
VERTEX
  5
2EF
  8
LEVEL_LINES
  6
CONTINUOUS
 10
805716.5675812599947676
 20
566516.9613813357427716
 30
-0.9999999999999538
  0
VERTEX
  5
2F0
  8
LEVEL_LINES
  6
CONTINUOUS
 10
805718.9166013484355062
 20
566529.8686492396518588
 30
-0.9999999999999538
  0
VERTEX
  5
2F1
  8
LEVEL_LINES
  6
CONTINUOUS
 10
805725.966131913359277
 20
566531.8244356045033783
 30
-0.9999999999999538
  0
VERTEX
  5
2F2
  8
LEVEL_LINES
  6
CONTINUOUS
 10
805729.8836354735540226
 20
566529.8686492396518588
 30
-0.9999999999999538
  0
VERTEX
  5
2F3
  8
LEVEL_LINES
  6
CONTINUOUS
 10
805731.841152103850618
 20
566520.090638991445303
 30
-0.9999999999999538
  0
VERTEX
  5
2F4
  8
LEVEL_LINES
  6
CONTINUOUS
 10
805734.5829108003526926
 20
566509.5298528809798881
 30
-0.9999999999999538
  0
VERTEX
  5
2F5
  8
LEVEL_LINES
  6
CONTINUOUS
 10
805736.9331657083239406
 20
566507.1833697671536356
 30
-0.9999999999999538
  0
VERTEX
  5
2F6
  8
LEVEL_LINES
  6
CONTINUOUS
 10
805735.7574208445148543
 20
566504.0541121114511043
 30
-0.9999999999999538
  0
SEQEND
  5
2F7
  8
LEVEL_LINES
  6
CONTINUOUS
  0
POLYLINE
  5
8A
  8
LEVEL_LINES
  6
CONTINUOUS
 66
     1
 10
0.0
 20
0.0
 30
-0.9999999999999538
 70
     1
  0
VERTEX
  5
2F8
  8
LEVEL_LINES
  6
CONTINUOUS
 10
805759.7842724311631173
 20
565432.6389181788545102
 30
-0.9999999999999538
  0
VERTEX
  5
2F9
  8
LEVEL_LINES
  6
CONTINUOUS
 10
805755.227025109459646
 20
565425.6059106271713972
 30
-0.9999999999999538
  0
VERTEX
  5
2FA
  8
LEVEL_LINES
  6
CONTINUOUS
 10
805747.7711709422292188
 20
565427.2607363994466141
 30
-0.9999999999999538
  0
VERTEX
  5
2FB
  8
LEVEL_LINES
  6
CONTINUOUS
 10
805741.5565186233725399
 20
565438.430805740877986
 30
-0.9999999999999538
  0
VERTEX
  5
2FC
  8
LEVEL_LINES
  6
CONTINUOUS
 10
805744.45636028831359
 20
565455.3927639649482444
 30
-0.9999999999999538
  0
VERTEX
  5
2FD
  8
LEVEL_LINES
  6
CONTINUOUS
 10
805751.913449275190942
 20
565468.2171996110118926
 30
-0.9999999999999538
  0
VERTEX
  5
2FE
  8
LEVEL_LINES
  6
CONTINUOUS
 10
805761.441677758237347
 20
565469.4583182799397036
 30
-0.9999999999999538
  0
VERTEX
  5
2FF
  8
LEVEL_LINES
  6
CONTINUOUS
 10
805769.3125005846377462
 20
565462.0116049455245957
 30
-0.9999999999999538
  0
VERTEX
  5
300
  8
LEVEL_LINES
  6
CONTINUOUS
 10
805765.1689871019916609
 20
565448.3597577336477116
 30
-0.9999999999999538
  0
SEQEND
  5
301
  8
LEVEL_LINES
  6
CONTINUOUS
  0
POLYLINE
  5
8B
  8
LEVEL_LINES
  6
CONTINUOUS
 66
     1
 10
0.0
 20
0.0
 30
-0.9999999999999538
 70
     1
  0
VERTEX
  5
302
  8
LEVEL_LINES
  6
CONTINUOUS
 10
805892.6205868137767538
 20
567313.7486558078089729
 30
-0.9999999999999538
  0
VERTEX
  5
303
  8
LEVEL_LINES
  6
CONTINUOUS
 10
805892.6205868137767538
 20
567307.7795972323510796
 30
-0.9999999999999538
  0
VERTEX
  5
304
  8
LEVEL_LINES
  6
CONTINUOUS
 10
805888.237478084047325
 20
567300.2187576638534665
 30
-0.9999999999999538
  0
VERTEX
  5
305
  8
LEVEL_LINES
  6
CONTINUOUS
 10
805883.0565426246030256
 20
567290.6680783076444641
 30
-0.9999999999999538
  0
VERTEX
  5
306
  8
LEVEL_LINES
  6
CONTINUOUS
 10
805876.2824233426945284
 20
567285.8927392896730453
 30
-0.9999999999999538
  0
VERTEX
  5
307
  8
LEVEL_LINES
  6
CONTINUOUS
 10
805865.5241086967289448
 20
567289.8724188652122393
 30
-0.9999999999999538
  0
VERTEX
  5
308
  8
LEVEL_LINES
  6
CONTINUOUS
 10
805863.1330978146288544
 20
567299.8206975486828014
 30
-0.9999999999999538
  0
VERTEX
  5
309
  8
LEVEL_LINES
  6
CONTINUOUS
 10
805867.5162062138551846
 20
567308.1776573475217447
 30
-0.9999999999999538
  0
VERTEX
  5
30A
  8
LEVEL_LINES
  6
CONTINUOUS
 10
805878.2757556793512776
 20
567312.1568761351518333
 30
-0.9999999999999538
  0
VERTEX
  5
30B
  8
LEVEL_LINES
  6
CONTINUOUS
 10
805884.2520482306135818
 20
567314.1467159228632227
 30
-0.9999999999999538
  0
SEQEND
  5
30C
  8
LEVEL_LINES
  6
CONTINUOUS
  0
POLYLINE
  5
8C
  8
LEVEL_LINES
  6
CONTINUOUS
 66
     1
 10
0.0
 20
0.0
 30
-0.9999999999999538
 70
     1
  0
VERTEX
  5
30D
  8
LEVEL_LINES
  6
CONTINUOUS
 10
805749.0744858857942745
 20
566175.7533143371110782
 30
-0.9999999999999538
  0
VERTEX
  5
30E
  8
LEVEL_LINES
  6
CONTINUOUS
 10
805754.3900391135830432
 20
566178.6119838000740856
 30
-0.9999999999999538
  0
VERTEX
  5
30F
  8
LEVEL_LINES
  6
CONTINUOUS
 10
805765.8412033407948911
 20
566174.5278413358610123
 30
-0.9999999999999538
  0
VERTEX
  5
310
  8
LEVEL_LINES
  6
CONTINUOUS
 10
805768.7027593305101618
 20
566156.9671834817854688
 30
-0.9999999999999538
  0
VERTEX
  5
311
  8
LEVEL_LINES
  6
CONTINUOUS
 10
805769.9303755239816383
 20
566141.0401815571822226
 30
-0.9999999999999538
  0
VERTEX
  5
312
  8
LEVEL_LINES
  6
CONTINUOUS
 10
805768.2939657592214644
 20
566130.0136892738519236
 30
-0.9999999999999538
  0
VERTEX
  5
313
  8
LEVEL_LINES
  6
CONTINUOUS
 10
805759.7068274905905128
 20
566126.7468355621676892
 30
-0.9999999999999538
  0
VERTEX
  5
314
  8
LEVEL_LINES
  6
CONTINUOUS
 10
805753.9812455421779305
 20
566130.4223329898668453
 30
-0.9999999999999538
  0
VERTEX
  5
315
  8
LEVEL_LINES
  6
CONTINUOUS
 10
805751.1196895524626598
 20
566150.8416603072546422
 30
-0.9999999999999538
  0
VERTEX
  5
316
  8
LEVEL_LINES
  6
CONTINUOUS
 10
805749.4832794573158026
 20
566166.7686622318578884
 30
-0.9999999999999538
  0
SEQEND
  5
317
  8
LEVEL_LINES
  6
CONTINUOUS
  0
POLYLINE
  5
8D
  8
LEVEL_LINES
  6
CONTINUOUS
 66
     1
 10
0.0
 20
0.0
 30
-0.9999999999999538
 70
     1
  0
VERTEX
  5
318
  8
LEVEL_LINES
  6
CONTINUOUS
 10
806051.7883117786841467
 20
567483.9071131333475932
 30
-0.9999999999999538
  0
VERTEX
  5
319
  8
LEVEL_LINES
  6
CONTINUOUS
 10
806039.8764826505212113
 20
567483.9071131333475932
 30
-0.9999999999999538
  0
VERTEX
  5
31A
  8
LEVEL_LINES
  6
CONTINUOUS
 10
806033.919950841460377
 20
567487.3769076593453065
 30
-0.9999999999999538
  0
VERTEX
  5
31B
  8
LEVEL_LINES
  6
CONTINUOUS
 10
806029.4528605246450752
 20
567494.5640758698573336
 30
-0.9999999999999538
  0
VERTEX
  5
31C
  8
LEVEL_LINES
  6
CONTINUOUS
 10
806029.7011008283589035
 20
567503.4861426636343822
 30
-0.9999999999999538
  0
VERTEX
  5
31D
  8
LEVEL_LINES
  6
CONTINUOUS
 10
806033.919950841460377
 20
567510.673771662521176
 30
-0.9999999999999538
  0
VERTEX
  5
31E
  8
LEVEL_LINES
  6
CONTINUOUS
 10
806038.3870411581592634
 20
567513.8955275618936867
 30
-0.9999999999999538
  0
VERTEX
  5
31F
  8
LEVEL_LINES
  6
CONTINUOUS
 10
806047.3212214619852602
 20
567518.6046002454822883
 30
-0.9999999999999538
  0
VERTEX
  5
320
  8
LEVEL_LINES
  6
CONTINUOUS
 10
806057.7448439176660031
 20
567518.1089811399579048
 30
-0.9999999999999538
  0
VERTEX
  5
321
  8
LEVEL_LINES
  6
CONTINUOUS
 10
806071.1461148683447391
 20
567517.860941193299368
 30
-0.9999999999999538
  0
VERTEX
  5
322
  8
LEVEL_LINES
  6
CONTINUOUS
 10
806085.0438660961808637
 20
567512.1606289787450805
 30
-0.9999999999999538
  0
VERTEX
  5
323
  8
LEVEL_LINES
  6
CONTINUOUS
 10
806089.5109564127633348
 20
567504.9734607680002227
 30
-0.9999999999999538
  0
VERTEX
  5
324
  8
LEVEL_LINES
  6
CONTINUOUS
 10
806083.3061843004543334
 20
567492.5815994481090456
 30
-0.9999999999999538
  0
VERTEX
  5
325
  8
LEVEL_LINES
  6
CONTINUOUS
 10
806070.6496342609170824
 20
567487.3769076593453065
 30
-0.9999999999999538
  0
VERTEX
  5
326
  8
LEVEL_LINES
  6
CONTINUOUS
 10
806058.4895648288074881
 20
567484.6503113973885775
 30
-0.9999999999999538
  0
SEQEND
  5
327
  8
LEVEL_LINES
  6
CONTINUOUS
  0
POLYLINE
  5
8E
  8
LEVEL_LINES
  6
CONTINUOUS
 66
     1
 10
0.0
 20
0.0
 30
-0.9999999999999538
 70
     1
  0
VERTEX
  5
328
  8
LEVEL_LINES
  6
CONTINUOUS
 10
806828.0604153557214886
 20
567278.2071898861322552
 30
-0.9999999999999538
  0
VERTEX
  5
329
  8
LEVEL_LINES
  6
CONTINUOUS
 10
806796.1782103556906804
 20
567344.3376116981962696
 30
-0.9999999999999538
  0
VERTEX
  5
32A
  8
LEVEL_LINES
  6
CONTINUOUS
 10
806737.3168545628432184
 20
567406.7939171263715252
 30
-0.9999999999999538
  0
VERTEX
  5
32B
  8
LEVEL_LINES
  6
CONTINUOUS
 10
806696.8499815935501829
 20
567458.2283315495587885
 30
-0.9999999999999538
  0
VERTEX
  5
32C
  8
LEVEL_LINES
  6
CONTINUOUS
 10
806662.5137790255248547
 20
567475.3734431092161685
 30
-0.9999999999999538
  0
VERTEX
  5
32D
  8
LEVEL_LINES
  6
CONTINUOUS
 10
806623.2732871003681794
 20
567476.5979945345316082
 30
-0.9999999999999538
  0
VERTEX
  5
32E
  8
LEVEL_LINES
  6
CONTINUOUS
 10
806585.2591762193478644
 20
567465.5761048500426114
 30
-0.9999999999999538
  0
VERTEX
  5
32F
  8
LEVEL_LINES
  6
CONTINUOUS
 10
806559.5064068010542542
 20
567437.4095630736555904
 30
-0.9999999999999538
  0
VERTEX
  5
330
  8
LEVEL_LINES
  6
CONTINUOUS
 10
806569.3174561444902793
 20
567406.7939171263715252
 30
-0.9999999999999538
  0
VERTEX
  5
331
  8
LEVEL_LINES
  6
CONTINUOUS
 10
806592.6162279947893694
 20
567392.0983692052541301
 30
-0.9999999999999538
  0
VERTEX
  5
332
  8
LEVEL_LINES
  6
CONTINUOUS
 10
806641.6677695936523378
 20
567366.3809315995313227
 30
-0.9999999999999538
  0
VERTEX
  5
333
  8
LEVEL_LINES
  6
CONTINUOUS
 10
806669.8720659506507218
 20
567343.1130589527310804
 30
-0.9999999999999538
  0
VERTEX
  5
334
  8
LEVEL_LINES
  6
CONTINUOUS
 10
806678.4554991003824398
 20
567318.6201740925898775
 30
-0.9999999999999538
  0
VERTEX
  5
335
  8
LEVEL_LINES
  6
CONTINUOUS
 10
806694.3972191753564402
 20
567303.9246274917386472
 30
-0.9999999999999538
  0
VERTEX
  5
336
  8
LEVEL_LINES
  6
CONTINUOUS
 10
806723.8278969064122066
 20
567280.6567548449384049
 30
-0.9999999999999538
  0
VERTEX
  5
337
  8
LEVEL_LINES
  6
CONTINUOUS
 10
806763.0683888316852972
 20
567254.9393172394484282
 30
-0.9999999999999538
  0
VERTEX
  5
338
  8
LEVEL_LINES
  6
CONTINUOUS
 10
806792.4990668931277469
 20
567248.8160953640472144
 30
-0.9999999999999538
  0
VERTEX
  5
339
  8
LEVEL_LINES
  6
CONTINUOUS
 10
806813.3450763250002638
 20
567247.5915439389646053
 30
-0.9999999999999538
  0
VERTEX
  5
33A
  8
LEVEL_LINES
  6
CONTINUOUS
 10
806829.2867963998578489
 20
567253.7147644937504083
 30
-0.9999999999999538
  0
SEQEND
  5
33B
  8
LEVEL_LINES
  6
CONTINUOUS
  0
POLYLINE
  5
8F
  8
LEVEL_LINES
  6
CONTINUOUS
 66
     1
 10
0.0
 20
0.0
 30
-0.9999999999999538
 70
     1
  0
VERTEX
  5
33C
  8
LEVEL_LINES
  6
CONTINUOUS
 10
805977.3915598436724395
 20
566460.3089281145948917
 30
-0.9999999999999538
  0
VERTEX
  5
33D
  8
LEVEL_LINES
  6
CONTINUOUS
 10
806011.1176592684350908
 20
566471.0869209836237133
 30
-0.9999999999999538
  0
VERTEX
  5
33E
  8
LEVEL_LINES
  6
CONTINUOUS
 10
806027.7559343728935346
 20
566468.8416792033240199
 30
-0.9999999999999538
  0
VERTEX
  5
33F
  8
LEVEL_LINES
  6
CONTINUOUS
 10
806036.299846368143335
 20
566460.3089281145948917
 30
-0.9999999999999538
  0
VERTEX
  5
340
  8
LEVEL_LINES
  6
CONTINUOUS
 10
806026.4072854063706473
 20
566442.3456088667735457
 30
-0.9999999999999538
  0
VERTEX
  5
341
  8
LEVEL_LINES
  6
CONTINUOUS
 10
806007.0704778786748648
 20
566428.4240923979086801
 30
-0.9999999999999538
  0
VERTEX
  5
342
  8
LEVEL_LINES
  6
CONTINUOUS
 10
805972.8948289083782583
 20
566418.9935215979348868
 30
-0.9999999999999538
  0
VERTEX
  5
343
  8
LEVEL_LINES
  6
CONTINUOUS
 10
805945.9132084768498316
 20
566413.6042954296572134
 30
-0.9999999999999538
  0
VERTEX
  5
344
  8
LEVEL_LINES
  6
CONTINUOUS
 10
805907.6903781167929992
 20
566414.0534356792923063
 30
-0.9999999999999538
  0
VERTEX
  5
345
  8
LEVEL_LINES
  6
CONTINUOUS
 10
805899.5960153372725472
 20
566418.9935215979348868
 30
-0.9999999999999538
  0
VERTEX
  5
346
  8
LEVEL_LINES
  6
CONTINUOUS
 10
805900.4951147584943101
 20
566423.9331467287847772
 30
-0.9999999999999538
  0
VERTEX
  5
347
  8
LEVEL_LINES
  6
CONTINUOUS
 10
805909.0390270836651325
 20
566427.525811898522079
 30
-0.9999999999999538
  0
VERTEX
  5
348
  8
LEVEL_LINES
  6
CONTINUOUS
 10
805934.2212141832569614
 20
566430.2201939284568653
 30
-0.9999999999999538
  0
VERTEX
  5
349
  8
LEVEL_LINES
  6
CONTINUOUS
 10
805958.0547523160930723
 20
566441.896467296872288
 30
-0.9999999999999538
  0
VERTEX
  5
34A
  8
LEVEL_LINES
  6
CONTINUOUS
 10
805971.0953955764416605
 20
566450.8783586351200938
 30
-0.9999999999999538
  0
SEQEND
  5
34B
  8
LEVEL_LINES
  6
CONTINUOUS
  0
POLYLINE
  5
90
  8
LEVEL_LINES
  6
CONTINUOUS
 66
     1
 10
0.0
 20
0.0
 30
-0.9999999999999538
 70
     1
  0
VERTEX
  5
34C
  8
LEVEL_LINES
  6
CONTINUOUS
 10
806708.0306751356692985
 20
566564.6871638436568901
 30
-0.9999999999999538
  0
VERTEX
  5
34D
  8
LEVEL_LINES
  6
CONTINUOUS
 10
806687.1624349921476096
 20
566557.7406722134910524
 30
-0.9999999999999538
  0
VERTEX
  5
34E
  8
LEVEL_LINES
  6
CONTINUOUS
 10
806681.3059400644851848
 20
566570.3478997806087136
 30
-0.9999999999999538
  0
VERTEX
  5
34F
  8
LEVEL_LINES
  6
CONTINUOUS
 10
806683.5092270295135677
 20
566590.8891761655686423
 30
-0.9999999999999538
  0
VERTEX
  5
350
  8
LEVEL_LINES
  6
CONTINUOUS
 10
806679.8362586547154933
 20
566610.6973784199217334
 30
-0.9999999999999538
  0
VERTEX
  5
351
  8
LEVEL_LINES
  6
CONTINUOUS
 10
806652.6557989503489807
 20
566622.4353168439120054
 30
-0.9999999999999538
  0
VERTEX
  5
352
  8
LEVEL_LINES
  6
CONTINUOUS
 10
806612.2519120064098388
 20
566631.2386548049980775
 30
-0.9999999999999538
  0
VERTEX
  5
353
  8
LEVEL_LINES
  6
CONTINUOUS
 10
806569.644738097442314
 20
566631.2386548049980775
 30
-0.9999999999999538
  0
VERTEX
  5
354
  8
LEVEL_LINES
  6
CONTINUOUS
 10
806529.9769270081305876
 20
566630.505121206282638
 30
-0.9999999999999538
  0
VERTEX
  5
355
  8
LEVEL_LINES
  6
CONTINUOUS
 10
806521.8961495532421395
 20
566638.5749242483871058
 30
-0.9999999999999538
  0
VERTEX
  5
356
  8
LEVEL_LINES
  6
CONTINUOUS
 10
806529.2420863031875342
 20
566651.7803919778671116
 30
-0.9999999999999538
  0
VERTEX
  5
357
  8
LEVEL_LINES
  6
CONTINUOUS
 10
806559.3606736776418984
 20
566653.9814575221389532
 30
-0.9999999999999538
  0
VERTEX
  5
358
  8
LEVEL_LINES
  6
CONTINUOUS
 10
806605.6408159615239128
 20
566653.9814575221389532
 30
-0.9999999999999538
  0
VERTEX
  5
359
  8
LEVEL_LINES
  6
CONTINUOUS
 10
806660.0017353701405227
 20
566643.7105889356462285
 30
-0.9999999999999538
  0
VERTEX
  5
35A
  8
LEVEL_LINES
  6
CONTINUOUS
 10
806695.9978132342221215
 20
566626.1034509056480601
 30
-0.9999999999999538
  0
VERTEX
  5
35B
  8
LEVEL_LINES
  6
CONTINUOUS
 10
806709.9560811787378043
 20
566616.5661172377876937
 30
-0.9999999999999538
  0
VERTEX
  5
35C
  8
LEVEL_LINES
  6
CONTINUOUS
 10
806720.2401455984218046
 20
566596.024840852827765
 30
-0.9999999999999538
  0
SEQEND
  5
35D
  8
LEVEL_LINES
  6
CONTINUOUS
  0
POLYLINE
  5
91
  8
LEVEL_LINES
  6
CONTINUOUS
 66
     1
 10
0.0
 20
0.0
 30
-0.9999999999999538
 70
     1
  0
VERTEX
  5
35E
  8
LEVEL_LINES
  6
CONTINUOUS
 10
806954.1220242454437539
 20
566647.9972114263800904
 30
-0.9999999999999538
  0
VERTEX
  5
35F
  8
LEVEL_LINES
  6
CONTINUOUS
 10
806945.606517719454132
 20
566640.9099035055842251
 30
-0.9999999999999538
  0
VERTEX
  5
360
  8
LEVEL_LINES
  6
CONTINUOUS
 10
806931.4123599764425308
 20
566643.0359569852007553
 30
-0.9999999999999538
  0
VERTEX
  5
361
  8
LEVEL_LINES
  6
CONTINUOUS
 10
806926.4450839338824153
 20
566649.4145808528410271
 30
-0.9999999999999538
  0
VERTEX
  5
362
  8
LEVEL_LINES
  6
CONTINUOUS
 10
806926.4450839338824153
 20
566668.5499929884681478
 30
-0.9999999999999538
  0
VERTEX
  5
363
  8
LEVEL_LINES
  6
CONTINUOUS
 10
806927.8641291630920023
 20
566701.1508774448884651
 30
-0.9999999999999538
  0
VERTEX
  5
364
  8
LEVEL_LINES
  6
CONTINUOUS
 10
806935.6707308143377304
 20
566718.1597739923745394
 30
-0.9999999999999538
  0
VERTEX
  5
365
  8
LEVEL_LINES
  6
CONTINUOUS
 10
806948.4446081782225519
 20
566752.1780278752557933
 30
-0.9999999999999538
  0
VERTEX
  5
366
  8
LEVEL_LINES
  6
CONTINUOUS
 10
806961.2184855419909582
 20
566762.8087613431271166
 30
-0.9999999999999538
  0
VERTEX
  5
367
  8
LEVEL_LINES
  6
CONTINUOUS
 10
806979.6697793033672497
 20
566776.9829190373420715
 30
-0.9999999999999538
  0
VERTEX
  5
368
  8
LEVEL_LINES
  6
CONTINUOUS
 10
806994.5728422511601821
 20
566775.56554829061497
 30
-0.9999999999999538
  0
VERTEX
  5
369
  8
LEVEL_LINES
  6
CONTINUOUS
 10
806997.4109327100450173
 20
566762.8087613431271166
 30
-0.9999999999999538
  0
VERTEX
  5
36A
  8
LEVEL_LINES
  6
CONTINUOUS
 10
806981.7989645571215078
 20
566731.6252463131677359
 30
-0.9999999999999538
  0
VERTEX
  5
36B
  8
LEVEL_LINES
  6
CONTINUOUS
 10
806969.0250871933531016
 20
566710.3637806981569156
 30
-0.9999999999999538
  0
VERTEX
  5
36C
  8
LEVEL_LINES
  6
CONTINUOUS
 10
806966.1857615847839043
 20
566693.354884150554426
 30
-0.9999999999999538
  0
VERTEX
  5
36D
  8
LEVEL_LINES
  6
CONTINUOUS
 10
806966.1857615847839043
 20
566676.345526815042831
 30
-0.9999999999999538
  0
VERTEX
  5
36E
  8
LEVEL_LINES
  6
CONTINUOUS
 10
806961.2184855419909582
 20
566657.2105754675576463
 30
-0.9999999999999538
  0
VERTEX
  5
36F
  8
LEVEL_LINES
  6
CONTINUOUS
 10
806958.3803950832225382
 20
566652.9580050795339048
 30
-0.9999999999999538
  0
SEQEND
  5
370
  8
LEVEL_LINES
  6
CONTINUOUS
  0
POLYLINE
  5
92
  8
LEVEL_LINES
  6
CONTINUOUS
 66
     1
 10
0.0
 20
0.0
 30
-0.9999999999999538
 70
     1
  0
VERTEX
  5
371
  8
LEVEL_LINES
  6
CONTINUOUS
 10
807238.2502265678485855
 20
567780.6613950619939715
 30
-0.9999999999999538
  0
VERTEX
  5
372
  8
LEVEL_LINES
  6
CONTINUOUS
 10
807233.1375289945863187
 20
567783.8040723435115069
 30
-0.9999999999999538
  0
VERTEX
  5
373
  8
LEVEL_LINES
  6
CONTINUOUS
 10
807229.5969401325564831
 20
567794.8031325561460108
 30
-0.9999999999999538
  0
VERTEX
  5
374
  8
LEVEL_LINES
  6
CONTINUOUS
 10
807235.1043369731632993
 20
567810.908499053795822
 30
-0.9999999999999538
  0
VERTEX
  5
375
  8
LEVEL_LINES
  6
CONTINUOUS
 10
807254.3777178219752386
 20
567829.7639408772811294
 30
-0.9999999999999538
  0
VERTEX
  5
376
  8
LEVEL_LINES
  6
CONTINUOUS
 10
807299.2196030527120456
 20
567823.0859856789465994
 30
-0.9999999999999538
  0
VERTEX
  5
377
  8
LEVEL_LINES
  6
CONTINUOUS
 10
807344.0614886136027053
 20
567802.6595154871465638
 30
-0.9999999999999538
  0
VERTEX
  5
378
  8
LEVEL_LINES
  6
CONTINUOUS
 10
807359.0082260797498748
 20
567789.6962030851282179
 30
-0.9999999999999538
  0
VERTEX
  5
379
  8
LEVEL_LINES
  6
CONTINUOUS
 10
807379.8570603139232844
 20
567776.7328920032596216
 30
-0.9999999999999538
  0
VERTEX
  5
37A
  8
LEVEL_LINES
  6
CONTINUOUS
 10
807408.1767546931514516
 20
567770.4475374402245507
 30
-0.9999999999999538
  0
VERTEX
  5
37B
  8
LEVEL_LINES
  6
CONTINUOUS
 10
807423.1251646613236517
 20
567758.6632746366085485
 30
-0.9999999999999538
  0
VERTEX
  5
37C
  8
LEVEL_LINES
  6
CONTINUOUS
 10
807428.2378622347023338
 20
567735.4867277989396825
 30
-0.9999999999999538
  0
VERTEX
  5
37D
  8
LEVEL_LINES
  6
CONTINUOUS
 10
807403.457084215246141
 20
567712.3101822814205661
 30
-0.9999999999999538
  0
VERTEX
  5
37E
  8
LEVEL_LINES
  6
CONTINUOUS
 10
807365.8728175904834643
 20
567712.8471680040238425
 30
-0.9999999999999538
  0
VERTEX
  5
37F
  8
LEVEL_LINES
  6
CONTINUOUS
 10
807316.9208755200961605
 20
567710.7385307271033525
 30
-0.9999999999999538
  0
VERTEX
  5
380
  8
LEVEL_LINES
  6
CONTINUOUS
 10
807263.4257038544164971
 20
567728.8087726004887372
 30
-0.9999999999999538
  0
VERTEX
  5
381
  8
LEVEL_LINES
  6
CONTINUOUS
 10
807253.9846907266182825
 20
567748.8426408362574875
 30
-0.9999999999999538
  0
VERTEX
  5
382
  8
LEVEL_LINES
  6
CONTINUOUS
 10
807246.1174584821565077
 20
567767.3054820244433358
 30
-0.9999999999999538
  0
SEQEND
  5
383
  8
LEVEL_LINES
  6
CONTINUOUS
  0
POLYLINE
  5
93
  8
LEVEL_LINES
  6
CONTINUOUS
 66
     1
 10
0.0
 20
0.0
 30
-0.9999999999999538
 70
     1
  0
VERTEX
  5
384
  8
LEVEL_LINES
  6
CONTINUOUS
 10
814379.4057773808017373
 20
567053.8730585181619972
 30
-0.9999999999999538
  0
VERTEX
  5
385
  8
LEVEL_LINES
  6
CONTINUOUS
 10
814269.9743461373727769
 20
567043.2217070970218629
 30
-0.9999999999999538
  0
VERTEX
  5
386
  8
LEVEL_LINES
  6
CONTINUOUS
 10
814213.9494056609692052
 20
567069.8684485144913197
 30
-0.9999999999999538
  0
VERTEX
  5
387
  8
LEVEL_LINES
  6
CONTINUOUS
 10
814211.2815512899542227
 20
567117.8546198240946978
 30
-0.9999999999999538
  0
VERTEX
  5
388
  8
LEVEL_LINES
  6
CONTINUOUS
 10
814179.217894832836464
 20
567131.1688084403285757
 30
-0.9999999999999538
  0
VERTEX
  5
389
  8
LEVEL_LINES
  6
CONTINUOUS
 10
814192.5571663591545075
 20
567168.4852654640562832
 30
-0.9999999999999538
  0
VERTEX
  5
38A
  8
LEVEL_LINES
  6
CONTINUOUS
 10
814211.2815512899542227
 20
567267.1204465983901173
 30
-0.9999999999999538
  0
VERTEX
  5
38B
  8
LEVEL_LINES
  6
CONTINUOUS
 10
814227.2886771872872487
 20
567312.4254152073990554
 30
-0.9999999999999538
  0
VERTEX
  5
38C
  8
LEVEL_LINES
  6
CONTINUOUS
 10
814293.9850348187610507
 20
567347.0790350360330194
 30
-0.9999999999999538
  0
VERTEX
  5
38D
  8
LEVEL_LINES
  6
CONTINUOUS
 10
814384.7414857934927568
 20
567336.4093194296583533
 30
-0.9999999999999538
  0
VERTEX
  5
38E
  8
LEVEL_LINES
  6
CONTINUOUS
 10
814414.0878832172602415
 20
567259.1135681873420253
 30
-0.9999999999999538
  0
VERTEX
  5
38F
  8
LEVEL_LINES
  6
CONTINUOUS
 10
814406.0843204334378242
 20
567171.1481026591500267
 30
-0.9999999999999538
  0
VERTEX
  5
390
  8
LEVEL_LINES
  6
CONTINUOUS
 10
814387.4093401647405699
 20
567109.8477427333127707
 30
-0.9999999999999538
  0
SEQEND
  5
391
  8
LEVEL_LINES
  6
CONTINUOUS
  0
POLYLINE
  5
94
  8
LEVEL_LINES
  6
CONTINUOUS
 66
     1
 10
0.0
 20
0.0
 30
-0.9999999999999538
 70
     1
  0
VERTEX
  5
392
  8
LEVEL_LINES
  6
CONTINUOUS
 10
812017.4160256823524833
 20
568002.8900473335525021
 30
-0.9999999999999538
  0
VERTEX
  5
393
  8
LEVEL_LINES
  6
CONTINUOUS
 10
811864.6072592348791659
 20
568021.3095374790718779
 30
-0.9999999999999538
  0
VERTEX
  5
394
  8
LEVEL_LINES
  6
CONTINUOUS
 10
811767.1317676705075428
 20
568016.0389556438894942
 30
-0.9999999999999538
  0
VERTEX
  5
395
  8
LEVEL_LINES
  6
CONTINUOUS
 10
811682.7979286556364968
 20
568031.8323382847011089
 30
-0.9999999999999538
  0
VERTEX
  5
396
  8
LEVEL_LINES
  6
CONTINUOUS
 10
811601.131944012013264
 20
568044.9996107801562175
 30
-0.9999999999999538
  0
VERTEX
  5
397
  8
LEVEL_LINES
  6
CONTINUOUS
 10
811624.8462047233479097
 20
568108.1364116532495245
 30
-0.9999999999999538
  0
VERTEX
  5
398
  8
LEVEL_LINES
  6
CONTINUOUS
 10
811664.3699723553145304
 20
568163.3948847306892276
 30
-0.9999999999999538
  0
VERTEX
  5
399
  8
LEVEL_LINES
  6
CONTINUOUS
 10
811714.4169428272871301
 20
568237.0728479538811371
 30
-0.9999999999999538
  0
VERTEX
  5
39A
  8
LEVEL_LINES
  6
CONTINUOUS
 10
811761.8454639196861535
 20
568300.2096488268580288
 30
-0.9999999999999538
  0
VERTEX
  5
39B
  8
LEVEL_LINES
  6
CONTINUOUS
 10
811832.9882453932659701
 20
568318.6291389726102352
 30
-0.9999999999999538
  0
VERTEX
  5
39C
  8
LEVEL_LINES
  6
CONTINUOUS
 10
811890.9399696558248252
 20
568255.492339419783093
 30
-0.9999999999999538
  0
VERTEX
  5
39D
  8
LEVEL_LINES
  6
CONTINUOUS
 10
811859.3209554842906073
 20
568187.0665925266221166
 30
-0.9999999999999538
  0
VERTEX
  5
39E
  8
LEVEL_LINES
  6
CONTINUOUS
 10
811832.9882453932659701
 20
568139.7048114297213033
 30
-0.9999999999999538
  0
VERTEX
  5
39F
  8
LEVEL_LINES
  6
CONTINUOUS
 10
811904.1310268669622019
 20
568094.9875020226463675
 30
-0.9999999999999538
  0
VERTEX
  5
3A0
  8
LEVEL_LINES
  6
CONTINUOUS
 10
811996.3202146803960204
 20
568100.2397196725942194
 30
-0.9999999999999538
  0
VERTEX
  5
3A1
  8
LEVEL_LINES
  6
CONTINUOUS
 10
812051.6534892334602773
 20
568052.8779372554272413
 30
-0.9999999999999538
  0
VERTEX
  5
3A2
  8
LEVEL_LINES
  6
CONTINUOUS
 10
812033.2255326031008735
 20
568021.3095374790718779
 30
-0.9999999999999538
  0
SEQEND
  5
3A3
  8
LEVEL_LINES
  6
CONTINUOUS
  0
POLYLINE
  5
95
  8
LEVEL_LINES
  6
CONTINUOUS
 66
     1
 10
0.0
 20
0.0
 30
-0.9999999999999538
 70
     1
  0
VERTEX
  5
3A4
  8
LEVEL_LINES
  6
CONTINUOUS
 10
804794.2992970747873187
 20
571427.5013266506139189
 30
-0.9999999999999538
  0
VERTEX
  5
3A5
  8
LEVEL_LINES
  6
CONTINUOUS
 10
804840.7397239435231313
 20
571439.4749139165505767
 30
-0.9999999999999538
  0
VERTEX
  5
3A6
  8
LEVEL_LINES
  6
CONTINUOUS
 10
804891.7253839777549729
 20
571448.455104696447961
 30
-0.9999999999999538
  0
VERTEX
  5
3A7
  8
LEVEL_LINES
  6
CONTINUOUS
 10
804894.7390713108470663
 20
571479.8949538571760058
 30
-0.9999999999999538
  0
VERTEX
  5
3A8
  8
LEVEL_LINES
  6
CONTINUOUS
 10
804869.2462411286542192
 20
571520.2966296126833186
 30
-0.9999999999999538
  0
VERTEX
  5
3A9
  8
LEVEL_LINES
  6
CONTINUOUS
 10
804816.778439923771657
 20
571535.2636133651249111
 30
-0.9999999999999538
  0
VERTEX
  5
3AA
  8
LEVEL_LINES
  6
CONTINUOUS
 10
804764.3106383889680728
 20
571538.2570098515134305
 30
-0.9999999999999538
  0
VERTEX
  5
3AB
  8
LEVEL_LINES
  6
CONTINUOUS
 10
804731.3576973618473858
 20
571542.7562879940960556
 30
-0.9999999999999538
  0
VERTEX
  5
3AC
  8
LEVEL_LINES
  6
CONTINUOUS
 10
804707.3964133423287421
 20
571554.7298752600327134
 30
-0.9999999999999538
  0
VERTEX
  5
3AD
  8
LEVEL_LINES
  6
CONTINUOUS
 10
804672.9119261526502669
 20
571538.2570098515134305
 30
-0.9999999999999538
  0
VERTEX
  5
3AE
  8
LEVEL_LINES
  6
CONTINUOUS
 10
804668.4160976487910375
 20
571496.3494537603110075
 30
-0.9999999999999538
  0
VERTEX
  5
3AF
  8
LEVEL_LINES
  6
CONTINUOUS
 10
804687.8815531644504517
 20
571469.4088827418163419
 30
-0.9999999999999538
  0
VERTEX
  5
3B0
  8
LEVEL_LINES
  6
CONTINUOUS
 10
804734.3713846949394792
 20
571466.4154862554278225
 30
-0.9999999999999538
  0
VERTEX
  5
3B1
  8
LEVEL_LINES
  6
CONTINUOUS
 10
804755.3189813814824447
 20
571442.4683104030555114
 30
-0.9999999999999538
  0
SEQEND
  5
3B2
  8
LEVEL_LINES
  6
CONTINUOUS
  0
POLYLINE
  5
96
  8
LEVEL_LINES
  6
CONTINUOUS
 66
     1
 10
0.0
 20
0.0
 30
-0.9999999999999538
 70
     1
  0
VERTEX
  5
3B3
  8
LEVEL_LINES
  6
CONTINUOUS
 10
806553.6009986968711019
 20
572902.5114000191679224
 30
-0.9999999999999538
  0
VERTEX
  5
3B4
  8
LEVEL_LINES
  6
CONTINUOUS
 10
806523.5135306875454262
 20
572887.4709582064533606
 30
-0.9999999999999538
  0
VERTEX
  5
3B5
  8
LEVEL_LINES
  6
CONTINUOUS
 10
806505.6784306574845687
 20
572901.1524344841018319
 30
-0.9999999999999538
  0
VERTEX
  5
3B6
  8
LEVEL_LINES
  6
CONTINUOUS
 10
806509.8284261993831024
 20
572929.8559883893467486
 30
-0.9999999999999538
  0
VERTEX
  5
3B7
  8
LEVEL_LINES
  6
CONTINUOUS
 10
806530.3313806008081883
 20
572933.9512491801287979
 30
-0.9999999999999538
  0
VERTEX
  5
3B8
  8
LEVEL_LINES
  6
CONTINUOUS
 10
806550.8837396637536585
 20
572918.9108073672978207
 30
-0.9999999999999538
  0
SEQEND
  5
3B9
  8
LEVEL_LINES
  6
CONTINUOUS
  0
POLYLINE
  5
97
  8
LEVEL_LINES
  6
CONTINUOUS
 66
     1
 10
0.0
 20
0.0
 30
-0.9999999999999538
 70
     1
  0
VERTEX
  5
3BA
  8
LEVEL_LINES
  6
CONTINUOUS
 10
806368.8273857762105763
 20
572972.2410185723565519
 30
-0.9999999999999538
  0
VERTEX
  5
3BB
  8
LEVEL_LINES
  6
CONTINUOUS
 10
806322.2881492540473118
 20
572987.2630962001858279
 30
-0.9999999999999538
  0
VERTEX
  5
3BC
  8
LEVEL_LINES
  6
CONTINUOUS
 10
806301.7357901911018416
 20
573037.8570121497614309
 30
-0.9999999999999538
  0
VERTEX
  5
3BD
  8
LEVEL_LINES
  6
CONTINUOUS
 10
806309.9369719513924792
 20
573058.3516802886733785
 30
-0.9999999999999538
  0
VERTEX
  5
3BE
  8
LEVEL_LINES
  6
CONTINUOUS
 10
806331.8726628620643169
 20
573072.0331565662054345
 30
-0.9999999999999538
  0
VERTEX
  5
3BF
  8
LEVEL_LINES
  6
CONTINUOUS
 10
806367.4440539287170395
 20
573076.1284173571038991
 30
-0.9999999999999538
  0
VERTEX
  5
3C0
  8
LEVEL_LINES
  6
CONTINUOUS
 10
806390.7136720246635377
 20
573056.9927147534908727
 30
-0.9999999999999538
  0
VERTEX
  5
3C1
  8
LEVEL_LINES
  6
CONTINUOUS
 10
806394.8142629049252719
 20
573020.0802750814473256
 30
-0.9999999999999538
  0
VERTEX
  5
3C2
  8
LEVEL_LINES
  6
CONTINUOUS
 10
806383.8958221117500216
 20
573000.9445724778342992
 30
-0.9999999999999538
  0
VERTEX
  5
3C3
  8
LEVEL_LINES
  6
CONTINUOUS
 10
806385.2297492972575128
 20
572983.1678354094037786
 30
-0.9999999999999538
  0
SEQEND
  5
3C4
  8
LEVEL_LINES
  6
CONTINUOUS
  0
POLYLINE
  5
98
  8
LEVEL_LINES
  6
CONTINUOUS
 66
     1
 10
0.0
 20
0.0
 30
-0.9999999999999538
 70
     1
  0
VERTEX
  5
3C5
  8
LEVEL_LINES
  6
CONTINUOUS
 10
807851.5121196255786344
 20
568740.5144518804736435
 30
-0.9999999999999538
  0
VERTEX
  5
3C6
  8
LEVEL_LINES
  6
CONTINUOUS
 10
807762.7812614302383736
 20
568772.7256060544168577
 30
-0.9999999999999538
  0
VERTEX
  5
3C7
  8
LEVEL_LINES
  6
CONTINUOUS
 10
807712.3884576663840562
 20
568815.0188139921519905
 30
-0.9999999999999538
  0
VERTEX
  5
3C8
  8
LEVEL_LINES
  6
CONTINUOUS
 10
807690.205743447644636
 20
568895.5650629519950598
 30
-0.9999999999999538
  0
VERTEX
  5
3C9
  8
LEVEL_LINES
  6
CONTINUOUS
 10
807702.3098971118452027
 20
568974.1095932991011068
 30
-0.9999999999999538
  0
VERTEX
  5
3CA
  8
LEVEL_LINES
  6
CONTINUOUS
 10
807746.6753262092825025
 20
569012.3809985062107444
 30
-0.9999999999999538
  0
VERTEX
  5
3CB
  8
LEVEL_LINES
  6
CONTINUOUS
 10
807809.1722836372209713
 20
568990.2151697260560468
 30
-0.9999999999999538
  0
VERTEX
  5
3CC
  8
LEVEL_LINES
  6
CONTINUOUS
 10
807857.5888986233621836
 20
569018.4228853546082973
 30
-0.9999999999999538
  0
VERTEX
  5
3CD
  8
LEVEL_LINES
  6
CONTINUOUS
 10
807883.7733947292435914
 20
569042.5720685623819008
 30
-0.9999999999999538
  0
VERTEX
  5
3CE
  8
LEVEL_LINES
  6
CONTINUOUS
 10
807948.3453499280149117
 20
569068.7597000731620938
 30
-0.9999999999999538
  0
VERTEX
  5
3CF
  8
LEVEL_LINES
  6
CONTINUOUS
 10
808018.8952748015290126
 20
569004.3190275402739644
 30
-0.9999999999999538
  0
VERTEX
  5
3D0
  8
LEVEL_LINES
  6
CONTINUOUS
 10
808030.9994287954177707
 20
568935.8381880918750539
 30
-0.9999999999999538
  0
VERTEX
  5
3D1
  8
LEVEL_LINES
  6
CONTINUOUS
 10
808057.2333295629359782
 20
568887.5214561708271503
 30
-0.9999999999999538
  0
VERTEX
  5
3D2
  8
LEVEL_LINES
  6
CONTINUOUS
 10
808093.4963862233562395
 20
568881.4795693225460127
 30
-0.9999999999999538
  0
VERTEX
  5
3D3
  8
LEVEL_LINES
  6
CONTINUOUS
 10
808164.09571575850714
 20
568835.1645586545346305
 30
-0.9999999999999538
  0
VERTEX
  5
3D4
  8
LEVEL_LINES
  6
CONTINUOUS
 10
808174.1742766429670155
 20
568740.5144518804736435
 30
-0.9999999999999538
  0
VERTEX
  5
3D5
  8
LEVEL_LINES
  6
CONTINUOUS
 10
808093.4963862233562395
 20
568716.3469044874655083
 30
-0.9999999999999538
  0
VERTEX
  5
3D6
  8
LEVEL_LINES
  6
CONTINUOUS
 10
807966.47687825828325
 20
568742.5161718133604154
 30
-0.9999999999999538
  0
VERTEX
  5
3D7
  8
LEVEL_LINES
  6
CONTINUOUS
 10
807920.0858560513006523
 20
568734.4725650321925059
 30
-0.9999999999999538
  0
SEQEND
  5
3D8
  8
LEVEL_LINES
  6
CONTINUOUS
  0
POLYLINE
  5
99
  8
LEVEL_LINES
  6
CONTINUOUS
 66
     1
 10
0.0
 20
0.0
 30
-0.9999999999999538
 70
     1
  0
VERTEX
  5
3D9
  8
LEVEL_LINES
  6
CONTINUOUS
 10
813419.9663207205012441
 20
569489.267681940458715
 30
-0.9999999999999538
  0
VERTEX
  5
3DA
  8
LEVEL_LINES
  6
CONTINUOUS
 10
813403.3663385527906939
 20
569452.4837928839260712
 30
-0.9999999999999538
  0
VERTEX
  5
3DB
  8
LEVEL_LINES
  6
CONTINUOUS
 10
813349.9598474557278678
 20
569452.4837928839260712
 30
-0.9999999999999538
  0
VERTEX
  5
3DC
  8
LEVEL_LINES
  6
CONTINUOUS
 10
813311.2759600623976439
 20
569496.6134404485346749
 30
-0.9999999999999538
  0
VERTEX
  5
3DD
  8
LEVEL_LINES
  6
CONTINUOUS
 10
813289.1920548370108008
 20
569537.0702100794296712
 30
-0.9999999999999538
  0
VERTEX
  5
3DE
  8
LEVEL_LINES
  6
CONTINUOUS
 10
813281.8307533153565601
 20
569601.4557887370465323
 30
-0.9999999999999538
  0
VERTEX
  5
3DF
  8
LEVEL_LINES
  6
CONTINUOUS
 10
813285.486701910267584
 20
569686.0605701175518334
 30
-0.9999999999999538
  0
VERTEX
  5
3E0
  8
LEVEL_LINES
  6
CONTINUOUS
 10
813313.1039341950090602
 20
569700.77045263920445
 30
-0.9999999999999538
  0
VERTEX
  5
3E1
  8
LEVEL_LINES
  6
CONTINUOUS
 10
813342.5985459338407964
 20
569658.4588791962014511
 30
-0.9999999999999538
  0
VERTEX
  5
3E2
  8
LEVEL_LINES
  6
CONTINUOUS
 10
813364.682450829539448
 20
569638.2396777933463454
 30
-0.9999999999999538
  0
VERTEX
  5
3E3
  8
LEVEL_LINES
  6
CONTINUOUS
 10
813386.8157607165630907
 20
569665.8230032095452771
 30
-0.9999999999999538
  0
VERTEX
  5
3E4
  8
LEVEL_LINES
  6
CONTINUOUS
 10
813401.5383640901418403
 20
569687.8970097445417196
 30
-0.9999999999999538
  0
VERTEX
  5
3E5
  8
LEVEL_LINES
  6
CONTINUOUS
 10
813399.710389957530424
 20
569651.1131206881254911
 30
-0.9999999999999538
  0
VERTEX
  5
3E6
  8
LEVEL_LINES
  6
CONTINUOUS
 10
813396.0050367007497698
 20
569586.7459062153939158
 30
-0.9999999999999538
  0
VERTEX
  5
3E7
  8
LEVEL_LINES
  6
CONTINUOUS
 10
813414.4329933311091736
 20
569516.8510073566576466
 30
-0.9999999999999538
  0
SEQEND
  5
3E8
  8
LEVEL_LINES
  6
CONTINUOUS
  0
POLYLINE
  5
9A
  8
LEVEL_LINES
  6
CONTINUOUS
 66
     1
 10
0.0
 20
0.0
 30
-0.9999999999999538
 70
     1
  0
VERTEX
  5
3E9
  8
LEVEL_LINES
  6
CONTINUOUS
 10
807862.0353224654681981
 20
567644.1415339782834053
 30
-0.9999999999999538
  0
VERTEX
  5
3EA
  8
LEVEL_LINES
  6
CONTINUOUS
 10
807833.7758289190242067
 20
567638.9995027586119249
 30
-0.9999999999999538
  0
VERTEX
  5
3EB
  8
LEVEL_LINES
  6
CONTINUOUS
 10
807808.0853797598974779
 20
567650.5507098081288859
 30
-0.9999999999999538
  0
VERTEX
  5
3EC
  8
LEVEL_LINES
  6
CONTINUOUS
 10
807801.6627678002696484
 20
567669.7965988422511145
 30
-0.9999999999999538
  0
VERTEX
  5
3ED
  8
LEVEL_LINES
  6
CONTINUOUS
 10
807809.3699022840010002
 20
567705.7357248252956197
 30
-0.9999999999999538
  0
VERTEX
  5
3EE
  8
LEVEL_LINES
  6
CONTINUOUS
 10
807813.2234698558459058
 20
567739.103835858637467
 30
-0.9999999999999538
  0
VERTEX
  5
3EF
  8
LEVEL_LINES
  6
CONTINUOUS
 10
807827.3532166290096939
 20
567764.7588994022225961
 30
-0.9999999999999538
  0
VERTEX
  5
3F0
  8
LEVEL_LINES
  6
CONTINUOUS
 10
807856.8972326997900382
 20
567796.8415029606549069
 30
-0.9999999999999538
  0
VERTEX
  5
3F1
  8
LEVEL_LINES
  6
CONTINUOUS
 10
807880.0186368107097223
 20
567819.9439157396554947
 30
-0.9999999999999538
  0
VERTEX
  5
3F2
  8
LEVEL_LINES
  6
CONTINUOUS
 10
807908.2781306874239817
 20
567830.2096139941131696
 30
-0.9999999999999538
  0
VERTEX
  5
3F3
  8
LEVEL_LINES
  6
CONTINUOUS
 10
807952.0012985231587663
 20
567828.9241051990538836
 30
-0.9999999999999538
  0
VERTEX
  5
3F4
  8
LEVEL_LINES
  6
CONTINUOUS
 10
807982.829837117693387
 20
567813.516375724808313
 30
-0.9999999999999538
  0
VERTEX
  5
3F5
  8
LEVEL_LINES
  6
CONTINUOUS
 10
807982.829837117693387
 20
567781.433773486642167
 30
-0.9999999999999538
  0
VERTEX
  5
3F6
  8
LEVEL_LINES
  6
CONTINUOUS
 10
807968.7000903444131836
 20
567744.2275028933072463
 30
-0.9999999999999538
  0
VERTEX
  5
3F7
  8
LEVEL_LINES
  6
CONTINUOUS
 10
807946.8632087572477758
 20
567707.0212323000887409
 30
-0.9999999999999538
  0
VERTEX
  5
3F8
  8
LEVEL_LINES
  6
CONTINUOUS
 10
807922.4572821224574
 20
567673.6531212667468935
 30
-0.9999999999999538
  0
VERTEX
  5
3F9
  8
LEVEL_LINES
  6
CONTINUOUS
 10
807896.7174286319641396
 20
567654.4072322328574955
 30
-0.9999999999999538
  0
SEQEND
  5
3FA
  8
LEVEL_LINES
  6
CONTINUOUS
  0
POLYLINE
  5
9B
  8
LEVEL_LINES
  6
CONTINUOUS
 66
     1
 10
0.0
 20
0.0
 30
-0.9999999999999538
 70
     1
  0
VERTEX
  5
3FB
  8
LEVEL_LINES
  6
CONTINUOUS
 10
808602.3648930006893352
 20
567632.8657936649397016
 30
-0.9999999999999538
  0
VERTEX
  5
3FC
  8
LEVEL_LINES
  6
CONTINUOUS
 10
808557.7524402644485235
 20
567631.5986503751482815
 30
-0.9999999999999538
  0
VERTEX
  5
3FD
  8
LEVEL_LINES
  6
CONTINUOUS
 10
808499.1584550701081753
 20
567646.8778292337665334
 30
-0.9999999999999538
  0
VERTEX
  5
3FE
  8
LEVEL_LINES
  6
CONTINUOUS
 10
808488.9810848620254546
 20
567679.9521106661995873
 30
-0.9999999999999538
  0
VERTEX
  5
3FF
  8
LEVEL_LINES
  6
CONTINUOUS
 10
808496.6388146840035915
 20
567704.1196580592077225
 30
-0.9999999999999538
  0
VERTEX
  5
400
  8
LEVEL_LINES
  6
CONTINUOUS
 10
808520.847122341976501
 20
567713.026390778250061
 30
-0.9999999999999538
  0
VERTEX
  5
401
  8
LEVEL_LINES
  6
CONTINUOUS
 10
808560.3214853124227375
 20
567704.1196580592077225
 30
-0.9999999999999538
  0
VERTEX
  5
402
  8
LEVEL_LINES
  6
CONTINUOUS
 10
808599.7958479527151212
 20
567706.6539446387905627
 30
-0.9999999999999538
  0
VERTEX
  5
403
  8
LEVEL_LINES
  6
CONTINUOUS
 10
808626.5732006585458294
 20
567696.4800686297239736
 30
-0.9999999999999538
  0
VERTEX
  5
404
  8
LEVEL_LINES
  6
CONTINUOUS
 10
808630.3773632389493287
 20
567663.4057871972909197
 30
-0.9999999999999538
  0
SEQEND
  5
405
  8
LEVEL_LINES
  6
CONTINUOUS
  0
POLYLINE
  5
9C
  8
LEVEL_LINES
  6
CONTINUOUS
 66
     1
 10
0.0
 20
0.0
 30
-0.9999999999999538
 70
     1
  0
VERTEX
  5
406
  8
LEVEL_LINES
  6
CONTINUOUS
 10
812207.7723709840793163
 20
560944.5520884591387585
 30
-0.9999999999999538
  0
VERTEX
  5
407
  8
LEVEL_LINES
  6
CONTINUOUS
 10
812207.7723709840793163
 20
560990.6467275865143165
 30
-0.9999999999999538
  0
VERTEX
  5
408
  8
LEVEL_LINES
  6
CONTINUOUS
 10
812250.8532775576459244
 20
561030.6076576204504818
 30
-0.9999999999999538
  0
VERTEX
  5
409
  8
LEVEL_LINES
  6
CONTINUOUS
 10
812303.1728647771524265
 20
561079.8058783444575965
 30
-0.9999999999999538
  0
VERTEX
  5
40A
  8
LEVEL_LINES
  6
CONTINUOUS
 10
812333.9519987102830783
 20
561132.0525907502742484
 30
-0.9999999999999538
  0
VERTEX
  5
40B
  8
LEVEL_LINES
  6
CONTINUOUS
 10
812377.0823099457193166
 20
561156.6425196799682453
 30
-0.9999999999999538
  0
VERTEX
  5
40C
  8
LEVEL_LINES
  6
CONTINUOUS
 10
812432.4649891603039578
 20
561125.9005174717167392
 30
-0.9999999999999538
  0
VERTEX
  5
40D
  8
LEVEL_LINES
  6
CONTINUOUS
 10
812475.5458957339869812
 20
561052.130732003133744
 30
-0.9999999999999538
  0
VERTEX
  5
40E
  8
LEVEL_LINES
  6
CONTINUOUS
 10
812509.4375266532879323
 20
561033.6928763521136716
 30
-0.9999999999999538
  0
VERTEX
  5
40F
  8
LEVEL_LINES
  6
CONTINUOUS
 10
812558.694021878298372
 20
560969.1420173888327554
 30
-0.9999999999999538
  0
VERTEX
  5
410
  8
LEVEL_LINES
  6
CONTINUOUS
 10
812589.4731558109633625
 20
560919.9437953445594758
 30
-0.9999999999999538
  0
VERTEX
  5
411
  8
LEVEL_LINES
  6
CONTINUOUS
 10
812592.5362478058086708
 20
560886.1349385894136503
 30
-0.9999999999999538
  0
VERTEX
  5
412
  8
LEVEL_LINES
  6
CONTINUOUS
 10
812617.1397930874954909
 20
560843.1071553289657459
 30
-0.9999999999999538
  0
VERTEX
  5
413
  8
LEVEL_LINES
  6
CONTINUOUS
 10
812638.7296510359738022
 20
560812.3651531208306551
 30
-0.9999999999999538
  0
VERTEX
  5
414
  8
LEVEL_LINES
  6
CONTINUOUS
 10
812644.8558350257808343
 20
560775.4710776337888092
 30
-0.9999999999999538
  0
VERTEX
  5
415
  8
LEVEL_LINES
  6
CONTINUOUS
 10
812601.7749284518649802
 20
560744.7290754256537184
 30
-0.9999999999999538
  0
VERTEX
  5
416
  8
LEVEL_LINES
  6
CONTINUOUS
 10
812527.9148879455169663
 20
560747.8142941574333236
 30
-0.9999999999999538
  0
VERTEX
  5
417
  8
LEVEL_LINES
  6
CONTINUOUS
 10
812457.1179391036275774
 20
560726.2912197747500613
 30
-0.9999999999999538
  0
VERTEX
  5
418
  8
LEVEL_LINES
  6
CONTINUOUS
 10
812404.7489472221350297
 20
560729.35807432141155
 30
-0.9999999999999538
  0
VERTEX
  5
419
  8
LEVEL_LINES
  6
CONTINUOUS
 10
812389.8781298635294661
 20
560703.6662810875568539
 30
-0.9999999999999538
  0
VERTEX
  5
41A
  8
LEVEL_LINES
  6
CONTINUOUS
 10
812366.6579164291033521
 20
560666.9742142764152959
 30
-0.9999999999999538
  0
VERTEX
  5
41B
  8
LEVEL_LINES
  6
CONTINUOUS
 10
812335.730568181257695
 20
560628.3538855930091813
 30
-0.9999999999999538
  0
VERTEX
  5
41C
  8
LEVEL_LINES
  6
CONTINUOUS
 10
812271.9490885592531413
 20
560643.7983447572914883
 30
-0.9999999999999538
  0
VERTEX
  5
41D
  8
LEVEL_LINES
  6
CONTINUOUS
 10
812264.1925490838475525
 20
560684.3469353134278208
 30
-0.9999999999999538
  0
VERTEX
  5
41E
  8
LEVEL_LINES
  6
CONTINUOUS
 10
812300.9496526912553236
 20
560711.397692762198858
 30
-0.9999999999999538
  0
VERTEX
  5
41F
  8
LEVEL_LINES
  6
CONTINUOUS
 10
812335.730568181257695
 20
560742.2866110913455486
 30
-0.9999999999999538
  0
VERTEX
  5
420
  8
LEVEL_LINES
  6
CONTINUOUS
 10
812337.6573519669473171
 20
560819.5272684583906084
 30
-0.9999999999999538
  0
VERTEX
  5
421
  8
LEVEL_LINES
  6
CONTINUOUS
 10
812335.730568181257695
 20
560873.6104191711638123
 30
-0.9999999999999538
  0
VERTEX
  5
422
  8
LEVEL_LINES
  6
CONTINUOUS
 10
812285.4859787323512137
 20
560902.5710756278131157
 30
-0.9999999999999538
  0
VERTEX
  5
423
  8
LEVEL_LINES
  6
CONTINUOUS
 10
812244.875307553098537
 20
560925.7469451468205079
 30
-0.9999999999999538
  0
SEQEND
  5
424
  8
LEVEL_LINES
  6
CONTINUOUS
  0
POLYLINE
  5
9D
  8
LEVEL_LINES
  6
CONTINUOUS
 66
     1
 10
0.0
 20
0.0
 30
-0.9999999999999538
 70
     1
  0
VERTEX
  5
425
  8
LEVEL_LINES
  6
CONTINUOUS
 10
813681.9100901109632105
 20
568140.0170052155153826
 30
-0.9999999999999538
  0
VERTEX
  5
426
  8
LEVEL_LINES
  6
CONTINUOUS
 10
813643.5226306879194453
 20
568123.5992336826166138
 30
-0.9999999999999538
  0
VERTEX
  5
427
  8
LEVEL_LINES
  6
CONTINUOUS
 10
813612.4470684546977282
 20
568107.1630979643668979
 30
-0.9999999999999538
  0
VERTEX
  5
428
  8
LEVEL_LINES
  6
CONTINUOUS
 10
813590.5113775444915518
 20
568079.7817812241846696
 30
-0.9999999999999538
  0
VERTEX
  5
429
  8
LEVEL_LINES
  6
CONTINUOUS
 10
813533.844175806036219
 20
568068.8182346967514604
 30
-0.9999999999999538
  0
VERTEX
  5
42A
  8
LEVEL_LINES
  6
CONTINUOUS
 10
813469.8650772074470297
 20
568076.127266155090183
 30
-0.9999999999999538
  0
VERTEX
  5
42B
  8
LEVEL_LINES
  6
CONTINUOUS
 10
813457.0692576196743175
 20
568134.5444147045491263
 30
-0.9999999999999538
  0
VERTEX
  5
42C
  8
LEVEL_LINES
  6
CONTINUOUS
 10
813460.7252058846643195
 20
568169.2347629030700773
 30
-0.9999999999999538
  0
VERTEX
  5
42D
  8
LEVEL_LINES
  6
CONTINUOUS
 10
813427.8216695190640166
 20
568189.3070495052961633
 30
-0.9999999999999538
  0
VERTEX
  5
42E
  8
LEVEL_LINES
  6
CONTINUOUS
 10
813365.6705450530862436
 20
568198.4525192703586072
 30
-0.9999999999999538
  0
VERTEX
  5
42F
  8
LEVEL_LINES
  6
CONTINUOUS
 10
813310.8313177772797644
 20
568231.306427841889672
 30
-0.9999999999999538
  0
VERTEX
  5
430
  8
LEVEL_LINES
  6
CONTINUOUS
 10
813274.271832816535607
 20
568280.5964721315540373
 30
-0.9999999999999538
  0
VERTEX
  5
431
  8
LEVEL_LINES
  6
CONTINUOUS
 10
813237.7123478560242802
 20
568307.977788871852681
 30
-0.9999999999999538
  0
VERTEX
  5
432
  8
LEVEL_LINES
  6
CONTINUOUS
 10
813252.3361419062130153
 20
568344.5045766973635182
 30
-0.9999999999999538
  0
VERTEX
  5
433
  8
LEVEL_LINES
  6
CONTINUOUS
 10
813301.6914464546134695
 20
568353.6316822776570916
 30
-0.9999999999999538
  0
VERTEX
  5
434
  8
LEVEL_LINES
  6
CONTINUOUS
 10
813343.7348541426472366
 20
568317.1048944519134238
 30
-0.9999999999999538
  0
VERTEX
  5
435
  8
LEVEL_LINES
  6
CONTINUOUS
 10
813382.122313235886395
 20
568267.8148501621326432
 30
-0.9999999999999538
  0
VERTEX
  5
436
  8
LEVEL_LINES
  6
CONTINUOUS
 10
813416.8538240642519668
 20
568238.6154579798458144
 30
-0.9999999999999538
  0
VERTEX
  5
437
  8
LEVEL_LINES
  6
CONTINUOUS
 10
813453.4133090246468782
 20
568234.9609429108677432
 30
-0.9999999999999538
  0
VERTEX
  5
438
  8
LEVEL_LINES
  6
CONTINUOUS
 10
813495.4567167126806453
 20
568240.4335334219504148
 30
-0.9999999999999538
  0
VERTEX
  5
439
  8
LEVEL_LINES
  6
CONTINUOUS
 10
813548.4679698562249541
 20
568249.5606390020111576
 30
-0.9999999999999538
  0
VERTEX
  5
43A
  8
LEVEL_LINES
  6
CONTINUOUS
 10
813585.0274548168526962
 20
568242.2516088640550151
 30
-0.9999999999999538
  0
VERTEX
  5
43B
  8
LEVEL_LINES
  6
CONTINUOUS
 10
813658.1464247381081805
 20
568211.2157757345121354
 30
-0.9999999999999538
  0
VERTEX
  5
43C
  8
LEVEL_LINES
  6
CONTINUOUS
 10
813681.9100901109632105
 20
568182.016383552341722
 30
-0.9999999999999538
  0
SEQEND
  5
43D
  8
LEVEL_LINES
  6
CONTINUOUS
  0
POLYLINE
  5
9E
  8
LEVEL_LINES
  6
CONTINUOUS
 66
     1
 10
0.0
 20
0.0
 30
-0.9999999999999538
 70
     1
  0
VERTEX
  5
43E
  8
LEVEL_LINES
  6
CONTINUOUS
 10
810428.0665242838440463
 20
567438.9193884941050783
 30
-0.9999999999999538
  0
VERTEX
  5
43F
  8
LEVEL_LINES
  6
CONTINUOUS
 10
810305.4440354993566871
 20
567430.1779347603442147
 30
-0.9999999999999538
  0
VERTEX
  5
440
  8
LEVEL_LINES
  6
CONTINUOUS
 10
810230.991138392360881
 20
567500.1462903594365343
 30
-0.9999999999999538
  0
VERTEX
  5
441
  8
LEVEL_LINES
  6
CONTINUOUS
 10
810152.1412221051286906
 20
567626.9891871225554496
 30
-0.9999999999999538
  0
VERTEX
  5
442
  8
LEVEL_LINES
  6
CONTINUOUS
 10
810187.2185658951057121
 20
567771.3149900326970965
 30
-0.9999999999999538
  0
VERTEX
  5
443
  8
LEVEL_LINES
  6
CONTINUOUS
 10
810270.4160963710164651
 20
567867.526069697458297
 30
-0.9999999999999538
  0
VERTEX
  5
444
  8
LEVEL_LINES
  6
CONTINUOUS
 10
810349.2166079968446866
 20
567985.6091485419310629
 30
-0.9999999999999538
  0
VERTEX
  5
445
  8
LEVEL_LINES
  6
CONTINUOUS
 10
810353.6136271769646555
 20
568160.566767229931429
 30
-0.9999999999999538
  0
VERTEX
  5
446
  8
LEVEL_LINES
  6
CONTINUOUS
 10
810349.2166079968446866
 20
568300.5218426128849387
 30
-0.9999999999999538
  0
VERTEX
  5
447
  8
LEVEL_LINES
  6
CONTINUOUS
 10
810379.8969326062360778
 20
568418.6049214573577046
 30
-0.9999999999999538
  0
VERTEX
  5
448
  8
LEVEL_LINES
  6
CONTINUOUS
 10
810449.9528105326462537
 20
568492.9440045832889155
 30
-0.9999999999999538
  0
VERTEX
  5
449
  8
LEVEL_LINES
  6
CONTINUOUS
 10
810629.5389290258754045
 20
568497.3330949749797583
 30
-0.9999999999999538
  0
VERTEX
  5
44A
  8
LEVEL_LINES
  6
CONTINUOUS
 10
810756.5090323294280097
 20
568479.8318246429553255
 30
-0.9999999999999538
  0
VERTEX
  5
44B
  8
LEVEL_LINES
  6
CONTINUOUS
 10
810905.4148265431867912
 20
568409.8451035384787247
 30
-0.9999999999999538
  0
VERTEX
  5
44C
  8
LEVEL_LINES
  6
CONTINUOUS
 10
810997.4063953798031434
 20
568239.2765765625517815
 30
-0.9999999999999538
  0
VERTEX
  5
44D
  8
LEVEL_LINES
  6
CONTINUOUS
 10
811028.0373149977531284
 20
568129.9349514519562945
 30
-0.9999999999999538
  0
VERTEX
  5
44E
  8
LEVEL_LINES
  6
CONTINUOUS
 10
811080.6039258559467271
 20
568094.95077365252655
 30
-0.9999999999999538
  0
VERTEX
  5
44F
  8
LEVEL_LINES
  6
CONTINUOUS
 10
811168.1984758423641324
 20
568090.5800461254548281
 30
-0.9999999999999538
  0
VERTEX
  5
450
  8
LEVEL_LINES
  6
CONTINUOUS
 10
811273.2822925669606775
 20
568055.5958683259086683
 30
-0.9999999999999538
  0
VERTEX
  5
451
  8
LEVEL_LINES
  6
CONTINUOUS
 10
811229.5097200695890933
 20
567968.1262410745257512
 30
-0.9999999999999538
  0
VERTEX
  5
452
  8
LEVEL_LINES
  6
CONTINUOUS
 10
811102.4902121043996885
 20
567928.7529728830559179
 30
-0.9999999999999538
  0
VERTEX
  5
453
  8
LEVEL_LINES
  6
CONTINUOUS
 10
810927.301112791756168
 20
567867.526069697458297
 30
-0.9999999999999538
  0
VERTEX
  5
454
  8
LEVEL_LINES
  6
CONTINUOUS
 10
810774.0477040590485558
 20
567771.3149900326970965
 30
-0.9999999999999538
  0
VERTEX
  5
455
  8
LEVEL_LINES
  6
CONTINUOUS
 10
810642.6805819056462497
 20
567705.6989964552922174
 30
-0.9999999999999538
  0
VERTEX
  5
456
  8
LEVEL_LINES
  6
CONTINUOUS
 10
810563.8306656181812286
 20
567561.3731935451505706
 30
-0.9999999999999538
  0
VERTEX
  5
457
  8
LEVEL_LINES
  6
CONTINUOUS
 10
810502.5194210609188303
 20
567478.2742925003403798
 30
-0.9999999999999538
  0
SEQEND
  5
458
  8
LEVEL_LINES
  6
CONTINUOUS
  0
POLYLINE
  5
9F
  8
LEVEL_LINES
  6
CONTINUOUS
 66
     1
 10
0.0
 20
0.0
 30
-0.9999999999999538
 70
     1
  0
VERTEX
  5
459
  8
LEVEL_LINES
  6
CONTINUOUS
 10
812568.6243684478104115
 20
567324.3439099183306098
 30
-0.9999999999999538
  0
VERTEX
  5
45A
  8
LEVEL_LINES
  6
CONTINUOUS
 10
812583.935344320605509
 20
567296.2108657145872712
 30
-0.9999999999999538
  0
VERTEX
  5
45B
  8
LEVEL_LINES
  6
CONTINUOUS
 10
812559.5479172024643049
 20
567261.6425484430510551
 30
-0.9999999999999538
  0
VERTEX
  5
45C
  8
LEVEL_LINES
  6
CONTINUOUS
 10
812510.7730629662983119
 20
567258.892991998931393
 30
-0.9999999999999538
  0
VERTEX
  5
45D
  8
LEVEL_LINES
  6
CONTINUOUS
 10
812434.8364152313442901
 20
567278.8002029431518167
 30
-0.9999999999999538
  0
VERTEX
  5
45E
  8
LEVEL_LINES
  6
CONTINUOUS
 10
812379.1079030549153686
 20
567301.0762181540485471
 30
-0.9999999999999538
  0
VERTEX
  5
45F
  8
LEVEL_LINES
  6
CONTINUOUS
 10
812350.7495998548110947
 20
567336.4827761698979884
 30
-0.9999999999999538
  0
VERTEX
  5
460
  8
LEVEL_LINES
  6
CONTINUOUS
 10
812342.6472274176776409
 20
567374.9561900529079139
 30
-0.9999999999999538
  0
VERTEX
  5
461
  8
LEVEL_LINES
  6
CONTINUOUS
 10
812302.3879939143080264
 20
567391.9344461775617674
 30
-0.9999999999999538
  0
VERTEX
  5
462
  8
LEVEL_LINES
  6
CONTINUOUS
 10
812277.8512209757464007
 20
567402.1440180743811652
 30
-0.9999999999999538
  0
VERTEX
  5
463
  8
LEVEL_LINES
  6
CONTINUOUS
 10
812247.590343514806591
 20
567412.762283859658055
 30
-0.9999999999999538
  0
VERTEX
  5
464
  8
LEVEL_LINES
  6
CONTINUOUS
 10
812229.5966284314636141
 20
567441.3493613799801096
 30
-0.9999999999999538
  0
VERTEX
  5
465
  8
LEVEL_LINES
  6
CONTINUOUS
 10
812229.187763893394731
 20
567469.9364375802688301
 30
-0.9999999999999538
  0
VERTEX
  5
466
  8
LEVEL_LINES
  6
CONTINUOUS
 10
812258.630911948159337
 20
567520.5765194722916931
 30
-0.9999999999999538
  0
VERTEX
  5
467
  8
LEVEL_LINES
  6
CONTINUOUS
 10
812246.772614439134486
 20
567529.5609246798558161
 30
-0.9999999999999538
  0
VERTEX
  5
468
  8
LEVEL_LINES
  6
CONTINUOUS
 10
812222.2174792956793681
 20
567521.7141100318403915
 30
-0.9999999999999538
  0
VERTEX
  5
469
  8
LEVEL_LINES
  6
CONTINUOUS
 10
812152.7166169086704031
 20
567555.2050468183588237
 30
-0.9999999999999538
  0
VERTEX
  5
46A
  8
LEVEL_LINES
  6
CONTINUOUS
 10
812137.8934386278269812
 20
567631.3387276427820325
 30
-0.9999999999999538
  0
VERTEX
  5
46B
  8
LEVEL_LINES
  6
CONTINUOUS
 10
812173.0408601559465751
 20
567692.0726127327652648
 30
-0.9999999999999538
  0
VERTEX
  5
46C
  8
LEVEL_LINES
  6
CONTINUOUS
 10
812176.3015711272601038
 20
567737.7815986934583634
 30
-0.9999999999999538
  0
VERTEX
  5
46D
  8
LEVEL_LINES
  6
CONTINUOUS
 10
812148.0914819122990593
 20
567759.8005126734497026
 30
-0.9999999999999538
  0
VERTEX
  5
46E
  8
LEVEL_LINES
  6
CONTINUOUS
 10
812119.9307976890122518
 20
567797.83318083465565
 30
-0.9999999999999538
  0
VERTEX
  5
46F
  8
LEVEL_LINES
  6
CONTINUOUS
 10
812076.8992957770824432
 20
567825.9307087125489488
 30
-0.9999999999999538
  0
VERTEX
  5
470
  8
LEVEL_LINES
  6
CONTINUOUS
 10
812070.27906451059971
 20
567865.6161733304616064
 30
-0.9999999999999538
  0
VERTEX
  5
471
  8
LEVEL_LINES
  6
CONTINUOUS
 10
812088.5094024940626696
 20
567880.4913348375121132
 30
-0.9999999999999538
  0
VERTEX
  5
472
  8
LEVEL_LINES
  6
CONTINUOUS
 10
812125.9581720251590014
 20
567890.9223133977502584
 30
-0.9999999999999538
  0
VERTEX
  5
473
  8
LEVEL_LINES
  6
CONTINUOUS
 10
812161.2331347919534892
 20
567866.7914943748619407
 30
-0.9999999999999538
  0
VERTEX
  5
474
  8
LEVEL_LINES
  6
CONTINUOUS
 10
812192.3086966949049383
 20
567833.3682894660159945
 30
-0.9999999999999538
  0
VERTEX
  5
475
  8
LEVEL_LINES
  6
CONTINUOUS
 10
812217.8015268770977855
 20
567797.3006128675770015
 30
-0.9999999999999538
  0
VERTEX
  5
476
  8
LEVEL_LINES
  6
CONTINUOUS
 10
812238.699718901887536
 20
567769.0194404987851158
 30
-0.9999999999999538
  0
VERTEX
  5
477
  8
LEVEL_LINES
  6
CONTINUOUS
 10
812255.1514870846876875
 20
567749.7551859595114365
 30
-0.9999999999999538
  0
VERTEX
  5
478
  8
LEVEL_LINES
  6
CONTINUOUS
 10
812353.8167957017431036
 20
567624.5241349331336096
 30
-0.9999999999999538
  0
VERTEX
  5
479
  8
LEVEL_LINES
  6
CONTINUOUS
 10
812372.1418391566257924
 20
567568.3149360218085349
 30
-0.9999999999999538
  0
VERTEX
  5
47A
  8
LEVEL_LINES
  6
CONTINUOUS
 10
812429.173970153555274
 20
567590.395983767346479
 30
-0.9999999999999538
  0
VERTEX
  5
47B
  8
LEVEL_LINES
  6
CONTINUOUS
 10
812490.4816267698770389
 20
567587.173876665532589
 30
-0.9999999999999538
  0
VERTEX
  5
47C
  8
LEVEL_LINES
  6
CONTINUOUS
 10
812546.3981460697250441
 20
567572.7692708284594119
 30
-0.9999999999999538
  0
VERTEX
  5
47D
  8
LEVEL_LINES
  6
CONTINUOUS
 10
812565.5915237539447844
 20
567500.5678915932076052
 30
-0.9999999999999538
  0
VERTEX
  5
47E
  8
LEVEL_LINES
  6
CONTINUOUS
 10
812542.1434440419543535
 20
567424.9624454802833498
 30
-0.9999999999999538
  0
VERTEX
  5
47F
  8
LEVEL_LINES
  6
CONTINUOUS
 10
812562.6463984434958547
 20
567373.8543270688969642
 30
-0.9999999999999538
  0
VERTEX
  5
480
  8
LEVEL_LINES
  6
CONTINUOUS
 10
812566.0553233999526128
 20
567348.2910844505531713
 30
-0.9999999999999538
  0
SEQEND
  5
481
  8
LEVEL_LINES
  6
CONTINUOUS
  0
POLYLINE
  5
A0
  8
LEVEL_LINES
  6
CONTINUOUS
 66
     1
 10
0.0
 20
0.0
 30
-0.9999999999999538
 70
     1
  0
VERTEX
  5
482
  8
LEVEL_LINES
  6
CONTINUOUS
 10
807440.6131513596046716
 20
566815.3378945556469262
 30
-0.9999999999999538
  0
VERTEX
  5
483
  8
LEVEL_LINES
  6
CONTINUOUS
 10
807384.0941639362135902
 20
566842.1315507736289874
 30
-0.9999999999999538
  0
VERTEX
  5
484
  8
LEVEL_LINES
  6
CONTINUOUS
 10
807331.3793387629557401
 20
566895.7188632095931098
 30
-0.9999999999999538
  0
VERTEX
  5
485
  8
LEVEL_LINES
  6
CONTINUOUS
 10
807282.5180811615427956
 20
566929.2155248584458604
 30
-0.9999999999999538
  0
VERTEX
  5
486
  8
LEVEL_LINES
  6
CONTINUOUS
 10
807239.3877699259901419
 20
566958.892392452689819
 30
-0.9999999999999538
  0
VERTEX
  5
487
  8
LEVEL_LINES
  6
CONTINUOUS
 10
807169.4307016530074179
 20
567005.7766994576668367
 30
-0.9999999999999538
  0
VERTEX
  5
488
  8
LEVEL_LINES
  6
CONTINUOUS
 10
807130.1539576592622325
 20
567046.9313160412712023
 30
-0.9999999999999538
  0
VERTEX
  5
489
  8
LEVEL_LINES
  6
CONTINUOUS
 10
807109.9968362199142575
 20
567081.3829258738551289
 30
-0.9999999999999538
  0
VERTEX
  5
48A
  8
LEVEL_LINES
  6
CONTINUOUS
 10
807105.2045794158475474
 20
567112.9696898352121934
 30
-0.9999999999999538
  0
VERTEX
  5
48B
  8
LEVEL_LINES
  6
CONTINUOUS
 10
807089.8891194422030821
 20
567123.4924906409578398
 30
-0.9999999999999538
  0
VERTEX
  5
48C
  8
LEVEL_LINES
  6
CONTINUOUS
 10
807068.7933084404794499
 20
567159.8539981606882066
 30
-0.9999999999999538
  0
VERTEX
  5
48D
  8
LEVEL_LINES
  6
CONTINUOUS
 10
807073.5855652444297448
 20
567191.4407621220452711
 30
-0.9999999999999538
  0
VERTEX
  5
48E
  8
LEVEL_LINES
  6
CONTINUOUS
 10
807099.4736330498708412
 20
567212.5047265980392694
 30
-0.9999999999999538
  0
VERTEX
  5
48F
  8
LEVEL_LINES
  6
CONTINUOUS
 10
807142.6039442853070796
 20
567200.0536652404116467
 30
-0.9999999999999538
  0
VERTEX
  5
490
  8
LEVEL_LINES
  6
CONTINUOUS
 10
807175.1616476889466867
 20
567156.9891522896941751
 30
-0.9999999999999538
  0
VERTEX
  5
491
  8
LEVEL_LINES
  6
CONTINUOUS
 10
807187.6116346450289711
 20
567126.3573365118354559
 30
-0.9999999999999538
  0
VERTEX
  5
492
  8
LEVEL_LINES
  6
CONTINUOUS
 10
807212.0041700406000018
 20
567116.0108537995256484
 30
-0.9999999999999538
  0
VERTEX
  5
493
  8
LEVEL_LINES
  6
CONTINUOUS
 10
807226.9504589318530634
 20
567108.5471137536223978
 30
-0.9999999999999538
  0
VERTEX
  5
494
  8
LEVEL_LINES
  6
CONTINUOUS
 10
807249.4158477303571999
 20
567098.699794293846935
 30
-0.9999999999999538
  0
VERTEX
  5
495
  8
LEVEL_LINES
  6
CONTINUOUS
 10
807259.2113821242237464
 20
567093.002409047447145
 30
-0.9999999999999538
  0
VERTEX
  5
496
  8
LEVEL_LINES
  6
CONTINUOUS
 10
807277.4025201671756804
 20
567079.2255071213003248
 30
-0.9999999999999538
  0
VERTEX
  5
497
  8
LEVEL_LINES
  6
CONTINUOUS
 10
807312.7712044443469495
 20
567052.1040457775816321
 30
-0.9999999999999538
  0
VERTEX
  5
498
  8
LEVEL_LINES
  6
CONTINUOUS
 10
807389.825109972152859
 20
567042.1382082978961989
 30
-0.9999999999999538
  0
VERTEX
  5
499
  8
LEVEL_LINES
  6
CONTINUOUS
 10
807447.240872742026113
 20
567030.4956001817481592
 30
-0.9999999999999538
  0
VERTEX
  5
49A
  8
LEVEL_LINES
  6
CONTINUOUS
 10
807483.9336021429626271
 20
566987.5382268751272932
 30
-0.9999999999999538
  0
VERTEX
  5
49B
  8
LEVEL_LINES
  6
CONTINUOUS
 10
807529.6534062307327986
 20
566928.75390917097684
 30
-0.9999999999999538
  0
VERTEX
  5
49C
  8
LEVEL_LINES
  6
CONTINUOUS
 10
807591.2535896671470255
 20
566894.1782257260056213
 30
-0.9999999999999538
  0
VERTEX
  5
49D
  8
LEVEL_LINES
  6
CONTINUOUS
 10
807580.6101327064679936
 20
566851.0322034674463794
 30
-0.9999999999999538
  0
VERTEX
  5
49E
  8
LEVEL_LINES
  6
CONTINUOUS
 10
807528.012830923544243
 20
566826.019768892088905
 30
-0.9999999999999538
  0
SEQEND
  5
49F
  8
LEVEL_LINES
  6
CONTINUOUS
  0
POLYLINE
  5
A1
  8
LEVEL_LINES
  6
CONTINUOUS
 66
     1
 10
0.0
 20
0.0
 30
-0.9999999999999538
 70
     1
  0
VERTEX
  5
4A0
  8
LEVEL_LINES
  6
CONTINUOUS
 10
806883.0316009658854455
 20
572328.4770502811297774
 30
-0.9999999999999538
  0
VERTEX
  5
4A1
  8
LEVEL_LINES
  6
CONTINUOUS
 10
806915.5399000379256904
 20
572269.398783148964867
 30
-0.9999999999999538
  0
VERTEX
  5
4A2
  8
LEVEL_LINES
  6
CONTINUOUS
 10
806936.2404730862472206
 20
572198.5122064161114395
 30
-0.9999999999999538
  0
VERTEX
  5
4A3
  8
LEVEL_LINES
  6
CONTINUOUS
 10
806894.8393266597995535
 20
572124.6505987021373585
 30
-0.9999999999999538
  0
VERTEX
  5
4A4
  8
LEVEL_LINES
  6
CONTINUOUS
 10
806820.8804768299451098
 20
572068.5289983660914004
 30
-0.9999999999999538
  0
VERTEX
  5
4A5
  8
LEVEL_LINES
  6
CONTINUOUS
 10
806711.449045256478712
 20
572059.6773595223203301
 30
-0.9999999999999538
  0
VERTEX
  5
4A6
  8
LEVEL_LINES
  6
CONTINUOUS
 10
806628.6467524040490389
 20
572118.7556266543688253
 30
-0.9999999999999538
  0
VERTEX
  5
4A7
  8
LEVEL_LINES
  6
CONTINUOUS
 10
806566.5450325995916501
 20
572213.2771828129189089
 30
-0.9999999999999538
  0
VERTEX
  5
4A8
  8
LEVEL_LINES
  6
CONTINUOUS
 10
806510.3224734764080495
 20
572281.225455614621751
 30
-0.9999999999999538
  0
VERTEX
  5
4A9
  8
LEVEL_LINES
  6
CONTINUOUS
 10
806415.6630502683110535
 20
572360.9820353763643652
 30
-0.9999999999999538
  0
VERTEX
  5
4AA
  8
LEVEL_LINES
  6
CONTINUOUS
 10
806329.8964747444260865
 20
572378.7036785691743717
 30
-0.9999999999999538
  0
VERTEX
  5
4AB
  8
LEVEL_LINES
  6
CONTINUOUS
 10
806276.6381979624275118
 20
572393.4686549660982564
 30
-0.9999999999999538
  0
VERTEX
  5
4AC
  8
LEVEL_LINES
  6
CONTINUOUS
 10
806190.8716224385425448
 20
572411.1902981592575088
 30
-0.9999999999999538
  0
VERTEX
  5
4AD
  8
LEVEL_LINES
  6
CONTINUOUS
 10
806060.7396178172202781
 20
572420.060302508296445
 30
-0.9999999999999538
  0
VERTEX
  5
4AE
  8
LEVEL_LINES
  6
CONTINUOUS
 10
805921.7147655114531517
 20
572417.1036343919113278
 30
-0.9999999999999538
  0
VERTEX
  5
4AF
  8
LEVEL_LINES
  6
CONTINUOUS
 10
805818.1624946191441268
 20
572434.8252789052203298
 30
-0.9999999999999538
  0
VERTEX
  5
4B0
  8
LEVEL_LINES
  6
CONTINUOUS
 10
805705.7667807041434571
 20
572482.0952390769962221
 30
-0.9999999999999538
  0
VERTEX
  5
4B1
  8
LEVEL_LINES
  6
CONTINUOUS
 10
805614.0716401676181704
 20
572532.3035031801555306
 30
-0.9999999999999538
  0
VERTEX
  5
4B2
  8
LEVEL_LINES
  6
CONTINUOUS
 10
805518.8687650208594278
 20
572597.1665559295797721
 30
-0.9999999999999538
  0
VERTEX
  5
4B3
  8
LEVEL_LINES
  6
CONTINUOUS
 10
805456.5029209291096777
 20
572668.9028614199487492
 30
-0.9999999999999538
  0
VERTEX
  5
4B4
  8
LEVEL_LINES
  6
CONTINUOUS
 10
805256.1096312286099419
 20
572684.3637386333430186
 30
-0.9999999999999538
  0
VERTEX
  5
4B5
  8
LEVEL_LINES
  6
CONTINUOUS
 10
805218.6715885521844029
 20
572732.4344361578114331
 30
-0.9999999999999538
  0
VERTEX
  5
4B6
  8
LEVEL_LINES
  6
CONTINUOUS
 10
805248.9789834877010435
 20
572956.7649670417886227
 30
-0.9999999999999538
  0
VERTEX
  5
4B7
  8
LEVEL_LINES
  6
CONTINUOUS
 10
805245.4130476538557559
 20
573122.3426765264011919
 30
-0.9999999999999538
  0
VERTEX
  5
4B8
  8
LEVEL_LINES
  6
CONTINUOUS
 10
805195.4948410275392234
 20
573239.84923297946807
 30
-0.9999999999999538
  0
VERTEX
  5
4B9
  8
LEVEL_LINES
  6
CONTINUOUS
 10
805086.1823201595107093
 20
573311.9089218790177256
 30
-0.9999999999999538
  0
VERTEX
  5
4BA
  8
LEVEL_LINES
  6
CONTINUOUS
 10
805048.9805739370640367
 20
573287.1353484584251419
 30
-0.9999999999999538
  0
VERTEX
  5
4BB
  8
LEVEL_LINES
  6
CONTINUOUS
 10
805033.4674953162902966
 20
573243.7586404016474262
 30
-0.9999999999999538
  0
VERTEX
  5
4BC
  8
LEVEL_LINES
  6
CONTINUOUS
 10
804983.8157624677987769
 20
573215.8814853846561164
 30
-0.9999999999999538
  0
VERTEX
  5
4BD
  8
LEVEL_LINES
  6
CONTINUOUS
 10
804915.5878586737671867
 20
573225.1738699502311647
 30
-0.9999999999999538
  0
VERTEX
  5
4BE
  8
LEVEL_LINES
  6
CONTINUOUS
 10
804856.648040187661536
 20
573274.7393796558026224
 30
-0.9999999999999538
  0
VERTEX
  5
4BF
  8
LEVEL_LINES
  6
CONTINUOUS
 10
804847.3105502182152122
 20
573349.0784627818502486
 30
-0.9999999999999538
  0
VERTEX
  5
4C0
  8
LEVEL_LINES
  6
CONTINUOUS
 10
804822.5093859597109258
 20
573398.6439724874217063
 30
-0.9999999999999538
  0
VERTEX
  5
4C1
  8
LEVEL_LINES
  6
CONTINUOUS
 10
804816.4820116236805916
 20
573428.7432202980853617
 30
-0.9999999999999538
  0
VERTEX
  5
4C2
  8
LEVEL_LINES
  6
CONTINUOUS
 10
804828.8331889262190089
 20
573458.346629832056351
 30
-0.9999999999999538
  0
VERTEX
  5
4C3
  8
LEVEL_LINES
  6
CONTINUOUS
 10
804886.8837225120514631
 20
573479.3004078776575625
 30
-0.9999999999999538
  0
VERTEX
  5
4C4
  8
LEVEL_LINES
  6
CONTINUOUS
 10
804993.0544431138550863
 20
573444.7753399848006666
 30
-0.9999999999999538
  0
VERTEX
  5
4C5
  8
LEVEL_LINES
  6
CONTINUOUS
 10
805067.1615069288527593
 20
573423.8215619393158704
 30
-0.9999999999999538
  0
VERTEX
  5
4C6
  8
LEVEL_LINES
  6
CONTINUOUS
 10
805231.3827611164888367
 20
573363.9719897941686213
 30
-0.9999999999999538
  0
VERTEX
  5
4C7
  8
LEVEL_LINES
  6
CONTINUOUS
 10
805291.3600784882437438
 20
573307.2259992456529289
 30
-0.9999999999999538
  0
VERTEX
  5
4C8
  8
LEVEL_LINES
  6
CONTINUOUS
 10
805395.5052056508138776
 20
573196.9294259514426813
 30
-0.9999999999999538
  0
VERTEX
  5
4C9
  8
LEVEL_LINES
  6
CONTINUOUS
 10
805468.1301286250818521
 20
573114.9691189014120027
 30
-0.9999999999999538
  0
VERTEX
  5
4CA
  8
LEVEL_LINES
  6
CONTINUOUS
 10
805487.132823248510249
 20
573035.1482849568128586
 30
-0.9999999999999538
  0
VERTEX
  5
4CB
  8
LEVEL_LINES
  6
CONTINUOUS
 10
805527.0460881283506751
 20
573020.200882714940235
 30
-0.9999999999999538
  0
VERTEX
  5
4CC
  8
LEVEL_LINES
  6
CONTINUOUS
 10
805581.9269804114010185
 20
572992.441227322560735
 30
-0.9999999999999538
  0
VERTEX
  5
4CD
  8
LEVEL_LINES
  6
CONTINUOUS
 10
805617.7968927990878001
 20
572924.6077567538013682
 30
-0.9999999999999538
  0
VERTEX
  5
4CE
  8
LEVEL_LINES
  6
CONTINUOUS
 10
805609.1805740401614457
 20
572876.6910561699187383
 30
-0.9999999999999538
  0
VERTEX
  5
4CF
  8
LEVEL_LINES
  6
CONTINUOUS
 10
805570.7931146171176806
 20
572796.8610183476703241
 30
-0.9999999999999538
  0
VERTEX
  5
4D0
  8
LEVEL_LINES
  6
CONTINUOUS
 10
805753.0470878116320819
 20
572688.3090624351752922
 30
-0.9999999999999538
  0
VERTEX
  5
4D1
  8
LEVEL_LINES
  6
CONTINUOUS
 10
805896.9136015829863027
 20
572659.5687801596941426
 30
-0.9999999999999538
  0
VERTEX
  5
4D2
  8
LEVEL_LINES
  6
CONTINUOUS
 10
806345.6071723417844623
 20
572527.5471238069003448
 30
-0.9999999999999538
  0
VERTEX
  5
4D3
  8
LEVEL_LINES
  6
CONTINUOUS
 10
806510.0754498379537836
 20
572498.5681044856319204
 30
-0.9999999999999538
  0
VERTEX
  5
4D4
  8
LEVEL_LINES
  6
CONTINUOUS
 10
806664.860404402948916
 20
572427.7182574430480599
 30
-0.9999999999999538
  0
VERTEX
  5
4D5
  8
LEVEL_LINES
  6
CONTINUOUS
 10
806816.43405298772268
 20
572376.1877561745932326
 30
-0.9999999999999538
  0
SEQEND
  5
4D6
  8
LEVEL_LINES
  6
CONTINUOUS
  0
POLYLINE
  5
A2
  8
LEVEL_LINES
  6
CONTINUOUS
 66
     1
 10
0.0
 20
0.0
 30
-0.9999999999999538
 70
     1
  0
VERTEX
  5
4D7
  8
LEVEL_LINES
  6
CONTINUOUS
 10
807341.2108760093105957
 20
567505.9494401619303972
 30
-0.9999999999999538
  0
VERTEX
  5
4D8
  8
LEVEL_LINES
  6
CONTINUOUS
 10
807413.9840129687217996
 20
567500.9359595574205741
 30
-0.9999999999999538
  0
VERTEX
  5
4D9
  8
LEVEL_LINES
  6
CONTINUOUS
 10
807459.1893219749908894
 20
567548.57320739061106
 30
-0.9999999999999538
  0
VERTEX
  5
4DA
  8
LEVEL_LINES
  6
CONTINUOUS
 10
807479.2970387530513108
 20
567626.3097043548477814
 30
-0.9999999999999538
  0
VERTEX
  5
4DB
  8
LEVEL_LINES
  6
CONTINUOUS
 10
807464.2286024172790349
 20
567666.4175491891801357
 30
-0.9999999999999538
  0
VERTEX
  5
4DC
  8
LEVEL_LINES
  6
CONTINUOUS
 10
807383.8965449593961239
 20
567673.9469521880382672
 30
-0.9999999999999538
  0
VERTEX
  5
4DD
  8
LEVEL_LINES
  6
CONTINUOUS
 10
807290.9662865602876991
 20
567691.5033163955667987
 30
-0.9999999999999538
  0
VERTEX
  5
4DE
  8
LEVEL_LINES
  6
CONTINUOUS
 10
807238.251461717300117
 20
567721.5842000213451684
 30
-0.9999999999999538
  0
VERTEX
  5
4DF
  8
LEVEL_LINES
  6
CONTINUOUS
 10
807188.0562769301468506
 20
567776.7508508532773703
 30
-0.9999999999999538
  0
VERTEX
  5
4E0
  8
LEVEL_LINES
  6
CONTINUOUS
 10
807162.9092797099146992
 20
567829.4015806110110134
 30
-0.9999999999999538
  0
VERTEX
  5
4E1
  8
LEVEL_LINES
  6
CONTINUOUS
 10
807155.3997638729633763
 20
567861.9983866314869374
 30
-0.9999999999999538
  0
VERTEX
  5
4E2
  8
LEVEL_LINES
  6
CONTINUOUS
 10
807117.7533753652824089
 20
567902.1245956508209929
 30
-0.9999999999999538
  0
VERTEX
  5
4E3
  8
LEVEL_LINES
  6
CONTINUOUS
 10
807075.0677064151968807
 20
567927.1919986719731241
 30
-0.9999999999999538
  0
VERTEX
  5
4E4
  8
LEVEL_LINES
  6
CONTINUOUS
 10
807007.2350405748002231
 20
567977.3451688998611644
 30
-0.9999999999999538
  0
VERTEX
  5
4E5
  8
LEVEL_LINES
  6
CONTINUOUS
 10
806974.6279321792535484
 20
568017.4713792394613847
 30
-0.9999999999999538
  0
VERTEX
  5
4E6
  8
LEVEL_LINES
  6
CONTINUOUS
 10
806959.5594958439469337
 20
568080.1490688854828477
 30
-0.9999999999999538
  0
VERTEX
  5
4E7
  8
LEVEL_LINES
  6
CONTINUOUS
 10
806926.9029831166844815
 20
568150.3561615303624421
 30
-0.9999999999999538
  0
VERTEX
  5
4E8
  8
LEVEL_LINES
  6
CONTINUOUS
 10
806862.1334089409792796
 20
568230.4433005835162476
 30
-0.9999999999999538
  0
VERTEX
  5
4E9
  8
LEVEL_LINES
  6
CONTINUOUS
 10
806816.3352433342952281
 20
568311.7241261863382533
 30
-0.9999999999999538
  0
VERTEX
  5
4EA
  8
LEVEL_LINES
  6
CONTINUOUS
 10
806752.751382359303534
 20
568418.4212769664591178
 30
-0.9999999999999538
  0
VERTEX
  5
4EB
  8
LEVEL_LINES
  6
CONTINUOUS
 10
806709.5222618004772812
 20
568479.3727147362660617
 30
-0.9999999999999538
  0
VERTEX
  5
4EC
  8
LEVEL_LINES
  6
CONTINUOUS
 10
806671.3324213542509824
 20
568532.7212901262100786
 30
-0.9999999999999538
  0
VERTEX
  5
4ED
  8
LEVEL_LINES
  6
CONTINUOUS
 10
806649.5449444287223741
 20
568628.436531514278613
 30
-0.9999999999999538
  0
VERTEX
  5
4EE
  8
LEVEL_LINES
  6
CONTINUOUS
 10
806707.2002403910737485
 20
568772.4317751332418993
 30
-0.9999999999999538
  0
VERTEX
  5
4EF
  8
LEVEL_LINES
  6
CONTINUOUS
 10
806760.7549454730469733
 20
568949.3360198786249384
 30
-0.9999999999999538
  0
VERTEX
  5
4F0
  8
LEVEL_LINES
  6
CONTINUOUS
 10
806797.6602633954025805
 20
569181.296729025663808
 30
-0.9999999999999538
  0
VERTEX
  5
4F1
  8
LEVEL_LINES
  6
CONTINUOUS
 10
806795.9805032482836396
 20
569230.8622400517342612
 30
-0.9999999999999538
  0
VERTEX
  5
4F2
  8
LEVEL_LINES
  6
CONTINUOUS
 10
806800.9703786986647174
 20
569310.1413457216694951
 30
-0.9999999999999538
  0
VERTEX
  5
4F3
  8
LEVEL_LINES
  6
CONTINUOUS
 10
806815.8411963876569644
 20
569353.0956722417613491
 30
-0.9999999999999538
  0
VERTEX
  5
4F4
  8
LEVEL_LINES
  6
CONTINUOUS
 10
806852.2524670329876244
 20
569422.4763673186535016
 30
-0.9999999999999538
  0
VERTEX
  5
4F5
  8
LEVEL_LINES
  6
CONTINUOUS
 10
806881.9941020803526044
 20
569493.5098575317533687
 30
-0.9999999999999538
  0
VERTEX
  5
4F6
  8
LEVEL_LINES
  6
CONTINUOUS
 10
806881.9941020803526044
 20
569548.015391101478599
 30
-0.9999999999999538
  0
VERTEX
  5
4F7
  8
LEVEL_LINES
  6
CONTINUOUS
 10
806867.1232847217470407
 20
569625.6600645000580698
 30
-0.9999999999999538
  0
VERTEX
  5
4F8
  8
LEVEL_LINES
  6
CONTINUOUS
 10
806820.7816671765176579
 20
569691.7351679841522127
 30
-0.9999999999999538
  0
VERTEX
  5
4F9
  8
LEVEL_LINES
  6
CONTINUOUS
 10
806729.8275972252013162
 20
569739.6295183685142547
 30
-0.9999999999999538
  0
VERTEX
  5
4FA
  8
LEVEL_LINES
  6
CONTINUOUS
 10
806642.183642906951718
 20
569772.6670701105613261
 30
-0.9999999999999538
  0
VERTEX
  5
4FB
  8
LEVEL_LINES
  6
CONTINUOUS
 10
806539.6194659085012972
 20
569792.4822554816491902
 30
-0.9999999999999538
  0
VERTEX
  5
4FC
  8
LEVEL_LINES
  6
CONTINUOUS
 10
806432.1148184508783743
 20
569749.5462931466754526
 30
-0.9999999999999538
  0
VERTEX
  5
4FD
  8
LEVEL_LINES
  6
CONTINUOUS
 10
806351.0416904077865183
 20
569648.7808414638275281
 30
-0.9999999999999538
  0
VERTEX
  5
4FE
  8
LEVEL_LINES
  6
CONTINUOUS
 10
806316.3101795796537772
 20
569571.1361680654808879
 30
-0.9999999999999538
  0
VERTEX
  5
4FF
  8
LEVEL_LINES
  6
CONTINUOUS
 10
806344.4214591410709545
 20
569476.9818995681125671
 30
-0.9999999999999538
  0
VERTEX
  5
500
  8
LEVEL_LINES
  6
CONTINUOUS
 10
806384.1428454200504348
 20
569419.1707757258554921
 30
-0.9999999999999538
  0
VERTEX
  5
501
  8
LEVEL_LINES
  6
CONTINUOUS
 10
806394.0731923198327422
 20
569381.1748359346529469
 30
-0.9999999999999538
  0
VERTEX
  5
502
  8
LEVEL_LINES
  6
CONTINUOUS
 10
806435.2273151075933129
 20
569378.2181678182678297
 30
-0.9999999999999538
  0
VERTEX
  5
503
  8
LEVEL_LINES
  6
CONTINUOUS
 10
806477.9129840577952564
 20
569367.5668177175102755
 30
-0.9999999999999538
  0
VERTEX
  5
504
  8
LEVEL_LINES
  6
CONTINUOUS
 10
806515.262944265268743
 20
569351.589790585800074
 30
-0.9999999999999538
  0
VERTEX
  5
505
  8
LEVEL_LINES
  6
CONTINUOUS
 10
806555.2807588442228734
 20
569324.9430491683306172
 30
-0.9999999999999538
  0
VERTEX
  5
506
  8
LEVEL_LINES
  6
CONTINUOUS
 10
806579.2420428638579324
 20
569261.0165804175194353
 30
-0.9999999999999538
  0
VERTEX
  5
507
  8
LEVEL_LINES
  6
CONTINUOUS
 10
806589.9134603489656001
 20
569186.4387615659506992
 30
-0.9999999999999538
  0
VERTEX
  5
508
  8
LEVEL_LINES
  6
CONTINUOUS
 10
806520.5986530078807846
 20
569079.8885242657270283
 30
-0.9999999999999538
  0
VERTEX
  5
509
  8
LEVEL_LINES
  6
CONTINUOUS
 10
806480.5808384290430695
 20
568976.0011254812125117
 30
-0.9999999999999538
  0
VERTEX
  5
50A
  8
LEVEL_LINES
  6
CONTINUOUS
 10
806420.8011400339892134
 20
568803.5227008177898824
 30
-0.9999999999999538
  0
VERTEX
  5
50B
  8
LEVEL_LINES
  6
CONTINUOUS
 10
806433.69576894515194
 20
568584.4537987501826137
 30
-0.9999999999999538
  0
VERTEX
  5
50C
  8
LEVEL_LINES
  6
CONTINUOUS
 10
806519.7587727691279724
 20
568464.1853568026563153
 30
-0.9999999999999538
  0
VERTEX
  5
50D
  8
LEVEL_LINES
  6
CONTINUOUS
 10
806614.3687913155881688
 20
568395.4657803083537146
 30
-0.9999999999999538
  0
VERTEX
  5
50E
  8
LEVEL_LINES
  6
CONTINUOUS
 10
806631.5616304137511179
 20
568339.6196467084810138
 30
-0.9999999999999538
  0
VERTEX
  5
50F
  8
LEVEL_LINES
  6
CONTINUOUS
 10
806678.8913418527226895
 20
568262.3055312810465693
 30
-0.9999999999999538
  0
VERTEX
  5
510
  8
LEVEL_LINES
  6
CONTINUOUS
 10
806747.712101916782558
 20
568206.4593976814066991
 30
-0.9999999999999538
  0
VERTEX
  5
511
  8
LEVEL_LINES
  6
CONTINUOUS
 10
806782.0977797830710188
 20
568116.2534751744242385
 30
-0.9999999999999538
  0
VERTEX
  5
512
  8
LEVEL_LINES
  6
CONTINUOUS
 10
806786.3959896402666345
 20
568038.9393597468733788
 30
-0.9999999999999538
  0
VERTEX
  5
513
  8
LEVEL_LINES
  6
CONTINUOUS
 10
806790.6941991671919823
 20
567970.2197832526871935
 30
-0.9999999999999538
  0
VERTEX
  5
514
  8
LEVEL_LINES
  6
CONTINUOUS
 10
806842.3221204633591697
 20
567935.8599943453446031
 30
-0.9999999999999538
  0
VERTEX
  5
515
  8
LEVEL_LINES
  6
CONTINUOUS
 10
806957.3362840877380222
 20
567845.9479027596535161
 30
-0.9999999999999538
  0
VERTEX
  5
516
  8
LEVEL_LINES
  6
CONTINUOUS
 10
807002.5909977556439117
 20
567814.9120696301106364
 30
-0.9999999999999538
  0
VERTEX
  5
517
  8
LEVEL_LINES
  6
CONTINUOUS
 10
807028.2814465846167877
 20
567797.3557054226985201
 30
-0.9999999999999538
  0
VERTEX
  5
518
  8
LEVEL_LINES
  6
CONTINUOUS
 10
807043.7945255354279652
 20
567777.7976226025493816
 30
-0.9999999999999538
  0
VERTEX
  5
519
  8
LEVEL_LINES
  6
CONTINUOUS
 10
807068.7933084404794499
 20
567752.8220405062893406
 30
-0.9999999999999538
  0
VERTEX
  5
51A
  8
LEVEL_LINES
  6
CONTINUOUS
 10
807096.5093503785319626
 20
567725.8263756126398221
 30
-0.9999999999999538
  0
VERTEX
  5
51B
  8
LEVEL_LINES
  6
CONTINUOUS
 10
807129.6105057209497318
 20
567706.2682927924906835
 30
-0.9999999999999538
  0
VERTEX
  5
51C
  8
LEVEL_LINES
  6
CONTINUOUS
 10
807198.0854328231653199
 20
567606.7332560295471922
 30
-0.9999999999999538
  0
VERTEX
  5
51D
  8
LEVEL_LINES
  6
CONTINUOUS
 10
807243.8341937680961564
 20
567564.2931319711497054
 30
-0.9999999999999538
  0
VERTEX
  5
51E
  8
LEVEL_LINES
  6
CONTINUOUS
 10
807295.0174727791454643
 20
567528.3907343581086025
 30
-0.9999999999999538
  0
SEQEND
  5
51F
  8
LEVEL_LINES
  6
CONTINUOUS
  0
POLYLINE
  5
A3
  8
LEVEL_LINES
  6
CONTINUOUS
 66
     1
 10
0.0
 20
0.0
 30
-0.9999999999999538
 70
     1
  0
VERTEX
  5
520
  8
LEVEL_LINES
  6
CONTINUOUS
 10
802530.944637059699744
 20
572504.9522894970141351
 30
-0.9999999999999538
  0
VERTEX
  5
521
  8
LEVEL_LINES
  6
CONTINUOUS
 10
802596.1849662720924243
 20
572473.372149528353475
 30
-0.9999999999999538
  0
VERTEX
  5
522
  8
LEVEL_LINES
  6
CONTINUOUS
 10
802731.9491079362342134
 20
572421.2172593676950783
 30
-0.9999999999999538
  0
VERTEX
  5
523
  8
LEVEL_LINES
  6
CONTINUOUS
 10
802881.6453773971879855
 20
572424.6881312661571428
 30
-0.9999999999999538
  0
VERTEX
  5
524
  8
LEVEL_LINES
  6
CONTINUOUS
 10
803110.4385864535579458
 20
572306.4581376214046031
 30
-0.9999999999999538
  0
VERTEX
  5
525
  8
LEVEL_LINES
  6
CONTINUOUS
 10
803126.989164289785549
 20
572207.5474910710472614
 30
-0.9999999999999538
  0
VERTEX
  5
526
  8
LEVEL_LINES
  6
CONTINUOUS
 10
803219.9194226886611432
 20
572189.6972959423437715
 30
-0.9999999999999538
  0
VERTEX
  5
527
  8
LEVEL_LINES
  6
CONTINUOUS
 10
803348.519881147891283
 20
572186.134603118756786
 30
-0.9999999999999538
  0
VERTEX
  5
528
  8
LEVEL_LINES
  6
CONTINUOUS
 10
803477.1697442686418071
 20
572157.5963281987933442
 30
-0.9999999999999538
  0
VERTEX
  5
529
  8
LEVEL_LINES
  6
CONTINUOUS
 10
803598.6065201826859266
 20
572114.7705522940959781
 30
-0.9999999999999538
  0
VERTEX
  5
52A
  8
LEVEL_LINES
  6
CONTINUOUS
 10
803741.5343443921301514
 20
572054.1129467658465728
 30
-0.9999999999999538
  0
VERTEX
  5
52B
  8
LEVEL_LINES
  6
CONTINUOUS
 10
803787.9747712606331334
 20
572007.7244780375622213
 30
-0.9999999999999538
  0
VERTEX
  5
52C
  8
LEVEL_LINES
  6
CONTINUOUS
 10
803845.1854246075963601
 20
571957.7733151653083041
 30
-0.9999999999999538
  0
VERTEX
  5
52D
  8
LEVEL_LINES
  6
CONTINUOUS
 10
803930.9025954698445275
 20
571914.9475392604945228
 30
-0.9999999999999538
  0
VERTEX
  5
52E
  8
LEVEL_LINES
  6
CONTINUOUS
 10
804005.9483491772552952
 20
571843.6018539413344115
 30
-0.9999999999999538
  0
VERTEX
  5
52F
  8
LEVEL_LINES
  6
CONTINUOUS
 10
804070.2732807374559343
 20
571793.6323268838459626
 30
-0.9999999999999538
  0
VERTEX
  5
530
  8
LEVEL_LINES
  6
CONTINUOUS
 10
804189.1410116036422551
 20
571717.1078806545119733
 30
-0.9999999999999538
  0
VERTEX
  5
531
  8
LEVEL_LINES
  6
CONTINUOUS
 10
804243.6838109095115215
 20
571667.1567191024078056
 30
-0.9999999999999538
  0
VERTEX
  5
532
  8
LEVEL_LINES
  6
CONTINUOUS
 10
804371.0491515061585233
 20
571612.3022620563860983
 30
-0.9999999999999538
  0
VERTEX
  5
533
  8
LEVEL_LINES
  6
CONTINUOUS
 10
804388.6372282280353829
 20
571471.7962545211194083
 30
-0.9999999999999538
  0
VERTEX
  5
534
  8
LEVEL_LINES
  6
CONTINUOUS
 10
804400.3461442684056237
 20
571389.8543116559740156
 30
-0.9999999999999538
  0
VERTEX
  5
535
  8
LEVEL_LINES
  6
CONTINUOUS
 10
804429.6431370308855549
 20
571337.166853528120555
 30
-0.9999999999999538
  0
VERTEX
  5
536
  8
LEVEL_LINES
  6
CONTINUOUS
 10
804511.7043592978734523
 20
571284.4793954003835097
 30
-0.9999999999999538
  0
VERTEX
  5
537
  8
LEVEL_LINES
  6
CONTINUOUS
 10
804617.2328186377417296
 20
571237.631816765293479
 30
-0.9999999999999538
  0
VERTEX
  5
538
  8
LEVEL_LINES
  6
CONTINUOUS
 10
804902.0509681707480922
 20
571199.0482177720405161
 30
-0.9999999999999538
  0
VERTEX
  5
539
  8
LEVEL_LINES
  6
CONTINUOUS
 10
805072.9418579565826803
 20
571161.1257360411109403
 30
-0.9999999999999538
  0
VERTEX
  5
53A
  8
LEVEL_LINES
  6
CONTINUOUS
 10
805215.3756352188065648
 20
571104.2328306920826435
 30
-0.9999999999999538
  0
VERTEX
  5
53B
  8
LEVEL_LINES
  6
CONTINUOUS
 10
805395.7522292892681435
 20
571037.8638976070797071
 30
-0.9999999999999538
  0
VERTEX
  5
53C
  8
LEVEL_LINES
  6
CONTINUOUS
 10
805566.6431190748699009
 20
570914.6020578525494784
 30
-0.9999999999999538
  0
VERTEX
  5
53D
  8
LEVEL_LINES
  6
CONTINUOUS
 10
805642.8745856527239084
 20
570735.7511870497837663
 30
-0.9999999999999538
  0
VERTEX
  5
53E
  8
LEVEL_LINES
  6
CONTINUOUS
 10
805616.1960426000878215
 20
570545.4225685780402273
 30
-0.9999999999999538
  0
VERTEX
  5
53F
  8
LEVEL_LINES
  6
CONTINUOUS
 10
805589.5174995474517345
 20
570381.7223260182654485
 30
-0.9999999999999538
  0
VERTEX
  5
540
  8
LEVEL_LINES
  6
CONTINUOUS
 10
805536.160413442295976
 20
570297.9623063907492906
 30
-0.9999999999999538
  0
VERTEX
  5
541
  8
LEVEL_LINES
  6
CONTINUOUS
 10
805387.4522382053546607
 20
570290.3594453316181898
 30
-0.9999999999999538
  0
VERTEX
  5
542
  8
LEVEL_LINES
  6
CONTINUOUS
 10
805265.4720106825698167
 20
570229.4447385724633932
 30
-0.9999999999999538
  0
VERTEX
  5
543
  8
LEVEL_LINES
  6
CONTINUOUS
 10
805124.4709699294762686
 20
570153.3059441895456985
 30
-0.9999999999999538
  0
VERTEX
  5
544
  8
LEVEL_LINES
  6
CONTINUOUS
 10
804922.4057085870299488
 20
570096.2110314848832786
 30
-0.9999999999999538
  0
VERTEX
  5
545
  8
LEVEL_LINES
  6
CONTINUOUS
 10
804808.0832108864560723
 20
569997.2269268742529675
 30
-0.9999999999999538
  0
VERTEX
  5
546
  8
LEVEL_LINES
  6
CONTINUOUS
 10
804777.5511005918961018
 20
569860.191789917065762
 30
-0.9999999999999538
  0
VERTEX
  5
547
  8
LEVEL_LINES
  6
CONTINUOUS
 10
804815.6915363767184317
 20
569711.7156336611369625
 30
-0.9999999999999538
  0
VERTEX
  5
548
  8
LEVEL_LINES
  6
CONTINUOUS
 10
804838.5659165191464126
 20
569593.7060128770535812
 30
-0.9999999999999538
  0
VERTEX
  5
549
  8
LEVEL_LINES
  6
CONTINUOUS
 10
805045.4234349952312186
 20
569424.1658908248646185
 30
-0.9999999999999538
  0
VERTEX
  5
54A
  8
LEVEL_LINES
  6
CONTINUOUS
 10
805126.1507300768280402
 20
569374.2514576429966837
 30
-0.9999999999999538
  0
VERTEX
  5
54B
  8
LEVEL_LINES
  6
CONTINUOUS
 10
805209.7929031678941101
 20
569354.5648228871868923
 30
-0.9999999999999538
  0
VERTEX
  5
54C
  8
LEVEL_LINES
  6
CONTINUOUS
 10
805283.5541343512013555
 20
569376.0328047149814665
 30
-0.9999999999999538
  0
VERTEX
  5
54D
  8
LEVEL_LINES
  6
CONTINUOUS
 10
805338.8380039121257141
 20
569376.0328047149814665
 30
-0.9999999999999538
  0
VERTEX
  5
54E
  8
LEVEL_LINES
  6
CONTINUOUS
 10
805366.4552365271374583
 20
569339.2305514734471217
 30
-0.9999999999999538
  0
VERTEX
  5
54F
  8
LEVEL_LINES
  6
CONTINUOUS
 10
805378.757009168039076
 20
569302.4099340467946604
 30
-0.9999999999999538
  0
VERTEX
  5
550
  8
LEVEL_LINES
  6
CONTINUOUS
 10
805234.3964484495809302
 20
569222.6349887797841802
 30
-0.9999999999999538
  0
VERTEX
  5
551
  8
LEVEL_LINES
  6
CONTINUOUS
 10
805136.0810766465729102
 20
569179.699026444577612
 30
-0.9999999999999538
  0
VERTEX
  5
552
  8
LEVEL_LINES
  6
CONTINUOUS
 10
804970.1800626412732527
 20
569207.3007173659279943
 30
-0.9999999999999538
  0
VERTEX
  5
553
  8
LEVEL_LINES
  6
CONTINUOUS
 10
804844.2474582233699039
 20
569250.2550438862526789
 30
-0.9999999999999538
  0
VERTEX
  5
554
  8
LEVEL_LINES
  6
CONTINUOUS
 10
804730.5672217847313732
 20
569330.0299878329969943
 30
-0.9999999999999538
  0
VERTEX
  5
555
  8
LEVEL_LINES
  6
CONTINUOUS
 10
804656.8553955934476107
 20
569437.4066227010916919
 30
-0.9999999999999538
  0
VERTEX
  5
556
  8
LEVEL_LINES
  6
CONTINUOUS
 10
804573.904888425488025
 20
569547.8501107956981286
 30
-0.9999999999999538
  0
VERTEX
  5
557
  8
LEVEL_LINES
  6
CONTINUOUS
 10
804490.9543812581105158
 20
569676.6947261712048203
 30
-0.9999999999999538
  0
VERTEX
  5
558
  8
LEVEL_LINES
  6
CONTINUOUS
 10
804417.1931500748032704
 20
569771.8039428520714864
 30
-0.9999999999999538
  0
VERTEX
  5
559
  8
LEVEL_LINES
  6
CONTINUOUS
 10
804343.4813238834030926
 20
569845.4451790255261585
 30
-0.9999999999999538
  0
VERTEX
  5
55A
  8
LEVEL_LINES
  6
CONTINUOUS
 10
804291.2605459870537743
 20
569916.0011951469350606
 30
-0.9999999999999538
  0
VERTEX
  5
55B
  8
LEVEL_LINES
  6
CONTINUOUS
 10
804285.1343619973631576
 20
570032.5783936553634703
 30
-0.9999999999999538
  0
VERTEX
  5
55C
  8
LEVEL_LINES
  6
CONTINUOUS
 10
804371.1479611598188058
 20
570149.1555908436421305
 30
-0.9999999999999538
  0
VERTEX
  5
55D
  8
LEVEL_LINES
  6
CONTINUOUS
 10
804494.0174732529558241
 20
570170.6419368565548211
 30
-0.9999999999999538
  0
VERTEX
  5
55E
  8
LEVEL_LINES
  6
CONTINUOUS
 10
804644.553622952545993
 20
570167.5750823095440865
 30
-0.9999999999999538
  0
VERTEX
  5
55F
  8
LEVEL_LINES
  6
CONTINUOUS
 10
804807.3421403010142967
 20
570173.708790082950145
 30
-0.9999999999999538
  0
VERTEX
  5
560
  8
LEVEL_LINES
  6
CONTINUOUS
 10
804970.1800626412732527
 20
570216.6631179235409945
 30
-0.9999999999999538
  0
VERTEX
  5
561
  8
LEVEL_LINES
  6
CONTINUOUS
 10
805085.0460119507042691
 20
570251.6289302177028731
 30
-0.9999999999999538
  0
VERTEX
  5
562
  8
LEVEL_LINES
  6
CONTINUOUS
 10
805178.4703172964509577
 20
570333.2770434819394723
 30
-0.9999999999999538
  0
VERTEX
  5
563
  8
LEVEL_LINES
  6
CONTINUOUS
 10
805250.5023836706532165
 20
570426.5865489054704085
 30
-0.9999999999999538
  0
VERTEX
  5
564
  8
LEVEL_LINES
  6
CONTINUOUS
 10
805285.5303224687231705
 20
570519.896054329467006
 30
-0.9999999999999538
  0
VERTEX
  5
565
  8
LEVEL_LINES
  6
CONTINUOUS
 10
805295.2630503915715963
 20
570562.6667376790428534
 30
-0.9999999999999538
  0
VERTEX
  5
566
  8
LEVEL_LINES
  6
CONTINUOUS
 10
805136.4763142698211595
 20
570667.2887117863865569
 30
-0.9999999999999538
  0
VERTEX
  5
567
  8
LEVEL_LINES
  6
CONTINUOUS
 10
804988.3115909716580063
 20
570705.0642787169199437
 30
-0.9999999999999538
  0
VERTEX
  5
568
  8
LEVEL_LINES
  6
CONTINUOUS
 10
804871.6670718614477664
 20
570768.0357992842327803
 30
-0.9999999999999538
  0
VERTEX
  5
569
  8
LEVEL_LINES
  6
CONTINUOUS
 10
804748.6987501149997115
 20
570837.2879437456140295
 30
-0.9999999999999538
  0
VERTEX
  5
56A
  8
LEVEL_LINES
  6
CONTINUOUS
 10
804575.337624934501946
 20
570925.4554179495899007
 30
-0.9999999999999538
  0
VERTEX
  5
56B
  8
LEVEL_LINES
  6
CONTINUOUS
 10
804398.7651934444438666
 20
570978.9692736455472186
 30
-0.9999999999999538
  0
VERTEX
  5
56C
  8
LEVEL_LINES
  6
CONTINUOUS
 10
803803.2408265728736296
 20
571245.6386951762251556
 30
-0.9999999999999538
  0
VERTEX
  5
56D
  8
LEVEL_LINES
  6
CONTINUOUS
 10
803711.0022340974537656
 20
571305.965741413179785
 30
-0.9999999999999538
  0
VERTEX
  5
56E
  8
LEVEL_LINES
  6
CONTINUOUS
 10
803606.0666313578840345
 20
571356.7800302236573771
 30
-0.9999999999999538
  0
VERTEX
  5
56F
  8
LEVEL_LINES
  6
CONTINUOUS
 10
803564.9619129019556567
 20
571523.290026099071838
 30
-0.9999999999999538
  0
VERTEX
  5
570
  8
LEVEL_LINES
  6
CONTINUOUS
 10
803516.0512506385566667
 20
571640.620164115447551
 30
-0.9999999999999538
  0
VERTEX
  5
571
  8
LEVEL_LINES
  6
CONTINUOUS
 10
803405.0882735629566014
 20
571774.2395230494439602
 30
-0.9999999999999538
  0
VERTEX
  5
572
  8
LEVEL_LINES
  6
CONTINUOUS
 10
803248.4259398739086464
 20
571920.8976038632681593
 30
-0.9999999999999538
  0
VERTEX
  5
573
  8
LEVEL_LINES
  6
CONTINUOUS
 10
803117.8986976287560537
 20
571956.7449089213041589
 30
-0.9999999999999538
  0
VERTEX
  5
574
  8
LEVEL_LINES
  6
CONTINUOUS
 10
803006.9357202228857204
 20
571992.5922139793401584
 30
-0.9999999999999538
  0
VERTEX
  5
575
  8
LEVEL_LINES
  6
CONTINUOUS
 10
802768.5085928969783708
 20
571998.2300834758207202
 30
-0.9999999999999538
  0
VERTEX
  5
576
  8
LEVEL_LINES
  6
CONTINUOUS
 10
802572.1248729289509356
 20
571987.6338259299518541
 30
-0.9999999999999538
  0
VERTEX
  5
577
  8
LEVEL_LINES
  6
CONTINUOUS
 10
802450.0458360828924924
 20
572051.2481008948525414
 30
-0.9999999999999538
  0
VERTEX
  5
578
  8
LEVEL_LINES
  6
CONTINUOUS
 10
802317.3447864135960117
 20
572247.3798691690899432
 30
-0.9999999999999538
  0
VERTEX
  5
579
  8
LEVEL_LINES
  6
CONTINUOUS
 10
802296.3322806707583368
 20
572271.1025712792761624
 30
-0.9999999999999538
  0
VERTEX
  5
57A
  8
LEVEL_LINES
  6
CONTINUOUS
 10
802286.7138667957624421
 20
572355.2339781289920211
 30
-0.9999999999999538
  0
VERTEX
  5
57B
  8
LEVEL_LINES
  6
CONTINUOUS
 10
802313.7876474717631936
 20
572418.3340493116993457
 30
-0.9999999999999538
  0
VERTEX
  5
57C
  8
LEVEL_LINES
  6
CONTINUOUS
 10
802386.0173324926290661
 20
572485.951762821758166
 30
-0.9999999999999538
  0
VERTEX
  5
57D
  8
LEVEL_LINES
  6
CONTINUOUS
 10
802494.3618601890048012
 20
572517.5017984133446589
 30
-0.9999999999999538
  0
VERTEX
  5
57E
  8
LEVEL_LINES
  6
CONTINUOUS
 10
802494.3618601890048012
 20
572517.5017984133446589
 30
-0.9999999999999538
  0
SEQEND
  5
57F
  8
LEVEL_LINES
  6
CONTINUOUS
  0
POLYLINE
  5
A4
  8
LEVEL_LINES
  6
CONTINUOUS
 66
     1
 10
0.0
 20
0.0
 30
-0.9999999999999538
 70
     1
  0
VERTEX
  5
580
  8
LEVEL_LINES
  6
CONTINUOUS
 10
810407.5746020588558167
 20
568778.2826712884707376
 30
-0.9999999999999538
  0
VERTEX
  5
581
  8
LEVEL_LINES
  6
CONTINUOUS
 10
810406.9213086207164451
 20
568764.1310671211685985
 30
-0.9999999999999538
  0
VERTEX
  5
582
  8
LEVEL_LINES
  6
CONTINUOUS
 10
810387.5052577664609998
 20
568750.4495908436365426
 30
-0.9999999999999538
  0
VERTEX
  5
583
  8
LEVEL_LINES
  6
CONTINUOUS
 10
810364.6802819558652118
 20
568756.160918400506489
 30
-0.9999999999999538
  0
VERTEX
  5
584
  8
LEVEL_LINES
  6
CONTINUOUS
 10
810333.8517433610977605
 20
568778.951136073214002
 30
-0.9999999999999538
  0
VERTEX
  5
585
  8
LEVEL_LINES
  6
CONTINUOUS
 10
810291.6107166960136965
 20
568793.7712050251429901
 30
-0.9999999999999538
  0
VERTEX
  5
586
  8
LEVEL_LINES
  6
CONTINUOUS
 10
810226.5941192120080814
 20
568800.6027610715245828
 30
-0.9999999999999538
  0
VERTEX
  5
587
  8
LEVEL_LINES
  6
CONTINUOUS
 10
810153.5245539526222274
 20
568800.6027610715245828
 30
-0.9999999999999538
  0
VERTEX
  5
588
  8
LEVEL_LINES
  6
CONTINUOUS
 10
810077.046063736313954
 20
568792.6326123507460579
 30
-0.9999999999999538
  0
VERTEX
  5
589
  8
LEVEL_LINES
  6
CONTINUOUS
 10
809997.1586488937027752
 20
568778.951136073214002
 30
-0.9999999999999538
  0
VERTEX
  5
58A
  8
LEVEL_LINES
  6
CONTINUOUS
 10
809865.9397407247452065
 20
568758.4381037493003532
 30
-0.9999999999999538
  0
VERTEX
  5
58B
  8
LEVEL_LINES
  6
CONTINUOUS
 10
809799.7374300402589142
 20
568742.479442122974433
 30
-0.9999999999999538
  0
VERTEX
  5
58C
  8
LEVEL_LINES
  6
CONTINUOUS
 10
809732.3988111467333511
 20
568732.2137438685167581
 30
-0.9999999999999538
  0
VERTEX
  5
58D
  8
LEVEL_LINES
  6
CONTINUOUS
 10
809659.3292458871146664
 20
568719.68922445026692
 30
-0.9999999999999538
  0
VERTEX
  5
58E
  8
LEVEL_LINES
  6
CONTINUOUS
 10
809590.854318784782663
 20
568718.5322675909847021
 30
-0.9999999999999538
  0
VERTEX
  5
58F
  8
LEVEL_LINES
  6
CONTINUOUS
 10
809524.65200810006354
 20
568726.5207804966485128
 30
-0.9999999999999538
  0
VERTEX
  5
590
  8
LEVEL_LINES
  6
CONTINUOUS
 10
809507.7497024503536522
 20
568745.6914237713208422
 30
-0.9999999999999538
  0
VERTEX
  5
591
  8
LEVEL_LINES
  6
CONTINUOUS
 10
809504.7913149605737999
 20
568777.6656285983044654
 30
-0.9999999999999538
  0
VERTEX
  5
592
  8
LEVEL_LINES
  6
CONTINUOUS
 10
809517.4389205634361133
 20
568817.5714647567365319
 30
-0.9999999999999538
  0
VERTEX
  5
593
  8
LEVEL_LINES
  6
CONTINUOUS
 10
809551.0835275142453611
 20
568823.8704541561892256
 30
-0.9999999999999538
  0
VERTEX
  5
594
  8
LEVEL_LINES
  6
CONTINUOUS
 10
809618.3727417461341247
 20
568834.3748894565505907
 30
-0.9999999999999538
  0
VERTEX
  5
595
  8
LEVEL_LINES
  6
CONTINUOUS
 10
809683.5375535453204066
 20
568849.0664077932015061
 30
-0.9999999999999538
  0
VERTEX
  5
596
  8
LEVEL_LINES
  6
CONTINUOUS
 10
809706.658957326086238
 20
568869.0285079648019746
 30
-0.9999999999999538
  0
VERTEX
  5
597
  8
LEVEL_LINES
  6
CONTINUOUS
 10
809701.422058237134479
 20
568908.9343441231176257
 30
-0.9999999999999538
  0
VERTEX
  5
598
  8
LEVEL_LINES
  6
CONTINUOUS
 10
809695.0982556006638333
 20
568944.6347343807574362
 30
-0.9999999999999538
  0
VERTEX
  5
599
  8
LEVEL_LINES
  6
CONTINUOUS
 10
809696.185159147833474
 20
568970.8774584465427324
 30
-0.9999999999999538
  0
VERTEX
  5
59A
  8
LEVEL_LINES
  6
CONTINUOUS
 10
809705.6214584406698123
 20
569005.531076954677701
 30
-0.9999999999999538
  0
VERTEX
  5
59B
  8
LEVEL_LINES
  6
CONTINUOUS
 10
809694.0607567152474076
 20
569040.1846967834280804
 30
-0.9999999999999538
  0
VERTEX
  5
59C
  8
LEVEL_LINES
  6
CONTINUOUS
 10
809693.0232578298309818
 20
569073.7731806774390861
 30
-0.9999999999999538
  0
VERTEX
  5
59D
  8
LEVEL_LINES
  6
CONTINUOUS
 10
809704.5839595551369712
 20
569103.1745815355097875
 30
-0.9999999999999538
  0
VERTEX
  5
59E
  8
LEVEL_LINES
  6
CONTINUOUS
 10
809739.0684467446990311
 20
569125.3404089955147356
 30
-0.9999999999999538
  0
VERTEX
  5
59F
  8
LEVEL_LINES
  6
CONTINUOUS
 10
809799.4904064018046483
 20
569123.228503952617757
 30
-0.9999999999999538
  0
VERTEX
  5
5A0
  8
LEVEL_LINES
  6
CONTINUOUS
 10
809848.3022593414643779
 20
569110.5203400435857475
 30
-0.9999999999999538
  0
VERTEX
  5
5A1
  8
LEVEL_LINES
  6
CONTINUOUS
 10
810046.1681204801425338
 20
568990.3253561563324183
 30
-0.9999999999999538
  0
VERTEX
  5
5A2
  8
LEVEL_LINES
  6
CONTINUOUS
 10
810111.6787652410566807
 20
568973.099551240215078
 30
-0.9999999999999538
  0
VERTEX
  5
5A3
  8
LEVEL_LINES
  6
CONTINUOUS
 10
810178.9679794729454443
 20
568995.4857515612384304
 30
-0.9999999999999538
  0
VERTEX
  5
5A4
  8
LEVEL_LINES
  6
CONTINUOUS
 10
810227.2857851358130574
 20
569012.7115564773557708
 30
-0.9999999999999538
  0
VERTEX
  5
5A5
  8
LEVEL_LINES
  6
CONTINUOUS
 10
810294.772618344402872
 20
569035.4099532249383628
 30
-0.9999999999999538
  0
VERTEX
  5
5A6
  8
LEVEL_LINES
  6
CONTINUOUS
 10
810355.9850532482378185
 20
569060.4038981859339401
 30
-0.9999999999999538
  0
VERTEX
  5
5A7
  8
LEVEL_LINES
  6
CONTINUOUS
 10
810442.1468663954874501
 20
569035.703782825730741
 30
-0.9999999999999538
  0
VERTEX
  5
5A8
  8
LEVEL_LINES
  6
CONTINUOUS
 10
810475.0504027610877529
 20
569009.3876006995560601
 30
-0.9999999999999538
  0
VERTEX
  5
5A9
  8
LEVEL_LINES
  6
CONTINUOUS
 10
810624.4502439219504595
 20
568933.1753495763987303
 30
-0.9999999999999538
  0
VERTEX
  5
5AA
  8
LEVEL_LINES
  6
CONTINUOUS
 10
810678.2519726423779503
 20
568919.0347633920609951
 30
-0.9999999999999538
  0
VERTEX
  5
5AB
  8
LEVEL_LINES
  6
CONTINUOUS
 10
810720.6906179541256279
 20
568873.8216157081769779
 30
-0.9999999999999538
  0
VERTEX
  5
5AC
  8
LEVEL_LINES
  6
CONTINUOUS
 10
810748.9995164922438562
 20
568831.4182213401654735
 30
-0.9999999999999538
  0
VERTEX
  5
5AD
  8
LEVEL_LINES
  6
CONTINUOUS
 10
810763.1292632658733055
 20
568783.3769561552908272
 30
-0.9999999999999538
  0
VERTEX
  5
5AE
  8
LEVEL_LINES
  6
CONTINUOUS
 10
810729.1882280148565769
 20
568724.0232222869526595
 30
-0.9999999999999538
  0
VERTEX
  5
5AF
  8
LEVEL_LINES
  6
CONTINUOUS
 10
810666.9382942253723741
 20
568735.3356922906823456
 30
-0.9999999999999538
  0
VERTEX
  5
5B0
  8
LEVEL_LINES
  6
CONTINUOUS
 10
810623.2151263897540048
 20
568747.0889066958334297
 30
-0.9999999999999538
  0
VERTEX
  5
5B1
  8
LEVEL_LINES
  6
CONTINUOUS
 10
810598.6115811080671847
 20
568758.2360963937826455
 30
-0.9999999999999538
  0
VERTEX
  5
5B2
  8
LEVEL_LINES
  6
CONTINUOUS
 10
810587.4461166760884225
 20
568779.4286114851711318
 30
-0.9999999999999538
  0
VERTEX
  5
5B3
  8
LEVEL_LINES
  6
CONTINUOUS
 10
810564.0282842648448423
 20
568803.9818107245955616
 30
-0.9999999999999538
  0
VERTEX
  5
5B4
  8
LEVEL_LINES
  6
CONTINUOUS
 10
810532.7551033851923421
 20
568826.294554305379279
 30
-0.9999999999999538
  0
VERTEX
  5
5B5
  8
LEVEL_LINES
  6
CONTINUOUS
 10
810499.2093057575402781
 20
568830.7571027574595064
 30
-0.9999999999999538
  0
VERTEX
  5
5B6
  8
LEVEL_LINES
  6
CONTINUOUS
 10
810474.6551651377230883
 20
568839.6638354767346755
 30
-0.9999999999999538
  0
VERTEX
  5
5B7
  8
LEVEL_LINES
  6
CONTINUOUS
 10
810452.3242366038030013
 20
568835.201287024654448
 30
-0.9999999999999538
  0
VERTEX
  5
5B8
  8
LEVEL_LINES
  6
CONTINUOUS
 10
810424.4105756889330223
 20
568816.2492289118235931
 30
-0.9999999999999538
  0
VERTEX
  5
5B9
  8
LEVEL_LINES
  6
CONTINUOUS
 10
810413.2451112569542602
 20
568798.3990337831201032
 30
-0.9999999999999538
  0
SEQEND
  5
5BA
  8
LEVEL_LINES
  6
CONTINUOUS
  0
POLYLINE
  5
A5
  8
LEVEL_LINES
  6
CONTINUOUS
 66
     1
 10
0.0
 20
0.0
 30
-0.9999999999999538
  0
VERTEX
  5
5BB
  8
LEVEL_LINES
  6
CONTINUOUS
 10
808169.4808291626395658
 20
569364.9223433871520683
 30
-0.9999999999999538
  0
VERTEX
  5
5BC
  8
LEVEL_LINES
  6
CONTINUOUS
 10
808158.4141743839718401
 20
569393.3871602464932948
 30
-0.9999999999999538
  0
VERTEX
  5
5BD
  8
LEVEL_LINES
  6
CONTINUOUS
 10
808182.1284347651526332
 20
569413.9369222606765106
 30
-0.9999999999999538
  0
VERTEX
  5
5BE
  8
LEVEL_LINES
  6
CONTINUOUS
 10
808256.5319272103952244
 20
569410.7782454686239362
 30
-0.9999999999999538
  0
VERTEX
  5
5BF
  8
LEVEL_LINES
  6
CONTINUOUS
 10
808300.8479513161582872
 20
569385.4721054012188688
 30
-0.9999999999999538
  0
VERTEX
  5
5C0
  8
LEVEL_LINES
  6
CONTINUOUS
 10
808348.3258770705433562
 20
569330.1585384483914822
 30
-0.9999999999999538
  0
VERTEX
  5
5C1
  8
LEVEL_LINES
  6
CONTINUOUS
 10
808383.1561972218332812
 20
569252.6975082204444334
 30
-0.9999999999999538
  0
VERTEX
  5
5C2
  8
LEVEL_LINES
  6
CONTINUOUS
 10
808410.0323592512868345
 20
569195.8046041917987168
 30
-0.9999999999999538
  0
VERTEX
  5
5C3
  8
LEVEL_LINES
  6
CONTINUOUS
 10
808448.0245807210449129
 20
569178.4135189695516601
 30
-0.9999999999999538
  0
VERTEX
  5
5C4
  8
LEVEL_LINES
  6
CONTINUOUS
 10
808525.589974484173581
 20
569153.1257430874975398
 30
-0.9999999999999538
  0
VERTEX
  5
5C5
  8
LEVEL_LINES
  6
CONTINUOUS
 10
808617.3839246744755656
 20
569115.1848971715662628
 30
-0.9999999999999538
  0
VERTEX
  5
5C6
  8
LEVEL_LINES
  6
CONTINUOUS
 10
808641.1475897174095735
 20
569066.1886838030768558
 30
-0.9999999999999538
  0
VERTEX
  5
5C7
  8
LEVEL_LINES
  6
CONTINUOUS
 10
808611.0601217078510672
 20
569001.380723608774133
 30
-0.9999999999999538
  0
VERTEX
  5
5C8
  8
LEVEL_LINES
  6
CONTINUOUS
 10
808566.7440976022044197
 20
569031.406514679430984
 30
-0.9999999999999538
  0
VERTEX
  5
5C9
  8
LEVEL_LINES
  6
CONTINUOUS
 10
808493.9215559811564162
 20
569044.05958471307531
 30
-0.9999999999999538
  0
VERTEX
  5
5CA
  8
LEVEL_LINES
  6
CONTINUOUS
 10
808443.2817285787314177
 20
569069.3473605953622609
 30
-0.9999999999999538
  0
VERTEX
  5
5CB
  8
LEVEL_LINES
  6
CONTINUOUS
 10
808372.0895424433983862
 20
569137.3139962615678087
 30
-0.9999999999999538
  0
VERTEX
  5
5CC
  8
LEVEL_LINES
  6
CONTINUOUS
 10
808318.2384090612176806
 20
569189.4688864223426208
 30
-0.9999999999999538
  0
VERTEX
  5
5CD
  8
LEVEL_LINES
  6
CONTINUOUS
 10
808258.1128777045523748
 20
569263.7712398580042645
 30
-0.9999999999999538
  0
VERTEX
  5
5CE
  8
LEVEL_LINES
  6
CONTINUOUS
 10
808218.5397057407535613
 20
569311.1881161505589262
 30
-0.9999999999999538
  0
VERTEX
  5
5CF
  8
LEVEL_LINES
  6
CONTINUOUS
 10
808169.4808291626395658
 20
569364.9223433871520683
 30
-0.9999999999999538
  0
SEQEND
  5
5D0
  8
LEVEL_LINES
  6
CONTINUOUS
  0
POLYLINE
  5
A6
  8
LEVEL_LINES
 66
     1
 10
0.0
 20
0.0
 30
-0.9999999999999538
  0
VERTEX
  5
5D1
  8
LEVEL_LINES
 10
802148.1415565171046183
 20
573542.6636563556967303
 30
-0.9999999999999538
  0
VERTEX
  5
5D2
  8
LEVEL_LINES
 10
802165.4648382342420518
 20
573534.0956041516037658
 30
-0.9999999999999538
  0
VERTEX
  5
5D3
  8
LEVEL_LINES
 10
802184.8016566544538364
 20
573524.0877293372759596
 30
-0.9999999999999538
  0
VERTEX
  5
5D4
  8
LEVEL_LINES
 10
802206.9704954103799537
 20
573522.8904607879230753
 30
-0.9999999999999538
  0
VERTEX
  5
5D5
  8
LEVEL_LINES
 10
802217.6739155475515872
 20
573504.2857378190383315
 30
-0.9999999999999538
  0
VERTEX
  5
5D6
  8
LEVEL_LINES
 10
802239.0630349580897018
 20
573497.509710029931739
 30
-0.9999999999999538
  0
VERTEX
  5
5D7
  8
LEVEL_LINES
 10
802259.4032988408580422
 20
573493.3043209024472162
 30
-0.9999999999999538
  0
VERTEX
  5
5D8
  8
LEVEL_LINES
 10
802276.6058570673922077
 20
573481.6904902523383498
 30
-0.9999999999999538
  0
VERTEX
  5
5D9
  8
LEVEL_LINES
 10
802283.5314042976824567
 20
573464.4790714285336435
 30
-0.9999999999999538
  0
VERTEX
  5
5DA
  8
LEVEL_LINES
 10
802295.1441275380784646
 20
573448.6786792644998059
 30
-0.9999999999999538
  0
VERTEX
  5
5DB
  8
LEVEL_LINES
 10
802304.7255938715534285
 20
573432.2646996602416039
 30
-0.9999999999999538
  0
VERTEX
  5
5DC
  8
LEVEL_LINES
 10
802318.808166976319626
 20
573421.4782132401596755
 30
-0.9999999999999538
  0
VERTEX
  5
5DD
  8
LEVEL_LINES
 10
802329.7906913025071844
 20
573439.2932498469017446
 30
-0.9999999999999538
  0
VERTEX
  5
5DE
  8
LEVEL_LINES
 10
802343.5764393538702279
 20
573450.1173941348679364
 30
-0.9999999999999538
  0
VERTEX
  5
5DF
  8
LEVEL_LINES
 10
802361.9109197211218998
 20
573462.5851508064661175
 30
-0.9999999999999538
  0
VERTEX
  5
5E0
  8
LEVEL_LINES
 10
802372.0206897521857172
 20
573482.850100933923386
 30
-0.9999999999999538
  0
VERTEX
  5
5E1
  8
LEVEL_LINES
 10
802369.5231513470644131
 20
573503.5625039550941437
 30
-0.9999999999999538
  0
VERTEX
  5
5E2
  8
LEVEL_LINES
 10
802365.22472693992313
 20
573524.8297921352786943
 30
-0.9999999999999538
  0
VERTEX
  5
5E3
  8
LEVEL_LINES
 10
802357.0376738115446642
 20
573541.9393147520022467
 30
-0.9999999999999538
  0
VERTEX
  5
5E4
  8
LEVEL_LINES
 10
802342.5552730272756889
 20
573556.9322993598179892
 30
-0.9999999999999538
  0
VERTEX
  5
5E5
  8
LEVEL_LINES
 10
802335.5832086524460465
 20
573575.5082263780059293
 30
-0.9999999999999538
  0
VERTEX
  5
5E6
  8
LEVEL_LINES
 10
802318.6409260109066963
 20
573587.2516414461424574
 30
-0.9999999999999538
  0
VERTEX
  5
5E7
  8
LEVEL_LINES
 10
802311.8549308753572404
 20
573605.8463973981561139
 30
-0.9999999999999538
  0
VERTEX
  5
5E8
  8
LEVEL_LINES
 10
802302.9701176043599844
 20
573625.1378067436162382
 30
-0.9999999999999538
  0
VERTEX
  5
5E9
  8
LEVEL_LINES
 10
802291.0317727001383901
 20
573641.4952995456987992
 30
-0.9999999999999538
  0
VERTEX
  5
5EA
  8
LEVEL_LINES
 10
802282.9831639262847602
 20
573653.5632282077567652
 30
-0.9999999999999538
  0
VERTEX
  5
5EB
  8
LEVEL_LINES
 10
802264.9643372162245214
 20
573653.4989898685598746
 30
-0.9999999999999538
  0
VERTEX
  5
5EC
  8
LEVEL_LINES
 10
802249.9348034703871235
 20
573665.0098192126024514
 30
-0.9999999999999538
  0
VERTEX
  5
5ED
  8
LEVEL_LINES
 10
802232.4996588599169627
 20
573671.4524714902509004
 30
-0.9999999999999538
  0
VERTEX
  5
5EE
  8
LEVEL_LINES
 10
802216.5043365294113755
 20
573658.530616806820035
 30
-0.9999999999999538
  0
VERTEX
  5
5EF
  8
LEVEL_LINES
 10
802201.7073898279340938
 20
573665.4461960302432999
 30
-0.9999999999999538
  0
VERTEX
  5
5F0
  8
LEVEL_LINES
 10
802181.998432599240914
 20
573663.5899319559102878
 30
-0.9999999999999538
  0
VERTEX
  5
5F1
  8
LEVEL_LINES
 10
802169.3446063580922782
 20
573647.194782606093213
 30
-0.9999999999999538
  0
VERTEX
  5
5F2
  8
LEVEL_LINES
 10
802161.1564458202337846
 20
573628.3497184151783586
 30
-0.9999999999999538
  0
VERTEX
  5
5F3
  8
LEVEL_LINES
 10
802143.4255835660733283
 20
573617.1634039854397997
 30
-0.9999999999999538
  0
VERTEX
  5
5F4
  8
LEVEL_LINES
 10
802132.0166500989580527
 20
573601.706354349385947
 30
-0.9999999999999538
  0
VERTEX
  5
5F5
  8
LEVEL_LINES
 10
802135.3215970504097641
 20
573582.6287031143438071
 30
-0.9999999999999538
  0
VERTEX
  5
5F6
  8
LEVEL_LINES
 10
802139.1083305545616895
 20
573564.9532192624174058
 30
-0.9999999999999538
  0
VERTEX
  5
5F7
  8
LEVEL_LINES
 10
802146.8135968005517498
 20
573544.1300607572775334
 30
-0.9999999999999538
  0
SEQEND
  5
5F8
  8
LEVEL_LINES
  0
ENDSEC
  0
EOF
