  0
SECTION
  2
HEADER
  9
$ACADVER
  1
AC1009
  9
$INSBASE
 10
0.0
 20
0.0
 30
0.0
  9
$EXTMIN
 10
536178.3260943403
 20
1023792.478097575
 30
-0.0015258207003583
  9
$EXTMAX
 10
543141.72163491405
 20
1044613.029233998
 30
0.0000000349246037
  9
$LIMMIN
 10
536018.22178300004
 20
1022956.268655
  9
$LIMMAX
 10
543141.50423299999
 20
1044720.295122
  9
$ORTHOMODE
 70
     0
  9
$REGENMODE
 70
     1
  9
$FILLMODE
 70
     1
  9
$QTEXTMODE
 70
     0
  9
$MIRRTEXT
 70
     0
  9
$DRAGMODE
 70
     2
  9
$LTSCALE
 40
1.0
  9
$OSMODE
 70
    37
  9
$ATTMODE
 70
     1
  9
$TEXTSIZE
 40
0.2
  9
$TRACEWID
 40
0.05
  9
$TEXTSTYLE
  7
STANDARD
  9
$CLAYER
  8
FUNERARY
  9
$CELTYPE
  6
CONTINUOUS
  9
$CECOLOR
 62
   256
  9
$DIMSCALE
 40
1.0
  9
$DIMASZ
 40
0.18
  9
$DIMEXO
 40
0.0625
  9
$DIMDLI
 40
0.38
  9
$DIMRND
 40
0.0
  9
$DIMDLE
 40
0.0
  9
$DIMEXE
 40
0.18
  9
$DIMTP
 40
0.0
  9
$DIMTM
 40
0.0
  9
$DIMTXT
 40
0.18
  9
$DIMCEN
 40
0.09
  9
$DIMTSZ
 40
0.0
  9
$DIMTOL
 70
     0
  9
$DIMLIM
 70
     0
  9
$DIMTIH
 70
     1
  9
$DIMTOH
 70
     1
  9
$DIMSE1
 70
     0
  9
$DIMSE2
 70
     0
  9
$DIMTAD
 70
     0
  9
$DIMZIN
 70
     0
  9
$DIMBLK
  1

  9
$DIMASO
 70
     1
  9
$DIMSHO
 70
     1
  9
$DIMPOST
  1

  9
$DIMAPOST
  1

  9
$DIMALT
 70
     0
  9
$DIMALTD
 70
     2
  9
$DIMALTF
 40
25.399999999999999
  9
$DIMLFAC
 40
1.0
  9
$DIMTOFL
 70
     0
  9
$DIMTVP
 40
0.0
  9
$DIMTIX
 70
     0
  9
$DIMSOXD
 70
     0
  9
$DIMSAH
 70
     0
  9
$DIMBLK1
  1

  9
$DIMBLK2
  1

  9
$DIMSTYLE
  2
STANDARD
  9
$DIMCLRD
 70
     0
  9
$DIMCLRE
 70
     0
  9
$DIMCLRT
 70
     0
  9
$DIMTFAC
 40
1.0
  9
$DIMGAP
 40
0.09
  9
$LUNITS
 70
     2
  9
$LUPREC
 70
     4
  9
$SKETCHINC
 40
0.1
  9
$FILLETRAD
 40
0.0
  9
$AUNITS
 70
     0
  9
$AUPREC
 70
     0
  9
$MENU
  1
.
  9
$ELEVATION
 40
0.0
  9
$PELEVATION
 40
0.0
  9
$THICKNESS
 40
0.0
  9
$LIMCHECK
 70
     0
  9
$BLIPMODE
 70
     0
  9
$CHAMFERA
 40
0.0
  9
$CHAMFERB
 40
0.0
  9
$SKPOLY
 70
     0
  9
$TDCREATE
 40
2456348.5633861111
  9
$TDUPDATE
 40
2456348.5655532181
  9
$TDINDWG
 40
0.0033704977
  9
$TDUSRTIMER
 40
0.0033704977
  9
$USRTIMER
 70
     1
  9
$ANGBASE
 50
0.0
  9
$ANGDIR
 70
     0
  9
$PDMODE
 70
     0
  9
$PDSIZE
 40
0.0
  9
$PLINEWID
 40
0.0
  9
$COORDS
 70
     1
  9
$SPLFRAME
 70
     0
  9
$SPLINETYPE
 70
     6
  9
$SPLINESEGS
 70
     8
  9
$ATTDIA
 70
     0
  9
$ATTREQ
 70
     1
  9
$HANDLING
 70
     1
  9
$HANDSEED
  5
238
  9
$SURFTAB1
 70
     6
  9
$SURFTAB2
 70
     6
  9
$SURFTYPE
 70
     6
  9
$SURFU
 70
     6
  9
$SURFV
 70
     6
  9
$UCSNAME
  2

  9
$UCSORG
 10
0.0
 20
0.0
 30
0.0
  9
$UCSXDIR
 10
1.0
 20
0.0
 30
0.0
  9
$UCSYDIR
 10
0.0
 20
1.0
 30
0.0
  9
$PUCSNAME
  2

  9
$PUCSORG
 10
0.0
 20
0.0
 30
0.0
  9
$PUCSXDIR
 10
1.0
 20
0.0
 30
0.0
  9
$PUCSYDIR
 10
0.0
 20
1.0
 30
0.0
  9
$USERI1
 70
     0
  9
$USERI2
 70
     0
  9
$USERI3
 70
     0
  9
$USERI4
 70
     0
  9
$USERI5
 70
     0
  9
$USERR1
 40
0.0
  9
$USERR2
 40
0.0
  9
$USERR3
 40
0.0
  9
$USERR4
 40
0.0
  9
$USERR5
 40
0.0
  9
$WORLDVIEW
 70
     1
  9
$SHADEDGE
 70
     3
  9
$SHADEDIF
 70
    70
  9
$TILEMODE
 70
     1
  9
$MAXACTVP
 70
    64
  9
$PLIMCHECK
 70
     0
  9
$PEXTMIN
 10
1.0000000000000000E+020
 20
1.0000000000000000E+020
 30
1.0000000000000000E+020
  9
$PEXTMAX
 10
-1.0000000000000000E+020
 20
-1.0000000000000000E+020
 30
-1.0000000000000000E+020
  9
$PLIMMIN
 10
0.0
 20
0.0
  9
$PLIMMAX
 10
12.0
 20
9.0
  9
$UNITMODE
 70
     0
  9
$VISRETAIN
 70
     1
  9
$PLINEGEN
 70
     1
  9
$PSLTSCALE
 70
     1
  0
ENDSEC
  0
SECTION
  2
TABLES
  0
TABLE
  2
VPORT
 70
     1
  0
VPORT
  2
*ACTIVE
 70
     0
 10
0.0
 20
0.0
 11
1.0
 21
1.0
 12
539864.40068695985
 22
1035552.792257556
 13
0.0
 23
0.0
 14
1.0
 24
1.0
 15
0.0
 25
0.0
 16
0.0
 26
0.0
 36
1.0
 17
0.0
 27
0.0
 37
0.0
 40
33148.951415450778
 41
1.364085667215815
 42
50.0
 43
0.0
 44
0.0
 50
0.0
 51
0.0
 71
     0
 72
   100
 73
     1
 74
     1
 75
     0
 76
     0
 77
     0
 78
     0
  0
ENDTAB
  0
TABLE
  2
LTYPE
 70
     1
  0
LTYPE
  2
CONTINUOUS
 70
     0
  3
Solid line
 72
    65
 73
     0
 40
0.0
  0
ENDTAB
  0
TABLE
  2
LAYER
 70
     2
  0
LAYER
  2
0
 70
     0
 62
    40
  6
CONTINUOUS
  0
LAYER
  2
FUNERARY
 70
     0
 62
    40
  6
CONTINUOUS
  0
ENDTAB
  0
TABLE
  2
STYLE
 70
     1
  0
STYLE
  2
STANDARD
 70
     0
 40
0.0
 41
1.0
 50
0.0
 71
     0
 42
0.2
  3
txt
  4

  0
ENDTAB
  0
TABLE
  2
VIEW
 70
     0
  0
ENDTAB
  0
TABLE
  2
UCS
 70
     0
  0
ENDTAB
  0
TABLE
  2
APPID
 70
     3
  0
APPID
  2
ACAD
 70
     0
  0
APPID
  2
ADE
 70
     0
  0
APPID
  2
ACAD_NAV_VCDISPLAY
 70
     0
  0
ENDTAB
  0
TABLE
  2
DIMSTYLE
 70
     1
  0
DIMSTYLE
  2
STANDARD
 70
     0
  3

  4

  5

  6

  7

 40
1.0
 41
0.18
 42
0.0625
 43
0.38
 44
0.18
 45
0.0
 46
0.0
 47
0.0
 48
0.0
140
0.18
141
0.09
142
0.0
143
25.399999999999999
144
1.0
145
0.0
146
1.0
147
0.09
 71
     0
 72
     0
 73
     1
 74
     1
 75
     0
 76
     0
 77
     0
 78
     0
170
     0
171
     2
172
     0
173
     0
174
     0
175
     0
176
     0
177
     0
178
     0
  0
ENDTAB
  0
ENDSEC
  0
SECTION
  2
BLOCKS
  0
BLOCK
  8
0
  2
$MODEL_SPACE
 70
     0
 10
0.0
 20
0.0
 30
0.0
  3
$MODEL_SPACE
  1

  0
ENDBLK
  5
17
  8
0
  0
BLOCK
 67
     1
  8
0
  2
$PAPER_SPACE
 70
     0
 10
0.0
 20
0.0
 30
0.0
  3
$PAPER_SPACE
  1

  0
ENDBLK
  5
1C
 67
     1
  8
0
  0
ENDSEC
  0
SECTION
  2
ENTITIES
  0
POLYLINE
  5
60
  8
FUNERARY
 66
     1
 10
0.0
 20
0.0
 30
0.0
 70
     1
  0
VERTEX
  5
C7
  8
FUNERARY
 10
539797.706121
 20
1024370.58783
 30
0.0
  0
VERTEX
  5
C8
  8
FUNERARY
 10
539797.706121
 20
1024316.6315050001
 30
0.0
  0
VERTEX
  5
C9
  8
FUNERARY
 10
539760.17128600006
 20
1024317.022493
 30
0.0
  0
VERTEX
  5
CA
  8
FUNERARY
 10
539760.17128600006
 20
1024370.58783
 30
0.0
  0
SEQEND
  5
CB
  8
FUNERARY
  0
POLYLINE
  5
61
  8
FUNERARY
 66
     1
 10
0.0
 20
0.0
 30
0.0
 70
     1
  0
VERTEX
  5
CC
  8
FUNERARY
 10
537320.29353200004
 20
1044328.298471
 30
0.0
  0
VERTEX
  5
CD
  8
FUNERARY
 10
537307.05931699998
 20
1044357.413743
 30
0.0
  0
VERTEX
  5
CE
  8
FUNERARY
 10
537337.49801099999
 20
1044379.250198
 30
0.0
  0
VERTEX
  5
CF
  8
FUNERARY
 10
537364.62815100013
 20
1044379.250198
 30
0.0
  0
VERTEX
  5
D0
  8
FUNERARY
 10
537364.62815100013
 20
1044328.298471
 30
0.0
  0
SEQEND
  5
D1
  8
FUNERARY
  0
POLYLINE
  5
62
  8
FUNERARY
 66
     1
 10
0.0
 20
0.0
 30
0.0
 70
     1
  0
VERTEX
  5
D2
  8
FUNERARY
 10
537369.39246899995
 20
1044612.040036
 30
0.0
  0
VERTEX
  5
D3
  8
FUNERARY
 10
537368.73075800005
 20
1044561.088309
 30
0.0
  0
VERTEX
  5
D4
  8
FUNERARY
 10
537309.17679099995
 20
1044561.088309
 30
0.0
  0
VERTEX
  5
D5
  8
FUNERARY
 10
537308.51508100005
 20
1044612.701746
 30
0.0
  0
SEQEND
  5
D6
  8
FUNERARY
  0
POLYLINE
  5
63
  8
FUNERARY
 66
     1
 10
0.0
 20
0.0
 30
0.0
 70
     1
  0
VERTEX
  5
D7
  8
FUNERARY
 10
536711.98284900002
 20
1043159.651134
 30
0.0
  0
VERTEX
  5
D8
  8
FUNERARY
 10
536753.33976999996
 20
1043159.320278
 30
0.0
  0
VERTEX
  5
D9
  8
FUNERARY
 10
536753.33976999996
 20
1043118.955923
 30
0.0
  0
VERTEX
  5
DA
  8
FUNERARY
 10
536712.31370399997
 20
1043118.955923
 30
0.0
  0
SEQEND
  5
DB
  8
FUNERARY
  0
POLYLINE
  5
64
  8
FUNERARY
 66
     1
 10
0.0
 20
0.0
 30
0.0
 70
     1
  0
VERTEX
  5
DC
  8
FUNERARY
 10
540315.35424600006
 20
1027290.4609299999
 30
0.0
  0
VERTEX
  5
DD
  8
FUNERARY
 10
540365.67339700006
 20
1027290.4609299999
 30
0.0
  0
VERTEX
  5
DE
  8
FUNERARY
 10
540365.67339700006
 20
1027190.45958
 30
0.0
  0
VERTEX
  5
DF
  8
FUNERARY
 10
540315.35424600006
 20
1027189.185678
 30
0.0
  0
SEQEND
  5
E0
  8
FUNERARY
  0
POLYLINE
  5
65
  8
FUNERARY
 66
     1
 10
0.0
 20
0.0
 30
0.0
 70
     1
  0
VERTEX
  5
E1
  8
FUNERARY
 10
540468.60472299997
 20
1026668.669097
 30
0.0
  0
VERTEX
  5
E2
  8
FUNERARY
 10
540468.60472299997
 20
1026734.275078
 30
0.0
  0
VERTEX
  5
E3
  8
FUNERARY
 10
540523.38253199984
 20
1026745.740201
 30
0.0
  0
VERTEX
  5
E4
  8
FUNERARY
 10
540524.01948300016
 20
1026692.2362939999
 30
0.0
  0
SEQEND
  5
E5
  8
FUNERARY
  0
POLYLINE
  5
66
  8
FUNERARY
 66
     1
 10
0.0
 20
0.0
 30
0.0
 70
     1
  0
VERTEX
  5
E6
  8
FUNERARY
 10
539698.658023
 20
1026244.9691090001
 30
0.0
  0
VERTEX
  5
E7
  8
FUNERARY
 10
539773.81827299995
 20
1026244.9691090001
 30
0.0
  0
VERTEX
  5
E8
  8
FUNERARY
 10
539760.44229599996
 20
1026183.184836
 30
0.0
  0
VERTEX
  5
E9
  8
FUNERARY
 10
539709.48619400011
 20
1026183.184836
 30
0.0
  0
SEQEND
  5
EA
  8
FUNERARY
  0
POLYLINE
  5
67
  8
FUNERARY
 66
     1
 10
0.0
 20
0.0
 30
0.0
 70
     1
  0
VERTEX
  5
EB
  8
FUNERARY
 10
538746.63105099986
 20
1025018.505103
 30
0.0
  0
VERTEX
  5
EC
  8
FUNERARY
 10
538786.33304499998
 20
1025060.853896
 30
0.0
  0
VERTEX
  5
ED
  8
FUNERARY
 10
538804.86064099986
 20
1025017.843403
 30
0.0
  0
VERTEX
  5
EE
  8
FUNERARY
 10
538752.58635
 20
1024952.335114
 30
0.0
  0
VERTEX
  5
EF
  8
FUNERARY
 10
538723.47155500005
 20
1024972.847811
 30
0.0
  0
SEQEND
  5
F0
  8
FUNERARY
  0
POLYLINE
  5
68
  8
FUNERARY
 66
     1
 10
0.0
 20
0.0
 30
0.0
 70
     1
  0
VERTEX
  5
F1
  8
FUNERARY
 10
538669.21216400014
 20
1024791.54204
 30
0.0
  0
VERTEX
  5
F2
  8
FUNERARY
 10
538647.37606699998
 20
1024833.890833
 30
0.0
  0
VERTEX
  5
F3
  8
FUNERARY
 10
538675.82916299999
 20
1024845.801431
 30
0.0
  0
VERTEX
  5
F4
  8
FUNERARY
 10
538704.28225799999
 20
1024803.452638
 30
0.0
  0
SEQEND
  5
F5
  8
FUNERARY
  0
POLYLINE
  5
69
  8
FUNERARY
 66
     1
 10
0.0
 20
0.0
 30
0.0
 70
     1
  0
VERTEX
  5
F6
  8
FUNERARY
 10
538686.41636099992
 20
1024745.223048
 30
0.0
  0
VERTEX
  5
F7
  8
FUNERARY
 10
538671.85896300001
 20
1024789.55694
 30
0.0
  0
VERTEX
  5
F8
  8
FUNERARY
 10
538705.60565799999
 20
1024802.129238
 30
0.0
  0
VERTEX
  5
F9
  8
FUNERARY
 10
538724.13325499999
 20
1024757.1336459999
 30
0.0
  0
SEQEND
  5
FA
  8
FUNERARY
  0
POLYLINE
  5
6A
  8
FUNERARY
 66
     1
 10
0.0
 20
0.0
 30
0.0
 70
     1
  0
VERTEX
  5
FB
  8
FUNERARY
 10
538141.57267000014
 20
1023793.433923
 30
0.0
  0
VERTEX
  5
FC
  8
FUNERARY
 10
538104.51747600001
 20
1023809.976421
 30
0.0
  0
VERTEX
  5
FD
  8
FUNERARY
 10
538115.10467399994
 20
1023833.135917
 30
0.0
  0
VERTEX
  5
FE
  8
FUNERARY
 10
538152.15986800008
 20
1023817.916819
 30
0.0
  0
SEQEND
  5
FF
  8
FUNERARY
  0
POLYLINE
  5
6B
  8
FUNERARY
 66
     1
 10
0.0
 20
0.0
 30
0.0
 70
     1
  0
VERTEX
  5
100
  8
FUNERARY
 10
537434.79292899987
 20
1028785.9741399999
 30
0.0
  0
VERTEX
  5
101
  8
FUNERARY
 10
537402.36910299992
 20
1028777.3719
 30
0.0
  0
VERTEX
  5
102
  8
FUNERARY
 10
537369.94527700008
 20
1028847.513239
 30
0.0
  0
VERTEX
  5
103
  8
FUNERARY
 10
537412.95647500001
 20
1028847.513239
 30
0.0
  0
SEQEND
  5
104
  8
FUNERARY
  0
POLYLINE
  5
6C
  8
FUNERARY
 66
     1
 10
0.0
 20
0.0
 30
0.0
 70
     1
  0
VERTEX
  5
105
  8
FUNERARY
 10
537798.03609499999
 20
1028039.4074509999
 30
0.0
  0
VERTEX
  5
106
  8
FUNERARY
 10
537760.31858299999
 20
1028024.849815
 30
0.0
  0
VERTEX
  5
107
  8
FUNERARY
 10
537731.86502100003
 20
1028088.374046
 30
0.0
  0
VERTEX
  5
108
  8
FUNERARY
 10
537767.59740099986
 20
1028102.9316820001
 30
0.0
  0
SEQEND
  5
109
  8
FUNERARY
  0
POLYLINE
  5
6D
  8
FUNERARY
 66
     1
 10
0.0
 20
0.0
 30
0.0
 70
     1
  0
VERTEX
  5
10A
  8
FUNERARY
 10
537815.90228500008
 20
1027939.48913
 30
0.0
  0
VERTEX
  5
10B
  8
FUNERARY
 10
537778.18477299996
 20
1027924.931493
 30
0.0
  0
VERTEX
  5
10C
  8
FUNERARY
 10
537758.99516199995
 20
1027971.2512450001
 30
0.0
  0
VERTEX
  5
10D
  8
FUNERARY
 10
537797.37438500009
 20
1027987.132303
 30
0.0
  0
SEQEND
  5
10E
  8
FUNERARY
  0
POLYLINE
  5
6E
  8
FUNERARY
 66
     1
 10
0.0
 20
0.0
 30
0.0
 70
     1
  0
VERTEX
  5
10F
  8
FUNERARY
 10
538906.19213500002
 20
1024669.499553
 30
0.0
  0
VERTEX
  5
110
  8
FUNERARY
 10
538933.98398599995
 20
1024669.499553
 30
0.0
  0
VERTEX
  5
111
  8
FUNERARY
 10
538931.998854
 20
1024601.343346
 30
0.0
  0
VERTEX
  5
112
  8
FUNERARY
 10
538919.42634999997
 20
1024601.343346
 30
0.0
  0
SEQEND
  5
113
  8
FUNERARY
  0
POLYLINE
  5
6F
  8
FUNERARY
 66
     1
 10
0.0
 20
0.0
 30
0.0
 70
     1
  0
VERTEX
  5
114
  8
FUNERARY
 10
538898.91331700003
 20
1024729.053519
 30
0.0
  0
VERTEX
  5
115
  8
FUNERARY
 10
538933.98398599995
 20
1024729.053519
 30
0.0
  0
VERTEX
  5
116
  8
FUNERARY
 10
538933.32227500004
 20
1024672.1463960001
 30
0.0
  0
VERTEX
  5
117
  8
FUNERARY
 10
538905.530424
 20
1024670.822974
 30
0.0
  0
SEQEND
  5
118
  8
FUNERARY
  0
POLYLINE
  5
70
  8
FUNERARY
 66
     1
 10
0.0
 20
0.0
 30
0.0
 70
     1
  0
VERTEX
  5
119
  8
FUNERARY
 10
538890.97278800001
 20
1024805.811965
 30
0.0
  0
VERTEX
  5
11A
  8
FUNERARY
 10
538871.78317700012
 20
1024894.481204
 30
0.0
  0
VERTEX
  5
11B
  8
FUNERARY
 10
538917.44121800002
 20
1024903.745154
 30
0.0
  0
VERTEX
  5
11C
  8
FUNERARY
 10
538931.33714299998
 20
1024805.811965
 30
0.0
  0
SEQEND
  5
11D
  8
FUNERARY
  0
POLYLINE
  5
71
  8
FUNERARY
 66
     1
 10
0.0
 20
0.0
 30
0.0
 70
     1
  0
VERTEX
  5
11E
  8
FUNERARY
 10
538933.98398599995
 20
1024730.376941
 30
0.0
  0
VERTEX
  5
11F
  8
FUNERARY
 10
538898.25160600001
 20
1024730.376941
 30
0.0
  0
VERTEX
  5
120
  8
FUNERARY
 10
538891.63449900004
 20
1024803.8268330001
 30
0.0
  0
VERTEX
  5
121
  8
FUNERARY
 10
538930.67543199984
 20
1024803.8268330001
 30
0.0
  0
SEQEND
  5
122
  8
FUNERARY
  0
POLYLINE
  5
72
  8
FUNERARY
 66
     1
 10
0.0
 20
0.0
 30
0.0
 70
     1
  0
VERTEX
  5
123
  8
FUNERARY
 10
537172.37765500008
 20
1042684.177409
 30
0.0
  0
VERTEX
  5
124
  8
FUNERARY
 10
537201.49292799993
 20
1042696.749914
 30
0.0
  0
VERTEX
  5
125
  8
FUNERARY
 10
537216.05056400015
 20
1042657.047269
 30
0.0
  0
VERTEX
  5
126
  8
FUNERARY
 10
537189.58213500015
 20
1042647.783319
 30
0.0
  0
SEQEND
  5
127
  8
FUNERARY
  0
POLYLINE
  5
73
  8
FUNERARY
 66
     1
 10
0.0
 20
0.0
 30
0.0
 70
     1
  0
VERTEX
  5
128
  8
FUNERARY
 10
537500.32149799995
 20
1040731.733701
 30
0.0
  0
VERTEX
  5
129
  8
FUNERARY
 10
537521.49624100013
 20
1040780.700296
 30
0.0
  0
VERTEX
  5
12A
  8
FUNERARY
 10
537550.61151399999
 20
1040807.168726
 30
0.0
  0
VERTEX
  5
12B
  8
FUNERARY
 10
537577.079944
 20
1040785.993982
 30
0.0
  0
VERTEX
  5
12C
  8
FUNERARY
 10
537548.62638200005
 20
1040715.852644
 30
0.0
  0
SEQEND
  5
12D
  8
FUNERARY
  0
POLYLINE
  5
74
  8
FUNERARY
 66
     1
 10
0.0
 20
0.0
 30
0.0
 70
     1
  0
VERTEX
  5
12E
  8
FUNERARY
 10
537477.16162200004
 20
1040679.458553
 30
0.0
  0
VERTEX
  5
12F
  8
FUNERARY
 10
537498.99807600002
 20
1040730.41028
 30
0.0
  0
VERTEX
  5
130
  8
FUNERARY
 10
537548.62638200005
 20
1040713.867511
 30
0.0
  0
VERTEX
  5
131
  8
FUNERARY
 10
537520.83453099988
 20
1040654.9752559999
 30
0.0
  0
SEQEND
  5
132
  8
FUNERARY
  0
POLYLINE
  5
75
  8
FUNERARY
 66
     1
 10
0.0
 20
0.0
 30
0.0
 70
     1
  0
VERTEX
  5
133
  8
FUNERARY
 10
537442.09095300001
 20
1040697.986454
 30
0.0
  0
VERTEX
  5
134
  8
FUNERARY
 10
537455.32516800007
 20
1040738.350809
 30
0.0
  0
VERTEX
  5
135
  8
FUNERARY
 10
537497.67465499998
 20
1040731.733701
 30
0.0
  0
VERTEX
  5
136
  8
FUNERARY
 10
537475.17648999998
 20
1040680.120264
 30
0.0
  0
SEQEND
  5
137
  8
FUNERARY
  0
POLYLINE
  5
76
  8
FUNERARY
 66
     1
 10
0.0
 20
0.0
 30
0.0
 70
     1
  0
VERTEX
  5
138
  8
FUNERARY
 10
537441.42924199998
 20
1040696.663032
 30
0.0
  0
VERTEX
  5
139
  8
FUNERARY
 10
537519.51110899996
 20
1040653.651834
 30
0.0
  0
VERTEX
  5
13A
  8
FUNERARY
 10
537469.22109300015
 20
1040619.242876
 30
0.0
  0
VERTEX
  5
13B
  8
FUNERARY
 10
537424.22476300003
 20
1040643.064462
 30
0.0
  0
SEQEND
  5
13C
  8
FUNERARY
  0
POLYLINE
  5
77
  8
FUNERARY
 66
     1
 10
0.0
 20
0.0
 30
0.0
 70
     1
  0
VERTEX
  5
13D
  8
FUNERARY
 10
537319.01275500003
 20
1040459.770588
 30
0.0
  0
VERTEX
  5
13E
  8
FUNERARY
 10
537358.71539999987
 20
1040435.28729
 30
0.0
  0
VERTEX
  5
13F
  8
FUNERARY
 10
537331.58525900007
 20
1040392.937803
 30
0.0
  0
VERTEX
  5
140
  8
FUNERARY
 10
537288.57406100014
 20
1040419.406232
 30
0.0
  0
SEQEND
  5
141
  8
FUNERARY
  0
POLYLINE
  5
78
  8
FUNERARY
 66
     1
 10
0.0
 20
0.0
 30
0.0
 70
     1
  0
VERTEX
  5
142
  8
FUNERARY
 10
536360.19389399991
 20
1039939.665946
 30
0.0
  0
VERTEX
  5
143
  8
FUNERARY
 10
536333.72546400013
 20
1039906.580409
 30
0.0
  0
VERTEX
  5
144
  8
FUNERARY
 10
536290.05255500006
 20
1039924.446599
 30
0.0
  0
VERTEX
  5
145
  8
FUNERARY
 10
536305.27190199995
 20
1039954.223583
 30
0.0
  0
SEQEND
  5
146
  8
FUNERARY
  0
POLYLINE
  5
79
  8
FUNERARY
 66
     1
 10
0.0
 20
0.0
 30
0.0
 70
     1
  0
VERTEX
  5
147
  8
FUNERARY
 10
538865.563096
 20
1025011.736347
 30
0.0
  0
VERTEX
  5
148
  8
FUNERARY
 10
538907.250872
 20
1024941.595009
 30
0.0
  0
VERTEX
  5
149
  8
FUNERARY
 10
538917.17653299996
 20
1024907.18605
 30
0.0
  0
VERTEX
  5
14A
  8
FUNERARY
 10
538869.53336000012
 20
1024895.936968
 30
0.0
  0
VERTEX
  5
14B
  8
FUNERARY
 10
538819.90505499986
 20
1024995.855289
 30
0.0
  0
SEQEND
  5
14C
  8
FUNERARY
  0
POLYLINE
  5
7A
  8
FUNERARY
 66
     1
 10
0.0
 20
0.0
 30
0.0
 70
     1
  0
VERTEX
  5
14D
  8
FUNERARY
 10
538788.14293900016
 20
1025065.9966280001
 30
0.0
  0
VERTEX
  5
14E
  8
FUNERARY
 10
538843.72664100013
 20
1025072.613735
 30
0.0
  0
VERTEX
  5
14F
  8
FUNERARY
 10
538864.23967399995
 20
1025013.059769
 30
0.0
  0
VERTEX
  5
150
  8
FUNERARY
 10
538817.91992200015
 20
1024997.840421
 30
0.0
  0
SEQEND
  5
151
  8
FUNERARY
  0
POLYLINE
  5
7B
  8
FUNERARY
 66
     1
 10
0.0
 20
0.0
 30
0.0
 70
     1
  0
VERTEX
  5
152
  8
FUNERARY
 10
536211.17663500004
 20
1039849.673286
 30
0.0
  0
VERTEX
  5
153
  8
FUNERARY
 10
536252.86441200005
 20
1039815.264327
 30
0.0
  0
VERTEX
  5
154
  8
FUNERARY
 10
536217.13203199999
 20
1039780.193658
 30
0.0
  0
VERTEX
  5
155
  8
FUNERARY
 10
536178.75280899997
 20
1039811.294063
 30
0.0
  0
SEQEND
  5
156
  8
FUNERARY
  0
POLYLINE
  5
7C
  8
FUNERARY
 66
     1
 10
0.0
 20
0.0
 30
0.0
 70
     1
  0
VERTEX
  5
157
  8
FUNERARY
 10
537441.19788700005
 20
1037986.872318
 30
0.0
  0
VERTEX
  5
158
  8
FUNERARY
 10
537441.19788700005
 20
1038012.665468
 30
0.0
  0
VERTEX
  5
159
  8
FUNERARY
 10
537468.975126
 20
1038012.665468
 30
0.0
  0
VERTEX
  5
15A
  8
FUNERARY
 10
537468.975126
 20
1037986.872318
 30
0.0
  0
SEQEND
  5
15B
  8
FUNERARY
  0
POLYLINE
  5
7D
  8
FUNERARY
 66
     1
 10
0.0
 20
0.0
 30
0.0
 70
     1
  0
VERTEX
  5
15C
  8
FUNERARY
 10
537380.35250600008
 20
1037323.525392
 30
0.0
  0
VERTEX
  5
15D
  8
FUNERARY
 10
537380.35250600008
 20
1037354.609446
 30
0.0
  0
VERTEX
  5
15E
  8
FUNERARY
 10
537412.09792199999
 20
1037354.609446
 30
0.0
  0
VERTEX
  5
15F
  8
FUNERARY
 10
537412.09792199999
 20
1037323.525392
 30
0.0
  0
SEQEND
  5
160
  8
FUNERARY
  0
POLYLINE
  5
7E
  8
FUNERARY
 66
     1
 10
0.0
 20
0.0
 30
0.0
 70
     1
  0
VERTEX
  5
161
  8
FUNERARY
 10
537356.94026099995
 20
1037001.838508
 30
0.0
  0
VERTEX
  5
162
  8
FUNERARY
 10
537388.68567799998
 20
1037001.838508
 30
0.0
  0
VERTEX
  5
163
  8
FUNERARY
 10
537388.68567799998
 20
1036970.093092
 30
0.0
  0
VERTEX
  5
164
  8
FUNERARY
 10
537356.94026099995
 20
1036970.093092
 30
0.0
  0
SEQEND
  5
165
  8
FUNERARY
  0
POLYLINE
  5
7F
  8
FUNERARY
 66
     1
 10
0.0
 20
0.0
 30
0.0
 70
     1
  0
VERTEX
  5
166
  8
FUNERARY
 10
540401.58611999999
 20
1027696.2700050001
 30
0.0
  0
VERTEX
  5
167
  8
FUNERARY
 10
540401.19437399996
 20
1027757.5418689999
 30
0.0
  0
VERTEX
  5
168
  8
FUNERARY
 10
540441.55872900004
 20
1027757.5418689999
 30
0.0
  0
VERTEX
  5
169
  8
FUNERARY
 10
540441.28876499995
 20
1027696.2700050001
 30
0.0
  0
SEQEND
  5
16A
  8
FUNERARY
  0
POLYLINE
  5
80
  8
FUNERARY
 66
     1
 10
0.0
 20
0.0
 30
0.0
 70
     1
  0
VERTEX
  5
16B
  8
FUNERARY
 10
540387.96015900001
 20
1027926.939818
 30
0.0
  0
VERTEX
  5
16C
  8
FUNERARY
 10
540387.96015900001
 20
1027966.642462
 30
0.0
  0
VERTEX
  5
16D
  8
FUNERARY
 10
540424.35424999997
 20
1027966.642462
 30
0.0
  0
VERTEX
  5
16E
  8
FUNERARY
 10
540424.35424999997
 20
1027926.939818
 30
0.0
  0
SEQEND
  5
16F
  8
FUNERARY
  0
POLYLINE
  5
81
  8
FUNERARY
 66
     1
 10
0.0
 20
0.0
 30
0.0
 70
     1
  0
VERTEX
  5
170
  8
FUNERARY
 10
540515.67033200001
 20
1028205.520039
 30
0.0
  0
VERTEX
  5
171
  8
FUNERARY
 10
540485.23163800011
 20
1028205.520039
 30
0.0
  0
VERTEX
  5
172
  8
FUNERARY
 10
540485.23163800011
 20
1028245.8843949999
 30
0.0
  0
VERTEX
  5
173
  8
FUNERARY
 10
540515.67033200001
 20
1028245.8843949999
 30
0.0
  0
SEQEND
  5
174
  8
FUNERARY
  0
POLYLINE
  5
82
  8
FUNERARY
 66
     1
 10
0.0
 20
0.0
 30
0.0
 70
     1
  0
VERTEX
  5
175
  8
FUNERARY
 10
537029.13981299999
 20
1043555.663977
 30
0.0
  0
VERTEX
  5
176
  8
FUNERARY
 10
537006.886772
 20
1043571.301249
 30
0.0
  0
VERTEX
  5
177
  8
FUNERARY
 10
537025.53121100005
 20
1043614.003031
 30
0.0
  0
VERTEX
  5
178
  8
FUNERARY
 10
537069.43586000009
 20
1043595.960025
 30
0.0
  0
VERTEX
  5
179
  8
FUNERARY
 10
537069.43586000009
 20
1043555.663977
 30
0.0
  0
SEQEND
  5
17A
  8
FUNERARY
  0
POLYLINE
  5
83
  8
FUNERARY
 66
     1
 10
0.0
 20
0.0
 30
0.0
 70
     1
  0
VERTEX
  5
17B
  8
FUNERARY
 10
537004.48103699996
 20
1043570.098382
 30
0.0
  0
VERTEX
  5
17C
  8
FUNERARY
 10
536960.57638900005
 20
1043595.960025
 30
0.0
  0
VERTEX
  5
17D
  8
FUNERARY
 10
536959.97495499998
 20
1043630.84317
 30
0.0
  0
VERTEX
  5
17E
  8
FUNERARY
 10
536998.46670200001
 20
1043630.84317
 30
0.0
  0
VERTEX
  5
17F
  8
FUNERARY
 10
537024.32834399992
 20
1043614.604464
 30
0.0
  0
SEQEND
  5
180
  8
FUNERARY
  0
POLYLINE
  5
84
  8
FUNERARY
 66
     1
 10
0.0
 20
0.0
 30
0.0
 70
     1
  0
VERTEX
  5
181
  8
FUNERARY
 10
537344.38545399997
 20
1043602.533341
 30
0.0
  0
VERTEX
  5
182
  8
FUNERARY
 10
537344.38545399997
 20
1043652.823357
 30
0.0
  0
VERTEX
  5
183
  8
FUNERARY
 10
537380.11783400003
 20
1043652.823357
 30
0.0
  0
VERTEX
  5
184
  8
FUNERARY
 10
537380.11783400003
 20
1043602.533341
 30
0.0
  0
SEQEND
  5
185
  8
FUNERARY
  0
POLYLINE
  5
85
  8
FUNERARY
 66
     1
 10
0.0
 20
0.0
 30
0.0
 70
     1
  0
VERTEX
  5
186
  8
FUNERARY
 10
537366.22190899996
 20
1044378.8523809999
 30
0.0
  0
VERTEX
  5
187
  8
FUNERARY
 10
537416.511925
 20
1044378.8523809999
 30
0.0
  0
VERTEX
  5
188
  8
FUNERARY
 10
537416.511925
 20
1044328.562365
 30
0.0
  0
VERTEX
  5
189
  8
FUNERARY
 10
537366.22190899996
 20
1044328.562365
 30
0.0
  0
SEQEND
  5
18A
  8
FUNERARY
  0
POLYLINE
  5
86
  8
FUNERARY
 66
     1
 10
0.0
 20
0.0
 30
0.0
 70
     1
  0
VERTEX
  5
18B
  8
FUNERARY
 10
540695.81800800015
 20
1041578.227847
 30
0.0
  0
VERTEX
  5
18C
  8
FUNERARY
 10
540726.91841200006
 20
1041588.815219
 30
0.0
  0
VERTEX
  5
18D
  8
FUNERARY
 10
540741.47604900005
 20
1041534.554938
 30
0.0
  0
VERTEX
  5
18E
  8
FUNERARY
 10
540716.99275099998
 20
1041525.290988
 30
0.0
  0
SEQEND
  5
18F
  8
FUNERARY
  0
POLYLINE
  5
87
  8
FUNERARY
 66
     1
 10
0.0
 20
0.0
 30
0.0
 70
     1
  0
VERTEX
  5
190
  8
FUNERARY
 10
540044.57496100001
 20
1042408.547841
 30
0.0
  0
VERTEX
  5
191
  8
FUNERARY
 10
540076.45675500005
 20
1042418.600486
 30
0.0
  0
VERTEX
  5
192
  8
FUNERARY
 10
540087.04412700015
 20
1042388.1617920001
 30
0.0
  0
VERTEX
  5
193
  8
FUNERARY
 10
540057.26714399992
 20
1042379.559552
 30
0.0
  0
SEQEND
  5
194
  8
FUNERARY
  0
POLYLINE
  5
88
  8
FUNERARY
 66
     1
 10
0.0
 20
0.0
 30
0.0
 70
     1
  0
VERTEX
  5
195
  8
FUNERARY
 10
538937.45357200003
 20
1043494.5056189999
 30
0.0
  0
VERTEX
  5
196
  8
FUNERARY
 10
538967.87626299995
 20
1043526.251035
 30
0.0
  0
VERTEX
  5
197
  8
FUNERARY
 10
538998.29895299999
 20
1043498.473796
 30
0.0
  0
VERTEX
  5
198
  8
FUNERARY
 10
538969.19898900006
 20
1043469.3738309999
 30
0.0
  0
SEQEND
  5
199
  8
FUNERARY
  0
POLYLINE
  5
89
  8
FUNERARY
 66
     1
 10
0.0
 20
0.0
 30
0.0
 70
     1
  0
VERTEX
  5
19A
  8
FUNERARY
 10
538846.45004599995
 20
1043010.5202950001
 30
0.0
  0
VERTEX
  5
19B
  8
FUNERARY
 10
538846.45004599995
 20
1043031.0225430001
 30
0.0
  0
VERTEX
  5
19C
  8
FUNERARY
 10
538866.95229399984
 20
1043031.0225430001
 30
0.0
  0
VERTEX
  5
19D
  8
FUNERARY
 10
538866.95229399984
 20
1043010.5202950001
 30
0.0
  0
SEQEND
  5
19E
  8
FUNERARY
  0
POLYLINE
  5
8A
  8
FUNERARY
 66
     1
 10
0.0
 20
0.0
 30
0.0
 70
     1
  0
VERTEX
  5
19F
  8
FUNERARY
 10
538881.50227599998
 20
1042827.984152
 30
0.0
  0
VERTEX
  5
1A0
  8
FUNERARY
 10
538881.50227599998
 20
1042848.4864000001
 30
0.0
  0
VERTEX
  5
1A1
  8
FUNERARY
 10
538902.00452399999
 20
1042848.4864000001
 30
0.0
  0
VERTEX
  5
1A2
  8
FUNERARY
 10
538902.00452399999
 20
1042827.984152
 30
0.0
  0
SEQEND
  5
1A3
  8
FUNERARY
  0
POLYLINE
  5
8B
  8
FUNERARY
 66
     1
 10
0.0
 20
0.0
 30
0.0
 70
     1
  0
VERTEX
  5
1A4
  8
FUNERARY
 10
538669.86616899993
 20
1042516.482255
 30
0.0
  0
VERTEX
  5
1A5
  8
FUNERARY
 10
538706.90248799999
 20
1042549.550397
 30
0.0
  0
VERTEX
  5
1A6
  8
FUNERARY
 10
538742.61608100007
 20
1042513.836804
 30
0.0
  0
VERTEX
  5
1A7
  8
FUNERARY
 10
538705.57976200001
 20
1042480.768662
 30
0.0
  0
SEQEND
  5
1A8
  8
FUNERARY
  0
POLYLINE
  5
8C
  8
FUNERARY
 66
     1
 10
0.0
 20
0.0
 30
0.0
 70
     1
  0
VERTEX
  5
1A9
  8
FUNERARY
 10
537945.673862
 20
1041186.48159
 30
0.0
  0
VERTEX
  5
1AA
  8
FUNERARY
 10
537984.03290699993
 20
1041221.533821
 30
0.0
  0
VERTEX
  5
1AB
  8
FUNERARY
 10
538021.73058800015
 20
1041187.804316
 30
0.0
  0
VERTEX
  5
1AC
  8
FUNERARY
 10
537984.69426999998
 20
1041152.090723
 30
0.0
  0
SEQEND
  5
1AD
  8
FUNERARY
  0
POLYLINE
  5
8D
  8
FUNERARY
 66
     1
 10
0.0
 20
0.0
 30
0.0
 70
     1
  0
VERTEX
  5
1AE
  8
FUNERARY
 10
538039.58738500008
 20
1041058.1772
 30
0.0
  0
VERTEX
  5
1AF
  8
FUNERARY
 10
538039.58738500008
 20
1041108.440776
 30
0.0
  0
VERTEX
  5
1B0
  8
FUNERARY
 10
538089.85096099984
 20
1041108.440776
 30
0.0
  0
VERTEX
  5
1B1
  8
FUNERARY
 10
538089.85096099984
 20
1041058.1772
 30
0.0
  0
SEQEND
  5
1B2
  8
FUNERARY
  0
POLYLINE
  5
8E
  8
FUNERARY
 66
     1
 10
0.0
 20
0.0
 30
0.0
 70
     1
  0
VERTEX
  5
1B3
  8
FUNERARY
 10
538070.01007600001
 20
1041776.417241
 30
0.0
  0
VERTEX
  5
1B4
  8
FUNERARY
 10
538078.60779200005
 20
1041828.664905
 30
0.0
  0
VERTEX
  5
1B5
  8
FUNERARY
 10
538118.95092500001
 20
1041821.3899140001
 30
0.0
  0
VERTEX
  5
1B6
  8
FUNERARY
 10
538111.01457100001
 20
1041770.464975
 30
0.0
  0
SEQEND
  5
1B7
  8
FUNERARY
  0
POLYLINE
  5
8F
  8
FUNERARY
 66
     1
 10
0.0
 20
0.0
 30
0.0
 70
     1
  0
VERTEX
  5
1B8
  8
FUNERARY
 10
537951.62612799997
 20
1041524.173455
 30
0.0
  0
VERTEX
  5
1B9
  8
FUNERARY
 10
537983.37154399999
 20
1041565.839314
 30
0.0
  0
VERTEX
  5
1BA
  8
FUNERARY
 10
538007.84196899994
 20
1041551.2893309999
 30
0.0
  0
VERTEX
  5
1BB
  8
FUNERARY
 10
537976.75791599997
 20
1041510.946198
 30
0.0
  0
SEQEND
  5
1BC
  8
FUNERARY
  0
POLYLINE
  5
90
  8
FUNERARY
 66
     1
 10
0.0
 20
0.0
 30
0.0
 70
     1
  0
VERTEX
  5
1BD
  8
FUNERARY
 10
537768.42862200004
 20
1041078.414903
 30
0.0
  0
VERTEX
  5
1BE
  8
FUNERARY
 10
537790.91495799995
 20
1041166.37616
 30
0.0
  0
VERTEX
  5
1BF
  8
FUNERARY
 10
537827.95127700001
 20
1041157.778443
 30
0.0
  0
VERTEX
  5
1C0
  8
FUNERARY
 10
537809.43311800004
 20
1041062.542195
 30
0.0
  0
SEQEND
  5
1C1
  8
FUNERARY
  0
POLYLINE
  5
91
  8
FUNERARY
 66
     1
 10
0.0
 20
0.0
 30
0.0
 70
     1
  0
VERTEX
  5
1C2
  8
FUNERARY
 10
537731.39230299986
 20
1041015.585433
 30
0.0
  0
VERTEX
  5
1C3
  8
FUNERARY
 10
537768.42862200004
 20
1041076.430814
 30
0.0
  0
VERTEX
  5
1C4
  8
FUNERARY
 10
537808.77175499999
 20
1041061.219469
 30
0.0
  0
VERTEX
  5
1C5
  8
FUNERARY
 10
537761.81499400001
 20
1041000.374088
 30
0.0
  0
SEQEND
  5
1C6
  8
FUNERARY
  0
POLYLINE
  5
92
  8
FUNERARY
 66
     1
 10
0.0
 20
0.0
 30
0.0
 70
     1
  0
VERTEX
  5
1C7
  8
FUNERARY
 10
537722.79458599992
 20
1040951.433238
 30
0.0
  0
VERTEX
  5
1C8
  8
FUNERARY
 10
537698.98552400002
 20
1040970.61276
 30
0.0
  0
VERTEX
  5
1C9
  8
FUNERARY
 10
537729.40821499994
 20
1041014.262708
 30
0.0
  0
VERTEX
  5
1CA
  8
FUNERARY
 10
537760.49226800003
 20
1040999.0513620001
 30
0.0
  0
SEQEND
  5
1CB
  8
FUNERARY
  0
POLYLINE
  5
93
  8
FUNERARY
 66
     1
 10
0.0
 20
0.0
 30
0.0
 70
     1
  0
VERTEX
  5
1CC
  8
FUNERARY
 10
537562.74478000007
 20
1040821.144759
 30
0.0
  0
VERTEX
  5
1CD
  8
FUNERARY
 10
537587.87656700006
 20
1040854.212901
 30
0.0
  0
VERTEX
  5
1CE
  8
FUNERARY
 10
537614.99244399986
 20
1040835.033379
 30
0.0
  0
VERTEX
  5
1CF
  8
FUNERARY
 10
537589.19929300004
 20
1040803.9493259999
 30
0.0
  0
SEQEND
  5
1D0
  8
FUNERARY
  0
POLYLINE
  5
94
  8
FUNERARY
 66
     1
 10
0.0
 20
0.0
 30
0.0
 70
     1
  0
VERTEX
  5
1D1
  8
FUNERARY
 10
537669.84760500002
 20
1040708.060284
 30
0.0
  0
VERTEX
  5
1D2
  8
FUNERARY
 10
537689.68849099986
 20
1040708.060284
 30
0.0
  0
VERTEX
  5
1D3
  8
FUNERARY
 10
537689.68849099986
 20
1040688.2193990001
 30
0.0
  0
VERTEX
  5
1D4
  8
FUNERARY
 10
537669.84760500002
 20
1040688.2193990001
 30
0.0
  0
SEQEND
  5
1D5
  8
FUNERARY
  0
POLYLINE
  5
95
  8
FUNERARY
 66
     1
 10
0.0
 20
0.0
 30
0.0
 70
     1
  0
VERTEX
  5
1D6
  8
FUNERARY
 10
538837.32323900005
 20
1041287.5378319999
 30
0.0
  0
VERTEX
  5
1D7
  8
FUNERARY
 10
538839.30732700008
 20
1041306.717354
 30
0.0
  0
VERTEX
  5
1D8
  8
FUNERARY
 10
538867.74592899997
 20
1041349.705939
 30
0.0
  0
VERTEX
  5
1D9
  8
FUNERARY
 10
538907.4277
 20
1041324.574151
 30
0.0
  0
VERTEX
  5
1DA
  8
FUNERARY
 10
538865.76184099994
 20
1041280.924204
 30
0.0
  0
SEQEND
  5
1DB
  8
FUNERARY
  0
POLYLINE
  5
96
  8
FUNERARY
 66
     1
 10
0.0
 20
0.0
 30
0.0
 70
     1
  0
VERTEX
  5
1DC
  8
FUNERARY
 10
538782.43012300006
 20
1041147.32891
 30
0.0
  0
VERTEX
  5
1DD
  8
FUNERARY
 10
538789.70511500014
 20
1041173.122061
 30
0.0
  0
VERTEX
  5
1DE
  8
FUNERARY
 10
538810.86872499995
 20
1041167.831158
 30
0.0
  0
VERTEX
  5
1DF
  8
FUNERARY
 10
538802.27100900002
 20
1041143.360733
 30
0.0
  0
SEQEND
  5
1E0
  8
FUNERARY
  0
POLYLINE
  5
97
  8
FUNERARY
 66
     1
 10
0.0
 20
0.0
 30
0.0
 70
     1
  0
VERTEX
  5
1E1
  8
FUNERARY
 10
539272.90541200002
 20
1037780.973372
 30
0.0
  0
VERTEX
  5
1E2
  8
FUNERARY
 10
539272.90541200002
 20
1037831.254572
 30
0.0
  0
VERTEX
  5
1E3
  8
FUNERARY
 10
539323.18661199999
 20
1037831.254572
 30
0.0
  0
VERTEX
  5
1E4
  8
FUNERARY
 10
539323.18661199999
 20
1037780.973372
 30
0.0
  0
SEQEND
  5
1E5
  8
FUNERARY
  0
POLYLINE
  5
98
  8
FUNERARY
 66
     1
 10
0.0
 20
0.0
 30
0.0
 70
     1
  0
VERTEX
  5
1E6
  8
FUNERARY
 10
539629.28444099997
 20
1037500.457206
 30
0.0
  0
VERTEX
  5
1E7
  8
FUNERARY
 10
539629.28444099997
 20
1037525.156743
 30
0.0
  0
VERTEX
  5
1E8
  8
FUNERARY
 10
539654.86610400002
 20
1037525.156743
 30
0.0
  0
VERTEX
  5
1E9
  8
FUNERARY
 10
539654.86610400002
 20
1037500.457206
 30
0.0
  0
SEQEND
  5
1EA
  8
FUNERARY
  0
POLYLINE
  5
99
  8
FUNERARY
 66
     1
 10
0.0
 20
0.0
 30
0.0
 70
     1
  0
VERTEX
  5
1EB
  8
FUNERARY
 10
538474.40711400006
 20
1036241.779502
 30
0.0
  0
VERTEX
  5
1EC
  8
FUNERARY
 10
538524.67068900005
 20
1036241.779502
 30
0.0
  0
VERTEX
  5
1ED
  8
FUNERARY
 10
538524.67068900005
 20
1036191.515926
 30
0.0
  0
VERTEX
  5
1EE
  8
FUNERARY
 10
538474.40711400006
 20
1036191.515926
 30
0.0
  0
SEQEND
  5
1EF
  8
FUNERARY
  0
POLYLINE
  5
9A
  8
FUNERARY
 66
     1
 10
0.0
 20
0.0
 30
0.0
 70
     1
  0
VERTEX
  5
1F0
  8
FUNERARY
 10
541168.31008299999
 20
1034119.682507
 30
0.0
  0
VERTEX
  5
1F1
  8
FUNERARY
 10
541168.31008299999
 20
1034159.61711
 30
0.0
  0
VERTEX
  5
1F2
  8
FUNERARY
 10
541209.15229100001
 20
1034159.61711
 30
0.0
  0
VERTEX
  5
1F3
  8
FUNERARY
 10
541209.15229100001
 20
1034119.682507
 30
0.0
  0
SEQEND
  5
1F4
  8
FUNERARY
  0
POLYLINE
  5
9B
  8
FUNERARY
 66
     1
 10
0.0
 20
0.0
 30
0.0
 70
     1
  0
VERTEX
  5
1F5
  8
FUNERARY
 10
537797.40333900007
 20
1033023.114769
 30
0.0
  0
VERTEX
  5
1F6
  8
FUNERARY
 10
537847.71481499996
 20
1033023.114769
 30
0.0
  0
VERTEX
  5
1F7
  8
FUNERARY
 10
537847.71481499996
 20
1032972.803293
 30
0.0
  0
VERTEX
  5
1F8
  8
FUNERARY
 10
537797.40333900007
 20
1032972.803293
 30
0.0
  0
SEQEND
  5
1F9
  8
FUNERARY
  0
POLYLINE
  5
9C
  8
FUNERARY
 66
     1
 10
0.0
 20
0.0
 30
0.0
 70
     1
  0
VERTEX
  5
1FA
  8
FUNERARY
 10
540415.74519499997
 20
1030072.773165
 30
0.0
  0
VERTEX
  5
1FB
  8
FUNERARY
 10
540454.58870700002
 20
1030072.773165
 30
0.0
  0
VERTEX
  5
1FC
  8
FUNERARY
 10
540454.58870700002
 20
1030002.241525
 30
0.0
  0
VERTEX
  5
1FD
  8
FUNERARY
 10
540415.74519499997
 20
1030002.241525
 30
0.0
  0
SEQEND
  5
1FE
  8
FUNERARY
  0
POLYLINE
  5
9D
  8
FUNERARY
 66
     1
 10
0.0
 20
0.0
 30
0.0
 70
     1
  0
VERTEX
  5
1FF
  8
FUNERARY
 10
538435.90367100015
 20
1031981.9119140001
 30
0.0
  0
VERTEX
  5
200
  8
FUNERARY
 10
538435.90367100015
 20
1032032.7315840001
 30
0.0
  0
VERTEX
  5
201
  8
FUNERARY
 10
538486.72334100015
 20
1032032.7315840001
 30
0.0
  0
VERTEX
  5
202
  8
FUNERARY
 10
538486.72334100015
 20
1031981.9119140001
 30
0.0
  0
SEQEND
  5
203
  8
FUNERARY
  0
POLYLINE
  5
9E
  8
FUNERARY
 66
     1
 10
0.0
 20
0.0
 30
0.0
 70
     1
  0
VERTEX
  5
204
  8
FUNERARY
 10
538047.52627200005
 20
1034396.256694
 30
0.0
  0
VERTEX
  5
205
  8
FUNERARY
 10
538019.73426499986
 20
1034396.256694
 30
0.0
  0
VERTEX
  5
206
  8
FUNERARY
 10
538017.08740700001
 20
1034435.959561
 30
0.0
  0
VERTEX
  5
207
  8
FUNERARY
 10
538047.52627200005
 20
1034435.959561
 30
0.0
  0
SEQEND
  5
208
  8
FUNERARY
  0
POLYLINE
  5
9F
  8
FUNERARY
 66
     1
 10
0.0
 20
0.0
 30
0.0
 70
     1
  0
VERTEX
  5
209
  8
FUNERARY
 10
538195.08859499998
 20
1034203.697788
 30
0.0
  0
VERTEX
  5
20A
  8
FUNERARY
 10
538195.08859499998
 20
1034292.367525
 30
0.0
  0
VERTEX
  5
20B
  8
FUNERARY
 10
538270.52404300007
 20
1034292.367525
 30
0.0
  0
VERTEX
  5
20C
  8
FUNERARY
 10
538270.52404300007
 20
1034203.697788
 30
0.0
  0
SEQEND
  5
20D
  8
FUNERARY
  0
POLYLINE
  5
A0
  8
FUNERARY
 66
     1
 10
0.0
 20
0.0
 30
0.0
 70
     1
  0
VERTEX
  5
20E
  8
FUNERARY
 10
538255.32603500003
 20
1034066.504165
 30
0.0
  0
VERTEX
  5
20F
  8
FUNERARY
 10
538253.31946699985
 20
1034198.4040719999
 30
0.0
  0
VERTEX
  5
210
  8
FUNERARY
 10
538312.87376800005
 20
1034198.4040719999
 30
0.0
  0
VERTEX
  5
211
  8
FUNERARY
 10
538311.55033900007
 20
1034120.321767
 30
0.0
  0
VERTEX
  5
212
  8
FUNERARY
 10
538307.57935699995
 20
1034100.398212
 30
0.0
  0
VERTEX
  5
213
  8
FUNERARY
 10
538287.80782999995
 20
1034077.802181
 30
0.0
  0
SEQEND
  5
214
  8
FUNERARY
  0
POLYLINE
  5
A1
  8
FUNERARY
 66
     1
 10
0.0
 20
0.0
 30
0.0
 70
     1
  0
VERTEX
  5
215
  8
FUNERARY
 10
543105.77165200002
 20
1032147.6663489999
 30
0.0
  0
VERTEX
  5
216
  8
FUNERARY
 10
543141.50423299999
 20
1032147.6663489999
 30
0.0
  0
VERTEX
  5
217
  8
FUNERARY
 10
543141.50423299999
 20
1032117.227484
 30
0.0
  0
VERTEX
  5
218
  8
FUNERARY
 10
543105.77165200002
 20
1032118.550913
 30
0.0
  0
SEQEND
  5
219
  8
FUNERARY
  0
POLYLINE
  5
A2
  8
FUNERARY
 66
     1
 10
0.0
 20
0.0
 30
0.0
 70
     1
  0
VERTEX
  5
21A
  8
FUNERARY
 10
542778.99367799994
 20
1035284.823564
 30
0.0
  0
VERTEX
  5
21B
  8
FUNERARY
 10
542829.26461199997
 20
1035284.823564
 30
0.0
  0
VERTEX
  5
21C
  8
FUNERARY
 10
542830.58753100014
 20
1035234.55263
 30
0.0
  0
VERTEX
  5
21D
  8
FUNERARY
 10
542780.31659700011
 20
1035234.55263
 30
0.0
  0
SEQEND
  5
21E
  8
FUNERARY
  0
POLYLINE
  5
A3
  8
FUNERARY
 66
     1
 10
0.0
 20
0.0
 30
0.0
 70
     1
  0
VERTEX
  5
21F
  8
FUNERARY
 10
539250.21257199999
 20
1034082.1755820001
 30
0.0
  0
VERTEX
  5
220
  8
FUNERARY
 10
539284.60847400001
 20
1034082.1755820001
 30
0.0
  0
VERTEX
  5
221
  8
FUNERARY
 10
539284.60847400001
 20
1034057.040115
 30
0.0
  0
VERTEX
  5
222
  8
FUNERARY
 10
539250.21257199999
 20
1034057.040115
 30
0.0
  0
SEQEND
  5
223
  8
FUNERARY
  0
POLYLINE
  5
A4
  8
FUNERARY
 66
     1
 10
0.0
 20
0.0
 30
0.0
 70
     1
  0
VERTEX
  5
224
  8
FUNERARY
 10
539737.04687900015
 20
1034621.926662
 30
0.0
  0
VERTEX
  5
225
  8
FUNERARY
 10
539785.994893
 20
1034590.176598
 30
0.0
  0
VERTEX
  5
226
  8
FUNERARY
 10
539760.85942600016
 20
1034567.68697
 30
0.0
  0
VERTEX
  5
227
  8
FUNERARY
 10
539717.20308900008
 20
1034600.759953
 30
0.0
  0
SEQEND
  5
228
  8
FUNERARY
  0
POLYLINE
  5
A5
  8
FUNERARY
 66
     1
 10
0.0
 20
0.0
 30
0.0
 70
     1
  0
VERTEX
  5
229
  8
FUNERARY
 10
541594.41143599991
 20
1032468.2985790001
 30
0.0
  0
VERTEX
  5
22A
  8
FUNERARY
 10
541614.117616
 20
1032468.2985790001
 30
0.0
  0
VERTEX
  5
22B
  8
FUNERARY
 10
541614.117616
 20
1032448.592399
 30
0.0
  0
VERTEX
  5
22C
  8
FUNERARY
 10
541594.41143599991
 20
1032448.592399
 30
0.0
  0
SEQEND
  5
22D
  8
FUNERARY
  0
POLYLINE
  5
A6
  8
FUNERARY
 66
     1
 10
0.0
 20
0.0
 30
0.0
 70
     1
  0
VERTEX
  5
22E
  8
FUNERARY
 10
539820.54914000002
 20
1033334.516063
 30
0.0
  0
VERTEX
  5
22F
  8
FUNERARY
 10
539871.48448300001
 20
1033334.516063
 30
0.0
  0
VERTEX
  5
230
  8
FUNERARY
 10
539871.48448300001
 20
1033283.58072
 30
0.0
  0
VERTEX
  5
231
  8
FUNERARY
 10
539820.54914000002
 20
1033283.58072
 30
0.0
  0
SEQEND
  5
232
  8
FUNERARY
  0
POLYLINE
  5
A7
  8
FUNERARY
 66
     1
 10
0.0
 20
0.0
 30
0.0
 70
     1
  0
VERTEX
  5
233
  8
FUNERARY
 10
540720.17466000014
 20
1033077.815985
 30
0.0
  0
VERTEX
  5
234
  8
FUNERARY
 10
540745.30188100005
 20
1033077.815985
 30
0.0
  0
VERTEX
  5
235
  8
FUNERARY
 10
540745.30188100005
 20
1033052.688765
 30
0.0
  0
VERTEX
  5
236
  8
FUNERARY
 10
540720.17466000014
 20
1033052.688765
 30
0.0
  0
SEQEND
  5
237
  8
FUNERARY
  0
ENDSEC
  0
EOF
