  0
SECTION
  2
HEADER
  9
$ACADVER
  1
AC1015
  9
$ACADMAINTVER
 70
     6
  9
$DWGCODEPAGE
  3
ANSI_1255
  9
$INSBASE
 10
0.0
 20
0.0
 30
0.0
  9
$EXTMIN
 10
401096.677541495
 20
4667691.701146138
 30
0.0
  9
$EXTMAX
 10
413035.1757369806
 20
4677647.121843892
 30
0.0
  9
$LIMMIN
 10
0.0
 20
0.0
  9
$LIMMAX
 10
12.0
 20
9.0
  9
$ORTHOMODE
 70
     0
  9
$REGENMODE
 70
     1
  9
$FILLMODE
 70
     1
  9
$QTEXTMODE
 70
     0
  9
$MIRRTEXT
 70
     1
  9
$LTSCALE
 40
1.0
  9
$ATTMODE
 70
     1
  9
$TEXTSIZE
 40
0.2
  9
$TRACEWID
 40
0.05
  9
$TEXTSTYLE
  7
Standard
  9
$CLAYER
  8
0
  9
$CELTYPE
  6
ByLayer
  9
$CECOLOR
 62
   256
  9
$CELTSCALE
 40
1.0
  9
$DISPSILH
 70
     0
  9
$DIMSCALE
 40
1.0
  9
$DIMASZ
 40
0.18
  9
$DIMEXO
 40
0.0625
  9
$DIMDLI
 40
0.38
  9
$DIMRND
 40
0.0
  9
$DIMDLE
 40
0.0
  9
$DIMEXE
 40
0.18
  9
$DIMTP
 40
0.0
  9
$DIMTM
 40
0.0
  9
$DIMTXT
 40
0.18
  9
$DIMCEN
 40
0.09
  9
$DIMTSZ
 40
0.0
  9
$DIMTOL
 70
     0
  9
$DIMLIM
 70
     0
  9
$DIMTIH
 70
     1
  9
$DIMTOH
 70
     1
  9
$DIMSE1
 70
     0
  9
$DIMSE2
 70
     0
  9
$DIMTAD
 70
     0
  9
$DIMZIN
 70
     0
  9
$DIMBLK
  1

  9
$DIMASO
 70
     1
  9
$DIMSHO
 70
     1
  9
$DIMPOST
  1

  9
$DIMAPOST
  1

  9
$DIMALT
 70
     0
  9
$DIMALTD
 70
     2
  9
$DIMALTF
 40
25.4
  9
$DIMLFAC
 40
1.0
  9
$DIMTOFL
 70
     0
  9
$DIMTVP
 40
0.0
  9
$DIMTIX
 70
     0
  9
$DIMSOXD
 70
     0
  9
$DIMSAH
 70
     0
  9
$DIMBLK1
  1

  9
$DIMBLK2
  1

  9
$DIMSTYLE
  2
Standard
  9
$DIMCLRD
 70
     0
  9
$DIMCLRE
 70
     0
  9
$DIMCLRT
 70
     0
  9
$DIMTFAC
 40
1.0
  9
$DIMGAP
 40
0.09
  9
$DIMJUST
 70
     0
  9
$DIMSD1
 70
     0
  9
$DIMSD2
 70
     0
  9
$DIMTOLJ
 70
     1
  9
$DIMTZIN
 70
     0
  9
$DIMALTZ
 70
     0
  9
$DIMALTTZ
 70
     0
  9
$DIMUPT
 70
     0
  9
$DIMDEC
 70
     4
  9
$DIMTDEC
 70
     4
  9
$DIMALTU
 70
     2
  9
$DIMALTTD
 70
     2
  9
$DIMTXSTY
  7
Standard
  9
$DIMAUNIT
 70
     0
  9
$DIMADEC
 70
     0
  9
$DIMALTRND
 40
0.0
  9
$DIMAZIN
 70
     0
  9
$DIMDSEP
 70
    46
  9
$DIMATFIT
 70
     3
  9
$DIMFRAC
 70
     0
  9
$DIMLDRBLK
  1

  9
$DIMLUNIT
 70
     2
  9
$DIMLWD
 70
    -2
  9
$DIMLWE
 70
    -2
  9
$DIMTMOVE
 70
     0
  9
$LUNITS
 70
     2
  9
$LUPREC
 70
     4
  9
$SKETCHINC
 40
0.1
  9
$FILLETRAD
 40
0.5
  9
$AUNITS
 70
     0
  9
$AUPREC
 70
     0
  9
$MENU
  1
.
  9
$ELEVATION
 40
0.0
  9
$PELEVATION
 40
0.0
  9
$THICKNESS
 40
0.0
  9
$LIMCHECK
 70
     0
  9
$CHAMFERA
 40
0.0
  9
$CHAMFERB
 40
0.0
  9
$CHAMFERC
 40
0.0
  9
$CHAMFERD
 40
0.0
  9
$SKPOLY
 70
     0
  9
$TDCREATE
 40
2458654.376906192
  9
$TDUCREATE
 40
2458654.251906192
  9
$TDUPDATE
 40
2458654.376906632
  9
$TDUUPDATE
 40
2458654.251906632
  9
$TDINDWG
 40
0.0000000116
  9
$TDUSRTIMER
 40
0.0000000116
  9
$USRTIMER
 70
     1
  9
$ANGBASE
 50
0.0
  9
$ANGDIR
 70
     0
  9
$PDMODE
 70
     0
  9
$PDSIZE
 40
0.0
  9
$PLINEWID
 40
0.0
  9
$SPLFRAME
 70
     0
  9
$SPLINETYPE
 70
     6
  9
$SPLINESEGS
 70
     8
  9
$HANDSEED
  5
137
  9
$SURFTAB1
 70
     6
  9
$SURFTAB2
 70
     6
  9
$SURFTYPE
 70
     6
  9
$SURFU
 70
     6
  9
$SURFV
 70
     6
  9
$UCSBASE
  2

  9
$UCSNAME
  2

  9
$UCSORG
 10
0.0
 20
0.0
 30
0.0
  9
$UCSXDIR
 10
1.0
 20
0.0
 30
0.0
  9
$UCSYDIR
 10
0.0
 20
1.0
 30
0.0
  9
$UCSORTHOREF
  2

  9
$UCSORTHOVIEW
 70
     0
  9
$UCSORGTOP
 10
0.0
 20
0.0
 30
0.0
  9
$UCSORGBOTTOM
 10
0.0
 20
0.0
 30
0.0
  9
$UCSORGLEFT
 10
0.0
 20
0.0
 30
0.0
  9
$UCSORGRIGHT
 10
0.0
 20
0.0
 30
0.0
  9
$UCSORGFRONT
 10
0.0
 20
0.0
 30
0.0
  9
$UCSORGBACK
 10
0.0
 20
0.0
 30
0.0
  9
$PUCSBASE
  2

  9
$PUCSNAME
  2

  9
$PUCSORG
 10
0.0
 20
0.0
 30
0.0
  9
$PUCSXDIR
 10
1.0
 20
0.0
 30
0.0
  9
$PUCSYDIR
 10
0.0
 20
1.0
 30
0.0
  9
$PUCSORTHOREF
  2

  9
$PUCSORTHOVIEW
 70
     0
  9
$PUCSORGTOP
 10
0.0
 20
0.0
 30
0.0
  9
$PUCSORGBOTTOM
 10
0.0
 20
0.0
 30
0.0
  9
$PUCSORGLEFT
 10
0.0
 20
0.0
 30
0.0
  9
$PUCSORGRIGHT
 10
0.0
 20
0.0
 30
0.0
  9
$PUCSORGFRONT
 10
0.0
 20
0.0
 30
0.0
  9
$PUCSORGBACK
 10
0.0
 20
0.0
 30
0.0
  9
$USERI1
 70
     0
  9
$USERI2
 70
     0
  9
$USERI3
 70
     0
  9
$USERI4
 70
     0
  9
$USERI5
 70
     0
  9
$USERR1
 40
0.0
  9
$USERR2
 40
0.0
  9
$USERR3
 40
0.0
  9
$USERR4
 40
0.0
  9
$USERR5
 40
0.0
  9
$WORLDVIEW
 70
     1
  9
$SHADEDGE
 70
     3
  9
$SHADEDIF
 70
    70
  9
$TILEMODE
 70
     1
  9
$MAXACTVP
 70
    64
  9
$PINSBASE
 10
0.0
 20
0.0
 30
0.0
  9
$PLIMCHECK
 70
     0
  9
$PEXTMIN
 10
1.000000000000000E+20
 20
1.000000000000000E+20
 30
1.000000000000000E+20
  9
$PEXTMAX
 10
-1.000000000000000E+20
 20
-1.000000000000000E+20
 30
-1.000000000000000E+20
  9
$PLIMMIN
 10
0.0
 20
0.0
  9
$PLIMMAX
 10
12.0
 20
9.0
  9
$UNITMODE
 70
     0
  9
$VISRETAIN
 70
     1
  9
$PLINEGEN
 70
     0
  9
$PSLTSCALE
 70
     1
  9
$TREEDEPTH
 70
  3020
  9
$CMLSTYLE
  2
Standard
  9
$CMLJUST
 70
     0
  9
$CMLSCALE
 40
1.0
  9
$PROXYGRAPHICS
 70
     1
  9
$MEASUREMENT
 70
     0
  9
$CELWEIGHT
370
    -1
  9
$ENDCAPS
280
     0
  9
$JOINSTYLE
280
     0
  9
$LWDISPLAY
290
     0
  9
$INSUNITS
 70
     1
  9
$HYPERLINKBASE
  1

  9
$STYLESHEET
  1

  9
$XEDIT
290
     1
  9
$CEPSNTYPE
380
     0
  9
$PSTYLEMODE
290
     1
  9
$FINGERPRINTGUID
  2
{2711da89-5784-48c3-8afa-d90b5e24b0e1}
  9
$VERSIONGUID
  2
{FAEB1C32-E019-11D5-929B-00C0DF256EC4}
  9
$EXTNAMES
290
     1
  9
$PSVPSCALE
 40
0.0
  9
$OLESTARTUP
290
     0
  0
ENDSEC
  0
SECTION
  2
CLASSES
  0
CLASS
  1
ACDBDICTIONARYWDFLT
  2
AcDbDictionaryWithDefault
  3
ObjectDBX Classes
 90
        0
280
     0
281
     0
  0
CLASS
  1
VISUALSTYLE
  2
AcDbVisualStyle
  3
ObjectDBX Classes
 90
     4095
280
     0
281
     0
  0
CLASS
  1
MATERIAL
  2
AcDbMaterial
  3
ObjectDBX Classes
 90
     1153
280
     0
281
     0
  0
CLASS
  1
SCALE
  2
AcDbScale
  3
ObjectDBX Classes
 90
     1153
280
     0
281
     0
  0
CLASS
  1
TABLESTYLE
  2
AcDbTableStyle
  3
ObjectDBX Classes
 90
     4095
280
     0
281
     0
  0
CLASS
  1
MLEADERSTYLE
  2
AcDbMLeaderStyle
  3
ACDB_MLEADERSTYLE_CLASS
 90
     4095
280
     0
281
     0
  0
CLASS
  1
SUN
  2
AcDbSun
  3
SCENEOE
 90
     1153
280
     0
281
     0
  0
CLASS
  1
DICTIONARYVAR
  2
AcDbDictionaryVar
  3
ObjectDBX Classes
 90
        0
280
     0
281
     0
  0
CLASS
  1
ACDBPLACEHOLDER
  2
AcDbPlaceHolder
  3
ObjectDBX Classes
 90
        0
280
     0
281
     0
  0
CLASS
  1
LAYOUT
  2
AcDbLayout
  3
ObjectDBX Classes
 90
        0
280
     0
281
     0
  0
ENDSEC
  0
SECTION
  2
TABLES
  0
TABLE
  2
VPORT
  5
8
102
{ACAD_XDICTIONARY
360
FC
102
}
330
0
100
AcDbSymbolTable
 70
     1
  0
VPORT
  5
29
330
8
100
AcDbSymbolTableRecord
100
AcDbViewportTableRecord
  2
*Active
 70
     0
 10
0.0
 20
0.0
 11
1.0
 21
1.0
 12
407065.9266392378
 22
4672669.411495015
 13
0.0
 23
0.0
 14
0.5
 24
0.5
 15
0.5
 25
0.5
 16
0.0
 26
0.0
 36
1.0
 17
0.0
 27
0.0
 37
0.0
 40
10154.52911170933
 41
1.199195750530037
 42
50.0
 43
0.0
 44
0.0
 50
0.0
 51
0.0
 71
     0
 72
   100
 73
     1
 74
     3
 75
     0
 76
     0
 77
     0
 78
     0
281
     0
 65
     1
110
0.0
120
0.0
130
0.0
111
1.0
121
0.0
131
0.0
112
0.0
122
1.0
132
0.0
 79
     0
146
0.0
  0
ENDTAB
  0
TABLE
  2
LTYPE
  5
5
330
0
100
AcDbSymbolTable
 70
     1
  0
LTYPE
  5
14
330
5
100
AcDbSymbolTableRecord
100
AcDbLinetypeTableRecord
  2
ByBlock
 70
     0
  3

 72
    65
 73
     0
 40
0.0
  0
LTYPE
  5
15
330
5
100
AcDbSymbolTableRecord
100
AcDbLinetypeTableRecord
  2
ByLayer
 70
     0
  3

 72
    65
 73
     0
 40
0.0
  0
LTYPE
  5
16
330
5
100
AcDbSymbolTableRecord
100
AcDbLinetypeTableRecord
  2
Continuous
 70
     0
  3
Solid line
 72
    65
 73
     0
 40
0.0
  0
ENDTAB
  0
TABLE
  2
LAYER
  5
2
330
0
100
AcDbSymbolTable
 70
     2
  0
LAYER
  5
10
330
2
100
AcDbSymbolTableRecord
100
AcDbLayerTableRecord
  2
0
 70
     0
 62
     7
  6
Continuous
370
    -3
390
F
  0
LAYER
  5
B2
330
2
100
AcDbSymbolTableRecord
100
AcDbLayerTableRecord
  2
XLW_collections
 70
     0
 62
   254
  6
Continuous
370
    -1
390
F
  0
ENDTAB
  0
TABLE
  2
STYLE
  5
3
330
0
100
AcDbSymbolTable
 70
     1
  0
STYLE
  5
11
330
3
100
AcDbSymbolTableRecord
100
AcDbTextStyleTableRecord
  2
Standard
 70
     0
 40
0.0
 41
1.0
 50
0.0
 71
     0
 42
0.2
  3
txt
  4

  0
ENDTAB
  0
TABLE
  2
VIEW
  5
6
330
0
100
AcDbSymbolTable
 70
     0
  0
ENDTAB
  0
TABLE
  2
UCS
  5
7
330
0
100
AcDbSymbolTable
 70
     0
  0
ENDTAB
  0
TABLE
  2
APPID
  5
9
330
0
100
AcDbSymbolTable
 70
     2
  0
APPID
  5
12
330
9
100
AcDbSymbolTableRecord
100
AcDbRegAppTableRecord
  2
ACAD
 70
     0
  0
APPID
  5
134
330
9
100
AcDbSymbolTableRecord
100
AcDbRegAppTableRecord
  2
ACAD_MLEADERVER
 70
     0
  0
ENDTAB
  0
TABLE
  2
DIMSTYLE
  5
A
330
0
100
AcDbSymbolTable
 70
     1
100
AcDbDimStyleTable
  0
DIMSTYLE
105
27
330
A
100
AcDbSymbolTableRecord
100
AcDbDimStyleTableRecord
  2
Standard
 70
     0
178
     0
340
11
  0
ENDTAB
  0
TABLE
  2
BLOCK_RECORD
  5
1
330
0
100
AcDbSymbolTable
 70
     1
  0
BLOCK_RECORD
  5
1F
330
1
100
AcDbSymbolTableRecord
100
AcDbBlockTableRecord
  2
*Model_Space
340
22
  0
BLOCK_RECORD
  5
1B
330
1
100
AcDbSymbolTableRecord
100
AcDbBlockTableRecord
  2
*Paper_Space
340
1E
  0
BLOCK_RECORD
  5
23
330
1
100
AcDbSymbolTableRecord
100
AcDbBlockTableRecord
  2
*Paper_Space0
340
26
  0
ENDTAB
  0
ENDSEC
  0
SECTION
  2
BLOCKS
  0
BLOCK
  5
20
330
1F
100
AcDbEntity
  8
0
100
AcDbBlockBegin
  2
*Model_Space
 70
     0
 10
0.0
 20
0.0
 30
0.0
  3
*Model_Space
  1

  0
ENDBLK
  5
21
330
1F
100
AcDbEntity
  8
0
100
AcDbBlockEnd
  0
BLOCK
  5
1C
330
1B
100
AcDbEntity
 67
     1
  8
0
100
AcDbBlockBegin
  2
*Paper_Space
 70
     0
 10
0.0
 20
0.0
 30
0.0
  3
*Paper_Space
  1

  0
ENDBLK
  5
1D
330
1B
100
AcDbEntity
 67
     1
  8
0
100
AcDbBlockEnd
  0
BLOCK
  5
24
330
23
100
AcDbEntity
  8
0
100
AcDbBlockBegin
  2
*Paper_Space0
 70
     0
 10
0.0
 20
0.0
 30
0.0
  3
*Paper_Space0
  1

  0
ENDBLK
  5
25
330
23
100
AcDbEntity
  8
0
100
AcDbBlockEnd
  0
ENDSEC
  0
SECTION
  2
ENTITIES
  0
LWPOLYLINE
  5
B3
330
1F
100
AcDbEntity
  8
XLW_collections
100
AcDbPolyline
 90
       33
 70
     1
 43
0.0
 10
401148.106312196
 20
4670361.651132003
 10
401152.7992227487
 20
4670358.85872521
 10
401154.0194089013
 20
4670357.508818598
 10
401155.2052567714
 20
4670353.716202231
 10
401163.6034473999
 20
4670322.27955324
 10
401169.6842253865
 20
4670308.200661118
 10
401176.0250557504
 20
4670306.77908192
 10
401179.140240616
 20
4670305.069376461
 10
401182.7852778225
 20
4670299.909598312
 10
401183.7690661111
 20
4670292.993579783
 10
401183.3509909582
 20
4670293.126978028
 10
401181.4451759161
 20
4670292.709436062
 10
401154.2068670905
 20
4670282.54081792
 10
401150.9905075671
 20
4670277.032986755
 10
401150.71064677
 20
4670274.825550492
 10
401149.0971456995
 20
4670277.503666854
 10
401142.849776456
 20
4670279.701452284
 10
401126.4200999421
 20
4670280.376226687
 10
401124.7868585549
 20
4670293.504198792
 10
401126.0553501174
 20
4670295.596541672
 10
401126.382528541
 20
4670318.914512607
 10
401127.6697121182
 20
4670322.339383264
 10
401128.5143204393
 20
4670335.432584748
 10
401128.5205526805
 20
4670335.876762252
 10
401127.8597858147
 20
4670335.886033484
 10
401127.1866295241
 20
4670335.007022618
 10
401126.6022075334
 20
4670334.570957755
 10
401110.1072113656
 20
4670330.582087833
 10
401097.1730570432
 20
4670350.754489174
 10
401096.677541495
 20
4670356.647552651
 10
401097.2681236683
 20
4670357.527790904
 10
401113.7505990579
 20
4670360.628262056
 10
401139.0360692353
 20
4670367.048097135
  0
LWPOLYLINE
  5
B4
330
1F
100
AcDbEntity
  8
XLW_collections
100
AcDbPolyline
 90
       25
 70
     1
 43
0.0
 10
401301.3441700159
 20
4670348.224949738
 10
401302.5301722873
 20
4670344.432354673
 10
401312.8643726466
 20
4670315.523081452
 10
401315.1992446459
 20
4670299.386787057
 10
401317.7008462012
 20
4670281.53677852
 10
401315.4150477942
 20
4670273.50682838
 10
401323.3924675736
 20
4670260.31591626
 10
401323.4082796269
 20
4670260.289817959
 10
401310.7763460452
 20
4670254.913680443
 10
401285.9973744145
 20
4670243.377396321
 10
401257.4905774958
 20
4670231.115844138
 10
401232.1690267382
 20
4670222.141739183
 10
401230.947317772
 20
4670223.380480302
 10
401226.0398686026
 20
4670232.778298412
 10
401223.8048097548
 20
4670236.656870187
 10
401212.4910459223
 20
4670256.290827383
 10
401203.3618707005
 20
4670282.740023894
 10
401207.2918861473
 20
4670292.013956882
 10
401216.4250927424
 20
4670312.987296885
 10
401219.3575872573
 20
4670326.349275661
 10
401223.5183673985
 20
4670323.993842575
 10
401238.7447560313
 20
4670331.776678815
 10
401272.3249933941
 20
4670346.521343065
 10
401290.7021698072
 20
4670355.148718843
 10
401292.6143461523
 20
4670357.2776707
  0
LWPOLYLINE
  5
B5
330
1F
100
AcDbEntity
  8
XLW_collections
100
AcDbPolyline
 90
       26
 70
     1
 43
0.0
 10
401336.8038626133
 20
4670402.814110191
 10
401348.6255568779
 20
4670391.653648368
 10
401353.5921159236
 20
4670386.475375952
 10
401358.6006495098
 20
4670384.295076787
 10
401378.7124446685
 20
4670381.125982182
 10
401394.2792102042
 20
4670366.026137075
 10
401396.3703863512
 20
4670361.953709683
 10
401388.659979798
 20
4670324.56837942
 10
401389.8165099626
 20
4670318.666070808
 10
401381.5218299646
 20
4670310.34162206
 10
401359.273920416
 20
4670296.659551714
 10
401334.4655624109
 20
4670283.013297083
 10
401318.0531582732
 20
4670279.022829226
 10
401317.7008462012
 20
4670281.53677852
 10
401315.1992446459
 20
4670299.386787057
 10
401312.8643726466
 20
4670315.523081452
 10
401302.5301722873
 20
4670344.432354673
 10
401301.3441700159
 20
4670348.224949738
 10
401292.6143461523
 20
4670357.2776707
 10
401295.2336933282
 20
4670360.194009405
 10
401294.3572190888
 20
4670386.083206553
 10
401295.7195721504
 20
4670406.361195619
 10
401299.4168961674
 20
4670407.470071422
 10
401299.6861295129
 20
4670406.776732458
 10
401309.1667937018
 20
4670411.308486798
 10
401320.7637944475
 20
4670416.860230107
  0
LWPOLYLINE
  5
B6
330
1F
100
AcDbEntity
  8
XLW_collections
100
AcDbPolyline
 90
       25
 70
     1
 43
0.0
 10
401391.5055589996
 20
4670439.364450858
 10
401402.5361545027
 20
4670418.886220126
 10
401418.7278385065
 20
4670401.22325055
 10
401419.9496197836
 20
4670399.984424186
 10
401439.9185100562
 20
4670386.600182115
 10
401443.5810366884
 20
4670376.775652974
 10
401441.5928757096
 20
4670370.473045781
 10
401428.0691808455
 20
4670348.56123683
 10
401424.2063544705
 20
4670344.061813146
 10
401407.2561156753
 20
4670348.852411634
 10
401399.6235059582
 20
4670346.515943268
 10
401396.5021470824
 20
4670347.78128882
 10
401395.2865738296
 20
4670349.46415673
 10
401396.6917047717
 20
4670361.327881691
 10
401396.3703863512
 20
4670361.953709683
 10
401394.2792102042
 20
4670366.026137075
 10
401378.7124446685
 20
4670381.125982182
 10
401358.6006495098
 20
4670384.295076787
 10
401353.5921159236
 20
4670386.475375952
 10
401348.6255568779
 20
4670391.653648368
 10
401336.8038626133
 20
4670402.814110191
 10
401320.7637944475
 20
4670416.860230107
 10
401333.2844631133
 20
4670422.854106824
 10
401357.5202631233
 20
4670442.83881085
 10
401374.493608851
 20
4670457.695834671
  0
LWPOLYLINE
  5
B7
330
1F
100
AcDbEntity
  8
XLW_collections
100
AcDbPolyline
 90
       26
 70
     1
 43
0.0
 10
401328.0929490741
 20
4670500.446640906
 10
401333.0951737352
 20
4670497.822188732
 10
401348.656580136
 20
4670488.275256336
 10
401370.1989663065
 20
4670484.870852798
 10
401370.7378236212
 20
4670484.190163081
 10
401385.830736844
 20
4670470.330173557
 10
401376.0027619372
 20
4670459.016870874
 10
401374.493608851
 20
4670457.695834671
 10
401357.5202631233
 20
4670442.83881085
 10
401333.2844631133
 20
4670422.854106824
 10
401320.7637944475
 20
4670416.860230107
 10
401309.1667937018
 20
4670411.308486798
 10
401299.6861295129
 20
4670406.776732458
 10
401299.4168961674
 20
4670407.470071422
 10
401297.2143950535
 20
4670413.141742717
 10
401284.3918783183
 20
4670441.30848403
 10
401277.2601582411
 20
4670458.882890926
 10
401278.3701168278
 20
4670459.606732985
 10
401291.0546026712
 20
4670468.75804742
 10
401292.9836206334
 20
4670470.841186038
 10
401299.3320314326
 20
4670475.860942474
 10
401307.0252686614
 20
4670482.527840407
 10
401308.9543523206
 20
4670484.610978059
 10
401312.8063685853
 20
4670488.333010308
 10
401324.2937414447
 20
4670500.499843679
 10
401326.5575186317
 20
4670502.712552881
  0
LWPOLYLINE
  5
B8
330
1F
100
AcDbEntity
  8
XLW_collections
100
AcDbPolyline
 90
       13
 70
     1
 43
0.0
 10
401398.8607832131
 20
4670516.33711956
 10
401413.8146869153
 20
4670504.688636415
 10
401424.4752121574
 20
4670499.097622796
 10
401416.0844592825
 20
4670483.888790147
 10
401396.1609638531
 20
4670459.179013958
 10
401391.8613996077
 20
4670464.792274232
 10
401385.830736844
 20
4670470.330173557
 10
401370.7378236212
 20
4670484.190163081
 10
401370.1989663065
 20
4670484.870852798
 10
401372.5595191212
 20
4670484.497874278
 10
401380.2649590952
 20
4670492.053104701
 10
401398.2468708845
 20
4670513.79131122
 10
401396.001910705
 20
4670516.882519526
  0
LWPOLYLINE
  5
B9
330
1F
100
AcDbEntity
  8
XLW_collections
100
AcDbPolyline
 90
       17
 70
     1
 43
0.0
 10
401378.9727893553
 20
4670543.601932388
 10
401380.9705158692
 20
4670542.464415628
 10
401380.9472045788
 20
4670540.798854777
 10
401383.3348345302
 20
4670534.323974391
 10
401396.001910705
 20
4670516.882519526
 10
401398.2468708845
 20
4670513.79131122
 10
401380.2649590952
 20
4670492.053104701
 10
401372.5595191212
 20
4670484.497874278
 10
401370.1989663065
 20
4670484.870852798
 10
401348.656580136
 20
4670488.275256336
 10
401333.0951737352
 20
4670497.822188732
 10
401328.0929490741
 20
4670500.446640906
 10
401326.5575186317
 20
4670502.712552881
 10
401342.2167309087
 20
4670518.018422673
 10
401349.8505517264
 20
4670526.35212095
 10
401367.154632835
 20
4670546.878072594
 10
401364.9522762506
 20
4670551.585032543
  0
LWPOLYLINE
  5
BA
330
1F
100
AcDbEntity
  8
XLW_collections
100
AcDbPolyline
 90
       18
 70
     1
 43
0.0
 10
401437.7539339283
 20
4670592.091085231
 10
401438.2965574799
 20
4670583.642925112
 10
401435.681943427
 20
4670579.792378523
 10
401437.4153309028
 20
4670567.884743029
 10
401441.7397160853
 20
4670564.04824293
 10
401445.5030188631
 20
4670561.441223419
 10
401457.955992383
 20
4670548.162003212
 10
401450.1387311756
 20
4670532.611865506
 10
401453.1932390763
 20
4670526.571929365
 10
401446.0259721071
 20
4670510.235269348
 10
401420.9246307285
 20
4670516.916837374
 10
401402.9038448466
 20
4670533.716912437
 10
401397.9420206778
 20
4670539.228260598
 10
401386.4179373262
 20
4670552.552791278
 10
401395.1361861472
 20
4670563.0343099
 10
401407.3367921975
 20
4670578.967311639
 10
401423.2477854472
 20
4670594.404137966
 10
401429.5541500524
 20
4670609.32791327
  0
LWPOLYLINE
  5
BB
330
1F
100
AcDbEntity
  8
XLW_collections
100
AcDbPolyline
 90
       52
 70
     1
 43
0.0
 10
401357.9536100378
 20
4670685.849247681
 10
401364.8512723672
 20
4670683.840645049
 10
401373.6949730938
 20
4670679.96795483
 10
401383.5165659707
 20
4670675.343695772
 10
401387.8407513855
 20
4670673.30777533
 10
401393.6425558725
 20
4670662.134908051
 10
401398.2974375407
 20
4670653.170689979
 10
401410.0784669042
 20
4670639.123353271
 10
401423.2139197283
 20
4670621.266959589
 10
401429.5541500524
 20
4670609.32791327
 10
401426.377871297
 20
4670601.811421848
 10
401423.2477854472
 20
4670594.404137966
 10
401416.5228502661
 20
4670587.879526359
 10
401411.993089925
 20
4670583.484820266
 10
401407.3367921975
 20
4670578.967311639
 10
401401.9687042034
 20
4670571.956988612
 10
401399.1979966778
 20
4670568.338704753
 10
401395.1361861472
 20
4670563.0343099
 10
401389.7695047869
 20
4670556.582211426
 10
401386.4179373262
 20
4670552.552791278
 10
401378.9727893553
 20
4670543.601932388
 10
401369.9687424009
 20
4670548.728651596
 10
401364.9522010248
 20
4670551.58495967
 10
401363.5495963236
 20
4670552.604952929
 10
401360.8453726798
 20
4670553.923365574
 10
401349.2042714463
 20
4670559.598770802
 10
401346.6903527585
 20
4670560.824401771
 10
401341.5296322941
 20
4670563.340441572
 10
401340.1571202092
 20
4670564.988206501
 10
401329.7584028983
 20
4670575.766754437
 10
401328.3772394151
 20
4670577.040107489
 10
401324.1807817188
 20
4670580.908741911
 10
401321.6722272261
 20
4670584.180332646
 10
401319.1938445119
 20
4670587.412538923
 10
401314.1010327106
 20
4670594.054588171
 10
401312.6710247388
 20
4670595.91962556
 10
401310.9133018949
 20
4670598.2119871
 10
401308.686199601
 20
4670601.116560723
 10
401308.4180787133
 20
4670601.306029371
 10
401304.581148806
 20
4670604.01823594
 10
401307.5297937843
 20
4670607.018873194
 10
401307.58009181
 20
4670610.609852021
 10
401307.7553108293
 20
4670623.119426722
 10
401310.9776213769
 20
4670629.071506925
 10
401320.4813113468
 20
4670635.268812247
 10
401324.1859897685
 20
4670638.130289814
 10
401330.0847371547
 20
4670642.686420369
 10
401333.271331958
 20
4670646.084640685
 10
401336.3637940162
 20
4670648.245409384
 10
401341.610273966
 20
4670657.598150156
 10
401346.6625733232
 20
4670658.55791637
 10
401353.7368121411
 20
4670668.232234365
  0
LWPOLYLINE
  5
BC
330
1F
100
AcDbEntity
  8
XLW_collections
100
AcDbPolyline
 90
       20
 70
     1
 43
0.0
 10
402465.2963612775
 20
4669471.642494539
 10
402470.8886708749
 20
4669469.788147847
 10
402476.5482072245
 20
4669466.822271375
 10
402482.7784015455
 20
4669463.293275137
 10
402490.8852911445
 20
4669458.072413359
 10
402489.5709156877
 20
4669452.648703305
 10
402480.4453050618
 20
4669432.006886608
 10
402476.593001142
 20
4669422.287038873
 10
402470.0390453979
 20
4669408.384158598
 10
402470.0282915236
 20
4669407.606952207
 10
402450.6447707147
 20
4669415.871443036
 10
402446.8572828652
 20
4669416.81234998
 10
402446.2073368457
 20
4669417.598699494
 10
402443.7476261652
 20
4669418.965550197
 10
402440.7670652407
 20
4669430.445796614
 10
402445.284876276
 20
4669440.489735153
 10
402455.0837211112
 20
4669462.010652769
 10
402456.3042017942
 20
4669462.921509481
 10
402456.9716956007
 20
4669467.093157372
 10
402459.6321493192
 20
4669474.275262294
  0
LWPOLYLINE
  5
BD
330
1F
100
AcDbEntity
  8
XLW_collections
100
AcDbPolyline
 90
       19
 70
     1
 43
0.0
 10
402088.1414056829
 20
4669685.329860226
 10
402089.3804736148
 20
4669685.312647252
 10
402101.9240836147
 20
4669678.363763032
 10
402104.9687477367
 20
4669671.546824758
 10
402106.1475963662
 20
4669667.199135738
 10
402106.7729536384
 20
4669664.636126809
 10
402108.5494030844
 20
4669655.726696245
 10
402109.7420630776
 20
4669652.378400194
 10
402097.015769101
 20
4669640.227595803
 10
402092.4966610504
 20
4669636.070093049
 10
402090.5799339104
 20
4669634.875006694
 10
402073.3993150745
 20
4669623.230396883
 10
402070.9383502461
 20
4669624.486229737
 10
402057.2682315522
 20
4669639.558109669
 10
402046.1218687529
 20
4669651.929599138
 10
402047.3854844976
 20
4669653.688962216
 10
402064.6247809587
 20
4669669.552976223
 10
402084.466370088
 20
4669686.349449051
 10
402086.2587018984
 20
4669686.577644453
  0
LWPOLYLINE
  5
BE
330
1F
100
AcDbEntity
  8
XLW_collections
100
AcDbPolyline
 90
       37
 70
     1
 43
0.0
 10
401376.6430347245
 20
4669873.167608947
 10
401383.5392154398
 20
4669870.072406971
 10
401394.2302922666
 20
4669866.591097692
 10
401397.8927378404
 20
4669862.652786404
 10
401398.5240306118
 20
4669860.533687968
 10
401402.0920499017
 20
4669843.935966616
 10
401410.7404904667
 20
4669830.265636661
 10
401421.9616519118
 20
4669823.334142841
 10
401423.8380664465
 20
4669821.641916199
 10
401430.6645102776
 20
4669813.550137813
 10
401436.8518939709
 20
4669807.022149939
 10
401437.5064245837
 20
4669806.568773234
 10
401440.6109527915
 20
4669804.081981797
 10
401443.6130046329
 20
4669794.266858389
 10
401442.1256607093
 20
4669776.51808493
 10
401442.6913988995
 20
4669775.621649517
 10
401445.7711746456
 20
4669771.35829501
 10
401453.7701403149
 20
4669752.588438456
 10
401446.7433885197
 20
4669746.356312642
 10
401436.6182023583
 20
4669743.054994866
 10
401417.0275305446
 20
4669742.180195831
 10
401413.8569473057
 20
4669740.041634579
 10
401408.1809689458
 20
4669741.786884375
 10
401398.8594942274
 20
4669748.691897515
 10
401378.8001818458
 20
4669755.747236316
 10
401360.7121961177
 20
4669767.88378397
 10
401358.9196995352
 20
4669775.571984762
 10
401344.5952865774
 20
4669790.987628385
 10
401336.525350333
 20
4669798.763684951
 10
401327.2693141767
 20
4669810.332469638
 10
401331.7713386978
 20
4669819.154196545
 10
401338.3860939252
 20
4669843.161596602
 10
401337.9322931872
 20
4669852.052737669
 10
401345.1315734003
 20
4669870.609939439
 10
401345.8107582374
 20
4669877.819364541
 10
401346.4777115186
 20
4669878.25432142
 10
401355.3327803572
 20
4669879.351975588
  0
LWPOLYLINE
  5
BF
330
1F
100
AcDbEntity
  8
XLW_collections
100
AcDbPolyline
 90
       27
 70
     1
 43
0.0
 10
402503.2129490729
 20
4669105.483240987
 10
402513.6840177422
 20
4669099.369330431
 10
402529.923278095
 20
4669090.704339617
 10
402544.3499415097
 20
4669082.39756069
 10
402561.9048292451
 20
4669073.270172476
 10
402568.256340426
 20
4669069.10863953
 10
402572.4674922593
 20
4669066.34956842
 10
402572.4214550914
 20
4669063.018502538
 10
402568.5049238867
 20
4669054.632155259
 10
402559.5137854224
 20
4669037.764376402
 10
402559.1895599372
 20
4669037.552935353
 10
402558.84683366
 20
4669037.329327097
 10
402551.7267042387
 20
4669024.322786436
 10
402548.5293460801
 20
4669020.14679845
 10
402542.1514281124
 20
4669013.016106665
 10
402539.5906144405
 20
4669013.051509414
 10
402538.345362943
 20
4669012.624455383
 10
402528.8685443098
 20
4669014.42141775
 10
402525.9700517436
 20
4669018.162656041
 10
402515.7804206238
 20
4669023.931310689
 10
402497.7532113672
 20
4669040.72844412
 10
402492.0594525558
 20
4669041.251391176
 10
402473.8740460849
 20
4669046.611664218
 10
402482.3916148728
 20
4669071.037959071
 10
402485.8086667308
 20
4669077.836365675
 10
402490.207889661
 20
4669086.589096295
 10
402501.7998496671
 20
4669106.308346343
  0
LWPOLYLINE
  5
C0
330
1F
100
AcDbEntity
  8
XLW_collections
100
AcDbPolyline
 90
       17
 70
     1
 43
0.0
 10
408458.1979152983
 20
4668353.776717757
 10
408478.7902522203
 20
4668336.073544651
 10
408484.4358810938
 20
4668331.780194898
 10
408493.7500878936
 20
4668323.663160106
 10
408518.7758700084
 20
4668310.12273706
 10
408518.7427373214
 20
4668307.568974021
 10
408507.1061689559
 20
4668283.176540233
 10
408502.0609189093
 20
4668282.797782051
 10
408492.0929027848
 20
4668291.478412366
 10
408471.0149144762
 20
4668300.452118304
 10
408469.5224758044
 20
4668303.210195613
 10
408450.2720589281
 20
4668322.450646522
 10
408436.5861129623
 20
4668337.509918111
 10
408434.6686545075
 20
4668336.202152142
 10
408432.4930404257
 20
4668335.208923675
 10
408438.5626145709
 20
4668343.370282834
 10
408452.0115359476
 20
4668360.964568091
  0
LWPOLYLINE
  5
C1
330
1F
100
AcDbEntity
  8
XLW_collections
100
AcDbPolyline
 90
       15
 70
     1
 43
0.0
 10
408792.3735132372
 20
4667723.645871393
 10
408805.9993638514
 20
4667719.693790315
 10
408810.6199063282
 20
4667718.353626569
 10
408815.0123832995
 20
4667717.022922693
 10
408836.3681200687
 20
4667713.415143305
 10
408838.2134832579
 20
4667716.799672365
 10
408841.4352791389
 20
4667715.459637855
 10
408840.8239495252
 20
4667712.913360029
 10
408833.8177841585
 20
4667707.895340535
 10
408806.5041308781
 20
4667691.701146138
 10
408796.4458579564
 20
4667693.497027792
 10
408783.3362363894
 20
4667708.5480931
 10
408785.9521340513
 20
4667712.734398575
 10
408791.7240016189
 20
4667724.542716246
 10
408792.3880635893
 20
4667724.770938094
  0
LWPOLYLINE
  5
C2
330
1F
100
AcDbEntity
  8
XLW_collections
100
AcDbPolyline
 90
       18
 70
     1
 43
0.0
 10
408838.2134832579
 20
4667716.799672365
 10
408836.3681200687
 20
4667713.415143305
 10
408815.0123832995
 20
4667717.022922693
 10
408810.6199063282
 20
4667718.353626569
 10
408805.9993638514
 20
4667719.693790315
 10
408792.3735132372
 20
4667723.645871393
 10
408792.3880635893
 20
4667724.770938094
 10
408792.4065424894
 20
4667726.199768849
 10
408798.420310673
 20
4667750.3321223
 10
408804.9177391091
 20
4667767.128614721
 10
408806.8295320161
 20
4667767.992258359
 10
408808.7126102403
 20
4667766.635286567
 10
408810.0488663086
 20
4667765.350393507
 10
408822.9960321706
 20
4667752.901764066
 10
408824.4834720957
 20
4667752.050817313
 10
408830.5425072942
 20
4667748.584087948
 10
408847.3715367413
 20
4667733.59613059
 10
408845.3354120954
 20
4667729.861742684
  0
LWPOLYLINE
  5
C3
330
1F
100
AcDbEntity
  8
XLW_collections
100
AcDbPolyline
 90
       16
 70
     1
 43
0.0
 10
408851.9303752496
 20
4667778.271403044
 10
408855.4639964662
 20
4667777.913933096
 10
408860.4607899697
 20
4667774.517620975
 10
408866.7665915365
 20
4667770.104948004
 10
408878.5714894618
 20
4667756.403578166
 10
408887.181584232
 20
4667737.181561748
 10
408887.7277650185
 20
4667735.962132023
 10
408876.3326610547
 20
4667730.223358404
 10
408851.5523694514
 20
4667718.216375636
 10
408847.9119080052
 20
4667724.260448655
 10
408845.3354120954
 20
4667729.861742684
 10
408847.3715367413
 20
4667733.59613059
 10
408830.5425072942
 20
4667748.584087948
 10
408824.4834720957
 20
4667752.050817313
 10
408833.1748002374
 20
4667760.433111481
 10
408850.4298927198
 20
4667778.423178297
  0
LWPOLYLINE
  5
C4
330
1F
100
AcDbEntity
  8
XLW_collections
100
AcDbPolyline
 90
       25
 70
     1
 43
0.0
 10
408877.1289425589
 20
4667840.911254128
 10
408884.6629257505
 20
4667837.728846757
 10
408895.8226013536
 20
4667825.257424122
 10
408904.4606832149
 20
4667809.487075326
 10
408911.8701134052
 20
4667800.95113513
 10
408915.6319128428
 20
4667797.903997452
 10
408924.2527912562
 20
4667780.801145297
 10
408930.3644650697
 20
4667770.837879702
 10
408931.0509815282
 20
4667769.71878088
 10
408934.1202663233
 20
4667764.237358125
 10
408927.7264628102
 20
4667755.435454098
 10
408906.7683425611
 20
4667745.044770082
 10
408889.6724753655
 20
4667739.37969496
 10
408887.181584232
 20
4667737.181561748
 10
408878.5714894618
 20
4667756.403578166
 10
408866.7665915365
 20
4667770.104948004
 10
408860.4607899697
 20
4667774.517620975
 10
408855.4639964662
 20
4667777.913933096
 10
408851.9303752496
 20
4667778.271403044
 10
408854.2907745641
 20
4667783.037629586
 10
408863.3936675667
 20
4667803.243222885
 10
408864.7090236925
 20
4667809.112165293
 10
408868.7678186396
 20
4667829.049778735
 10
408875.8146693753
 20
4667840.05393218
 10
408876.5266545691
 20
4667841.165604796
  0
LWPOLYLINE
  5
C5
330
1F
100
AcDbEntity
  8
XLW_collections
100
AcDbPolyline
 90
       23
 70
     1
 43
0.0
 10
408850.1206485304
 20
4667850.391371699
 10
408871.4984098975
 20
4667842.119082291
 10
408875.8146693753
 20
4667840.05393218
 10
408868.7678186396
 20
4667829.049778735
 10
408864.7090236925
 20
4667809.112165293
 10
408863.3936675667
 20
4667803.243222885
 10
408854.2907745641
 20
4667783.037629586
 10
408851.9303752496
 20
4667778.271403044
 10
408850.4298927198
 20
4667778.423178297
 10
408833.1748002374
 20
4667760.433111481
 10
408824.4834720957
 20
4667752.050817313
 10
408822.9960321706
 20
4667752.901764066
 10
408810.0488663086
 20
4667765.350393507
 10
408811.1969026905
 20
4667767.047419912
 10
408827.9283457584
 20
4667789.264280473
 10
408831.1669272821
 20
4667796.885311162
 10
408835.2416871076
 20
4667818.044341902
 10
408835.2632174058
 20
4667819.709847141
 10
408836.5900040093
 20
4667826.467129548
 10
408837.9340860586
 20
4667834.556791322
 10
408839.2380510329
 20
4667839.537494943
 10
408841.2530154102
 20
4667848.395891578
 10
408842.6252272427
 20
4667852.265112751
  0
LWPOLYLINE
  5
C6
330
1F
100
AcDbEntity
  8
XLW_collections
100
AcDbPolyline
 90
       26
 70
     1
 43
0.0
 10
408912.7234576665
 20
4667867.018242834
 10
408928.4649911221
 20
4667863.816414163
 10
408949.2362867735
 20
4667859.772331875
 10
408954.2488331583
 20
4667857.597518142
 10
408957.3883365107
 20
4667857.556986366
 10
408976.2150260145
 20
4667850.095308481
 10
408980.3416003279
 20
4667830.496307067
 10
408980.0635744209
 20
4667808.95499834
 10
408978.7426561473
 20
4667802.64185613
 10
408973.6311720242
 20
4667797.155134655
 10
408967.8701510178
 20
4667792.565084112
 10
408950.7085067111
 20
4667781.792153111
 10
408946.9690763338
 20
4667780.174567345
 10
408936.8119704084
 20
4667774.308744342
 10
408930.3644650697
 20
4667770.837879702
 10
408924.2527912562
 20
4667780.801145297
 10
408915.6319128428
 20
4667797.903997452
 10
408911.8701134052
 20
4667800.95113513
 10
408904.4606832149
 20
4667809.487075326
 10
408895.8226013536
 20
4667825.257424122
 10
408884.6629257505
 20
4667837.728846757
 10
408877.1289425589
 20
4667840.911254128
 10
408882.3255326636
 20
4667855.083819227
 10
408886.1806138172
 20
4667859.254059892
 10
408896.9985578828
 20
4667865.111347366
 10
408911.4942039076
 20
4667867.811539642
  0
LWPOLYLINE
  5
C7
330
1F
100
AcDbEntity
  8
XLW_collections
100
AcDbPolyline
 90
       12
 70
     1
 43
0.0
 10
409248.7470968137
 20
4668107.563875007
 10
409263.0850001152
 20
4668098.050662563
 10
409275.4409643231
 20
4668075.79165241
 10
409275.9921105577
 20
4668073.674458089
 10
409272.1986983924
 20
4668067.83733464
 10
409250.8983620028
 20
4668082.104456637
 10
409237.7725387021
 20
4668089.491940336
 10
409234.9330014122
 20
4668092.004729345
 10
409236.6033915383
 20
4668094.948814461
 10
409237.8968792037
 20
4668099.152286116
 10
409240.5137954314
 20
4668103.449724791
 10
409243.0565345483
 20
4668108.414578626
  0
LWPOLYLINE
  5
C8
330
1F
100
AcDbEntity
  8
XLW_collections
100
AcDbPolyline
 90
       16
 70
     1
 43
0.0
 10
409423.6790875631
 20
4668133.633961282
 10
409438.1923825894
 20
4668131.337468167
 10
409449.4623183343
 20
4668127.416873936
 10
409453.2455490981
 20
4668126.035595715
 10
409458.2751572301
 20
4668125.193624812
 10
409461.3703410564
 20
4668121.711098416
 10
409460.4384993149
 20
4668100.622529772
 10
409459.8431039965
 20
4668099.297546048
 10
409455.9942716561
 20
4668095.571010663
 10
409452.1996170884
 20
4668096.063970589
 10
409421.3937793173
 20
4668103.678287401
 10
409420.1588074754
 20
4668104.027308017
 10
409415.1691272225
 20
4668107.978358192
 10
409415.8457797065
 20
4668109.191216106
 10
409421.0979016119
 20
4668125.671082324
 10
409423.3399060853
 20
4668133.717816923
  0
LWPOLYLINE
  5
C9
330
1F
100
AcDbEntity
  8
XLW_collections
100
AcDbPolyline
 90
        7
 70
     1
 43
0.0
 10
410218.6781441893
 20
4668485.729488468
 10
410219.2796126086
 20
4668481.057532513
 10
410208.4425357563
 20
4668473.532623266
 10
410196.0637053004
 20
4668487.683326335
 10
410190.2751361121
 20
4668494.422392744
 10
410190.4553916476
 20
4668494.973378035
 10
410201.2925285068
 20
4668502.498087729
  0
LWPOLYLINE
  5
CA
330
1F
100
AcDbEntity
  8
XLW_collections
100
AcDbPolyline
 90
       10
 70
     1
 43
0.0
 10
410313.6750124492
 20
4668665.873805137
 10
410312.8686883036
 20
4668654.445344834
 10
410312.1929095903
 20
4668646.791146168
 10
410297.0314946021
 20
4668643.541295462
 10
410277.4408689357
 20
4668638.686551745
 10
410277.3893874302
 20
4668638.793764213
 10
410279.5960831188
 20
4668662.864750607
 10
410282.9132544299
 20
4668676.815426472
 10
410289.2297358025
 20
4668679.733574999
 10
410303.1717078914
 20
4668684.553624742
  0
LWPOLYLINE
  5
CB
330
1F
100
AcDbEntity
  8
XLW_collections
100
AcDbPolyline
 90
       13
 70
     1
 43
0.0
 10
410498.8870510761
 20
4669054.101663399
 10
410522.614960241
 20
4669040.604311615
 10
410523.8983257473
 20
4669039.346971159
 10
410525.1107060282
 20
4669037.221559094
 10
410516.7932760601
 20
4669026.332608473
 10
410514.3150308592
 20
4669026.364066783
 10
410511.7698491276
 20
4669027.618056079
 10
410491.115455789
 20
4669040.651642291
 10
410488.6470835814
 20
4669041.460268064
 10
410486.1301114583
 20
4669044.935064389
 10
410487.5589390318
 20
4669053.357079488
 10
410489.4298045945
 20
4669057.553436048
 10
410491.9905552568
 20
4669057.520921088
  0
LWPOLYLINE
  5
CC
330
1F
100
AcDbEntity
  8
XLW_collections
100
AcDbPolyline
 90
       21
 70
     1
 43
0.0
 10
411147.137284134
 20
4669075.997078525
 10
411156.5164109672
 20
4669072.880375444
 10
411169.7892219819
 20
4669070.603029911
 10
411173.946903416
 20
4669069.629619005
 10
411171.5309491548
 20
4669064.584168961
 10
411165.7066795567
 20
4669048.221351337
 10
411157.8132255796
 20
4669024.999286441
 10
411152.0084881797
 20
4669010.191078224
 10
411151.3113001212
 20
4669007.31240814
 10
411141.2544168779
 20
4669009.10509376
 10
411128.0529621248
 20
4669010.493041162
 10
411123.6146333727
 20
4669012.325835302
 10
411122.3854213132
 20
4669013.118764485
 10
411122.503015269
 20
4669022.445939326
 10
411125.1602929635
 20
4669030.07523573
 10
411125.1756916571
 20
4669031.2966431
 10
411129.7245917052
 20
4669044.787958652
 10
411130.4175856989
 20
4669047.333481094
 10
411133.1043864436
 20
4669063.846813218
 10
411137.6265846888
 20
4669075.228476062
 10
411139.482159613
 20
4669078.802800451
  0
LWPOLYLINE
  5
CD
330
1F
100
AcDbEntity
  8
XLW_collections
100
AcDbPolyline
 90
       11
 70
     1
 43
0.0
 10
410182.9131515422
 20
4670724.996418328
 10
410182.9155769377
 20
4670723.399752526
 10
410180.1691264343
 20
4670702.334207478
 10
410177.5324577377
 20
4670696.370845197
 10
410160.573667436
 20
4670700.807169219
 10
410159.3843554204
 20
4670704.709255567
 10
410160.8058621521
 20
4670719.017254875
 10
410163.4367276772
 20
4670724.536597865
 10
410179.1336280331
 20
4670724.78061332
 10
410181.0387943281
 20
4670725.20054193
 10
410181.699510799
 20
4670725.192119109
  0
LWPOLYLINE
  5
CE
330
1F
100
AcDbEntity
  8
XLW_collections
100
AcDbPolyline
 90
       17
 70
     1
 43
0.0
 10
408879.2896575094
 20
4669423.011523355
 10
408881.6255197476
 20
4669411.986776656
 10
408884.0613492996
 20
4669402.293406357
 10
408889.6033266805
 20
4669390.347010521
 10
408887.0351061463
 20
4669389.483542324
 10
408871.2094531076
 20
4669385.912178843
 10
408854.7883710502
 20
4669381.015933041
 10
408836.4184907249
 20
4669372.369043833
 10
408834.524434872
 20
4669372.837770756
 10
408829.0159751195
 20
4669387.679433096
 10
408822.9249755763
 20
4669402.195507752
 10
408825.4359841718
 20
4669404.717339844
 10
408826.4603778623
 20
4669404.861802169
 10
408830.4847189157
 20
4669405.429435297
 10
408844.4392800424
 20
4669411.245959081
 10
408864.7088394033
 20
4669419.868402906
 10
408878.8480803897
 20
4669425.054996772
  0
LWPOLYLINE
  5
CF
330
1F
100
AcDbEntity
  8
XLW_collections
100
AcDbPolyline
 90
       30
 70
     1
 43
0.0
 10
408830.4709677013
 20
4669449.07459698
 10
408837.2672239838
 20
4669437.992255017
 10
408842.9286498548
 20
4669441.361712441
 10
408848.6654045476
 20
4669444.175064268
 10
408860.042026531
 20
4669448.692171759
 10
408876.6231263773
 20
4669459.583416609
 10
408876.5025457602
 20
4669450.25632623
 10
408873.8858694719
 20
4669445.959031894
 10
408875.7039003047
 20
4669439.605312129
 10
408878.8480803897
 20
4669425.054996772
 10
408864.7088394033
 20
4669419.868402906
 10
408844.4392800424
 20
4669411.245959081
 10
408830.4847189157
 20
4669405.429435297
 10
408826.4603778623
 20
4669404.861802169
 10
408817.9739122767
 20
4669409.033958747
 10
408812.9079417115
 20
4669406.989485474
 10
408798.3154882683
 20
4669402.958112489
 10
408795.8202001304
 20
4669401.657787878
 10
408793.9204074547
 20
4669401.682369999
 10
408771.7681545133
 20
4669394.417155523
 10
408760.4071947493
 20
4669391.121503662
 10
408759.763673128
 20
4669392.462521072
 10
408763.1540138468
 20
4669411.853411781
 10
408765.9115452842
 20
4669427.032434368
 10
408774.838284093
 20
4669440.132561017
 10
408791.4181042222
 20
4669450.912585218
 10
408807.8663700412
 20
4669457.918495183
 10
408813.4326545451
 20
4669460.003057643
 10
408823.0584254185
 20
4669463.607863717
 10
408823.7192621842
 20
4669463.599315411
  0
LWPOLYLINE
  5
D0
330
1F
100
AcDbEntity
  8
XLW_collections
100
AcDbPolyline
 90
       30
 70
     1
 43
0.0
 10
408903.1800519332
 20
4669468.902090319
 10
408916.9594460831
 20
4669461.172130021
 10
408919.5610181796
 20
4669461.138512221
 10
408921.1507272739
 20
4669446.680736257
 10
408924.1913323502
 20
4669432.648336372
 10
408927.2211733446
 20
4669424.168959578
 10
408929.3678401395
 20
4669423.745796652
 10
408929.0162302415
 20
4669416.038698471
 10
408929.5284908474
 20
4669410.923465173
 10
408937.0510327097
 20
4669410.018932016
 10
408930.680815515
 20
4669397.804000733
 10
408907.2443276442
 20
4669393.442515599
 10
408900.2901318829
 20
4669392.310687919
 10
408892.909187994
 20
4669390.948219756
 10
408892.7517897321
 20
4669390.742336154
 10
408891.8563935406
 20
4669390.753909602
 10
408889.60722657
 20
4669390.338678883
 10
408889.6033266805
 20
4669390.347010521
 10
408884.0613492996
 20
4669402.293406357
 10
408881.6255197476
 20
4669411.986776656
 10
408879.2896575094
 20
4669423.011523355
 10
408878.8480803897
 20
4669425.054996772
 10
408875.7039003047
 20
4669439.605312129
 10
408873.8858694719
 20
4669445.959031894
 10
408876.5025457602
 20
4669450.25632623
 10
408876.6231263773
 20
4669459.583416609
 10
408876.6604502083
 20
4669462.470467487
 10
408888.2303389789
 20
4669467.916810657
 10
408895.0299001149
 20
4669471.117493493
 10
408897.6020641876
 20
4669471.972621296
  0
LWPOLYLINE
  5
D1
330
1F
100
AcDbEntity
  8
XLW_collections
100
AcDbPolyline
 90
       40
 70
     1
 43
0.0
 10
408835.2357066887
 20
4669523.642812556
 10
408839.5804405948
 20
4669521.032274961
 10
408842.119565665
 20
4669519.333607137
 10
408852.1660189442
 20
4669511.861684726
 10
408860.2031960037
 20
4669505.884092745
 10
408866.9119362574
 20
4669488.028307952
 10
408868.7571515894
 20
4669483.784331996
 10
408878.7353529555
 20
4669475.992475852
 10
408882.4035068292
 20
4669472.169080319
 10
408888.2303389789
 20
4669467.916810657
 10
408876.6604502083
 20
4669462.470467487
 10
408876.6231263773
 20
4669459.583416609
 10
408860.042026531
 20
4669448.692171759
 10
408848.6654045476
 20
4669444.175064268
 10
408842.9286498548
 20
4669441.361712441
 10
408837.2672239838
 20
4669437.992255017
 10
408830.4709677013
 20
4669449.07459698
 10
408823.7192621842
 20
4669463.599315411
 10
408823.0584254185
 20
4669463.607863717
 10
408813.4326545451
 20
4669460.003057643
 10
408812.3972244069
 20
4669463.30155653
 10
408811.1028448244
 20
4669465.428368561
 10
408809.8911262386
 20
4669467.554110796
 10
408809.263479079
 20
4669470.116520279
 10
408806.8629567995
 20
4669476.144601122
 10
408805.0277592845
 20
4669481.165934728
 10
408806.3271813217
 20
4669485.813467374
 10
408807.6818171206
 20
4669488.3501499
 10
408808.2829778618
 20
4669490.119337895
 10
408807.7320986769
 20
4669492.236523526
 10
408806.4421110292
 20
4669494.696512114
 10
408805.8753548242
 20
4669495.592216124
 10
408805.2260140653
 20
4669496.489062509
 10
408794.6690603026
 20
4669510.618728904
 10
408794.7509578581
 20
4669516.947824807
 10
408807.4763876242
 20
4669523.557615475
 10
408811.3032765893
 20
4669525.618226331
 10
408819.2394246235
 20
4669530.054694555
 10
408825.283476297
 20
4669533.43348563
 10
408826.5282215628
 20
4669533.861530405
  0
LWPOLYLINE
  5
D2
330
1F
100
AcDbEntity
  8
XLW_collections
100
AcDbPolyline
 90
       28
 70
     1
 43
0.0
 10
408901.0329464971
 20
4669545.669561195
 10
408908.9691958192
 20
4669526.909613267
 10
408919.5106384766
 20
4669511.558676988
 10
408923.8052681144
 20
4669505.061971416
 10
408926.305531593
 20
4669500.365261896
 10
408928.0805530633
 20
4669490.680493088
 10
408930.3390676659
 20
4669473.659779111
 10
408930.6627781853
 20
4669472.45860321
 10
408923.3404032011
 20
4669469.085785042
 10
408919.524290273
 20
4669461.472229057
 10
408919.5610181796
 20
4669461.138512221
 10
408916.9594460831
 20
4669461.172130021
 10
408903.1800519332
 20
4669468.902090319
 10
408897.6020641876
 20
4669471.972621296
 10
408895.0299001149
 20
4669471.117493493
 10
408888.2303389789
 20
4669467.916810657
 10
408882.4035068292
 20
4669472.169080319
 10
408878.7353529555
 20
4669475.992475852
 10
408868.7571515894
 20
4669483.784331996
 10
408866.9119362574
 20
4669488.028307952
 10
408860.2031960037
 20
4669505.884092745
 10
408852.1660189442
 20
4669511.861684726
 10
408861.6073877316
 20
4669518.637374245
 10
408864.1779568447
 20
4669519.381596861
 10
408882.6134553715
 20
4669533.136267607
 10
408892.1288375142
 20
4669540.67612897
 10
408896.9988935346
 20
4669544.699805637
 10
408899.1431659754
 20
4669546.471444129
  0
LWPOLYLINE
  5
D3
330
1F
100
AcDbEntity
  8
XLW_collections
100
AcDbPolyline
 90
       35
 70
     1
 43
0.0
 10
408950.6932530173
 20
4669584.786044269
 10
408966.3334149834
 20
4669574.033722498
 10
408980.6950604265
 20
4669566.629564562
 10
408981.3501508589
 20
4669566.176813358
 10
408985.0951610801
 20
4669561.90838364
 10
408988.1077323409
 20
4669552.096533648
 10
408991.1318571878
 20
4669543.173034748
 10
408994.8884292163
 20
4669539.79288653
 10
409009.1570002649
 20
4669525.171308632
 10
409012.3511860981
 20
4669523.020027974
 10
409014.7961489147
 20
4669520.434125233
 10
409010.3524471313
 20
4669515.38295168
 10
409008.4425777955
 20
4669514.630220532
 10
409001.9720049879
 20
4669506.162425182
 10
408989.8861382736
 20
4669497.878183513
 10
408987.5719414344
 20
4669493.331645991
 10
408984.7758364116
 20
4669492.391467594
 10
408962.040092355
 20
4669484.688932116
 10
408955.0801862152
 20
4669483.112993818
 10
408940.4607234266
 20
4669476.971668055
 10
408930.6627781853
 20
4669472.45860321
 10
408930.3390676659
 20
4669473.659779111
 10
408928.0805530633
 20
4669490.680493088
 10
408926.305531593
 20
4669500.365261896
 10
408923.8052681144
 20
4669505.061971416
 10
408919.5106384766
 20
4669511.558676988
 10
408908.9691958192
 20
4669526.909613267
 10
408901.0329464971
 20
4669545.669561195
 10
408899.1431659754
 20
4669546.471444129
 10
408896.9988935346
 20
4669544.699805637
 10
408909.3351263786
 20
4669555.224243267
 10
408920.2051056506
 20
4669565.30086362
 10
408930.4141553611
 20
4669575.386172763
 10
408940.0872878712
 20
4669584.414517956
 10
408943.7936166282
 20
4669587.873712684
  0
LWPOLYLINE
  5
D4
330
1F
100
AcDbEntity
  8
XLW_collections
100
AcDbPolyline
 90
       34
 70
     1
 43
0.0
 10
408889.8489611025
 20
4669623.543775207
 10
408897.5794826311
 20
4669617.234383172
 10
408903.7967228148
 20
4669612.489767976
 10
408913.1526937392
 20
4669607.704443692
 10
408921.9262086421
 20
4669602.593567968
 10
408936.9427627526
 20
4669594.736667559
 10
408940.0872878712
 20
4669584.414517956
 10
408930.4141553611
 20
4669575.386172763
 10
408920.2051056506
 20
4669565.30086362
 10
408909.3351263786
 20
4669555.224243267
 10
408896.9988935346
 20
4669544.699805637
 10
408892.1288375142
 20
4669540.67612897
 10
408882.6134553715
 20
4669533.136267607
 10
408864.1779568447
 20
4669519.381596861
 10
408861.6073877316
 20
4669518.637374245
 10
408852.1660189442
 20
4669511.861684726
 10
408842.119565665
 20
4669519.333607137
 10
408839.5804405948
 20
4669521.032274961
 10
408835.2357066887
 20
4669523.642812556
 10
408826.5282215628
 20
4669533.861530405
 10
408825.283476297
 20
4669533.43348563
 10
408819.2394246235
 20
4669530.054694555
 10
408818.8802061885
 20
4669530.184518844
 10
408812.0236656573
 20
4669536.603433168
 10
408807.7005002412
 20
4669540.879527931
 10
408800.9603548268
 20
4669556.292448083
 10
408802.2324709577
 20
4669558.830319532
 10
408809.9192533052
 20
4669565.505342977
 10
408829.6640424142
 20
4669584.684727234
 10
408845.6601659068
 20
4669601.469404324
 10
408857.9067674971
 20
4669615.095385096
 10
408862.9268619898
 20
4669620.680974021
 10
408864.8537998452
 20
4669622.766076762
 10
408876.9785204387
 20
4669634.048118488
  0
LWPOLYLINE
  5
D5
330
1F
100
AcDbEntity
  8
XLW_collections
100
AcDbPolyline
 90
       25
 70
     1
 43
0.0
 10
408860.7629313354
 20
4669696.116052256
 10
408868.2033294604
 20
4669690.133911727
 10
408881.9419025807
 20
4669679.294860747
 10
408891.3258091757
 20
4669670.289032014
 10
408895.0708565899
 20
4669666.020538055
 10
408892.8753839639
 20
4669643.171314199
 10
408890.7846809708
 20
4669628.427869054
 10
408889.8489611025
 20
4669623.543775207
 10
408876.9785204387
 20
4669634.048118488
 10
408864.8537998452
 20
4669622.766076762
 10
408862.9268619898
 20
4669620.680974021
 10
408857.9067674971
 20
4669615.095385096
 10
408857.1614629289
 20
4669615.64690892
 10
408854.0614375196
 20
4669618.685521324
 10
408842.2210779855
 20
4669629.38896358
 10
408840.34863393
 20
4669631.523271839
 10
408832.2101800859
 20
4669634.627055827
 10
408832.2432145339
 20
4669637.180931329
 10
408822.2925903472
 20
4669647.082565455
 10
408818.5260286226
 20
4669649.685591033
 10
408814.8694966569
 20
4669654.397278395
 10
408816.1515723099
 20
4669657.712359254
 10
408827.6600241213
 20
4669672.444947876
 10
408839.8448958939
 20
4669688.390574333
 10
408847.5861492812
 20
4669699.285020566
  0
LWPOLYLINE
  5
D6
330
1F
100
AcDbEntity
  8
XLW_collections
100
AcDbPolyline
 90
       35
 70
     1
 43
0.0
 10
407291.6134809355
 20
4671245.504224048
 10
407291.4317520151
 20
4671244.1549707
 10
407289.5081322826
 20
4671229.872792591
 10
407284.3319066192
 20
4671219.390515189
 10
407280.3709934042
 20
4671207.115308141
 10
407277.1657409853
 20
4671202.048861673
 10
407273.9385623249
 20
4671195.316954702
 10
407272.0114025355
 20
4671193.232231942
 10
407268.7622883195
 20
4671184.834562391
 10
407259.6805012971
 20
4671166.296497419
 10
407255.8321527194
 20
4671162.571233176
 10
407253.2106763909
 20
4671157.941349433
 10
407242.328282728
 20
4671140.648649402
 10
407240.4186431706
 20
4671139.896355008
 10
407236.5584989053
 20
4671135.282771626
 10
407233.621029038
 20
4671130.351147286
 10
407226.2540750969
 20
4671117.982575448
 10
407224.3327291096
 20
4671116.341964313
 10
407213.0409881628
 20
4671118.156591075
 10
407208.0035135864
 20
4671118.222940863
 10
407206.8043497246
 20
4671121.237246552
 10
407208.7044834737
 20
4671127.542477595
 10
407213.2530453076
 20
4671134.257018937
 10
407222.7052547015
 20
4671144.627325311
 10
407226.6737449393
 20
4671150.661801344
 10
407227.9562581601
 20
4671153.165207459
 10
407237.0102922335
 20
4671169.593612607
 10
407246.7585864047
 20
4671188.567061355
 10
407255.7342771904
 20
4671205.329526215
 10
407257.695060752
 20
4671209.968151046
 10
407260.3046731947
 20
4671213.709697631
 10
407266.7766527664
 20
4671228.506173802
 10
407270.1090629838
 20
4671243.23292101
 10
407272.0595965973
 20
4671247.094306433
 10
407283.3949846412
 20
4671248.61091584
  0
LWPOLYLINE
  5
D7
330
1F
100
AcDbEntity
  8
XLW_collections
100
AcDbPolyline
 90
       38
 70
     1
 43
0.0
 10
407328.1371593564
 20
4671246.800495378
 10
407327.9697478776
 20
4671246.358580705
 10
407318.3826889719
 20
4671221.052530012
 10
407313.7729236904
 20
4671209.674380557
 10
407305.9731918755
 20
4671188.120832166
 10
407295.682088261
 20
4671171.819772429
 10
407289.8773752969
 20
4671163.789012535
 10
407289.2108499744
 20
4671163.35351403
 10
407282.8017785525
 20
4671153.33170683
 10
407281.0782919314
 20
4671151.174579932
 10
407259.7075383681
 20
4671124.427596228
 10
407254.6130577635
 20
4671120.163410071
 10
407247.7097990558
 20
4671122.808605042
 10
407240.2285782781
 20
4671125.461489958
 10
407237.7021881499
 20
4671128.049064042
 10
407235.8189365815
 20
4671129.295426296
 10
407233.621029038
 20
4671130.351147286
 10
407236.5584989053
 20
4671135.282771626
 10
407240.4186431706
 20
4671139.896355008
 10
407242.328282728
 20
4671140.648649402
 10
407253.2106763909
 20
4671157.941349433
 10
407255.8321527194
 20
4671162.571233176
 10
407259.6805012971
 20
4671166.296497419
 10
407268.7622883195
 20
4671184.834562391
 10
407272.0114025355
 20
4671193.232231942
 10
407273.9385623249
 20
4671195.316954702
 10
407277.1657409853
 20
4671202.048861673
 10
407280.3709934042
 20
4671207.115308141
 10
407284.3319066192
 20
4671219.390515189
 10
407289.5081322826
 20
4671229.872792591
 10
407291.4317520151
 20
4671244.1549707
 10
407291.5974069115
 20
4671244.282817633
 10
407292.225196211
 20
4671248.050438269
 10
407292.242731049
 20
4671249.382854035
 10
407297.8457324477
 20
4671242.090516296
 10
407303.3816066065
 20
4671229.690224485
 10
407311.5687023897
 20
4671230.471030965
 10
407325.0488208992
 20
4671250.617151602
  0
LWPOLYLINE
  5
D8
330
1F
100
AcDbEntity
  8
XLW_collections
100
AcDbPolyline
 90
       15
 70
     1
 43
0.0
 10
407276.5963162691
 20
4671353.316309326
 10
407287.9761012171
 20
4671351.944854863
 10
407304.9376905681
 20
4671347.945739133
 10
407308.0756511848
 20
4671347.904448057
 10
407308.5051058767
 20
4671348.136893118
 10
407313.6617644968
 20
4671345.609801072
 10
407318.6377168879
 20
4671340.87990969
 10
407316.7713337018
 20
4671337.128559138
 10
407309.130243647
 20
4671333.897300622
 10
407296.3452294682
 20
4671322.626699512
 10
407288.1084785615
 20
4671318.070735481
 10
407279.2052779377
 20
4671313.079214979
 10
407268.808377329
 20
4671332.651086479
 10
407269.0597876552
 20
4671351.7495836
 10
407269.6773521114
 20
4671354.740086797
  0
LWPOLYLINE
  5
D9
330
1F
100
AcDbEntity
  8
XLW_collections
100
AcDbPolyline
 90
       21
 70
     1
 43
0.0
 10
408683.9563055264
 20
4669771.257505086
 10
408700.1787874027
 20
4669754.499991529
 10
408704.4917581375
 20
4669749.446499374
 10
408716.2971903456
 20
4669736.077900226
 10
408720.7028349877
 20
4669731.800717474
 10
408729.9765654769
 20
4669720.686017231
 10
408738.0171069962
 20
4669710.031564372
 10
408742.4270209274
 20
4669706.087556571
 10
408740.4568608212
 20
4669700.671349421
 10
408739.9963726284
 20
4669700.097650562
 10
408728.2817717257
 20
4669685.503230111
 10
408726.9501473919
 20
4669684.7430317
 10
408714.9179886239
 20
4669674.237493571
 10
408713.9878013241
 20
4669673.491098652
 10
408704.3456712903
 20
4669687.145875341
 10
408690.0328003583
 20
4669704.656084357
 10
408672.7085861094
 20
4669725.647993428
 10
408655.7073576085
 20
4669745.711575624
 10
408667.4539485759
 20
4669760.032590176
 10
408672.5470534358
 20
4669764.186698152
 10
408680.8449878693
 20
4669773.407868369
  0
LWPOLYLINE
  5
DA
330
1F
100
AcDbEntity
  8
XLW_collections
100
AcDbPolyline
 90
       31
 70
     1
 43
0.0
 10
408759.7643989074
 20
4669979.616804568
 10
408761.6640359442
 20
4669979.592210774
 10
408778.6009463723
 20
4669973.375841184
 10
408797.4173355238
 20
4669965.580508878
 10
408800.522852514
 20
4669962.986060923
 10
408800.2009826684
 20
4669960.638544369
 10
408799.2293974102
 20
4669958.782665621
 10
408795.9312482873
 20
4669946.498076883
 10
408793.2386781478
 20
4669936.315705288
 10
408791.3726764891
 20
4669932.563974271
 10
408787.4137837731
 20
4669920.287968405
 10
408783.5109285513
 20
4669912.342505142
 10
408778.9580613674
 20
4669898.852539163
 10
408778.2757070688
 20
4669897.195556908
 10
408771.2500393379
 20
4669890.512039629
 10
408760.5830113287
 20
4669896.091848243
 10
408755.5663184323
 20
4669897.822612317
 10
408748.678576163
 20
4669901.798814369
 10
408738.6781297405
 20
4669907.814288753
 10
408736.2276535594
 20
4669909.956104545
 10
408725.5621196042
 20
4669915.646983016
 10
408716.2225068839
 20
4669921.653994452
 10
408716.6347167915
 20
4669923.371172028
 10
408716.8337980945
 20
4669924.200278002
 10
408723.9587173907
 20
4669938.545385398
 10
408731.0879220616
 20
4669953.223559937
 10
408733.0652909483
 20
4669959.194939987
 10
408738.2732500752
 20
4669972.232161523
 10
408740.2548480312
 20
4669978.536690717
 10
408742.3025920643
 20
4669979.874986288
 10
408744.0872673341
 20
4669981.041392338
  0
LWPOLYLINE
  5
DB
330
1F
100
AcDbEntity
  8
XLW_collections
100
AcDbPolyline
 90
       26
 70
     1
 43
0.0
 10
408622.6012827021
 20
4669996.164450578
 10
408630.7565023602
 20
4669994.392845735
 10
408634.5400079644
 20
4669993.122117826
 10
408637.0831564639
 20
4669991.756571737
 10
408644.5503226063
 20
4669987.883841659
 10
408651.2579391822
 20
4669970.027852728
 10
408649.9140189154
 20
4669961.938074999
 10
408642.0906791808
 20
4669944.71472394
 10
408633.7655337368
 20
4669933.383882062
 10
408614.2400627492
 20
4669931.082771618
 10
408597.8137092899
 20
4669932.07321054
 10
408585.8373708318
 20
4669932.228547751
 10
408579.3081401327
 20
4669924.520070653
 10
408577.5898269684
 20
4669926.893762111
 10
408566.3780689609
 20
4669935.035184712
 10
408562.3156452925
 20
4669936.395858631
 10
408562.6060676094
 20
4669937.19420076
 10
408564.6657017543
 20
4669949.494782299
 10
408567.2861042194
 20
4669960.45541127
 10
408571.2555224424
 20
4669973.508588821
 10
408577.1633796133
 20
4669989.53504344
 10
408579.5939408935
 20
4669996.326607662
 10
408579.7290881051
 20
4669996.276206315
 10
408594.2282934556
 20
4669993.200663652
 10
408606.8867672299
 20
4669994.702359039
 10
408616.3572184151
 20
4669998.799739298
  0
LWPOLYLINE
  5
DC
330
1F
100
AcDbEntity
  8
XLW_collections
100
AcDbPolyline
 90
       30
 70
     1
 43
0.0
 10
408692.9052880225
 20
4670022.017713537
 10
408696.0267150553
 20
4670020.644627998
 10
408702.9530757694
 20
4670019.666440024
 10
408706.0815498612
 20
4670018.848578897
 10
408726.1568661026
 20
4670012.591530018
 10
408743.7443143169
 20
4670005.589267659
 10
408748.0944634849
 20
4670003.422883918
 10
408740.9932074124
 20
4669984.52416969
 10
408740.9817053035
 20
4669983.635934259
 10
408742.3025920643
 20
4669979.874986288
 10
408740.2548480312
 20
4669978.536690717
 10
408738.2732500752
 20
4669972.232161523
 10
408733.0652909483
 20
4669959.194939987
 10
408731.0879220616
 20
4669953.223559937
 10
408723.9587173907
 20
4669938.545385398
 10
408716.8337980945
 20
4669924.200278002
 10
408716.6347167915
 20
4669923.371172028
 10
408710.5407338371
 20
4669923.060253073
 10
408697.4405328332
 20
4669932.114466271
 10
408686.8067889443
 20
4669940.248271567
 10
408681.840428982
 20
4669945.86550188
 10
408674.3352218767
 20
4669953.181286184
 10
408667.5676472641
 20
4669960.043466048
 10
408666.9442717297
 20
4669962.93902631
 10
408672.0760883524
 20
4669970.091256151
 10
408677.2798368416
 20
4669982.795253333
 10
408684.4264379902
 20
4669998.805788275
 10
408688.379644886
 20
4670010.637637184
 10
408688.979430708
 20
4670012.295654539
 10
408691.6707633451
 20
4670022.366924987
  0
LWPOLYLINE
  5
DD
330
1F
100
AcDbEntity
  8
XLW_collections
100
AcDbPolyline
 90
       29
 70
     1
 43
0.0
 10
408551.7796165443
 20
4670025.957654186
 10
408564.9341308069
 20
4670021.122675402
 10
408569.9392407263
 20
4670018.503421645
 10
408578.1655530455
 20
4670015.842382443
 10
408584.3706262149
 20
4670010.209134529
 10
408583.0943329855
 20
4670007.338226685
 10
408579.7348502938
 20
4669996.720397336
 10
408579.5939408935
 20
4669996.326607662
 10
408577.1633796133
 20
4669989.53504344
 10
408571.2555224424
 20
4669973.508588821
 10
408567.2861042194
 20
4669960.45541127
 10
408564.6657017543
 20
4669949.494782299
 10
408562.6060676094
 20
4669937.19420076
 10
408562.3156452925
 20
4669936.395858631
 10
408555.6854046807
 20
4669938.6167309
 10
408537.5586560736
 20
4669948.624918571
 10
408536.8921737113
 20
4669948.189299393
 10
408536.7049706151
 20
4669947.705243768
 10
408528.7585391393
 20
4669951.626621367
 10
408526.3080660495
 20
4669953.768500142
 10
408524.4199513547
 20
4669954.681470787
 10
408508.1046562179
 20
4669964.221934643
 10
408506.9045778226
 20
4669967.236045546
 10
408513.3519520285
 20
4669980.257012711
 10
408516.1271501202
 20
4669996.768414157
 10
408521.3744063874
 20
4670012.803497415
 10
408527.7826523979
 20
4670022.82639345
 10
408533.6026638892
 20
4670032.07965704
 10
408536.0805663996
 20
4670032.047496749
  0
LWPOLYLINE
  5
DE
330
1F
100
AcDbEntity
  8
XLW_collections
100
AcDbPolyline
 90
       41
 70
     1
 43
0.0
 10
413027.6826492203
 20
4670074.355752812
 10
413030.8558293073
 20
4670070.429758663
 10
413035.1757369806
 20
4670065.712082779
 10
413032.4481169265
 20
4670052.197102946
 10
413029.845694887
 20
4670042.123299629
 10
413019.5651353485
 20
4670025.703141566
 10
413018.3056747398
 20
4670024.052868681
 10
413004.2463238821
 20
4670009.345004298
 10
412989.5426621815
 20
4669995.978001669
 10
412973.0219032932
 20
4669982.633293478
 10
412959.0103030293
 20
4669971.811949187
 10
412958.3495940992
 20
4669971.820109564
 10
412955.8457111628
 20
4669969.741022052
 10
412954.5862256867
 20
4669968.090746866
 10
412946.3463622711
 20
4669963.083983362
 10
412928.5354284494
 20
4669952.309673346
 10
412908.3344977595
 20
4669948.672385475
 10
412907.6846901571
 20
4669949.56885714
 10
412906.4924293235
 20
4669953.359447194
 10
412900.9553346857
 20
4669966.532312723
 10
412901.0339739965
 20
4669972.895170751
 10
412901.6902229761
 20
4669972.52013661
 10
412902.9291357123
 20
4669972.504824959
 10
412906.0882540045
 20
4669974.131613642
 10
412917.5698997235
 20
4669980.764019593
 10
412923.8840790308
 20
4669983.684520731
 10
412940.3528795458
 20
4669992.809596616
 10
412941.6068778406
 20
4669994.01575047
 10
412945.961749614
 20
4669997.697936496
 10
412946.2468596313
 20
4669997.93898004
 10
412955.0305867813
 20
4670004.066897903
 10
412961.3748998057
 20
4670009.430260432
 10
412967.7096021702
 20
4670014.01620708
 10
412979.2596812621
 20
4670026.200727434
 10
412978.529680617
 20
4670029.64118393
 10
412986.3386915772
 20
4670037.55179673
 10
413000.9446211442
 20
4670049.698578528
 10
413011.8324385238
 20
4670061.780144259
 10
413014.9512210415
 20
4670067.124178973
 10
413016.9130911532
 20
4670065.160167539
 10
413027.6922427605
 20
4670075.133089466
  0
LWPOLYLINE
  5
DF
330
1F
100
AcDbEntity
  8
XLW_collections
100
AcDbPolyline
 90
       38
 70
     1
 43
0.0
 10
412902.9291357123
 20
4669972.504824959
 10
412901.6902229761
 20
4669972.52013661
 10
412901.0339739965
 20
4669972.895170751
 10
412894.1438149915
 20
4669976.833506784
 10
412891.7125799453
 20
4669980.639325321
 10
412891.0573621649
 20
4669981.091679837
 10
412891.7180703189
 20
4669981.083513137
 10
412892.3072540947
 20
4669981.964741837
 10
412894.4416344627
 20
4670000.928654087
 10
412893.3083314124
 20
4670009.493796629
 10
412886.6107166107
 20
4670029.011132064
 10
412883.5559383744
 20
4670035.823282192
 10
412881.0847060503
 20
4670043.072391301
 10
412888.8095397361
 20
4670053.193870239
 10
412907.2354617642
 20
4670066.958953203
 10
412912.992030382
 20
4670071.552105728
 10
412918.7526340518
 20
4670076.478415539
 10
412920.6959534649
 20
4670086.671396988
 10
412918.2963037974
 20
4670093.031132617
 10
412922.5920586315
 20
4670092.383205551
 10
412927.118683286
 20
4670091.700564401
 10
412938.9217177437
 20
4670077.561815555
 10
412945.7812809421
 20
4670071.146978621
 10
412956.9182020713
 20
4670056.572347541
 10
412968.0867094137
 20
4670044.551559193
 10
412977.4642073229
 20
4670034.663028128
 10
412978.529680617
 20
4670029.64118393
 10
412979.2596812621
 20
4670026.200727434
 10
412967.7096021702
 20
4670014.01620708
 10
412961.3748998057
 20
4670009.430260432
 10
412955.0305867813
 20
4670004.066897903
 10
412946.2468596313
 20
4669997.93898004
 10
412945.961749614
 20
4669997.697936496
 10
412941.6068778406
 20
4669994.01575047
 10
412940.3528795458
 20
4669992.809596616
 10
412923.8840790308
 20
4669983.684520731
 10
412917.5698997235
 20
4669980.764019593
 10
412906.0882540045
 20
4669974.131613642
  0
LWPOLYLINE
  5
E0
330
1F
100
AcDbEntity
  8
XLW_collections
100
AcDbPolyline
 90
       34
 70
     1
 43
0.0
 10
412965.101261716
 20
4670157.308685946
 10
412970.6848622536
 20
4670147.911252239
 10
412974.9100655017
 20
4670135.531909234
 10
412978.530969002
 20
4670121.050189751
 10
412982.824759578
 20
4670114.222791215
 10
412986.6773965139
 20
4670118.506350353
 10
412993.0010202155
 20
4670122.204110228
 10
412997.4089319784
 20
4670117.929603628
 10
412983.9539609043
 20
4670105.324491543
 10
412990.7038586838
 20
4670090.026702959
 10
413005.7030805434
 20
4670080.513038683
 10
413015.1231394542
 20
4670074.066518301
 10
413016.9802477609
 20
4670070.601012058
 10
413014.9512210415
 20
4670067.124178973
 10
413011.8324385238
 20
4670061.780144259
 10
413000.9446211442
 20
4670049.698578528
 10
412986.3386915772
 20
4670037.55179673
 10
412978.529680617
 20
4670029.64118393
 10
412977.4642073229
 20
4670034.663028128
 10
412968.0867094137
 20
4670044.551559193
 10
412956.9182020713
 20
4670056.572347541
 10
412945.7812809421
 20
4670071.146978621
 10
412938.9217177437
 20
4670077.561815555
 10
412927.118683286
 20
4670091.700564401
 10
412922.5920586315
 20
4670092.383205551
 10
412922.1216986085
 20
4670095.093839893
 10
412914.5918058716
 20
4670100.739732836
 10
412926.1525597376
 20
4670120.475640645
 10
412937.0774435299
 20
4670135.55511829
 10
412943.4024510083
 20
4670139.36385107
 10
412951.7973877676
 20
4670150.254570816
 10
412959.4229722679
 20
4670159.044754436
 10
412960.6933942726
 20
4670161.583190255
 10
412962.0244516588
 20
4670162.344195763
  0
LWPOLYLINE
  5
E1
330
1F
100
AcDbEntity
  8
XLW_collections
100
AcDbPolyline
 90
       30
 70
     1
 43
0.0
 10
412248.5360977553
 20
4671879.74977583
 10
412249.1225661736
 20
4671877.655557069
 10
412256.5241105765
 20
4671861.904575502
 10
412259.5456890475
 20
4671852.538368993
 10
412258.900398602
 20
4671848.29739859
 10
412258.1963686536
 20
4671843.670742415
 10
412247.4039309395
 20
4671839.140869595
 10
412236.7313950014
 20
4671837.608079331
 10
412231.0172768901
 20
4671836.34656415
 10
412219.0029034001
 20
4671833.164676602
 10
412206.3374482816
 20
4671830.768263791
 10
412205.0988604417
 20
4671830.783702884
 10
412199.3806525474
 20
4671829.189137841
 10
412189.9619047209
 20
4671828.862342202
 10
412188.1056841018
 20
4671829.976806568
 10
412186.2840246049
 20
4671838.569920162
 10
412185.1091227099
 20
4671843.693189382
 10
412185.2364892304
 20
4671853.908609812
 10
412185.273869655
 20
4671856.906700007
 10
412187.2464329457
 20
4671862.767976674
 10
412192.3132445961
 20
4671865.111468344
 10
412193.5592785264
 20
4671865.68782445
 10
412206.2342159355
 20
4671868.861418227
 10
412208.1389395582
 20
4671869.281889034
 10
412211.2973942368
 20
4671870.908356229
 10
412216.9385440226
 20
4671872.948093502
 10
412222.6623217799
 20
4671874.986804793
 10
412230.2852070567
 20
4671877.001853515
 10
412233.450570752
 20
4671879.183471145
 10
412247.9365578423
 20
4671881.890425935
  0
LWPOLYLINE
  5
E2
330
1F
100
AcDbEntity
  8
XLW_collections
100
AcDbPolyline
 90
       41
 70
     1
 43
0.0
 10
412335.2437114181
 20
4671909.677579687
 10
412337.7716276251
 20
4671907.091794315
 10
412341.333950187
 20
4671894.720419265
 10
412347.6131769999
 20
4671888.312072182
 10
412350.0378216762
 20
4671884.061811587
 10
412350.0212389419
 20
4671882.729308152
 10
412354.926767663
 20
4671872.118033998
 10
412356.7831211059
 20
4671868.652321722
 10
412356.7471957839
 20
4671865.765310617
 10
412352.9323876447
 20
4671864.480142969
 10
412346.007370392
 20
4671865.454675771
 10
412328.9285013255
 20
4671860.114581827
 10
412311.8606637191
 20
4671855.662740614
 10
412308.1615029136
 20
4671857.041363901
 10
412299.9195674302
 20
4671858.365684597
 10
412290.4593084339
 20
4671854.707523269
 10
412286.0774945457
 20
4671854.317951962
 10
412283.5177701792
 20
4671854.349830625
 10
412274.0727853604
 20
4671851.913198258
 10
412272.1639860971
 20
4671851.159561757
 10
412258.9150744628
 20
4671848.326115567
 10
412258.900398602
 20
4671848.29739859
 10
412259.5456890475
 20
4671852.538368993
 10
412256.5241105765
 20
4671861.904575502
 10
412249.1225661736
 20
4671877.655557069
 10
412248.5360977553
 20
4671879.74977583
 10
412251.0687868042
 20
4671881.407188973
 10
412251.7403855255
 20
4671882.287320198
 10
412262.5327549357
 20
4671886.817170219
 10
412266.9146254655
 20
4671887.20679756
 10
412268.8289480652
 20
4671888.404571514
 10
412271.3997246071
 20
4671889.260973154
 10
412283.3425590416
 20
4671893.332381976
 10
412287.8069800272
 20
4671893.720919719
 10
412295.3942807609
 20
4671899.512418278
 10
412299.198019559
 20
4671899.909189967
 10
412302.3357736561
 20
4671899.870119109
 10
412303.6569801199
 20
4671899.853668055
 10
412318.1912758066
 20
4671906.447035868
 10
412322.5480763952
 20
4671908.757313237
 10
412331.492425814
 20
4671913.500060022
  0
LWPOLYLINE
  5
E3
330
1F
100
AcDbEntity
  8
XLW_collections
100
AcDbPolyline
 90
       48
 70
     1
 43
0.0
 10
412299.8409560258
 20
4671951.541825302
 10
412304.8418305567
 20
4671948.592129916
 10
412311.5027071537
 20
4671926.409185345
 10
412320.7882299513
 20
4671909.41323758
 10
412322.5480763952
 20
4671908.757313237
 10
412318.1912758066
 20
4671906.447035868
 10
412303.6569801199
 20
4671899.853668055
 10
412302.3357736561
 20
4671899.870119109
 10
412299.198019559
 20
4671899.909189967
 10
412295.3942807609
 20
4671899.512418278
 10
412287.8069800272
 20
4671893.720919719
 10
412283.3425590416
 20
4671893.332381976
 10
412271.3997246071
 20
4671889.260973154
 10
412268.8289480652
 20
4671888.404571514
 10
412266.9146254655
 20
4671887.20679756
 10
412262.5327549357
 20
4671886.817170219
 10
412251.7403855255
 20
4671882.287320198
 10
412251.0687868042
 20
4671881.407188973
 10
412248.5360977553
 20
4671879.74977583
 10
412247.9365578423
 20
4671881.890425935
 10
412233.450570752
 20
4671879.183471145
 10
412230.2852070567
 20
4671877.001853515
 10
412222.6623217799
 20
4671874.986804793
 10
412216.9385440226
 20
4671872.948093502
 10
412211.2973942368
 20
4671870.908356229
 10
412208.1389395582
 20
4671869.281889034
 10
412206.2342159355
 20
4671868.861418227
 10
412193.5592785264
 20
4671865.68782445
 10
412192.3132445961
 20
4671865.111468344
 10
412192.3150844944
 20
4671865.25904846
 10
412192.9831150693
 20
4671872.469370496
 10
412192.4202931555
 20
4671873.697936065
 10
412185.5590617105
 20
4671879.780425914
 10
412185.0244419347
 20
4671889.893179945
 10
412185.035516381
 20
4671890.781391847
 10
412188.3255608216
 20
4671902.956558186
 10
412190.9807883326
 20
4671910.586202729
 10
412191.001552853
 20
4671912.251696693
 10
412215.7350894145
 20
4671922.160579205
 10
412227.6931233321
 20
4671927.453149879
 10
412236.0042246885
 20
4671931.680731226
 10
412239.1515763929
 20
4671932.418915289
 10
412251.7770924565
 20
4671938.258572347
 10
412256.2566309508
 20
4671939.868583034
 10
412256.8443576677
 20
4671940.638663041
 10
412278.9916546567
 20
4671948.469768027
 10
412290.4652464475
 20
4671954.657018921
 10
412291.7148752353
 20
4671955.529945901
  0
LWPOLYLINE
  5
E4
330
1F
100
AcDbEntity
  8
XLW_collections
100
AcDbPolyline
 90
       56
 70
     1
 43
0.0
 10
412177.1688821198
 20
4672067.901492871
 10
412178.3811943298
 20
4672065.776310124
 10
412178.9627849955
 20
4672059.438932218
 10
412181.3535911534
 20
4672045.860373569
 10
412181.3065157529
 20
4672042.085092825
 10
412189.4268978992
 20
4672037.652681466
 10
412194.4372808369
 20
4672035.48006481
 10
412196.9143845733
 20
4672035.449181997
 10
412198.231340374
 20
4672035.099722192
 10
412208.3311645008
 20
4672037.08381563
 10
412212.8774998813
 20
4672039.075280984
 10
412212.7225601495
 20
4672038.250670256
 10
412212.6998944611
 20
4672036.432308664
 10
412208.8454551179
 20
4672031.968850065
 10
412207.5861407217
 20
4672030.318749557
 10
412200.6019301955
 20
4672026.518925927
 10
412195.5443944613
 20
4672024.916030179
 10
412193.0409101706
 20
4672022.837238357
 10
412189.2109252621
 20
4672020.330781873
 10
412186.6511865192
 20
4672020.362697585
 10
412175.2865410335
 20
4672016.284247823
 10
412166.4044597556
 20
4672012.619130367
 10
412164.4998460169
 20
4672012.19867941
 10
412163.8899582217
 20
4672009.652073168
 10
412163.1920484554
 20
4672006.662285213
 10
412151.2040952895
 20
4672005.590206731
 10
412143.5550780678
 20
4672001.465452013
 10
412141.0723482767
 20
4672001.052292237
 10
412136.696154275
 20
4672001.106886285
 10
412134.7970022301
 20
4672001.1305795
 10
412127.183990407
 20
4671999.892798733
 10
412119.649302198
 20
4671998.321005406
 10
412115.143366827
 20
4671994.601411198
 10
412102.6509398678
 20
4671999.421615347
 10
412100.1328417394
 20
4672002.784655735
 10
412099.4888792851
 20
4672004.125455973
 10
412097.7610524551
 20
4672011.254445929
 10
412096.5729864162
 20
4672021.930546473
 10
412094.1637890541
 20
4672027.402371742
 10
412093.5932840409
 20
4672034.62805618
 10
412093.6514935832
 20
4672039.291608994
 10
412095.6878424233
 20
4672050.26068454
 10
412096.423196768
 20
4672056.248454644
 10
412098.4068737814
 20
4672062.99810232
 10
412102.7775617439
 20
4672062.499424675
 10
412107.1481742372
 20
4672062.000602854
 10
412110.9407548517
 20
4672061.509071132
 10
412115.9774999078
 20
4672061.446217177
 10
412116.6380882465
 20
4672061.437973908
 10
412124.8235266922
 20
4672062.224312261
 10
412137.4774438016
 20
4672063.732226457
 10
412144.3473884074
 20
4672064.979126069
 10
412150.7051582122
 20
4672064.899817601
 10
412160.8050302183
 20
4672066.88390673
 10
412164.5920719951
 20
4672065.948272352
 10
412177.1854971736
 20
4672069.23388813
  0
LWPOLYLINE
  5
E5
330
1F
100
AcDbEntity
  8
XLW_collections
100
AcDbPolyline
 90
       36
 70
     1
 43
0.0
 10
412279.4897438837
 20
4672034.864464935
 10
412270.586922399
 20
4672029.533689104
 10
412267.4534499548
 20
4672029.905911586
 10
412257.2858480714
 20
4672022.480752728
 10
412252.2061910417
 20
4672019.101424558
 10
412238.2873784875
 20
4672015.498901253
 10
412236.3883049168
 20
4672015.522566205
 10
412221.2254600236
 20
4672011.491446361
 10
412217.4589942174
 20
4672014.092676071
 10
412215.6651055632
 20
4672022.555204568
 10
412212.6588924683
 20
4672033.142910133
 10
412212.6998944611
 20
4672036.432308664
 10
412212.7225601495
 20
4672038.250670256
 10
412212.8774998813
 20
4672039.075280984
 10
412216.2152870191
 20
4672040.537387184
 10
412224.1079785484
 20
4672043.994628205
 10
412229.1765628195
 20
4672046.485731925
 10
412242.5547171283
 20
4672053.093428639
 10
412249.5651647524
 20
4672059.003017779
 10
412255.3639376356
 20
4672073.701072388
 10
412255.3957571337
 20
4672076.255011975
 10
412261.9486373161
 20
4672091.832112073
 10
412265.1498632073
 20
4672096.900815462
 10
412266.6278434126
 20
4672098.711304958
 10
412267.0655879432
 20
4672098.209620467
 10
412270.6428164431
 20
4672087.059490178
 10
412274.3733008971
 20
4672081.571391311
 10
412281.3035527084
 20
4672081.040795647
 10
412285.0915974345
 20
4672080.179273676
 10
412285.0809945174
 20
4672079.327961107
 10
412286.8956921401
 20
4672072.530975875
 10
412293.6517948048
 20
4672058.009720193
 10
412297.3245720312
 20
4672054.521237551
 10
412297.9007390007
 20
4672047.73965557
 10
412296.8460609629
 20
4672047.049457493
 10
412288.4089982028
 20
4672041.527723523
  0
LWPOLYLINE
  5
E6
330
1F
100
AcDbEntity
  8
XLW_collections
100
AcDbPolyline
 90
       43
 70
     1
 43
0.0
 10
412249.6697389933
 20
4672120.415262762
 10
412250.2873582863
 20
4672116.964851905
 10
412251.4789305569
 20
4672113.174102822
 10
412256.4574586823
 20
4672108.447699297
 10
412260.796310045
 20
4672105.395268189
 10
412266.6278434126
 20
4672098.711304958
 10
412265.1498632073
 20
4672096.900815462
 10
412261.9486373161
 20
4672091.832112073
 10
412255.3957571337
 20
4672076.255011975
 10
412255.3639376356
 20
4672073.701072388
 10
412249.5651647524
 20
4672059.003017779
 10
412242.5547171283
 20
4672053.093428639
 10
412229.1765628195
 20
4672046.485731925
 10
412224.1079785484
 20
4672043.994628205
 10
412216.2152870191
 20
4672040.537387184
 10
412212.8774998813
 20
4672039.075280984
 10
412208.3311645008
 20
4672037.08381563
 10
412198.231340374
 20
4672035.099722192
 10
412196.9143845733
 20
4672035.449181997
 10
412194.4372808369
 20
4672035.48006481
 10
412189.4268978992
 20
4672037.652681466
 10
412181.3065157529
 20
4672042.085092825
 10
412181.3535911534
 20
4672045.860373569
 10
412178.9627849955
 20
4672059.438932218
 10
412178.3811943298
 20
4672065.776310124
 10
412177.1688821198
 20
4672067.901492871
 10
412177.1854971736
 20
4672069.23388813
 10
412177.200728101
 20
4672070.455287178
 10
412176.7917730873
 20
4672084.009160448
 10
412181.8714237039
 20
4672087.388550841
 10
412185.607745207
 20
4672089.007747211
 10
412193.9019991682
 20
4672091.902788347
 10
412211.010951657
 20
4672099.68552452
 10
412215.4396781978
 20
4672103.850428985
 10
412216.1057241787
 20
4672104.286325406
 10
412221.1894929706
 20
4672107.998867458
 10
412230.0483757073
 20
4672116.439673307
 10
412233.878369264
 20
4672118.946189179
 10
412238.3730939683
 20
4672121.777607468
 10
412240.8722323361
 20
4672123.523401598
 10
412243.467906666
 20
4672126.378411963
 10
412247.2470843414
 20
4672131.439880684
 10
412249.8395290719
 20
4672134.042085593
  0
LWPOLYLINE
  5
E7
330
1F
100
AcDbEntity
  8
XLW_collections
100
AcDbPolyline
 90
       33
 70
     1
 43
0.0
 10
412301.4656048081
 20
4672082.011285637
 10
412286.9855830394
 20
4672079.748513882
 10
412285.0915974345
 20
4672080.179273676
 10
412281.3035527084
 20
4672081.040795647
 10
412274.3733008971
 20
4672081.571391311
 10
412270.6428164431
 20
4672087.059490178
 10
412267.0655879432
 20
4672098.209620467
 10
412266.6278434126
 20
4672098.711304958
 10
412260.796310045
 20
4672105.395268189
 10
412256.4574586823
 20
4672108.447699297
 10
412251.4789305569
 20
4672113.174102822
 10
412250.2873582863
 20
4672116.964851905
 10
412249.6697389933
 20
4672120.415262762
 10
412249.8395290719
 20
4672134.042085593
 10
412249.8495976996
 20
4672134.850161273
 10
412256.3779920868
 20
4672155.091925647
 10
412260.9998805623
 20
4672168.138827551
 10
412261.5051777008
 20
4672168.843982352
 10
412266.0476134072
 20
4672168.964330581
 10
412269.2059975743
 20
4672170.590897863
 10
412283.7287152383
 20
4672176.295900517
 10
412288.1611276242
 20
4672179.239260812
 10
412288.2246931442
 20
4672179.23846912
 10
412290.1182642725
 20
4672178.770617925
 10
412302.4680668226
 20
4672162.513784062
 10
412313.1024438197
 20
4672154.385415163
 10
412324.2138842341
 20
4672138.144060321
 10
412330.9491861162
 20
4672121.957236552
 10
412335.2227202688
 20
4672107.022682147
 10
412336.2981648216
 20
4672093.904776795
 10
412334.4792288422
 20
4672093.260676625
 10
412329.3305273218
 20
4672091.437255749
 10
412327.3996078891
 20
4672088.907037568
  0
LWPOLYLINE
  5
E8
330
1F
100
AcDbEntity
  8
XLW_collections
100
AcDbPolyline
 90
       32
 70
     1
 43
0.0
 10
412726.1259092708
 20
4672754.593342072
 10
412735.6701247194
 20
4672732.013628766
 10
412740.3849573629
 20
4672716.100147489
 10
412743.1517336423
 20
4672701.532094992
 10
412751.803846478
 20
4672686.230388793
 10
412754.1040061008
 20
4672673.650013383
 10
412753.3673438489
 20
4672653.840272293
 10
412758.0822761094
 20
4672637.926851757
 10
412769.6649588909
 20
4672621.267687416
 10
412781.3623116795
 20
4672613.855777537
 10
412793.0759774072
 20
4672607.765089335
 10
412795.335339519
 20
4672591.882007085
 10
412793.7882270471
 20
4672585.955541368
 10
412781.5915678319
 20
4672592.712935052
 10
412777.7360950068
 20
4672598.706237947
 10
412766.9474232956
 20
4672600.16122285
 10
412753.6375916429
 20
4672596.362327576
 10
412743.3236873058
 20
4672596.490127332
 10
412735.8993128602
 20
4672591.957774952
 10
412734.3357771856
 20
4672584.710182264
 10
412718.310271867
 20
4672581.605707572
 10
412710.1553262387
 20
4672575.761157616
 10
412701.7895718889
 20
4672574.543597776
 10
412710.9002967665
 20
4672596.2313516
 10
412711.2278222751
 20
4672622.652411951
 10
412708.7723104128
 20
4672662.320496348
 10
412703.2963478736
 20
4672696.080418597
 10
412696.3061081906
 20
4672726.556006177
 10
412690.167140405
 20
4672746.450945916
 10
412700.9801434715
 20
4672746.97749322
 10
412709.4030147226
 20
4672752.818710281
 10
412720.471773954
 20
4672755.98466246
  0
LWPOLYLINE
  5
E9
330
1F
100
AcDbEntity
  8
XLW_collections
100
AcDbPolyline
 90
       50
 70
     1
 43
0.0
 10
412121.2033449919
 20
4673690.784692302
 10
412121.8526899618
 20
4673689.888091128
 10
412128.6025385789
 20
4673675.033476556
 10
412129.1581871105
 20
4673673.249621119
 10
412135.9289323641
 20
4673660.060579658
 10
412137.1353209988
 20
4673657.491236281
 10
412138.9812865295
 20
4673653.24812137
 10
412143.9004799031
 20
4673643.858067917
 10
412145.194954552
 20
4673641.731871148
 10
412148.8252301468
 20
4673634.91218733
 10
412150.6712089347
 20
4673630.669062332
 10
412153.161075989
 20
4673625.085146198
 10
412154.3729461596
 20
4673622.959976607
 10
412157.3990820816
 20
4673614.037770579
 10
412164.1907238617
 20
4673602.514337514
 10
412155.257873154
 20
4673594.629771487
 10
412150.8660415383
 20
4673593.351967448
 10
412140.11912733
 20
4673592.264398351
 10
412136.9600254567
 20
4673590.526962944
 10
412126.8623871959
 20
4673588.542949907
 10
412124.4183971436
 20
4673589.596380366
 10
412121.7796044778
 20
4673584.830539786
 10
412119.8808795263
 20
4673584.854243527
 10
412109.164448097
 20
4673586.209661596
 10
412104.8114229457
 20
4673588.040954649
 10
412102.9334957516
 20
4673589.730206736
 10
412100.7543985797
 20
4673594.064946177
 10
412098.6635930905
 20
4673598.223747098
 10
412092.6540154546
 20
4673603.606403331
 10
412092.3764652115
 20
4673603.85497693
 10
412091.8139612027
 20
4673605.083696549
 10
412091.1590638299
 20
4673605.536053858
 10
412088.0858577584
 20
4673610.682967948
 10
412085.5850896354
 20
4673615.378552398
 10
412078.2212313822
 20
4673627.35351835
 10
412073.91607605
 20
4673639.623306291
 10
412070.8596173839
 20
4673646.102745693
 10
412070.8748737143
 20
4673647.324095169
 10
412066.0029404493
 20
4673660.489506802
 10
412065.4473076059
 20
4673662.273444722
 10
412064.2207554549
 20
4673669.840481689
 10
412062.2150966543
 20
4673674.227331216
 10
412059.3184067153
 20
4673680.563021287
 10
412064.4593421497
 20
4673688.938986888
 10
412070.8573335028
 20
4673692.190844673
 10
412080.9770314472
 20
4673695.951308079
 10
412089.2118933687
 20
4673700.846013715
 10
412094.9300865917
 20
4673702.551440344
 10
412101.896168703
 20
4673705.018793479
 10
412113.2208153149
 20
4673706.098919168
  0
LWPOLYLINE
  5
EA
330
1F
100
AcDbEntity
  8
XLW_collections
100
AcDbPolyline
 90
       34
 70
     1
 43
0.0
 10
409159.405247194
 20
4675252.64049202
 10
409166.2066220071
 20
4675248.776752601
 10
409169.4024880128
 20
4675246.958642161
 10
409170.6132464096
 20
4675244.83289401
 10
409183.6709034865
 20
4675233.225421959
 10
409186.1591155871
 20
4675227.751625688
 10
409182.3239021691
 20
4675224.802541876
 10
409179.1446822221
 20
4675221.511871634
 10
409174.0169930806
 20
4675214.359369207
 10
409163.1830742634
 20
4675206.39206459
 10
409156.8833044458
 20
4675204.363346404
 10
409146.7870020694
 20
4675202.383583041
 10
409138.5723656216
 20
4675205.488188267
 10
409131.0074101163
 20
4675201.36570089
 10
409118.9740687092
 20
4675196.412540297
 10
409108.2935449499
 20
4675200.326464607
 10
409107.061279409
 20
4675200.7866181
 10
409098.1584868318
 20
4675195.348741551
 10
409086.1266183001
 20
4675190.506578892
 10
409051.1748545594
 20
4675213.391877422
 10
409051.1805960678
 20
4675213.83603688
 10
409059.4490143685
 20
4675221.280978723
 10
409069.1383154439
 20
4675236.481662475
 10
409072.3175826436
 20
4675239.772351215
 10
409072.9010249302
 20
4675240.209042924
 10
409078.6116078028
 20
4675241.356825685
 10
409080.5098985595
 20
4675241.332294525
 10
409094.4198142947
 20
4675244.595296119
 10
409095.66354878
 20
4675245.023457961
 10
409107.6680634884
 20
4675247.755905563
 10
409108.9060586517
 20
4675247.739912268
 10
409122.1615389598
 20
4675251.455650222
 10
409135.4765046161
 20
4675253.393792612
 10
409146.7935250546
 20
4675254.025066502
  0
LWPOLYLINE
  5
EB
330
1F
100
AcDbEntity
  8
XLW_collections
100
AcDbPolyline
 90
       31
 70
     1
 43
0.0
 10
409010.1507034095
 20
4675302.879094834
 10
409012.5778510876
 20
4675299.071801584
 10
409016.896766978
 20
4675288.354458446
 10
409024.2047642284
 20
4675272.600882677
 10
409027.8691664784
 20
4675262.336275617
 10
409035.2827050475
 20
4675248.358217424
 10
409041.3799912566
 20
4675234.73042396
 10
409050.0028809654
 20
4675218.51567592
 10
409050.5633602102
 20
4675217.175730468
 10
408937.2317920425
 20
4675166.555825701
 10
408941.6491616549
 20
4675169.830393597
 10
408941.0176765998
 20
4675172.05974953
 10
408937.3956263555
 20
4675179.214261499
 10
408928.1299624561
 20
4675196.770123695
 10
408922.0155346027
 20
4675209.06561505
 10
408920.8767870736
 20
4675216.743227578
 10
408919.0173007821
 20
4675219.765895418
 10
408912.8807676756
 20
4675236.725975417
 10
408911.6542716649
 20
4675237.63039328
 10
408908.5567961662
 20
4675240.668935504
 10
408902.8425068045
 20
4675245.949591411
 10
408904.8696249791
 20
4675249.157010478
 10
408915.0047523597
 20
4675254.134492968
 10
408932.1486702196
 20
4675264.907230067
 10
408949.2538097561
 20
4675272.681920236
 10
408949.2595577586
 20
4675273.126076078
 10
408949.9255982742
 20
4675273.561760687
 10
408958.8442191706
 20
4675280.220836034
 10
408972.1973427564
 20
4675291.486835097
 10
408983.0084514003
 20
4675297.677356362
 10
409000.6925863341
 20
4675305.555752077
  0
LWPOLYLINE
  5
EC
330
1F
100
AcDbEntity
  8
XLW_collections
100
AcDbPolyline
 90
       25
 70
     1
 43
0.0
 10
411295.7489937972
 20
4673167.73751016
 10
411293.6319732377
 20
4673150.439452589
 10
411293.6151841269
 20
4673149.106962303
 10
411279.1229080494
 20
4673152.28811895
 10
411257.805111517
 20
4673157.665384318
 10
411251.5517800791
 20
4673159.410048495
 10
411233.9168166021
 20
4673162.186629456
 10
411226.9215402835
 20
4673161.725833751
 10
411226.355207398
 20
4673158.395090184
 10
411225.0375440011
 20
4673157.862485305
 10
411222.6704499791
 20
4673161.445856908
 10
411220.085150433
 20
4673165.35950081
 10
411219.6780355814
 20
4673178.913461972
 10
411220.2923843835
 20
4673181.79317493
 10
411220.9793995924
 20
4673183.894626059
 10
411226.11196079
 20
4673191.492717844
 10
411233.7133343045
 20
4673200.711538566
 10
411235.084102159
 20
4673202.374050993
 10
411236.3392524102
 20
4673203.690991926
 10
411248.9703673771
 20
4673203.531748271
 10
411263.3589162413
 20
4673198.686026206
 10
411265.8747716794
 20
4673195.21151304
 10
411275.2329998594
 20
4673190.873494864
 10
411290.2973918169
 20
4673187.240928334
 10
411296.5144063376
 20
4673182.609305002
  0
LWPOLYLINE
  5
ED
330
1F
100
AcDbEntity
  8
XLW_collections
100
AcDbPolyline
 90
       34
 70
     1
 43
0.0
 10
411140.3647710051
 20
4673234.109297695
 10
411147.2784174723
 20
4673232.356289469
 10
411152.2974453265
 20
4673230.960259012
 10
411161.1043911341
 20
4673228.739091698
 10
411171.6951801289
 20
4673223.941119711
 10
411186.1718568113
 20
4673219.538343371
 10
411198.1046466141
 20
4673216.389228391
 10
411198.6825863043
 20
4673216.381938497
 10
411208.1400933126
 20
4673213.375205823
 10
411225.6867775962
 20
4673210.155482236
 10
411233.8948277241
 20
4673206.275978072
 10
411233.8626286291
 20
4673203.722218005
 10
411233.7133343045
 20
4673200.711538566
 10
411226.11196079
 20
4673191.492717844
 10
411220.9793995924
 20
4673183.894626059
 10
411220.2923843835
 20
4673181.79317493
 10
411219.6780355814
 20
4673178.913461972
 10
411220.085150433
 20
4673165.35950081
 10
411222.6704499791
 20
4673161.445856908
 10
411225.0375440011
 20
4673157.862485305
 10
411221.2926335424
 20
4673156.348879712
 10
411206.7947975537
 20
4673159.085897212
 10
411193.617945839
 20
4673161.80635476
 10
411181.6850637229
 20
4673164.955425156
 10
411167.8631572446
 20
4673168.905696081
 10
411160.3771795728
 20
4673171.110201376
 10
411150.2492656382
 20
4673173.348129455
 10
411136.5324328609
 20
4673179.074038124
 10
411136.6123213907
 20
4673185.403229329
 10
411135.3979462684
 20
4673193.858790296
 10
411133.0768229238
 20
4673206.215246218
 10
411133.7570807897
 20
4673214.313731783
 10
411133.2954758229
 20
4673223.537245278
 10
411136.6197230164
 20
4673235.186419002
  0
LWPOLYLINE
  5
EE
330
1F
100
AcDbEntity
  8
XLW_collections
100
AcDbPolyline
 90
       25
 70
     1
 43
0.0
 10
411112.502062309
 20
4673375.057782359
 10
411121.2821789535
 20
4673370.726807775
 10
411128.1956842477
 20
4673368.973662925
 10
411141.3510996267
 20
4673364.587477279
 10
411157.0489726372
 20
4673358.836564306
 10
411175.8684264575
 20
4673351.824772912
 10
411178.2651432538
 20
4673345.464335715
 10
411174.9361607855
 20
4673330.291656985
 10
411171.0154194105
 20
4673320.568166588
 10
411168.4322042478
 20
4673312.160533593
 10
411166.4578155125
 20
4673306.188493159
 10
411163.8131407345
 20
4673299.447426557
 10
411153.2223243929
 20
4673304.245438416
 10
411141.8732396476
 20
4673307.831355669
 10
411127.4849934771
 20
4673312.677333851
 10
411116.8116800489
 20
4673317.476434764
 10
411102.4332838575
 20
4673323.099664393
 10
411098.6568672016
 20
4673324.813301753
 10
411092.4905901792
 20
4673333.442458154
 10
411086.2006097321
 20
4673337.379350226
 10
411094.0122533337
 20
4673355.856440317
 10
411101.7546133049
 20
4673373.971898693
 10
411103.1021135382
 20
4673376.064941556
 10
411101.8078962223
 20
4673378.191343006
 10
411100.5962935749
 20
4673380.316700824
  0
LWPOLYLINE
  5
EF
330
1F
100
AcDbEntity
  8
XLW_collections
100
AcDbPolyline
 90
       28
 70
     1
 43
0.0
 10
409237.6794457425
 20
4672488.204509122
 10
409256.2163105466
 20
4672485.893917953
 10
409256.5324792255
 20
4672483.741435251
 10
409254.4145151288
 20
4672466.776996564
 10
409252.4994416297
 20
4672459.138805533
 10
409243.8507622293
 20
4672428.820793825
 10
409237.94142654
 20
4672406.01935342
 10
409234.6565376751
 20
4672394.622789369
 10
409232.6744695811
 20
4672388.207090823
 10
409222.2965754669
 20
4672364.685832942
 10
409218.9348187332
 20
4672353.734537312
 10
409212.4850284033
 20
4672340.268825314
 10
409200.5171694318
 20
4672340.756306535
 10
409189.8608426802
 20
4672346.890740433
 10
409172.9336832925
 20
4672353.439242689
 10
409167.0084586137
 20
4672358.661847698
 10
409166.1565816254
 20
4672359.412734265
 10
409167.4825231988
 20
4672366.169937621
 10
409170.7188385704
 20
4672373.791168759
 10
409181.8133049096
 20
4672401.634323329
 10
409185.1526920671
 20
4672417.250296419
 10
409185.763634637
 20
4672419.796675339
 10
409189.0925554364
 20
4672428.194023734
 10
409196.912384777
 20
4672451.859312939
 10
409197.6001446967
 20
4672453.960505283
 10
409200.8793426491
 20
4672464.912847866
 10
409207.3347029318
 20
4672478.822641721
 10
409213.7833292696
 20
4672496.337541399
  0
LWPOLYLINE
  5
F0
330
1F
100
AcDbEntity
  8
XLW_collections
100
AcDbPolyline
 90
       41
 70
     1
 43
0.0
 10
409209.654139398
 20
4672485.122375442
 10
409208.660515239
 20
4672485.5800339
 10
409208.0825130176
 20
4672485.587486226
 10
409207.421960236
 20
4672485.596002955
 10
409201.8347611356
 20
4672487.778093762
 10
409198.626226401
 20
4672488.707978168
 10
409194.0767816391
 20
4672489.447845616
 10
409190.4679925487
 20
4672490.03479222
 10
409169.155315618
 20
4672495.862460856
 10
409157.2263988597
 20
4672499.34807288
 10
409160.3910486976
 20
4672501.417294969
 10
409166.8851332004
 20
4672518.325181444
 10
409168.2548561634
 20
4672522.083415174
 10
409168.2777742484
 20
4672523.860135655
 10
409172.140715324
 20
4672535.249007168
 10
409178.0496612846
 20
4672551.609256426
 10
409178.7488006647
 20
4672554.598700656
 10
409185.9076380149
 20
4672571.831217858
 10
409195.5719299583
 20
4672591.252490497
 10
409201.509341068
 20
4672609.833501953
 10
409201.5440575472
 20
4672609.908290524
 10
409209.3323907476
 20
4672626.677537777
 10
409209.9179056041
 20
4672627.938284719
 10
409225.0055511807
 20
4672626.078005354
 10
409242.9250410214
 20
4672625.438321082
 10
409253.8703006326
 20
4672622.189076676
 10
409255.1736320286
 20
4672621.802160203
 10
409255.3346600335
 20
4672621.691443522
 10
409255.0718070782
 20
4672621.107575627
 10
409253.8923192607
 20
4672618.486925748
 10
409253.1774009659
 20
4672614.275968323
 10
409251.1582721643
 20
4672604.973365083
 10
409238.8201058098
 20
4672576.701890313
 10
409234.188043614
 20
4672556.882411844
 10
409233.4774030732
 20
4672553.004608409
 10
409231.6066222693
 20
4672548.808586555
 10
409229.6145691352
 20
4672541.615587078
 10
409219.8362660291
 20
4672519.752390504
 10
409213.2721651747
 20
4672497.403663713
 10
409213.2607128143
 20
4672496.515374197
 10
409213.7833292696
 20
4672496.337541399
  0
LWPOLYLINE
  5
F1
330
1F
100
AcDbEntity
  8
XLW_collections
100
AcDbPolyline
 90
       13
 70
     1
 43
0.0
 10
409168.9535766772
 20
4672639.284970219
 10
409170.995873318
 20
4672638.546471288
 10
409189.7882449419
 20
4672629.419593062
 10
409207.3585193013
 20
4672627.971284905
 10
409209.3323907476
 20
4672626.677537777
 10
409201.5440575472
 20
4672609.908290524
 10
409183.1960042998
 20
4672611.29126224
 10
409175.0222355896
 20
4672611.396686806
 10
409173.94719739
 20
4672613.241572167
 10
409171.3058756972
 20
4672617.774810228
 10
409171.3660322732
 20
4672622.438452872
 10
409170.8111064699
 20
4672624.222527967
 10
409168.4478006098
 20
4672639.467759411
  0
LWPOLYLINE
  5
F2
330
1F
100
AcDbEntity
  8
XLW_collections
100
AcDbPolyline
 90
       24
 70
     1
 43
0.0
 10
409167.2480210469
 20
4672642.481808583
 10
409168.9535766772
 20
4672639.284970219
 10
409168.4478006098
 20
4672639.467759411
 10
409170.8111064699
 20
4672624.222527967
 10
409171.3660322732
 20
4672622.438452872
 10
409171.3058756972
 20
4672617.774810228
 10
409173.94719739
 20
4672613.241572167
 10
409169.9534534159
 20
4672612.020944837
 10
409166.166366314
 20
4672609.845080109
 10
409161.5169283495
 20
4672588.69328275
 10
409162.1387954163
 20
4672585.686665212
 10
409153.1253834739
 20
4672571.920836297
 10
409149.8017437794
 20
4672557.526394287
 10
409148.4535065395
 20
4672555.433758559
 10
409145.9707639829
 20
4672555.021539376
 10
409130.3328452701
 20
4672565.440597051
 10
409127.9433937273
 20
4672572.245765348
 10
409126.1862490461
 20
4672583.263110747
 10
409124.6312389765
 20
4672609.936746536
 10
409123.0002204201
 20
4672630.725487133
 10
409131.9276452764
 20
4672637.828867188
 10
409136.3249650169
 20
4672639.437955768
 10
409140.1559042998
 20
4672641.942848318
 10
409150.3332130506
 20
4672649.918751402
  0
LWPOLYLINE
  5
F3
330
1F
100
AcDbEntity
  8
XLW_collections
100
AcDbPolyline
 90
       20
 70
     1
 43
0.0
 10
408058.2926252689
 20
4677643.580312363
 10
408075.6556456126
 20
4677627.249899816
 10
408089.3785821624
 20
4677616.519965352
 10
408104.9773712875
 20
4677604.099590445
 10
408121.73399157
 20
4677585.556107334
 10
408126.9505880844
 20
4677579.601798117
 10
408127.9275098961
 20
4677579.589031993
 10
408129.8033348041
 20
4677577.898654397
 10
408114.5162241913
 20
4677563.660941624
 10
408097.9144561048
 20
4677543.5543207
 10
408081.8959905558
 20
4677523.884291075
 10
408070.037161137
 20
4677532.035570844
 10
408051.3480174777
 20
4677547.939239115
 10
408034.5522662259
 20
4677563.484776719
 10
408019.6252015638
 20
4677576.784916654
 10
408001.590478911
 20
4677592.235829516
 10
408008.6430182413
 20
4677601.472477753
 10
408022.0326905154
 20
4677615.734787543
 10
408036.1041693679
 20
4677631.65417482
 10
408050.7472813703
 20
4677647.121843892
  0
LWPOLYLINE
  5
F4
330
1F
100
AcDbEntity
  8
XLW_collections
100
AcDbPolyline
 90
       32
 70
     1
 43
0.0
 10
409209.654139398
 20
4672485.122375442
 10
409207.3347029318
 20
4672478.822641721
 10
409200.8793426491
 20
4672464.912847866
 10
409197.6001446967
 20
4672453.960505283
 10
409196.912384777
 20
4672451.859312939
 10
409189.0925554364
 20
4672428.194023734
 10
409185.763634637
 20
4672419.796675339
 10
409185.1526920671
 20
4672417.250296419
 10
409181.8133049096
 20
4672401.634323329
 10
409170.7188385704
 20
4672373.791168759
 10
409167.4825231988
 20
4672366.169937621
 10
409166.1565816254
 20
4672359.412734265
 10
409167.0084586137
 20
4672358.661847698
 10
409162.9321615802
 20
4672359.121146185
 10
409142.3713565488
 20
4672372.046770394
 10
409121.7666919704
 20
4672387.971680977
 10
409119.284525115
 20
4672394.000702406
 10
409123.2401179831
 20
4672406.165857239
 10
409131.7365863489
 20
4672431.044048035
 10
409140.8934774733
 20
4672455.913564231
 10
409146.7881544026
 20
4672471.163331985
 10
409155.9234583252
 20
4672494.367282283
 10
409156.5386308199
 20
4672497.246897695
 10
409157.2263988597
 20
4672499.34807288
 10
409169.155315618
 20
4672495.862460856
 10
409190.4679925487
 20
4672490.03479222
 10
409194.0767816391
 20
4672489.447845616
 10
409198.626226401
 20
4672488.707978168
 10
409201.8347611356
 20
4672487.778093762
 10
409207.421960236
 20
4672485.596002955
 10
409208.0825130176
 20
4672485.587486226
 10
409208.660515239
 20
4672485.5800339
  0
LWPOLYLINE
  5
F5
330
1F
100
AcDbEntity
  8
XLW_collections
100
AcDbPolyline
 90
       25
 70
     1
 43
0.0
 10
408638.9168305301
 20
4672514.938171793
 10
408656.2934291355
 20
4672515.011404137
 10
408664.7653649915
 20
4672515.047110408
 10
408662.1569647109
 20
4672511.304952357
 10
408658.9474427308
 20
4672505.793786712
 10
408656.1416345927
 20
4672486.83946899
 10
408656.036488388
 20
4672478.733625404
 10
408655.9054175201
 20
4672468.629203332
 10
408652.4927772759
 20
4672447.461653918
 10
408642.2771484172
 20
4672436.599563598
 10
408627.7777338432
 20
4672432.900716349
 10
408626.5450047768
 20
4672433.36089886
 10
408621.5367517553
 20
4672434.632581983
 10
408620.881216435
 20
4672435.98865292
 10
408619.6757921628
 20
4672438.558628625
 10
408619.081590934
 20
4672443.675003572
 10
408617.9583757537
 20
4672452.574117227
 10
408617.9857533827
 20
4672454.683829744
 10
408615.6783974788
 20
4672474.148687162
 10
408616.9773290996
 20
4672478.79628492
 10
408614.7266730176
 20
4672496.261369051
 10
408612.3256760766
 20
4672508.508739882
 10
408617.4182645388
 20
4672512.773908433
 10
408622.6468125783
 20
4672513.654139428
 10
408635.7909245752
 20
4672515.867166577
  0
LWPOLYLINE
  5
F6
330
1F
100
AcDbEntity
  8
XLW_collections
100
AcDbPolyline
 90
       15
 70
     1
 43
0.0
 10
407942.1493635551
 20
4672612.192037294
 10
407960.3132211789
 20
4672605.624356846
 10
407962.1453906102
 20
4672600.491693469
 10
407963.2319751539
 20
4672582.073255104
 10
407952.3951114255
 20
4672581.07312046
 10
407946.7589219022
 20
4672579.48094004
 10
407944.2053175063
 20
4672579.958576882
 10
407939.2182538762
 20
4672583.799671901
 10
407938.575204066
 20
4672585.140839316
 10
407916.5915088949
 20
4672590.092614235
 10
407895.3453666784
 20
4672600.921026969
 10
407895.4063662791
 20
4672605.584546218
 10
407909.3598866719
 20
4672611.732359243
 10
407915.0134098344
 20
4672614.656882185
 10
407920.7219652784
 20
4672615.4707344
  0
LWPOLYLINE
  5
F7
330
1F
100
AcDbEntity
  8
XLW_collections
100
AcDbPolyline
 90
       24
 70
     1
 43
0.0
 10
411999.720592742
 20
4675760.93717441
 10
412002.0102563318
 20
4675746.027019796
 10
411995.5534936773
 20
4675731.337427553
 10
411978.3043578387
 20
4675711.674196801
 10
411978.2932425304
 20
4675710.785872091
 10
411972.3543869867
 20
4675691.314322726
 10
411971.0595094837
 20
4675686.777310273
 10
411957.8009370635
 20
4675682.612077569
 10
411950.8798132882
 20
4675683.587095627
 10
411939.5847118581
 20
4675684.616946674
 10
411917.6667950281
 20
4675694.219993695
 10
411907.6290899966
 20
4675696.78894847
 10
411901.9890026636
 20
4675701.190729881
 10
411912.0989286948
 20
4675704.395851807
 10
411913.3424721991
 20
4675704.824549624
 10
411922.9067024981
 20
4675710.590733039
 10
411921.1833906905
 20
4675722.221580372
 10
411938.0729786314
 20
4675715.509433926
 10
411950.0449529438
 20
4675715.803695063
 10
411965.8889816777
 20
4675728.710053507
 10
411982.5562880157
 20
4675748.047323315
 10
411988.183336374
 20
4675749.198614645
 10
411991.4129274453
 20
4675750.046593701
 10
411999.3089998859
 20
4675761.558858302
  0
LWPOLYLINE
  5
F8
330
1F
100
AcDbEntity
  8
XLW_collections
100
AcDbPolyline
 90
       13
 70
     1
 43
0.0
 10
412043.7429454409
 20
4675809.473346052
 10
412051.7546854125
 20
4675796.712715494
 10
412035.356406273
 20
4675792.253505767
 10
412021.460051655
 20
4675789.872959949
 10
412017.0445473224
 20
4675786.596501498
 10
412009.2923719793
 20
4675783.341243912
 10
412012.0840781437
 20
4675792.544561783
 10
412005.2158390104
 20
4675797.738987545
 10
411999.8231511053
 20
4675795.557871983
 10
412004.5917899843
 20
4675800.634283474
 10
412022.9840202286
 20
4675812.731380235
 10
412026.2192088952
 20
4675814.023706349
 10
412033.1929759315
 20
4675817.268090893
  0
LWPOLYLINE
  5
F9
330
1F
100
AcDbEntity
  8
XLW_collections
100
AcDbPolyline
 90
       35
 70
     1
 43
0.0
 10
411967.7109246087
 20
4675821.529965618
 10
411981.3514442947
 20
4675803.479370146
 10
411983.1814921368
 20
4675798.01465365
 10
411990.0345069284
 20
4675791.59870808
 10
411999.8231511053
 20
4675795.557871983
 10
412005.2158390104
 20
4675797.738987545
 10
412012.0840781437
 20
4675792.544561783
 10
412009.2923719793
 20
4675783.341243912
 10
412008.1239966744
 20
4675779.48948815
 10
412007.4527194301
 20
4675778.60942983
 10
412004.8546990012
 20
4675768.868914286
 10
412000.3246407098
 20
4675763.03969482
 10
411999.3089998859
 20
4675761.558858302
 10
411991.4129274453
 20
4675750.046593701
 10
411988.183336374
 20
4675749.198614645
 10
411982.5562880157
 20
4675748.047323315
 10
411965.8889816777
 20
4675728.710053507
 10
411950.0449529438
 20
4675715.803695063
 10
411938.0729786314
 20
4675715.509433926
 10
411921.1833906905
 20
4675722.221580372
 10
411916.1441130121
 20
4675724.224196317
 10
411910.4345202358
 20
4675723.074064769
 10
411907.3040300411
 20
4675723.557534832
 10
411903.0172131562
 20
4675737.160058071
 10
411896.4012473099
 20
4675755.900275981
 10
411894.5768150499
 20
4675761.809023696
 10
411892.8219260245
 20
4675773.269843427
 10
411894.7576115626
 20
4675776.244129773
 10
411913.1918138608
 20
4675791.672076837
 10
411924.593792187
 20
4675799.19222874
 10
411924.6749003797
 20
4675799.156124231
 10
411927.7603217211
 20
4675801.595809429
 10
411946.8506009933
 20
4675816.682557643
 10
411952.6087550258
 20
4675821.718979501
 10
411962.0791688613
 20
4675826.59798607
  0
LWPOLYLINE
  5
FA
330
1F
100
AcDbEntity
  8
XLW_collections
100
AcDbPolyline
 90
       34
 70
     1
 43
0.0
 10
411564.8961486479
 20
4675937.527620126
 10
411572.355760966
 20
4675926.883534476
 10
411579.0238071113
 20
4675912.362474344
 10
411582.1041102646
 20
4675901.329155298
 10
411583.8819439266
 20
4675898.308251652
 10
411593.8301148036
 20
4675882.080207709
 10
411598.7677702843
 20
4675874.355159604
 10
411601.8032893412
 20
4675866.321000112
 10
411604.2469557357
 20
4675863.73605417
 10
411610.6176102171
 20
4675850.780568395
 10
411612.1560710534
 20
4675842.869209647
 10
411614.6668374081
 20
4675839.06165949
 10
411611.4137101547
 20
4675829.773918761
 10
411600.6854397838
 20
4675829.908730675
 10
411585.5246589712
 20
4675825.434882384
 10
411575.4035029733
 20
4675821.341974399
 10
411562.7338187596
 20
4675818.058467974
 10
411560.2483450163
 20
4675817.312366333
 10
411554.0615573158
 20
4675824.164609951
 10
411551.5827799408
 20
4675830.525965711
 10
411544.1762236162
 20
4675845.389516706
 10
411541.7437428513
 20
4675848.862798993
 10
411532.5648436547
 20
4675867.191446076
 10
411525.8088237141
 20
4675881.269492044
 10
411517.7853747839
 20
4675899.583619054
 10
411509.7216291591
 20
4675908.125366639
 10
411505.4009408842
 20
4675912.399799957
 10
411502.8915082049
 20
4675916.318363744
 10
411502.8956989933
 20
4675916.65146697
 10
411514.9637498517
 20
4675924.606709082
 10
411519.4465589335
 20
4675926.660427516
 10
411528.8654772432
 20
4675927.430394772
 10
411543.4371926183
 20
4675931.023018524
 10
411557.3150968095
 20
4675938.51144701
  0
ENDSEC
  0
SECTION
  2
OBJECTS
  0
DICTIONARY
  5
C
330
0
100
AcDbDictionary
281
     1
  3
ACAD_GROUP
350
D
  3
ACAD_LAYOUT
350
1A
  3
ACAD_MATERIAL
350
43
  3
ACAD_MLEADERSTYLE
350
6B
  3
ACAD_MLINESTYLE
350
17
  3
ACAD_PLOTSETTINGS
350
19
  3
ACAD_PLOTSTYLENAME
350
E
  3
ACAD_SCALELIST
350
47
  3
ACAD_TABLESTYLE
350
69
  3
ACAD_VISUALSTYLE
350
2A
  3
AcDbVariableDictionary
350
6E
  3
ESRI_PRJ
350
FB
  0
DICTIONARY
  5
FC
330
8
100
AcDbDictionary
280
     1
281
     1
  3
ACAD_XREC_ROUNDTRIP
360
FD
  0
DICTIONARY
  5
D
102
{ACAD_REACTORS
330
C
102
}
330
C
100
AcDbDictionary
281
     1
  0
DICTIONARY
  5
1A
102
{ACAD_REACTORS
330
C
102
}
330
C
100
AcDbDictionary
281
     1
  3
Layout1
350
1E
  3
Layout2
350
26
  3
Model
350
22
  0
DICTIONARY
  5
43
102
{ACAD_REACTORS
330
C
102
}
330
C
100
AcDbDictionary
281
     1
  3
ByBlock
350
45
  3
ByLayer
350
44
  3
Global
350
46
  0
DICTIONARY
  5
6B
102
{ACAD_REACTORS
330
C
102
}
330
C
100
AcDbDictionary
281
     1
  3
Standard
350
6C
  0
DICTIONARY
  5
17
102
{ACAD_REACTORS
330
C
102
}
330
C
100
AcDbDictionary
281
     1
  3
Standard
350
18
  0
DICTIONARY
  5
19
102
{ACAD_REACTORS
330
C
102
}
330
C
100
AcDbDictionary
281
     1
  0
ACDBDICTIONARYWDFLT
  5
E
102
{ACAD_REACTORS
330
C
102
}
330
C
100
AcDbDictionary
281
     1
  3
Normal
350
F
100
AcDbDictionaryWithDefault
340
F
  0
DICTIONARY
  5
47
102
{ACAD_REACTORS
330
C
102
}
330
C
100
AcDbDictionary
281
     1
  3
A0
350
48
  3
A1
350
49
  3
A2
350
4A
  3
A3
350
4B
  3
A4
350
4C
  3
A5
350
4D
  3
A6
350
4E
  3
A7
350
4F
  3
A8
350
50
  3
A9
350
51
  3
B0
350
52
  3
B1
350
53
  3
B2
350
54
  3
B3
350
55
  3
B4
350
56
  3
B5
350
57
  3
B6
350
58
  3
B7
350
59
  3
B8
350
5A
  3
B9
350
5B
  3
C0
350
5C
  3
C1
350
5D
  3
C2
350
5E
  3
C3
350
5F
  3
C4
350
60
  3
C5
350
61
  3
C6
350
62
  3
C7
350
63
  3
C8
350
64
  3
C9
350
65
  3
D0
350
66
  3
D1
350
67
  3
D2
350
68
  0
DICTIONARY
  5
69
102
{ACAD_REACTORS
330
C
102
}
330
C
100
AcDbDictionary
281
     1
  3
Standard
350
6A
  0
DICTIONARY
  5
2A
102
{ACAD_REACTORS
330
C
102
}
330
C
100
AcDbDictionary
281
     1
  3
2dWireframe
350
2F
  3
Basic
350
32
  3
Brighten
350
36
  3
ColorChange
350
3A
  3
Conceptual
350
34
  3
Dim
350
35
  3
EdgeColorOff
350
3D
  3
Facepattern
350
39
  3
Flat
350
2B
  3
FlatWithEdges
350
2C
  3
Gouraud
350
2D
  3
GouraudWithEdges
350
2E
  3
Hidden
350
31
  3
JitterOff
350
3B
  3
Linepattern
350
38
  3
OverhangOff
350
3C
  3
Realistic
350
33
  3
Shaded
350
42
  3
Shaded with edges
350
41
  3
Shades of Gray
350
3E
  3
Sketchy
350
3F
  3
Thicken
350
37
  3
Wireframe
350
30
  3
X-Ray
350
40
  0
DICTIONARY
  5
6E
102
{ACAD_REACTORS
330
C
102
}
330
C
100
AcDbDictionary
281
     1
  3
CANNOSCALE
350
77
  3
CMLEADERSTYLE
350
70
  3
CTABLESTYLE
350
6F
  3
DIMASSOC
350
73
  3
HIDETEXT
350
74
  3
MSLTSCALE
350
78
  0
XRECORD
  5
FB
102
{ACAD_REACTORS
330
C
102
}
330
C
100
AcDbXrecord
280
     1
  1
PROJCS["Hu_Tzu_Shan_UTM_Zone_51N",GEOGCS["GCS_Hu_Tzu_Shan",DATUM["D_Hu_Tzu_Shan",SPHEROID["International_1924",6378388.0,297.0]],PRIMEM["Greenwich",0.0],UNIT["Degree",0.0174532925199433]],PROJECTION["Transverse_Mercator"],PARAMETER["False_Easting",500000.0],PARAMETER["False_Northing",0.0],PARAMETER["Central_Meridian",123.0],PARAMETER["Scale_Factor",0.9996],PARAMETER["Latitude_Of_Origin",0.0],UNIT["Meter",1.0]]
  0
XRECORD
  5
FD
102
{ACAD_REACTORS
330
FC
102
}
330
FC
100
AcDbXrecord
280
     1
102
VTR_0.000_0.000_1.000_1.000_VISUALSTYLE
340
2F
102
VTR_0.000_0.000_1.000_1.000_GRIDDISPLAY
 70
     3
102
VTR_0.000_0.000_1.000_1.000_GRIDMAJOR
 70
     5
102
VTR_0.000_0.000_1.000_1.000_DEFAULTLIGHTING
280
     1
102
VTR_0.000_0.000_1.000_1.000_DEFAULTLIGHTINGTYPE
 70
     1
102
VTR_0.000_0.000_1.000_1.000_BRIGHTNESS
141
0.0
102
VTR_0.000_0.000_1.000_1.000_CONTRAST
142
0.0
  0
LAYOUT
  5
1E
102
{ACAD_REACTORS
330
1A
102
}
330
1A
100
AcDbPlotSettings
  1

  2
none_device
  4

  6

 40
0.0
 41
0.0
 42
0.0
 43
0.0
 44
0.0
 45
0.0
 46
0.0
 47
0.0
 48
0.0
 49
0.0
140
0.0
141
0.0
142
1.0
143
1.0
 70
   688
 72
     0
 73
     0
 74
     5
  7

 75
    16
147
1.0
148
0.0
149
0.0
100
AcDbLayout
  1
Layout1
 70
     1
 71
     1
 10
0.0
 20
0.0
 11
12.0
 21
9.0
 12
0.0
 22
0.0
 32
0.0
 14
1.000000000000000E+20
 24
1.000000000000000E+20
 34
1.000000000000000E+20
 15
-1.000000000000000E+20
 25
-1.000000000000000E+20
 35
-1.000000000000000E+20
146
0.0
 13
0.0
 23
0.0
 33
0.0
 16
1.0
 26
0.0
 36
0.0
 17
0.0
 27
1.0
 37
0.0
 76
     0
330
1B
  0
LAYOUT
  5
26
102
{ACAD_REACTORS
330
1A
102
}
330
1A
100
AcDbPlotSettings
  1

  2
none_device
  4

  6

 40
0.0
 41
0.0
 42
0.0
 43
0.0
 44
0.0
 45
0.0
 46
0.0
 47
0.0
 48
0.0
 49
0.0
140
0.0
141
0.0
142
1.0
143
1.0
 70
   688
 72
     0
 73
     0
 74
     5
  7

 75
    16
147
1.0
148
0.0
149
0.0
100
AcDbLayout
  1
Layout2
 70
     1
 71
     2
 10
0.0
 20
0.0
 11
0.0
 21
0.0
 12
0.0
 22
0.0
 32
0.0
 14
0.0
 24
0.0
 34
0.0
 15
0.0
 25
0.0
 35
0.0
146
0.0
 13
0.0
 23
0.0
 33
0.0
 16
1.0
 26
0.0
 36
0.0
 17
0.0
 27
1.0
 37
0.0
 76
     0
330
23
  0
LAYOUT
  5
22
102
{ACAD_REACTORS
330
1A
102
}
330
1A
100
AcDbPlotSettings
  1

  2
none_device
  4
Letter_(8.50_x_11.00_Inches)
  6

 40
6.35
 41
6.35
 42
6.35000508
 43
6.35000508
 44
215.9
 45
279.4
 46
0.0
 47
0.0
 48
0.0
 49
0.0
140
0.0
141
0.0
142
1.0
143
1.0
 70
  1712
 72
     0
 73
     0
 74
     0
  7

 75
     0
147
1.0
148
0.0
149
0.0
100
AcDbLayout
  1
Model
 70
     1
 71
     0
 10
0.0
 20
0.0
 11
12.0
 21
9.0
 12
0.0
 22
0.0
 32
0.0
 14
401096.677541495
 24
4667691.701146138
 34
0.0
 15
413035.1757369806
 25
4677647.121843892
 35
0.0
146
0.0
 13
0.0
 23
0.0
 33
0.0
 16
1.0
 26
0.0
 36
0.0
 17
0.0
 27
1.0
 37
0.0
 76
     0
330
1F
331
29
  0
MATERIAL
  5
45
102
{ACAD_REACTORS
330
43
102
}
102
{ACAD_XDICTIONARY
360
130
102
}
330
43
100
AcDbMaterial
  1
ByBlock
  0
MATERIAL
  5
44
102
{ACAD_REACTORS
330
43
102
}
102
{ACAD_XDICTIONARY
360
12E
102
}
330
43
100
AcDbMaterial
  1
ByLayer
  0
MATERIAL
  5
46
102
{ACAD_REACTORS
330
43
102
}
102
{ACAD_XDICTIONARY
360
132
102
}
330
43
100
AcDbMaterial
  1
Global
  0
MLEADERSTYLE
  5
6C
102
{ACAD_REACTORS
330
6B
102
}
102
{ACAD_XDICTIONARY
360
135
102
}
330
6B
100
AcDbMLeaderStyle
170
     2
171
     1
172
     0
 90
        2
 40
0.0
 41
0.0
173
     1
 91
-1056964608
340
14
 92
       -2
290
     1
 42
0.09
291
     1
 43
0.36
  3
Standard
341
0
 44
0.18
300

342
11
174
     1
178
     6
175
     1
176
     0
 93
-1056964608
 45
0.18
292
     0
297
     0
 46
0.18
343
0
 94
-1056964608
 47
1.0
 49
1.0
140
1.0
293
     1
141
0.0
294
     1
177
     0
142
1.0
295
     0
296
     0
143
0.125
1001
ACAD_MLEADERVER
1070
     2
  0
MLINESTYLE
  5
18
102
{ACAD_REACTORS
330
17
102
}
330
17
100
AcDbMlineStyle
  2
Standard
 70
     0
  3

 62
   256
 51
90.0
 52
90.0
 71
     2
 49
0.5
 62
   256
  6
BYLAYER
 49
-0.5
 62
   256
  6
BYLAYER
  0
ACDBPLACEHOLDER
  5
F
102
{ACAD_REACTORS
330
E
102
}
330
E
  0
SCALE
  5
48
102
{ACAD_REACTORS
330
47
102
}
330
47
100
AcDbScale
 70
     0
300
1:1
140
1.0
141
1.0
290
     1
  0
SCALE
  5
49
102
{ACAD_REACTORS
330
47
102
}
330
47
100
AcDbScale
 70
     0
300
1:2
140
1.0
141
2.0
290
     0
  0
SCALE
  5
4A
102
{ACAD_REACTORS
330
47
102
}
330
47
100
AcDbScale
 70
     0
300
1:4
140
1.0
141
4.0
290
     0
  0
SCALE
  5
4B
102
{ACAD_REACTORS
330
47
102
}
330
47
100
AcDbScale
 70
     0
300
1:5
140
1.0
141
5.0
290
     0
  0
SCALE
  5
4C
102
{ACAD_REACTORS
330
47
102
}
330
47
100
AcDbScale
 70
     0
300
1:8
140
1.0
141
8.0
290
     0
  0
SCALE
  5
4D
102
{ACAD_REACTORS
330
47
102
}
330
47
100
AcDbScale
 70
     0
300
1:10
140
1.0
141
10.0
290
     0
  0
SCALE
  5
4E
102
{ACAD_REACTORS
330
47
102
}
330
47
100
AcDbScale
 70
     0
300
1:16
140
1.0
141
16.0
290
     0
  0
SCALE
  5
4F
102
{ACAD_REACTORS
330
47
102
}
330
47
100
AcDbScale
 70
     0
300
1:20
140
1.0
141
20.0
290
     0
  0
SCALE
  5
50
102
{ACAD_REACTORS
330
47
102
}
330
47
100
AcDbScale
 70
     0
300
1:30
140
1.0
141
30.0
290
     0
  0
SCALE
  5
51
102
{ACAD_REACTORS
330
47
102
}
330
47
100
AcDbScale
 70
     0
300
1:40
140
1.0
141
40.0
290
     0
  0
SCALE
  5
52
102
{ACAD_REACTORS
330
47
102
}
330
47
100
AcDbScale
 70
     0
300
1:50
140
1.0
141
50.0
290
     0
  0
SCALE
  5
53
102
{ACAD_REACTORS
330
47
102
}
330
47
100
AcDbScale
 70
     0
300
1:100
140
1.0
141
100.0
290
     0
  0
SCALE
  5
54
102
{ACAD_REACTORS
330
47
102
}
330
47
100
AcDbScale
 70
     0
300
2:1
140
2.0
141
1.0
290
     0
  0
SCALE
  5
55
102
{ACAD_REACTORS
330
47
102
}
330
47
100
AcDbScale
 70
     0
300
4:1
140
4.0
141
1.0
290
     0
  0
SCALE
  5
56
102
{ACAD_REACTORS
330
47
102
}
330
47
100
AcDbScale
 70
     0
300
8:1
140
8.0
141
1.0
290
     0
  0
SCALE
  5
57
102
{ACAD_REACTORS
330
47
102
}
330
47
100
AcDbScale
 70
     0
300
10:1
140
10.0
141
1.0
290
     0
  0
SCALE
  5
58
102
{ACAD_REACTORS
330
47
102
}
330
47
100
AcDbScale
 70
     0
300
100:1
140
100.0
141
1.0
290
     0
  0
SCALE
  5
59
102
{ACAD_REACTORS
330
47
102
}
330
47
100
AcDbScale
 70
     0
300
1/128" = 1'-0"
140
0.0078125
141
12.0
290
     0
  0
SCALE
  5
5A
102
{ACAD_REACTORS
330
47
102
}
330
47
100
AcDbScale
 70
     0
300
1/64" = 1'-0"
140
0.015625
141
12.0
290
     0
  0
SCALE
  5
5B
102
{ACAD_REACTORS
330
47
102
}
330
47
100
AcDbScale
 70
     0
300
1/32" = 1'-0"
140
0.03125
141
12.0
290
     0
  0
SCALE
  5
5C
102
{ACAD_REACTORS
330
47
102
}
330
47
100
AcDbScale
 70
     0
300
1/16" = 1'-0"
140
0.0625
141
12.0
290
     0
  0
SCALE
  5
5D
102
{ACAD_REACTORS
330
47
102
}
330
47
100
AcDbScale
 70
     0
300
3/32" = 1'-0"
140
0.09375
141
12.0
290
     0
  0
SCALE
  5
5E
102
{ACAD_REACTORS
330
47
102
}
330
47
100
AcDbScale
 70
     0
300
1/8" = 1'-0"
140
0.125
141
12.0
290
     0
  0
SCALE
  5
5F
102
{ACAD_REACTORS
330
47
102
}
330
47
100
AcDbScale
 70
     0
300
3/16" = 1'-0"
140
0.1875
141
12.0
290
     0
  0
SCALE
  5
60
102
{ACAD_REACTORS
330
47
102
}
330
47
100
AcDbScale
 70
     0
300
1/4" = 1'-0"
140
0.25
141
12.0
290
     0
  0
SCALE
  5
61
102
{ACAD_REACTORS
330
47
102
}
330
47
100
AcDbScale
 70
     0
300
3/8" = 1'-0"
140
0.375
141
12.0
290
     0
  0
SCALE
  5
62
102
{ACAD_REACTORS
330
47
102
}
330
47
100
AcDbScale
 70
     0
300
1/2" = 1'-0"
140
0.5
141
12.0
290
     0
  0
SCALE
  5
63
102
{ACAD_REACTORS
330
47
102
}
330
47
100
AcDbScale
 70
     0
300
3/4" = 1'-0"
140
0.75
141
12.0
290
     0
  0
SCALE
  5
64
102
{ACAD_REACTORS
330
47
102
}
330
47
100
AcDbScale
 70
     0
300
1" = 1'-0"
140
1.0
141
12.0
290
     0
  0
SCALE
  5
65
102
{ACAD_REACTORS
330
47
102
}
330
47
100
AcDbScale
 70
     0
300
1-1/2" = 1'-0"
140
1.5
141
12.0
290
     0
  0
SCALE
  5
66
102
{ACAD_REACTORS
330
47
102
}
330
47
100
AcDbScale
 70
     0
300
3" = 1'-0"
140
3.0
141
12.0
290
     0
  0
SCALE
  5
67
102
{ACAD_REACTORS
330
47
102
}
330
47
100
AcDbScale
 70
     0
300
6" = 1'-0"
140
6.0
141
12.0
290
     0
  0
SCALE
  5
68
102
{ACAD_REACTORS
330
47
102
}
330
47
100
AcDbScale
 70
     0
300
1'-0" = 1'-0"
140
12.0
141
12.0
290
     0
  0
TABLESTYLE
  5
6A
102
{ACAD_REACTORS
330
69
102
}
330
69
100
AcDbTableStyle
  3
Standard
 70
     0
 71
     0
 40
0.06
 41
0.06
280
     0
281
     0
  7
Standard
140
0.18
170
     2
 62
     0
 63
   257
283
     0
274
    -2
284
     1
 64
     0
275
    -2
285
     1
 65
     0
276
    -2
286
     1
 66
     0
277
    -2
287
     1
 67
     0
278
    -2
288
     1
 68
     0
279
    -2
289
     1
 69
     0
  7
Standard
140
0.25
170
     5
 62
     0
 63
   257
283
     0
274
    -2
284
     1
 64
     0
275
    -2
285
     1
 65
     0
276
    -2
286
     1
 66
     0
277
    -2
287
     1
 67
     0
278
    -2
288
     1
 68
     0
279
    -2
289
     1
 69
     0
  7
Standard
140
0.18
170
     5
 62
     0
 63
   257
283
     0
274
    -2
284
     1
 64
     0
275
    -2
285
     1
 65
     0
276
    -2
286
     1
 66
     0
277
    -2
287
     1
 67
     0
278
    -2
288
     1
 68
     0
279
    -2
289
     1
 69
     0
  0
VISUALSTYLE
  5
2F
102
{ACAD_REACTORS
330
2A
102
}
102
{ACAD_XDICTIONARY
360
106
102
}
330
2A
100
AcDbVisualStyle
  2
2dWireframe
 70
     4
 71
     0
 72
     2
 73
     0
 90
        0
 40
0.6
 41
30.0
 62
     5
 63
     7
 74
     1
 91
        4
 64
     7
 65
   257
 75
     1
175
     1
 42
1.0
 92
        0
 66
   257
 43
1.0
 76
     1
 77
     6
 78
     2
 67
     7
 79
     5
170
     0
171
     0
290
     0
174
     0
 93
        1
 44
0.0
173
     0
291
     0
 45
0.0
1001
ACAD
1000
AcDbSavedByObjectVersion
1070
     0
  0
VISUALSTYLE
  5
32
102
{ACAD_REACTORS
330
2A
102
}
102
{ACAD_XDICTIONARY
360
10C
102
}
330
2A
100
AcDbVisualStyle
  2
Basic
 70
     7
 71
     1
 72
     0
 73
     1
 90
        0
 40
0.6
 41
30.0
 62
     5
 63
     7
 74
     0
 91
        4
 64
     7
 65
   257
 75
     1
175
     1
 42
1.0
 92
        8
 66
     7
 43
1.0
 76
     1
 77
     6
 78
     2
 67
     7
 79
     5
170
     0
171
     0
290
     0
174
     0
 93
        1
 44
0.0
173
     0
291
     1
 45
0.0
1001
ACAD
1000
AcDbSavedByObjectVersion
1070
     0
  0
VISUALSTYLE
  5
36
102
{ACAD_REACTORS
330
2A
102
}
102
{ACAD_XDICTIONARY
360
114
102
}
330
2A
100
AcDbVisualStyle
  2
Brighten
 70
    12
 71
     2
 72
     2
 73
     0
 90
        0
 40
0.6
 41
30.0
 62
     5
 63
     7
 74
     1
 91
        4
 64
     7
 65
   257
 75
     1
175
     1
 42
1.0
 92
        8
 66
     7
 43
1.0
 76
     1
 77
     6
 78
     2
 67
     7
 79
     5
170
     0
171
     0
290
     0
174
     0
 93
        1
 44
50.0
173
     0
291
     1
 45
0.0
1001
ACAD
1000
AcDbSavedByObjectVersion
1070
     0
  0
VISUALSTYLE
  5
3A
102
{ACAD_REACTORS
330
2A
102
}
102
{ACAD_XDICTIONARY
360
11C
102
}
330
2A
100
AcDbVisualStyle
  2
ColorChange
 70
    16
 71
     2
 72
     2
 73
     3
 90
        0
 40
0.6
 41
30.0
 62
     5
 63
     8
 74
     1
 91
        4
 64
     7
 65
   257
 75
     1
175
     1
 42
1.0
 92
        8
 66
     8
 43
1.0
 76
     1
 77
     6
 78
     2
 67
     7
 79
     5
170
     0
171
     0
290
     0
174
     0
 93
        1
 44
0.0
173
     0
291
     1
 45
0.0
1001
ACAD
1000
AcDbSavedByObjectVersion
1070
     0
  0
VISUALSTYLE
  5
34
102
{ACAD_REACTORS
330
2A
102
}
102
{ACAD_XDICTIONARY
360
110
102
}
330
2A
100
AcDbVisualStyle
  2
Conceptual
 70
     9
 71
     3
 72
     2
 73
     0
 90
        0
 40
0.6
 41
30.0
 62
     5
 63
     7
 74
     2
 91
        2
 64
     7
 65
   257
 75
     1
175
     1
 42
179.0
 92
        8
 66
     7
 43
1.0
 76
     1
 77
     6
 78
     2
 67
     7
 79
     3
170
     0
171
     0
290
     0
174
     0
 93
        1
 44
0.0
173
     0
291
     0
 45
0.0
1001
ACAD
1000
AcDbSavedByObjectVersion
1070
     0
  0
VISUALSTYLE
  5
35
102
{ACAD_REACTORS
330
2A
102
}
102
{ACAD_XDICTIONARY
360
112
102
}
330
2A
100
AcDbVisualStyle
  2
Dim
 70
    11
 71
     2
 72
     2
 73
     0
 90
        0
 40
0.6
 41
30.0
 62
     5
 63
     7
 74
     1
 91
        4
 64
     7
 65
   257
 75
     1
175
     1
 42
1.0
 92
        8
 66
     7
 43
1.0
 76
     1
 77
     6
 78
     2
 67
     7
 79
     5
170
     0
171
     0
290
     0
174
     0
 93
        1
 44
-50.0
173
     0
291
     1
 45
0.0
1001
ACAD
1000
AcDbSavedByObjectVersion
1070
     0
  0
VISUALSTYLE
  5
3D
102
{ACAD_REACTORS
330
2A
102
}
102
{ACAD_XDICTIONARY
360
122
102
}
330
2A
100
AcDbVisualStyle
  2
EdgeColorOff
 70
    22
 71
     2
 72
     2
 73
     0
 90
        0
 40
0.6
 41
30.0
 62
     5
 63
     7
 74
     1
 91
        4
 64
     7
 65
   257
 75
     1
175
     1
 42
1.0
 92
        8
 66
     7
 43
1.0
 76
     1
 77
     6
 78
     2
 67
     7
 79
     5
170
     0
171
     0
290
     0
174
     0
 93
        1
 44
0.0
173
     0
291
     1
 45
0.0
1001
ACAD
1000
AcDbSavedByObjectVersion
1070
     0
  0
VISUALSTYLE
  5
39
102
{ACAD_REACTORS
330
2A
102
}
102
{ACAD_XDICTIONARY
360
11A
102
}
330
2A
100
AcDbVisualStyle
  2
Facepattern
 70
    15
 71
     2
 72
     2
 73
     0
 90
        0
 40
0.6
 41
30.0
 62
     5
 63
     7
 74
     1
 91
        4
 64
     7
 65
   257
 75
     1
175
     1
 42
1.0
 92
        8
 66
     7
 43
1.0
 76
     1
 77
     6
 78
     2
 67
     7
 79
     5
170
     0
171
     0
290
     0
174
     0
 93
        1
 44
0.0
173
     0
291
     1
 45
0.0
1001
ACAD
1000
AcDbSavedByObjectVersion
1070
     0
  0
VISUALSTYLE
  5
2B
102
{ACAD_REACTORS
330
2A
102
}
102
{ACAD_XDICTIONARY
360
FE
102
}
330
2A
100
AcDbVisualStyle
  2
Flat
 70
     0
 71
     2
 72
     1
 73
     1
 90
        2
 40
0.6
 41
30.0
 62
     5
 63
     7
 74
     0
 91
        0
 64
     7
 65
   257
 75
     1
175
     1
 42
1.0
 92
        8
 66
     7
 43
1.0
 76
     1
 77
     6
 78
     2
 67
     7
 79
     5
170
     0
171
     0
290
     0
174
     0
 93
       13
 44
0.0
173
     0
291
     1
 45
0.0
1001
ACAD
1000
AcDbSavedByObjectVersion
1070
     0
  0
VISUALSTYLE
  5
2C
102
{ACAD_REACTORS
330
2A
102
}
102
{ACAD_XDICTIONARY
360
100
102
}
330
2A
100
AcDbVisualStyle
  2
FlatWithEdges
 70
     1
 71
     2
 72
     1
 73
     1
 90
        2
 40
0.6
 41
30.0
 62
     5
 63
     7
 74
     1
 91
        0
 64
     7
 65
   257
 75
     1
175
     1
 42
1.0
 92
        0
 66
   257
 43
1.0
 76
     1
 77
     6
 78
     2
 67
     7
 79
     5
170
     0
171
     0
290
     0
174
     0
 93
       13
 44
0.0
173
     0
291
     1
 45
0.0
1001
ACAD
1000
AcDbSavedByObjectVersion
1070
     0
  0
VISUALSTYLE
  5
2D
102
{ACAD_REACTORS
330
2A
102
}
102
{ACAD_XDICTIONARY
360
102
102
}
330
2A
100
AcDbVisualStyle
  2
Gouraud
 70
     2
 71
     2
 72
     2
 73
     1
 90
        2
 40
0.6
 41
30.0
 62
     5
 63
     7
 74
     0
 91
        0
 64
     7
 65
   257
 75
     1
175
     1
 42
1.0
 92
        0
 66
     7
 43
1.0
 76
     1
 77
     6
 78
     2
 67
     7
 79
     5
170
     0
171
     0
290
     0
174
     0
 93
       13
 44
0.0
173
     0
291
     1
 45
0.0
1001
ACAD
1000
AcDbSavedByObjectVersion
1070
     0
  0
VISUALSTYLE
  5
2E
102
{ACAD_REACTORS
330
2A
102
}
102
{ACAD_XDICTIONARY
360
104
102
}
330
2A
100
AcDbVisualStyle
  2
GouraudWithEdges
 70
     3
 71
     2
 72
     2
 73
     1
 90
        2
 40
0.6
 41
30.0
 62
     5
 63
     7
 74
     1
 91
        0
 64
     7
 65
   257
 75
     1
175
     1
 42
1.0
 92
        0
 66
   257
 43
1.0
 76
     1
 77
     6
 78
     2
 67
     7
 79
     5
170
     0
171
     0
290
     0
174
     0
 93
       13
 44
0.0
173
     0
291
     1
 45
0.0
1001
ACAD
1000
AcDbSavedByObjectVersion
1070
     0
  0
VISUALSTYLE
  5
31
102
{ACAD_REACTORS
330
2A
102
}
102
{ACAD_XDICTIONARY
360
10A
102
}
330
2A
100
AcDbVisualStyle
  2
Hidden
 70
     6
 71
     1
 72
     2
 73
     2
 90
        0
 40
0.6
 41
30.0
 62
     5
 63
     7
 74
     2
 91
        2
 64
     7
 65
   257
 75
     2
175
     1
 42
40.0
 92
        0
 66
   257
 43
1.0
 76
     1
 77
     6
 78
     2
 67
     7
 79
     3
170
     0
171
     0
290
     0
174
     0
 93
        1
 44
0.0
173
     0
291
     0
 45
0.0
1001
ACAD
1000
AcDbSavedByObjectVersion
1070
     0
  0
VISUALSTYLE
  5
3B
102
{ACAD_REACTORS
330
2A
102
}
102
{ACAD_XDICTIONARY
360
11E
102
}
330
2A
100
AcDbVisualStyle
  2
JitterOff
 70
    20
 71
     2
 72
     2
 73
     0
 90
        0
 40
0.6
 41
30.0
 62
     5
 63
     7
 74
     1
 91
        4
 64
     7
 65
   257
 75
     1
175
     1
 42
1.0
 92
       10
 66
     7
 43
1.0
 76
     1
 77
     6
 78
     2
 67
     7
 79
     5
170
     0
171
     0
290
     0
174
     0
 93
        1
 44
0.0
173
     0
291
     1
 45
0.0
1001
ACAD
1000
AcDbSavedByObjectVersion
1070
     0
  0
VISUALSTYLE
  5
38
102
{ACAD_REACTORS
330
2A
102
}
102
{ACAD_XDICTIONARY
360
118
102
}
330
2A
100
AcDbVisualStyle
  2
Linepattern
 70
    14
 71
     2
 72
     2
 73
     0
 90
        0
 40
0.6
 41
30.0
 62
     5
 63
     7
 74
     1
 91
        4
 64
     7
 65
   257
 75
     7
175
     7
 42
1.0
 92
        8
 66
     7
 43
1.0
 76
     1
 77
     6
 78
     2
 67
     7
 79
     5
170
     0
171
     0
290
     0
174
     0
 93
        1
 44
0.0
173
     0
291
     1
 45
0.0
1001
ACAD
1000
AcDbSavedByObjectVersion
1070
     0
  0
VISUALSTYLE
  5
3C
102
{ACAD_REACTORS
330
2A
102
}
102
{ACAD_XDICTIONARY
360
120
102
}
330
2A
100
AcDbVisualStyle
  2
OverhangOff
 70
    21
 71
     2
 72
     2
 73
     0
 90
        0
 40
0.6
 41
30.0
 62
     5
 63
     7
 74
     1
 91
        4
 64
     7
 65
   257
 75
     1
175
     1
 42
1.0
 92
        9
 66
     7
 43
1.0
 76
     1
 77
     6
 78
     2
 67
     7
 79
     5
170
     0
171
     0
290
     0
174
     0
 93
        1
 44
0.0
173
     0
291
     1
 45
0.0
1001
ACAD
1000
AcDbSavedByObjectVersion
1070
     0
  0
VISUALSTYLE
  5
33
102
{ACAD_REACTORS
330
2A
102
}
102
{ACAD_XDICTIONARY
360
10E
102
}
330
2A
100
AcDbVisualStyle
  2
Realistic
 70
     8
 71
     2
 72
     3
 73
     0
 90
        2
 40
0.6
 41
30.0
 62
     5
 63
     7
 74
     0
 91
        0
 64
     7
 65
   257
 75
     1
175
     1
 42
1.0
 92
        8
 66
   257
 43
1.0
 76
     1
 77
     6
 78
     2
 67
     7
 79
     3
170
     0
171
     0
290
     0
174
     0
 93
       13
 44
0.0
173
     0
291
     0
 45
0.0
1001
ACAD
1000
AcDbSavedByObjectVersion
1070
     0
  0
VISUALSTYLE
  5
42
102
{ACAD_REACTORS
330
2A
102
}
102
{ACAD_XDICTIONARY
360
12C
102
}
330
2A
100
AcDbVisualStyle
  2
Shaded
 70
    27
 71
     2
 72
     2
 73
     1
 90
        2
 40
0.6
 41
30.0
 62
     5
 63
     7
 74
     0
 91
        4
 64
     7
 65
   257
 75
     1
175
     1
 42
1.0
 92
        8
 66
   257
 43
1.0
 76
     1
 77
     6
 78
     2
 67
     8
 79
     3
170
     0
171
     0
290
     0
174
     0
 93
        5
 44
0.0
173
     0
291
     0
 45
0.0
1001
ACAD
1000
AcDbSavedByObjectVersion
1070
     0
  0
VISUALSTYLE
  5
41
102
{ACAD_REACTORS
330
2A
102
}
102
{ACAD_XDICTIONARY
360
12A
102
}
330
2A
100
AcDbVisualStyle
  2
Shaded with edges
 70
    26
 71
     2
 72
     2
 73
     1
 90
        2
 40
0.6
 41
30.0
 62
     5
 63
     7
 74
     1
 91
       10
 64
     7
 65
   257
 75
     2
175
     1
 42
1.0
 92
        8
 66
   257
 43
1.0
 76
     1
 77
     6
 78
     2
 67
     7
 79
     3
170
     0
171
     0
290
     0
174
     0
 93
        5
 44
0.0
173
     0
291
     0
 45
0.0
1001
ACAD
1000
AcDbSavedByObjectVersion
1070
     0
  0
VISUALSTYLE
  5
3E
102
{ACAD_REACTORS
330
2A
102
}
102
{ACAD_XDICTIONARY
360
124
102
}
330
2A
100
AcDbVisualStyle
  2
Shades of Gray
 70
    23
 71
     2
 72
     2
 73
     3
 90
        0
 40
0.6
 41
30.0
 62
     5
 63
     7
 74
     2
 91
        2
 64
     7
 65
     7
 75
     1
175
     1
 42
40.0
 92
        8
 66
     7
 43
1.0
 76
     1
 77
     6
 78
     2
 67
     7
 79
     3
170
     0
171
     0
290
     0
174
     0
 93
        1
 44
0.0
173
     0
291
     0
 45
0.0
1001
ACAD
1000
AcDbSavedByObjectVersion
1070
     0
  0
VISUALSTYLE
  5
3F
102
{ACAD_REACTORS
330
2A
102
}
102
{ACAD_XDICTIONARY
360
126
102
}
330
2A
100
AcDbVisualStyle
  2
Sketchy
 70
    24
 71
     1
 72
     2
 73
     2
 90
        0
 40
0.6
 41
30.0
 62
     5
 63
     7
 74
     2
 91
        2
 64
     7
 65
     7
 75
     1
175
     1
 42
40.0
 92
       11
 66
     7
 43
1.0
 76
     1
 77
     6
 78
     2
 67
     7
 79
     6
170
     0
171
     0
290
     0
174
     0
 93
        1
 44
0.0
173
     0
291
     0
 45
0.0
1001
ACAD
1000
AcDbSavedByObjectVersion
1070
     0
  0
VISUALSTYLE
  5
37
102
{ACAD_REACTORS
330
2A
102
}
102
{ACAD_XDICTIONARY
360
116
102
}
330
2A
100
AcDbVisualStyle
  2
Thicken
 70
    13
 71
     2
 72
     2
 73
     0
 90
        0
 40
0.6
 41
30.0
 62
     5
 63
     7
 74
     1
 91
        4
 64
     7
 65
   257
 75
     1
175
     1
 42
1.0
 92
       12
 66
     7
 43
1.0
 76
     1
 77
     6
 78
     2
 67
     7
 79
     5
170
     0
171
     0
290
     0
174
     0
 93
        1
 44
0.0
173
     0
291
     1
 45
0.0
1001
ACAD
1000
AcDbSavedByObjectVersion
1070
     0
  0
VISUALSTYLE
  5
30
102
{ACAD_REACTORS
330
2A
102
}
102
{ACAD_XDICTIONARY
360
108
102
}
330
2A
100
AcDbVisualStyle
  2
Wireframe
 70
     5
 71
     0
 72
     2
 73
     0
 90
        0
 40
0.6
 41
30.0
 62
     5
 63
     7
 74
     1
 91
        4
 64
     7
 65
   257
 75
     1
175
     1
 42
1.0
 92
        0
 66
   257
 43
1.0
 76
     1
 77
     6
 78
     2
 67
     7
 79
     3
170
     0
171
     0
290
     0
174
     0
 93
        1
 44
0.0
173
     0
291
     0
 45
0.0
1001
ACAD
1000
AcDbSavedByObjectVersion
1070
     0
  0
VISUALSTYLE
  5
40
102
{ACAD_REACTORS
330
2A
102
}
102
{ACAD_XDICTIONARY
360
128
102
}
330
2A
100
AcDbVisualStyle
  2
X-Ray
 70
    25
 71
     2
 72
     2
 73
     1
 90
        1
 40
0.5
 41
30.0
 62
     5
 63
     7
 74
     1
 91
        0
 64
     7
 65
   257
 75
     1
175
     1
 42
1.0
 92
        8
 66
     7
 43
1.0
 76
     1
 77
     6
 78
     2
 67
     7
 79
     3
170
     0
171
     0
290
     0
174
     0
 93
       13
 44
0.0
173
     0
291
     0
 45
0.0
1001
ACAD
1000
AcDbSavedByObjectVersion
1070
     0
  0
DICTIONARYVAR
  5
77
102
{ACAD_REACTORS
330
6E
102
}
330
6E
100
DictionaryVariables
280
     0
  1
1:1
  0
DICTIONARYVAR
  5
70
102
{ACAD_REACTORS
330
6E
102
}
330
6E
100
DictionaryVariables
280
     0
  1
Standard
  0
DICTIONARYVAR
  5
6F
102
{ACAD_REACTORS
330
6E
102
}
330
6E
100
DictionaryVariables
280
     0
  1
Standard
  0
DICTIONARYVAR
  5
73
102
{ACAD_REACTORS
330
6E
102
}
330
6E
100
DictionaryVariables
280
     0
  1
2
  0
DICTIONARYVAR
  5
74
102
{ACAD_REACTORS
330
6E
102
}
330
6E
100
DictionaryVariables
280
     0
  1
1
  0
DICTIONARYVAR
  5
78
102
{ACAD_REACTORS
330
6E
102
}
330
6E
100
DictionaryVariables
280
     0
  1
1
  0
DICTIONARY
  5
130
330
45
100
AcDbDictionary
280
     1
281
     1
  3
ACAD_XREC_ROUNDTRIP
360
131
  0
DICTIONARY
  5
12E
330
44
100
AcDbDictionary
280
     1
281
     1
  3
ACAD_XREC_ROUNDTRIP
360
12F
  0
DICTIONARY
  5
132
330
46
100
AcDbDictionary
280
     1
281
     1
  3
ACAD_XREC_ROUNDTRIP
360
133
  0
DICTIONARY
  5
135
330
6C
100
AcDbDictionary
280
     1
281
     1
  3
ACAD_XREC_ROUNDTRIP
360
136
  0
DICTIONARY
  5
106
330
2F
100
AcDbDictionary
280
     1
281
     1
  3
ACAD_XREC_ROUNDTRIP
360
107
  0
DICTIONARY
  5
10C
330
32
100
AcDbDictionary
280
     1
281
     1
  3
ACAD_XREC_ROUNDTRIP
360
10D
  0
DICTIONARY
  5
114
330
36
100
AcDbDictionary
280
     1
281
     1
  3
ACAD_XREC_ROUNDTRIP
360
115
  0
DICTIONARY
  5
11C
330
3A
100
AcDbDictionary
280
     1
281
     1
  3
ACAD_XREC_ROUNDTRIP
360
11D
  0
DICTIONARY
  5
110
330
34
100
AcDbDictionary
280
     1
281
     1
  3
ACAD_XREC_ROUNDTRIP
360
111
  0
DICTIONARY
  5
112
330
35
100
AcDbDictionary
280
     1
281
     1
  3
ACAD_XREC_ROUNDTRIP
360
113
  0
DICTIONARY
  5
122
330
3D
100
AcDbDictionary
280
     1
281
     1
  3
ACAD_XREC_ROUNDTRIP
360
123
  0
DICTIONARY
  5
11A
330
39
100
AcDbDictionary
280
     1
281
     1
  3
ACAD_XREC_ROUNDTRIP
360
11B
  0
DICTIONARY
  5
FE
330
2B
100
AcDbDictionary
280
     1
281
     1
  3
ACAD_XREC_ROUNDTRIP
360
FF
  0
DICTIONARY
  5
100
330
2C
100
AcDbDictionary
280
     1
281
     1
  3
ACAD_XREC_ROUNDTRIP
360
101
  0
DICTIONARY
  5
102
330
2D
100
AcDbDictionary
280
     1
281
     1
  3
ACAD_XREC_ROUNDTRIP
360
103
  0
DICTIONARY
  5
104
330
2E
100
AcDbDictionary
280
     1
281
     1
  3
ACAD_XREC_ROUNDTRIP
360
105
  0
DICTIONARY
  5
10A
330
31
100
AcDbDictionary
280
     1
281
     1
  3
ACAD_XREC_ROUNDTRIP
360
10B
  0
DICTIONARY
  5
11E
330
3B
100
AcDbDictionary
280
     1
281
     1
  3
ACAD_XREC_ROUNDTRIP
360
11F
  0
DICTIONARY
  5
118
330
38
100
AcDbDictionary
280
     1
281
     1
  3
ACAD_XREC_ROUNDTRIP
360
119
  0
DICTIONARY
  5
120
330
3C
100
AcDbDictionary
280
     1
281
     1
  3
ACAD_XREC_ROUNDTRIP
360
121
  0
DICTIONARY
  5
10E
330
33
100
AcDbDictionary
280
     1
281
     1
  3
ACAD_XREC_ROUNDTRIP
360
10F
  0
DICTIONARY
  5
12C
330
42
100
AcDbDictionary
280
     1
281
     1
  3
ACAD_XREC_ROUNDTRIP
360
12D
  0
DICTIONARY
  5
12A
330
41
100
AcDbDictionary
280
     1
281
     1
  3
ACAD_XREC_ROUNDTRIP
360
12B
  0
DICTIONARY
  5
124
330
3E
100
AcDbDictionary
280
     1
281
     1
  3
ACAD_XREC_ROUNDTRIP
360
125
  0
DICTIONARY
  5
126
330
3F
100
AcDbDictionary
280
     1
281
     1
  3
ACAD_XREC_ROUNDTRIP
360
127
  0
DICTIONARY
  5
116
330
37
100
AcDbDictionary
280
     1
281
     1
  3
ACAD_XREC_ROUNDTRIP
360
117
  0
DICTIONARY
  5
108
330
30
100
AcDbDictionary
280
     1
281
     1
  3
ACAD_XREC_ROUNDTRIP
360
109
  0
DICTIONARY
  5
128
330
40
100
AcDbDictionary
280
     1
281
     1
  3
ACAD_XREC_ROUNDTRIP
360
129
  0
XRECORD
  5
131
102
{ACAD_REACTORS
330
130
102
}
330
130
100
AcDbXrecord
280
     1
102
MATERIAL
148
0.0
149
0.0
149
0.0
 93
        0
 94
      127
282
     0
 72
     1
 77
     1
171
     1
175
     1
179
     1
273
     0
  0
XRECORD
  5
12F
102
{ACAD_REACTORS
330
12E
102
}
330
12E
100
AcDbXrecord
280
     1
102
MATERIAL
148
0.0
149
0.0
149
0.0
 93
        0
 94
      127
282
     0
 72
     1
 77
     1
171
     1
175
     1
179
     1
273
     0
  0
XRECORD
  5
133
102
{ACAD_REACTORS
330
132
102
}
330
132
100
AcDbXrecord
280
     1
102
MATERIAL
148
0.0
149
0.0
149
0.0
 93
        0
 94
      127
282
     0
 72
     1
 77
     1
171
     1
175
     1
179
     1
273
     0
  0
XRECORD
  5
136
102
{ACAD_REACTORS
330
135
102
}
330
135
100
AcDbXrecord
280
     1
102
ACAD_ROUNDTRIP_2010_MLEADER_STYLE
  0
XRECORD
  5
107
102
{ACAD_REACTORS
330
106
102
}
330
106
100
AcDbXrecord
280
     1
102
RTVSPropertyOp0
 70
     1
102
RTVSPropertyOp1
 70
     1
102
RTVSPropertyOp2
 70
     1
102
RTVSPropertyOp3
 70
     1
102
RTVSPropertyOp4
 70
     1
102
RTVSPropertyOp5
 70
     1
102
RTVSPropertyOp6
 70
     1
102
RTVSPropertyOp7
 70
     1
102
RTVSPropertyOp8
 70
     1
102
RTVSPropertyOp9
 70
     1
102
RTVSPropertyOp10
 70
     1
102
RTVSPropertyOp11
 70
     1
102
RTVSPropertyOp12
 70
     1
102
RTVSPropertyOp13
 70
     1
102
RTVSPropertyOp14
 70
     1
102
RTVSPropertyOp15
 70
     1
102
RTVSPropertyOp16
 70
     1
102
RTVSPropertyOp17
 70
     1
102
RTVSPropertyOp18
 70
     1
102
RTVSPropertyOp19
 70
     1
102
RTVSPropertyOp20
 70
     1
102
RTVSPropertyOp21
 70
     1
102
RTVSPropertyOp22
 70
     1
102
RTVSPropertyOp23
 70
     1
102
RTVSPropertyOp24
 70
     1
102
RTVSPropertyOp25
 70
     1
102
RTVSPropertyOp26
 70
     1
102
RTVSPropertyOp27
 70
     1
102
RTVSPropertyOp28
 70
     1
102
RTVSPropertyOp29
 70
     1
102
RTVSPropertyOp30
 70
     1
102
RTVSPropertyOp31
 70
     1
102
RTVSPropertyOp32
 70
     1
102
RTVSPropertyOp33
 70
     1
102
RTVSPropertyOp34
 70
     1
102
RTVSPropertyOp35
 70
     1
102
RTVSPropertyOp36
 70
     1
102
RTVSPropertyOp37
 70
     1
102
RTVSPropertyOp38
 70
     1
102
RTVSPropertyOp39
 70
     1
102
RTVSPropertyOp40
 70
     1
102
RTVSPropertyOp41
 70
     1
102
RTVSPropertyOp42
 70
     1
102
RTVSPropertyOp43
 70
     1
102
RTVSPropertyOp44
 70
     1
102
RTVSPropertyOp45
 70
     1
102
RTVSPropertyOp46
 70
     1
102
RTVSPropertyOp47
 70
     1
102
RTVSPropertyOp48
 70
     1
102
RTVSPropertyOp49
 70
     1
102
RTVSPropertyOp50
 70
     1
102
RTVSPropertyOp51
 70
     0
102
RTVSPropertyOp52
 70
     0
102
RTVSPropertyOp53
 70
     1
102
RTVSPropertyOp54
 70
     1
102
RTVSPropertyOp55
 70
     1
102
RTVSPropertyOp56
 70
     1
102
RTVSPropertyOp57
 70
     1
102
RTVSPost2010Prop28
280
     1
102
RTVSPost2010PropOp28
 70
     1
102
RTVSPost2010Prop29
280
     1
102
RTVSPost2010PropOp29
 70
     1
102
RTVSPost2010Prop30
280
     0
102
RTVSPost2010PropOp30
 70
     1
102
RTVSPost2010Prop31
280
     0
102
RTVSPost2010PropOp31
 70
     1
102
RTVSPost2010Prop32
280
     0
102
RTVSPost2010PropOp32
 70
     1
102
RTVSPost2010Prop33
280
     0
102
RTVSPost2010PropOp33
 70
     1
102
RTVSPost2010Prop34
280
     0
102
RTVSPost2010PropOp34
 70
     1
102
RTVSPost2010Prop35
280
     0
102
RTVSPost2010PropOp35
 70
     1
102
RTVSPost2010Prop36
280
     0
102
RTVSPost2010PropOp36
 70
     1
102
RTVSPost2010Prop37
 90
       50
102
RTVSPost2010PropOp37
 70
     1
102
RTVSPost2010Prop38
140
0.0
102
RTVSPost2010PropOp38
 70
     1
102
RTVSPost2010Prop39
140
1.0
102
RTVSPost2010PropOp39
 70
     1
102
RTVSPost2010Prop40
 90
        0
102
RTVSPost2010PropOp40
 70
     1
102
RTVSPost2010Prop41ColorIndex
 90
       18
102
RTVSPost2010Prop41ColorRGB
 90
        0
102
RTVSPost2010PropOp41
 70
     1
102
RTVSPost2010Prop42
 90
       50
102
RTVSPost2010PropOp42
 70
     1
102
RTVSPost2010Prop43
 90
        3
102
RTVSPost2010PropOp43
 70
     1
102
RTVSPost2010Prop44ColorIndex
 90
        5
102
RTVSPost2010Prop44ColorRGB
 90
      255
102
RTVSPost2010PropOp44
 70
     1
102
RTVSPost2010Prop45
280
     0
102
RTVSPost2010PropOp45
 70
     1
102
RTVSPost2010Prop46
 90
       50
102
RTVSPost2010PropOp46
 70
     1
102
RTVSPost2010Prop47
 90
       50
102
RTVSPost2010PropOp47
 70
     1
102
RTVSPost2010Prop48
 90
       50
102
RTVSPost2010PropOp48
 70
     1
102
RTVSPost2010Prop49
280
     0
102
RTVSPost2010PropOp49
 70
     1
102
RTVSPost2010Prop50
 90
       50
102
RTVSPost2010PropOp50
 70
     1
102
RTVSPost2010Prop51ColorIndex
 90
      256
102
RTVSPost2010Prop51ColorRGB
 90
-16777216
102
RTVSPost2010PropOp51
 70
     0
102
RTVSPost2010Prop52
140
1.0
102
RTVSPost2010PropOp52
 70
     0
102
RTVSPost2010Prop53
 90
        2
102
RTVSPost2010PropOp53
 70
     1
102
RTVSPost2010Prop54
  1
strokes_ogs.tif
102
RTVSPost2010PropOp54
 70
     1
102
RTVSPost2010Prop55
280
     0
102
RTVSPost2010PropOp55
 70
     1
102
RTVSPost2010Prop56
140
1.0
102
RTVSPost2010PropOp56
 70
     1
102
RTVSPost2010Prop57
140
1.0
102
RTVSPost2010PropOp57
 70
     1
  0
XRECORD
  5
10D
102
{ACAD_REACTORS
330
10C
102
}
330
10C
100
AcDbXrecord
280
     1
102
RTVSPropertyOp0
 70
     1
102
RTVSPropertyOp1
 70
     1
102
RTVSPropertyOp2
 70
     1
102
RTVSPropertyOp3
 70
     1
102
RTVSPropertyOp4
 70
     1
102
RTVSPropertyOp5
 70
     1
102
RTVSPropertyOp6
 70
     1
102
RTVSPropertyOp7
 70
     1
102
RTVSPropertyOp8
 70
     1
102
RTVSPropertyOp9
 70
     1
102
RTVSPropertyOp10
 70
     1
102
RTVSPropertyOp11
 70
     1
102
RTVSPropertyOp12
 70
     1
102
RTVSPropertyOp13
 70
     1
102
RTVSPropertyOp14
 70
     1
102
RTVSPropertyOp15
 70
     1
102
RTVSPropertyOp16
 70
     1
102
RTVSPropertyOp17
 70
     1
102
RTVSPropertyOp18
 70
     1
102
RTVSPropertyOp19
 70
     1
102
RTVSPropertyOp20
 70
     1
102
RTVSPropertyOp21
 70
     1
102
RTVSPropertyOp22
 70
     1
102
RTVSPropertyOp23
 70
     1
102
RTVSPropertyOp24
 70
     1
102
RTVSPropertyOp25
 70
     1
102
RTVSPropertyOp26
 70
     1
102
RTVSPropertyOp27
 70
     1
102
RTVSPropertyOp28
 70
     1
102
RTVSPropertyOp29
 70
     1
102
RTVSPropertyOp30
 70
     1
102
RTVSPropertyOp31
 70
     1
102
RTVSPropertyOp32
 70
     1
102
RTVSPropertyOp33
 70
     1
102
RTVSPropertyOp34
 70
     1
102
RTVSPropertyOp35
 70
     1
102
RTVSPropertyOp36
 70
     1
102
RTVSPropertyOp37
 70
     1
102
RTVSPropertyOp38
 70
     1
102
RTVSPropertyOp39
 70
     1
102
RTVSPropertyOp40
 70
     1
102
RTVSPropertyOp41
 70
     1
102
RTVSPropertyOp42
 70
     1
102
RTVSPropertyOp43
 70
     1
102
RTVSPropertyOp44
 70
     1
102
RTVSPropertyOp45
 70
     1
102
RTVSPropertyOp46
 70
     1
102
RTVSPropertyOp47
 70
     1
102
RTVSPropertyOp48
 70
     1
102
RTVSPropertyOp49
 70
     1
102
RTVSPropertyOp50
 70
     1
102
RTVSPropertyOp51
 70
     0
102
RTVSPropertyOp52
 70
     0
102
RTVSPropertyOp53
 70
     1
102
RTVSPropertyOp54
 70
     1
102
RTVSPropertyOp55
 70
     1
102
RTVSPropertyOp56
 70
     1
102
RTVSPropertyOp57
 70
     1
102
RTVSPost2010Prop28
280
     0
102
RTVSPost2010PropOp28
 70
     1
102
RTVSPost2010Prop29
280
     1
102
RTVSPost2010PropOp29
 70
     1
102
RTVSPost2010Prop30
280
     1
102
RTVSPost2010PropOp30
 70
     1
102
RTVSPost2010Prop31
280
     0
102
RTVSPost2010PropOp31
 70
     1
102
RTVSPost2010Prop32
280
     0
102
RTVSPost2010PropOp32
 70
     1
102
RTVSPost2010Prop33
280
     0
102
RTVSPost2010PropOp33
 70
     1
102
RTVSPost2010Prop34
280
     0
102
RTVSPost2010PropOp34
 70
     1
102
RTVSPost2010Prop35
280
     0
102
RTVSPost2010PropOp35
 70
     1
102
RTVSPost2010Prop36
280
     0
102
RTVSPost2010PropOp36
 70
     1
102
RTVSPost2010Prop37
 90
       50
102
RTVSPost2010PropOp37
 70
     1
102
RTVSPost2010Prop38
140
0.0
102
RTVSPost2010PropOp38
 70
     1
102
RTVSPost2010Prop39
140
1.0
102
RTVSPost2010PropOp39
 70
     1
102
RTVSPost2010Prop40
 90
        0
102
RTVSPost2010PropOp40
 70
     1
102
RTVSPost2010Prop41ColorIndex
 90
       18
102
RTVSPost2010Prop41ColorRGB
 90
        0
102
RTVSPost2010PropOp41
 70
     1
102
RTVSPost2010Prop42
 90
       50
102
RTVSPost2010PropOp42
 70
     1
102
RTVSPost2010Prop43
 90
        3
102
RTVSPost2010PropOp43
 70
     1
102
RTVSPost2010Prop44ColorIndex
 90
        5
102
RTVSPost2010Prop44ColorRGB
 90
      255
102
RTVSPost2010PropOp44
 70
     1
102
RTVSPost2010Prop45
280
     0
102
RTVSPost2010PropOp45
 70
     1
102
RTVSPost2010Prop46
 90
       50
102
RTVSPost2010PropOp46
 70
     1
102
RTVSPost2010Prop47
 90
       50
102
RTVSPost2010PropOp47
 70
     1
102
RTVSPost2010Prop48
 90
       50
102
RTVSPost2010PropOp48
 70
     1
102
RTVSPost2010Prop49
280
     0
102
RTVSPost2010PropOp49
 70
     1
102
RTVSPost2010Prop50
 90
       50
102
RTVSPost2010PropOp50
 70
     1
102
RTVSPost2010Prop51ColorIndex
 90
      256
102
RTVSPost2010Prop51ColorRGB
 90
-16777216
102
RTVSPost2010PropOp51
 70
     0
102
RTVSPost2010Prop52
140
1.0
102
RTVSPost2010PropOp52
 70
     0
102
RTVSPost2010Prop53
 90
        2
102
RTVSPost2010PropOp53
 70
     1
102
RTVSPost2010Prop54
  1
strokes_ogs.tif
102
RTVSPost2010PropOp54
 70
     1
102
RTVSPost2010Prop55
280
     0
102
RTVSPost2010PropOp55
 70
     1
102
RTVSPost2010Prop56
140
1.0
102
RTVSPost2010PropOp56
 70
     1
102
RTVSPost2010Prop57
140
1.0
102
RTVSPost2010PropOp57
 70
     1
  0
XRECORD
  5
115
102
{ACAD_REACTORS
330
114
102
}
330
114
100
AcDbXrecord
280
     1
102
RTVSPropertyOp0
 70
     1
102
RTVSPropertyOp1
 70
     1
102
RTVSPropertyOp2
 70
     1
102
RTVSPropertyOp3
 70
     1
102
RTVSPropertyOp4
 70
     1
102
RTVSPropertyOp5
 70
     1
102
RTVSPropertyOp6
 70
     1
102
RTVSPropertyOp7
 70
     1
102
RTVSPropertyOp8
 70
     1
102
RTVSPropertyOp9
 70
     1
102
RTVSPropertyOp10
 70
     1
102
RTVSPropertyOp11
 70
     1
102
RTVSPropertyOp12
 70
     1
102
RTVSPropertyOp13
 70
     1
102
RTVSPropertyOp14
 70
     1
102
RTVSPropertyOp15
 70
     1
102
RTVSPropertyOp16
 70
     1
102
RTVSPropertyOp17
 70
     1
102
RTVSPropertyOp18
 70
     1
102
RTVSPropertyOp19
 70
     1
102
RTVSPropertyOp20
 70
     1
102
RTVSPropertyOp21
 70
     1
102
RTVSPropertyOp22
 70
     1
102
RTVSPropertyOp23
 70
     1
102
RTVSPropertyOp24
 70
     1
102
RTVSPropertyOp25
 70
     1
102
RTVSPropertyOp26
 70
     1
102
RTVSPropertyOp27
 70
     1
102
RTVSPropertyOp28
 70
     1
102
RTVSPropertyOp29
 70
     1
102
RTVSPropertyOp30
 70
     1
102
RTVSPropertyOp31
 70
     1
102
RTVSPropertyOp32
 70
     1
102
RTVSPropertyOp33
 70
     1
102
RTVSPropertyOp34
 70
     1
102
RTVSPropertyOp35
 70
     1
102
RTVSPropertyOp36
 70
     1
102
RTVSPropertyOp37
 70
     1
102
RTVSPropertyOp38
 70
     1
102
RTVSPropertyOp39
 70
     1
102
RTVSPropertyOp40
 70
     1
102
RTVSPropertyOp41
 70
     1
102
RTVSPropertyOp42
 70
     1
102
RTVSPropertyOp43
 70
     1
102
RTVSPropertyOp44
 70
     1
102
RTVSPropertyOp45
 70
     1
102
RTVSPropertyOp46
 70
     1
102
RTVSPropertyOp47
 70
     1
102
RTVSPropertyOp48
 70
     1
102
RTVSPropertyOp49
 70
     1
102
RTVSPropertyOp50
 70
     1
102
RTVSPropertyOp51
 70
     0
102
RTVSPropertyOp52
 70
     0
102
RTVSPropertyOp53
 70
     1
102
RTVSPropertyOp54
 70
     1
102
RTVSPropertyOp55
 70
     1
102
RTVSPropertyOp56
 70
     1
102
RTVSPropertyOp57
 70
     1
102
RTVSPost2010Prop28
280
     0
102
RTVSPost2010PropOp28
 70
     1
102
RTVSPost2010Prop29
280
     1
102
RTVSPost2010PropOp29
 70
     1
102
RTVSPost2010Prop30
280
     1
102
RTVSPost2010PropOp30
 70
     1
102
RTVSPost2010Prop31
280
     0
102
RTVSPost2010PropOp31
 70
     1
102
RTVSPost2010Prop32
280
     0
102
RTVSPost2010PropOp32
 70
     1
102
RTVSPost2010Prop33
280
     0
102
RTVSPost2010PropOp33
 70
     1
102
RTVSPost2010Prop34
280
     0
102
RTVSPost2010PropOp34
 70
     1
102
RTVSPost2010Prop35
280
     0
102
RTVSPost2010PropOp35
 70
     1
102
RTVSPost2010Prop36
280
     0
102
RTVSPost2010PropOp36
 70
     1
102
RTVSPost2010Prop37
 90
       50
102
RTVSPost2010PropOp37
 70
     1
102
RTVSPost2010Prop38
140
0.0
102
RTVSPost2010PropOp38
 70
     1
102
RTVSPost2010Prop39
140
1.0
102
RTVSPost2010PropOp39
 70
     1
102
RTVSPost2010Prop40
 90
        0
102
RTVSPost2010PropOp40
 70
     1
102
RTVSPost2010Prop41ColorIndex
 90
       18
102
RTVSPost2010Prop41ColorRGB
 90
        0
102
RTVSPost2010PropOp41
 70
     1
102
RTVSPost2010Prop42
 90
       50
102
RTVSPost2010PropOp42
 70
     1
102
RTVSPost2010Prop43
 90
        3
102
RTVSPost2010PropOp43
 70
     1
102
RTVSPost2010Prop44ColorIndex
 90
        5
102
RTVSPost2010Prop44ColorRGB
 90
      255
102
RTVSPost2010PropOp44
 70
     1
102
RTVSPost2010Prop45
280
     0
102
RTVSPost2010PropOp45
 70
     1
102
RTVSPost2010Prop46
 90
       50
102
RTVSPost2010PropOp46
 70
     1
102
RTVSPost2010Prop47
 90
       50
102
RTVSPost2010PropOp47
 70
     1
102
RTVSPost2010Prop48
 90
       50
102
RTVSPost2010PropOp48
 70
     1
102
RTVSPost2010Prop49
280
     0
102
RTVSPost2010PropOp49
 70
     1
102
RTVSPost2010Prop50
 90
       50
102
RTVSPost2010PropOp50
 70
     1
102
RTVSPost2010Prop51ColorIndex
 90
      256
102
RTVSPost2010Prop51ColorRGB
 90
-16777216
102
RTVSPost2010PropOp51
 70
     0
102
RTVSPost2010Prop52
140
1.0
102
RTVSPost2010PropOp52
 70
     0
102
RTVSPost2010Prop53
 90
        2
102
RTVSPost2010PropOp53
 70
     1
102
RTVSPost2010Prop54
  1
strokes_ogs.tif
102
RTVSPost2010PropOp54
 70
     1
102
RTVSPost2010Prop55
280
     0
102
RTVSPost2010PropOp55
 70
     1
102
RTVSPost2010Prop56
140
1.0
102
RTVSPost2010PropOp56
 70
     1
102
RTVSPost2010Prop57
140
1.0
102
RTVSPost2010PropOp57
 70
     1
  0
XRECORD
  5
11D
102
{ACAD_REACTORS
330
11C
102
}
330
11C
100
AcDbXrecord
280
     1
102
RTVSPropertyOp0
 70
     1
102
RTVSPropertyOp1
 70
     1
102
RTVSPropertyOp2
 70
     1
102
RTVSPropertyOp3
 70
     1
102
RTVSPropertyOp4
 70
     1
102
RTVSPropertyOp5
 70
     1
102
RTVSPropertyOp6
 70
     1
102
RTVSPropertyOp7
 70
     1
102
RTVSPropertyOp8
 70
     1
102
RTVSPropertyOp9
 70
     1
102
RTVSPropertyOp10
 70
     1
102
RTVSPropertyOp11
 70
     1
102
RTVSPropertyOp12
 70
     1
102
RTVSPropertyOp13
 70
     1
102
RTVSPropertyOp14
 70
     1
102
RTVSPropertyOp15
 70
     1
102
RTVSPropertyOp16
 70
     1
102
RTVSPropertyOp17
 70
     1
102
RTVSPropertyOp18
 70
     1
102
RTVSPropertyOp19
 70
     1
102
RTVSPropertyOp20
 70
     1
102
RTVSPropertyOp21
 70
     1
102
RTVSPropertyOp22
 70
     1
102
RTVSPropertyOp23
 70
     1
102
RTVSPropertyOp24
 70
     1
102
RTVSPropertyOp25
 70
     1
102
RTVSPropertyOp26
 70
     1
102
RTVSPropertyOp27
 70
     1
102
RTVSPropertyOp28
 70
     1
102
RTVSPropertyOp29
 70
     1
102
RTVSPropertyOp30
 70
     1
102
RTVSPropertyOp31
 70
     1
102
RTVSPropertyOp32
 70
     1
102
RTVSPropertyOp33
 70
     1
102
RTVSPropertyOp34
 70
     1
102
RTVSPropertyOp35
 70
     1
102
RTVSPropertyOp36
 70
     1
102
RTVSPropertyOp37
 70
     1
102
RTVSPropertyOp38
 70
     1
102
RTVSPropertyOp39
 70
     1
102
RTVSPropertyOp40
 70
     1
102
RTVSPropertyOp41
 70
     1
102
RTVSPropertyOp42
 70
     1
102
RTVSPropertyOp43
 70
     1
102
RTVSPropertyOp44
 70
     1
102
RTVSPropertyOp45
 70
     1
102
RTVSPropertyOp46
 70
     1
102
RTVSPropertyOp47
 70
     1
102
RTVSPropertyOp48
 70
     1
102
RTVSPropertyOp49
 70
     1
102
RTVSPropertyOp50
 70
     1
102
RTVSPropertyOp51
 70
     0
102
RTVSPropertyOp52
 70
     0
102
RTVSPropertyOp53
 70
     1
102
RTVSPropertyOp54
 70
     1
102
RTVSPropertyOp55
 70
     1
102
RTVSPropertyOp56
 70
     1
102
RTVSPropertyOp57
 70
     1
102
RTVSPost2010Prop28
280
     0
102
RTVSPost2010PropOp28
 70
     1
102
RTVSPost2010Prop29
280
     1
102
RTVSPost2010PropOp29
 70
     1
102
RTVSPost2010Prop30
280
     1
102
RTVSPost2010PropOp30
 70
     1
102
RTVSPost2010Prop31
280
     0
102
RTVSPost2010PropOp31
 70
     1
102
RTVSPost2010Prop32
280
     0
102
RTVSPost2010PropOp32
 70
     1
102
RTVSPost2010Prop33
280
     0
102
RTVSPost2010PropOp33
 70
     1
102
RTVSPost2010Prop34
280
     0
102
RTVSPost2010PropOp34
 70
     1
102
RTVSPost2010Prop35
280
     0
102
RTVSPost2010PropOp35
 70
     1
102
RTVSPost2010Prop36
280
     0
102
RTVSPost2010PropOp36
 70
     1
102
RTVSPost2010Prop37
 90
       50
102
RTVSPost2010PropOp37
 70
     1
102
RTVSPost2010Prop38
140
0.0
102
RTVSPost2010PropOp38
 70
     1
102
RTVSPost2010Prop39
140
1.0
102
RTVSPost2010PropOp39
 70
     1
102
RTVSPost2010Prop40
 90
        0
102
RTVSPost2010PropOp40
 70
     1
102
RTVSPost2010Prop41ColorIndex
 90
       18
102
RTVSPost2010Prop41ColorRGB
 90
        0
102
RTVSPost2010PropOp41
 70
     1
102
RTVSPost2010Prop42
 90
       50
102
RTVSPost2010PropOp42
 70
     1
102
RTVSPost2010Prop43
 90
        3
102
RTVSPost2010PropOp43
 70
     1
102
RTVSPost2010Prop44ColorIndex
 90
        5
102
RTVSPost2010Prop44ColorRGB
 90
      255
102
RTVSPost2010PropOp44
 70
     1
102
RTVSPost2010Prop45
280
     0
102
RTVSPost2010PropOp45
 70
     1
102
RTVSPost2010Prop46
 90
       50
102
RTVSPost2010PropOp46
 70
     1
102
RTVSPost2010Prop47
 90
       50
102
RTVSPost2010PropOp47
 70
     1
102
RTVSPost2010Prop48
 90
       50
102
RTVSPost2010PropOp48
 70
     1
102
RTVSPost2010Prop49
280
     0
102
RTVSPost2010PropOp49
 70
     1
102
RTVSPost2010Prop50
 90
       50
102
RTVSPost2010PropOp50
 70
     1
102
RTVSPost2010Prop51ColorIndex
 90
      256
102
RTVSPost2010Prop51ColorRGB
 90
-16777216
102
RTVSPost2010PropOp51
 70
     0
102
RTVSPost2010Prop52
140
1.0
102
RTVSPost2010PropOp52
 70
     0
102
RTVSPost2010Prop53
 90
        2
102
RTVSPost2010PropOp53
 70
     1
102
RTVSPost2010Prop54
  1
strokes_ogs.tif
102
RTVSPost2010PropOp54
 70
     1
102
RTVSPost2010Prop55
280
     0
102
RTVSPost2010PropOp55
 70
     1
102
RTVSPost2010Prop56
140
1.0
102
RTVSPost2010PropOp56
 70
     1
102
RTVSPost2010Prop57
140
1.0
102
RTVSPost2010PropOp57
 70
     1
  0
XRECORD
  5
111
102
{ACAD_REACTORS
330
110
102
}
330
110
100
AcDbXrecord
280
     1
102
RTVSPropertyOp0
 70
     1
102
RTVSPropertyOp1
 70
     1
102
RTVSPropertyOp2
 70
     1
102
RTVSPropertyOp3
 70
     1
102
RTVSPropertyOp4
 70
     1
102
RTVSPropertyOp5
 70
     1
102
RTVSPropertyOp6
 70
     1
102
RTVSPropertyOp7
 70
     1
102
RTVSPropertyOp8
 70
     1
102
RTVSPropertyOp9
 70
     1
102
RTVSPropertyOp10
 70
     1
102
RTVSPropertyOp11
 70
     1
102
RTVSPropertyOp12
 70
     1
102
RTVSPropertyOp13
 70
     1
102
RTVSPropertyOp14
 70
     1
102
RTVSPropertyOp15
 70
     1
102
RTVSPropertyOp16
 70
     1
102
RTVSPropertyOp17
 70
     1
102
RTVSPropertyOp18
 70
     1
102
RTVSPropertyOp19
 70
     1
102
RTVSPropertyOp20
 70
     1
102
RTVSPropertyOp21
 70
     1
102
RTVSPropertyOp22
 70
     1
102
RTVSPropertyOp23
 70
     1
102
RTVSPropertyOp24
 70
     1
102
RTVSPropertyOp25
 70
     1
102
RTVSPropertyOp26
 70
     1
102
RTVSPropertyOp27
 70
     1
102
RTVSPropertyOp28
 70
     1
102
RTVSPropertyOp29
 70
     1
102
RTVSPropertyOp30
 70
     1
102
RTVSPropertyOp31
 70
     1
102
RTVSPropertyOp32
 70
     1
102
RTVSPropertyOp33
 70
     1
102
RTVSPropertyOp34
 70
     1
102
RTVSPropertyOp35
 70
     1
102
RTVSPropertyOp36
 70
     1
102
RTVSPropertyOp37
 70
     1
102
RTVSPropertyOp38
 70
     1
102
RTVSPropertyOp39
 70
     1
102
RTVSPropertyOp40
 70
     1
102
RTVSPropertyOp41
 70
     1
102
RTVSPropertyOp42
 70
     1
102
RTVSPropertyOp43
 70
     1
102
RTVSPropertyOp44
 70
     1
102
RTVSPropertyOp45
 70
     1
102
RTVSPropertyOp46
 70
     1
102
RTVSPropertyOp47
 70
     1
102
RTVSPropertyOp48
 70
     1
102
RTVSPropertyOp49
 70
     1
102
RTVSPropertyOp50
 70
     1
102
RTVSPropertyOp51
 70
     0
102
RTVSPropertyOp52
 70
     0
102
RTVSPropertyOp53
 70
     1
102
RTVSPropertyOp54
 70
     1
102
RTVSPropertyOp55
 70
     1
102
RTVSPropertyOp56
 70
     1
102
RTVSPropertyOp57
 70
     1
102
RTVSPost2010Prop28
280
     0
102
RTVSPost2010PropOp28
 70
     1
102
RTVSPost2010Prop29
280
     1
102
RTVSPost2010PropOp29
 70
     1
102
RTVSPost2010Prop30
280
     1
102
RTVSPost2010PropOp30
 70
     1
102
RTVSPost2010Prop31
280
     0
102
RTVSPost2010PropOp31
 70
     1
102
RTVSPost2010Prop32
280
     0
102
RTVSPost2010PropOp32
 70
     1
102
RTVSPost2010Prop33
280
     0
102
RTVSPost2010PropOp33
 70
     1
102
RTVSPost2010Prop34
280
     0
102
RTVSPost2010PropOp34
 70
     1
102
RTVSPost2010Prop35
280
     0
102
RTVSPost2010PropOp35
 70
     1
102
RTVSPost2010Prop36
280
     0
102
RTVSPost2010PropOp36
 70
     1
102
RTVSPost2010Prop37
 90
       50
102
RTVSPost2010PropOp37
 70
     1
102
RTVSPost2010Prop38
140
0.0
102
RTVSPost2010PropOp38
 70
     1
102
RTVSPost2010Prop39
140
1.0
102
RTVSPost2010PropOp39
 70
     1
102
RTVSPost2010Prop40
 90
        0
102
RTVSPost2010PropOp40
 70
     1
102
RTVSPost2010Prop41ColorIndex
 90
       18
102
RTVSPost2010Prop41ColorRGB
 90
        0
102
RTVSPost2010PropOp41
 70
     1
102
RTVSPost2010Prop42
 90
       50
102
RTVSPost2010PropOp42
 70
     1
102
RTVSPost2010Prop43
 90
        3
102
RTVSPost2010PropOp43
 70
     1
102
RTVSPost2010Prop44ColorIndex
 90
        5
102
RTVSPost2010Prop44ColorRGB
 90
      255
102
RTVSPost2010PropOp44
 70
     1
102
RTVSPost2010Prop45
280
     0
102
RTVSPost2010PropOp45
 70
     1
102
RTVSPost2010Prop46
 90
       50
102
RTVSPost2010PropOp46
 70
     1
102
RTVSPost2010Prop47
 90
       50
102
RTVSPost2010PropOp47
 70
     1
102
RTVSPost2010Prop48
 90
       50
102
RTVSPost2010PropOp48
 70
     1
102
RTVSPost2010Prop49
280
     0
102
RTVSPost2010PropOp49
 70
     1
102
RTVSPost2010Prop50
 90
       50
102
RTVSPost2010PropOp50
 70
     1
102
RTVSPost2010Prop51ColorIndex
 90
      256
102
RTVSPost2010Prop51ColorRGB
 90
-16777216
102
RTVSPost2010PropOp51
 70
     0
102
RTVSPost2010Prop52
140
1.0
102
RTVSPost2010PropOp52
 70
     0
102
RTVSPost2010Prop53
 90
        2
102
RTVSPost2010PropOp53
 70
     1
102
RTVSPost2010Prop54
  1
strokes_ogs.tif
102
RTVSPost2010PropOp54
 70
     1
102
RTVSPost2010Prop55
280
     0
102
RTVSPost2010PropOp55
 70
     1
102
RTVSPost2010Prop56
140
1.0
102
RTVSPost2010PropOp56
 70
     1
102
RTVSPost2010Prop57
140
1.0
102
RTVSPost2010PropOp57
 70
     1
  0
XRECORD
  5
113
102
{ACAD_REACTORS
330
112
102
}
330
112
100
AcDbXrecord
280
     1
102
RTVSPropertyOp0
 70
     1
102
RTVSPropertyOp1
 70
     1
102
RTVSPropertyOp2
 70
     1
102
RTVSPropertyOp3
 70
     1
102
RTVSPropertyOp4
 70
     1
102
RTVSPropertyOp5
 70
     1
102
RTVSPropertyOp6
 70
     1
102
RTVSPropertyOp7
 70
     1
102
RTVSPropertyOp8
 70
     1
102
RTVSPropertyOp9
 70
     1
102
RTVSPropertyOp10
 70
     1
102
RTVSPropertyOp11
 70
     1
102
RTVSPropertyOp12
 70
     1
102
RTVSPropertyOp13
 70
     1
102
RTVSPropertyOp14
 70
     1
102
RTVSPropertyOp15
 70
     1
102
RTVSPropertyOp16
 70
     1
102
RTVSPropertyOp17
 70
     1
102
RTVSPropertyOp18
 70
     1
102
RTVSPropertyOp19
 70
     1
102
RTVSPropertyOp20
 70
     1
102
RTVSPropertyOp21
 70
     1
102
RTVSPropertyOp22
 70
     1
102
RTVSPropertyOp23
 70
     1
102
RTVSPropertyOp24
 70
     1
102
RTVSPropertyOp25
 70
     1
102
RTVSPropertyOp26
 70
     1
102
RTVSPropertyOp27
 70
     1
102
RTVSPropertyOp28
 70
     1
102
RTVSPropertyOp29
 70
     1
102
RTVSPropertyOp30
 70
     1
102
RTVSPropertyOp31
 70
     1
102
RTVSPropertyOp32
 70
     1
102
RTVSPropertyOp33
 70
     1
102
RTVSPropertyOp34
 70
     1
102
RTVSPropertyOp35
 70
     1
102
RTVSPropertyOp36
 70
     1
102
RTVSPropertyOp37
 70
     1
102
RTVSPropertyOp38
 70
     1
102
RTVSPropertyOp39
 70
     1
102
RTVSPropertyOp40
 70
     1
102
RTVSPropertyOp41
 70
     1
102
RTVSPropertyOp42
 70
     1
102
RTVSPropertyOp43
 70
     1
102
RTVSPropertyOp44
 70
     1
102
RTVSPropertyOp45
 70
     1
102
RTVSPropertyOp46
 70
     1
102
RTVSPropertyOp47
 70
     1
102
RTVSPropertyOp48
 70
     1
102
RTVSPropertyOp49
 70
     1
102
RTVSPropertyOp50
 70
     1
102
RTVSPropertyOp51
 70
     0
102
RTVSPropertyOp52
 70
     0
102
RTVSPropertyOp53
 70
     1
102
RTVSPropertyOp54
 70
     1
102
RTVSPropertyOp55
 70
     1
102
RTVSPropertyOp56
 70
     1
102
RTVSPropertyOp57
 70
     1
102
RTVSPost2010Prop28
280
     0
102
RTVSPost2010PropOp28
 70
     1
102
RTVSPost2010Prop29
280
     1
102
RTVSPost2010PropOp29
 70
     1
102
RTVSPost2010Prop30
280
     1
102
RTVSPost2010PropOp30
 70
     1
102
RTVSPost2010Prop31
280
     0
102
RTVSPost2010PropOp31
 70
     1
102
RTVSPost2010Prop32
280
     0
102
RTVSPost2010PropOp32
 70
     1
102
RTVSPost2010Prop33
280
     0
102
RTVSPost2010PropOp33
 70
     1
102
RTVSPost2010Prop34
280
     0
102
RTVSPost2010PropOp34
 70
     1
102
RTVSPost2010Prop35
280
     0
102
RTVSPost2010PropOp35
 70
     1
102
RTVSPost2010Prop36
280
     0
102
RTVSPost2010PropOp36
 70
     1
102
RTVSPost2010Prop37
 90
       50
102
RTVSPost2010PropOp37
 70
     1
102
RTVSPost2010Prop38
140
0.0
102
RTVSPost2010PropOp38
 70
     1
102
RTVSPost2010Prop39
140
1.0
102
RTVSPost2010PropOp39
 70
     1
102
RTVSPost2010Prop40
 90
        0
102
RTVSPost2010PropOp40
 70
     1
102
RTVSPost2010Prop41ColorIndex
 90
       18
102
RTVSPost2010Prop41ColorRGB
 90
        0
102
RTVSPost2010PropOp41
 70
     1
102
RTVSPost2010Prop42
 90
       50
102
RTVSPost2010PropOp42
 70
     1
102
RTVSPost2010Prop43
 90
        3
102
RTVSPost2010PropOp43
 70
     1
102
RTVSPost2010Prop44ColorIndex
 90
        5
102
RTVSPost2010Prop44ColorRGB
 90
      255
102
RTVSPost2010PropOp44
 70
     1
102
RTVSPost2010Prop45
280
     0
102
RTVSPost2010PropOp45
 70
     1
102
RTVSPost2010Prop46
 90
       50
102
RTVSPost2010PropOp46
 70
     1
102
RTVSPost2010Prop47
 90
       50
102
RTVSPost2010PropOp47
 70
     1
102
RTVSPost2010Prop48
 90
       50
102
RTVSPost2010PropOp48
 70
     1
102
RTVSPost2010Prop49
280
     0
102
RTVSPost2010PropOp49
 70
     1
102
RTVSPost2010Prop50
 90
       50
102
RTVSPost2010PropOp50
 70
     1
102
RTVSPost2010Prop51ColorIndex
 90
      256
102
RTVSPost2010Prop51ColorRGB
 90
-16777216
102
RTVSPost2010PropOp51
 70
     0
102
RTVSPost2010Prop52
140
1.0
102
RTVSPost2010PropOp52
 70
     0
102
RTVSPost2010Prop53
 90
        2
102
RTVSPost2010PropOp53
 70
     1
102
RTVSPost2010Prop54
  1
strokes_ogs.tif
102
RTVSPost2010PropOp54
 70
     1
102
RTVSPost2010Prop55
280
     0
102
RTVSPost2010PropOp55
 70
     1
102
RTVSPost2010Prop56
140
1.0
102
RTVSPost2010PropOp56
 70
     1
102
RTVSPost2010Prop57
140
1.0
102
RTVSPost2010PropOp57
 70
     1
  0
XRECORD
  5
123
102
{ACAD_REACTORS
330
122
102
}
330
122
100
AcDbXrecord
280
     1
102
RTVSPropertyOp0
 70
     0
102
RTVSPropertyOp1
 70
     0
102
RTVSPropertyOp2
 70
     0
102
RTVSPropertyOp3
 70
     0
102
RTVSPropertyOp4
 70
     0
102
RTVSPropertyOp5
 70
     0
102
RTVSPropertyOp6
 70
     0
102
RTVSPropertyOp7
 70
     0
102
RTVSPropertyOp8
 70
     0
102
RTVSPropertyOp9
 70
     0
102
RTVSPropertyOp10
 70
     0
102
RTVSPropertyOp11
 70
     0
102
RTVSPropertyOp12
 70
     0
102
RTVSPropertyOp13
 70
     0
102
RTVSPropertyOp14
 70
     2
102
RTVSPropertyOp15
 70
     0
102
RTVSPropertyOp16
 70
     0
102
RTVSPropertyOp17
 70
     0
102
RTVSPropertyOp18
 70
     0
102
RTVSPropertyOp19
 70
     0
102
RTVSPropertyOp20
 70
     0
102
RTVSPropertyOp21
 70
     0
102
RTVSPropertyOp22
 70
     0
102
RTVSPropertyOp23
 70
     0
102
RTVSPropertyOp24
 70
     0
102
RTVSPropertyOp25
 70
     0
102
RTVSPropertyOp26
 70
     0
102
RTVSPropertyOp27
 70
     0
102
RTVSPropertyOp28
 70
     0
102
RTVSPropertyOp29
 70
     0
102
RTVSPropertyOp30
 70
     0
102
RTVSPropertyOp31
 70
     0
102
RTVSPropertyOp32
 70
     0
102
RTVSPropertyOp33
 70
     0
102
RTVSPropertyOp34
 70
     0
102
RTVSPropertyOp35
 70
     0
102
RTVSPropertyOp36
 70
     0
102
RTVSPropertyOp37
 70
     0
102
RTVSPropertyOp38
 70
     0
102
RTVSPropertyOp39
 70
     0
102
RTVSPropertyOp40
 70
     0
102
RTVSPropertyOp41
 70
     0
102
RTVSPropertyOp42
 70
     0
102
RTVSPropertyOp43
 70
     0
102
RTVSPropertyOp44
 70
     0
102
RTVSPropertyOp45
 70
     0
102
RTVSPropertyOp46
 70
     0
102
RTVSPropertyOp47
 70
     0
102
RTVSPropertyOp48
 70
     0
102
RTVSPropertyOp49
 70
     0
102
RTVSPropertyOp50
 70
     0
102
RTVSPropertyOp51
 70
     0
102
RTVSPropertyOp52
 70
     0
102
RTVSPropertyOp53
 70
     0
102
RTVSPropertyOp54
 70
     0
102
RTVSPropertyOp55
 70
     0
102
RTVSPropertyOp56
 70
     0
102
RTVSPropertyOp57
 70
     0
102
RTVSPost2010Prop28
280
     0
102
RTVSPost2010PropOp28
 70
     0
102
RTVSPost2010Prop29
280
     1
102
RTVSPost2010PropOp29
 70
     0
102
RTVSPost2010Prop30
280
     1
102
RTVSPost2010PropOp30
 70
     0
102
RTVSPost2010Prop31
280
     0
102
RTVSPost2010PropOp31
 70
     0
102
RTVSPost2010Prop32
280
     0
102
RTVSPost2010PropOp32
 70
     0
102
RTVSPost2010Prop33
280
     0
102
RTVSPost2010PropOp33
 70
     0
102
RTVSPost2010Prop34
280
     0
102
RTVSPost2010PropOp34
 70
     0
102
RTVSPost2010Prop35
280
     0
102
RTVSPost2010PropOp35
 70
     0
102
RTVSPost2010Prop36
280
     0
102
RTVSPost2010PropOp36
 70
     0
102
RTVSPost2010Prop37
 90
       50
102
RTVSPost2010PropOp37
 70
     0
102
RTVSPost2010Prop38
140
0.0
102
RTVSPost2010PropOp38
 70
     0
102
RTVSPost2010Prop39
140
1.0
102
RTVSPost2010PropOp39
 70
     0
102
RTVSPost2010Prop40
 90
        0
102
RTVSPost2010PropOp40
 70
     0
102
RTVSPost2010Prop41ColorIndex
 90
       18
102
RTVSPost2010Prop41ColorRGB
 90
        0
102
RTVSPost2010PropOp41
 70
     0
102
RTVSPost2010Prop42
 90
       50
102
RTVSPost2010PropOp42
 70
     0
102
RTVSPost2010Prop43
 90
        3
102
RTVSPost2010PropOp43
 70
     0
102
RTVSPost2010Prop44ColorIndex
 90
        5
102
RTVSPost2010Prop44ColorRGB
 90
      255
102
RTVSPost2010PropOp44
 70
     0
102
RTVSPost2010Prop45
280
     0
102
RTVSPost2010PropOp45
 70
     0
102
RTVSPost2010Prop46
 90
       50
102
RTVSPost2010PropOp46
 70
     0
102
RTVSPost2010Prop47
 90
       50
102
RTVSPost2010PropOp47
 70
     0
102
RTVSPost2010Prop48
 90
       50
102
RTVSPost2010PropOp48
 70
     0
102
RTVSPost2010Prop49
280
     0
102
RTVSPost2010PropOp49
 70
     0
102
RTVSPost2010Prop50
 90
       50
102
RTVSPost2010PropOp50
 70
     0
102
RTVSPost2010Prop51ColorIndex
 90
      256
102
RTVSPost2010Prop51ColorRGB
 90
-16777216
102
RTVSPost2010PropOp51
 70
     0
102
RTVSPost2010Prop52
140
1.0
102
RTVSPost2010PropOp52
 70
     0
102
RTVSPost2010Prop53
 90
        2
102
RTVSPost2010PropOp53
 70
     0
102
RTVSPost2010Prop54
  1
strokes_ogs.tif
102
RTVSPost2010PropOp54
 70
     0
102
RTVSPost2010Prop55
280
     0
102
RTVSPost2010PropOp55
 70
     0
102
RTVSPost2010Prop56
140
1.0
102
RTVSPost2010PropOp56
 70
     0
102
RTVSPost2010Prop57
140
1.0
102
RTVSPost2010PropOp57
 70
     0
  0
XRECORD
  5
11B
102
{ACAD_REACTORS
330
11A
102
}
330
11A
100
AcDbXrecord
280
     1
102
RTVSPropertyOp0
 70
     1
102
RTVSPropertyOp1
 70
     1
102
RTVSPropertyOp2
 70
     1
102
RTVSPropertyOp3
 70
     1
102
RTVSPropertyOp4
 70
     1
102
RTVSPropertyOp5
 70
     1
102
RTVSPropertyOp6
 70
     1
102
RTVSPropertyOp7
 70
     1
102
RTVSPropertyOp8
 70
     1
102
RTVSPropertyOp9
 70
     1
102
RTVSPropertyOp10
 70
     1
102
RTVSPropertyOp11
 70
     1
102
RTVSPropertyOp12
 70
     1
102
RTVSPropertyOp13
 70
     1
102
RTVSPropertyOp14
 70
     1
102
RTVSPropertyOp15
 70
     1
102
RTVSPropertyOp16
 70
     1
102
RTVSPropertyOp17
 70
     1
102
RTVSPropertyOp18
 70
     1
102
RTVSPropertyOp19
 70
     1
102
RTVSPropertyOp20
 70
     1
102
RTVSPropertyOp21
 70
     1
102
RTVSPropertyOp22
 70
     1
102
RTVSPropertyOp23
 70
     1
102
RTVSPropertyOp24
 70
     1
102
RTVSPropertyOp25
 70
     1
102
RTVSPropertyOp26
 70
     1
102
RTVSPropertyOp27
 70
     1
102
RTVSPropertyOp28
 70
     1
102
RTVSPropertyOp29
 70
     1
102
RTVSPropertyOp30
 70
     1
102
RTVSPropertyOp31
 70
     1
102
RTVSPropertyOp32
 70
     1
102
RTVSPropertyOp33
 70
     1
102
RTVSPropertyOp34
 70
     1
102
RTVSPropertyOp35
 70
     1
102
RTVSPropertyOp36
 70
     1
102
RTVSPropertyOp37
 70
     1
102
RTVSPropertyOp38
 70
     1
102
RTVSPropertyOp39
 70
     1
102
RTVSPropertyOp40
 70
     1
102
RTVSPropertyOp41
 70
     1
102
RTVSPropertyOp42
 70
     1
102
RTVSPropertyOp43
 70
     1
102
RTVSPropertyOp44
 70
     1
102
RTVSPropertyOp45
 70
     1
102
RTVSPropertyOp46
 70
     1
102
RTVSPropertyOp47
 70
     1
102
RTVSPropertyOp48
 70
     1
102
RTVSPropertyOp49
 70
     1
102
RTVSPropertyOp50
 70
     1
102
RTVSPropertyOp51
 70
     0
102
RTVSPropertyOp52
 70
     0
102
RTVSPropertyOp53
 70
     1
102
RTVSPropertyOp54
 70
     1
102
RTVSPropertyOp55
 70
     1
102
RTVSPropertyOp56
 70
     1
102
RTVSPropertyOp57
 70
     1
102
RTVSPost2010Prop28
280
     0
102
RTVSPost2010PropOp28
 70
     1
102
RTVSPost2010Prop29
280
     1
102
RTVSPost2010PropOp29
 70
     1
102
RTVSPost2010Prop30
280
     1
102
RTVSPost2010PropOp30
 70
     1
102
RTVSPost2010Prop31
280
     0
102
RTVSPost2010PropOp31
 70
     1
102
RTVSPost2010Prop32
280
     0
102
RTVSPost2010PropOp32
 70
     1
102
RTVSPost2010Prop33
280
     0
102
RTVSPost2010PropOp33
 70
     1
102
RTVSPost2010Prop34
280
     0
102
RTVSPost2010PropOp34
 70
     1
102
RTVSPost2010Prop35
280
     0
102
RTVSPost2010PropOp35
 70
     1
102
RTVSPost2010Prop36
280
     0
102
RTVSPost2010PropOp36
 70
     1
102
RTVSPost2010Prop37
 90
       50
102
RTVSPost2010PropOp37
 70
     1
102
RTVSPost2010Prop38
140
0.0
102
RTVSPost2010PropOp38
 70
     1
102
RTVSPost2010Prop39
140
1.0
102
RTVSPost2010PropOp39
 70
     1
102
RTVSPost2010Prop40
 90
        0
102
RTVSPost2010PropOp40
 70
     1
102
RTVSPost2010Prop41ColorIndex
 90
       18
102
RTVSPost2010Prop41ColorRGB
 90
        0
102
RTVSPost2010PropOp41
 70
     1
102
RTVSPost2010Prop42
 90
       50
102
RTVSPost2010PropOp42
 70
     1
102
RTVSPost2010Prop43
 90
        3
102
RTVSPost2010PropOp43
 70
     1
102
RTVSPost2010Prop44ColorIndex
 90
        5
102
RTVSPost2010Prop44ColorRGB
 90
      255
102
RTVSPost2010PropOp44
 70
     1
102
RTVSPost2010Prop45
280
     0
102
RTVSPost2010PropOp45
 70
     1
102
RTVSPost2010Prop46
 90
       50
102
RTVSPost2010PropOp46
 70
     1
102
RTVSPost2010Prop47
 90
       50
102
RTVSPost2010PropOp47
 70
     1
102
RTVSPost2010Prop48
 90
       50
102
RTVSPost2010PropOp48
 70
     1
102
RTVSPost2010Prop49
280
     0
102
RTVSPost2010PropOp49
 70
     1
102
RTVSPost2010Prop50
 90
       50
102
RTVSPost2010PropOp50
 70
     1
102
RTVSPost2010Prop51ColorIndex
 90
      256
102
RTVSPost2010Prop51ColorRGB
 90
-16777216
102
RTVSPost2010PropOp51
 70
     0
102
RTVSPost2010Prop52
140
1.0
102
RTVSPost2010PropOp52
 70
     0
102
RTVSPost2010Prop53
 90
        2
102
RTVSPost2010PropOp53
 70
     1
102
RTVSPost2010Prop54
  1
strokes_ogs.tif
102
RTVSPost2010PropOp54
 70
     1
102
RTVSPost2010Prop55
280
     0
102
RTVSPost2010PropOp55
 70
     1
102
RTVSPost2010Prop56
140
1.0
102
RTVSPost2010PropOp56
 70
     1
102
RTVSPost2010Prop57
140
1.0
102
RTVSPost2010PropOp57
 70
     1
  0
XRECORD
  5
FF
102
{ACAD_REACTORS
330
FE
102
}
330
FE
100
AcDbXrecord
280
     1
102
RTVSPropertyOp0
 70
     1
102
RTVSPropertyOp1
 70
     1
102
RTVSPropertyOp2
 70
     1
102
RTVSPropertyOp3
 70
     1
102
RTVSPropertyOp4
 70
     1
102
RTVSPropertyOp5
 70
     1
102
RTVSPropertyOp6
 70
     1
102
RTVSPropertyOp7
 70
     1
102
RTVSPropertyOp8
 70
     1
102
RTVSPropertyOp9
 70
     1
102
RTVSPropertyOp10
 70
     1
102
RTVSPropertyOp11
 70
     1
102
RTVSPropertyOp12
 70
     1
102
RTVSPropertyOp13
 70
     1
102
RTVSPropertyOp14
 70
     1
102
RTVSPropertyOp15
 70
     1
102
RTVSPropertyOp16
 70
     1
102
RTVSPropertyOp17
 70
     1
102
RTVSPropertyOp18
 70
     1
102
RTVSPropertyOp19
 70
     1
102
RTVSPropertyOp20
 70
     1
102
RTVSPropertyOp21
 70
     1
102
RTVSPropertyOp22
 70
     1
102
RTVSPropertyOp23
 70
     1
102
RTVSPropertyOp24
 70
     1
102
RTVSPropertyOp25
 70
     1
102
RTVSPropertyOp26
 70
     1
102
RTVSPropertyOp27
 70
     1
102
RTVSPropertyOp28
 70
     1
102
RTVSPropertyOp29
 70
     1
102
RTVSPropertyOp30
 70
     1
102
RTVSPropertyOp31
 70
     1
102
RTVSPropertyOp32
 70
     1
102
RTVSPropertyOp33
 70
     1
102
RTVSPropertyOp34
 70
     1
102
RTVSPropertyOp35
 70
     1
102
RTVSPropertyOp36
 70
     1
102
RTVSPropertyOp37
 70
     1
102
RTVSPropertyOp38
 70
     1
102
RTVSPropertyOp39
 70
     1
102
RTVSPropertyOp40
 70
     1
102
RTVSPropertyOp41
 70
     1
102
RTVSPropertyOp42
 70
     1
102
RTVSPropertyOp43
 70
     1
102
RTVSPropertyOp44
 70
     1
102
RTVSPropertyOp45
 70
     1
102
RTVSPropertyOp46
 70
     1
102
RTVSPropertyOp47
 70
     1
102
RTVSPropertyOp48
 70
     1
102
RTVSPropertyOp49
 70
     1
102
RTVSPropertyOp50
 70
     1
102
RTVSPropertyOp51
 70
     0
102
RTVSPropertyOp52
 70
     0
102
RTVSPropertyOp53
 70
     1
102
RTVSPropertyOp54
 70
     1
102
RTVSPropertyOp55
 70
     1
102
RTVSPropertyOp56
 70
     1
102
RTVSPropertyOp57
 70
     1
102
RTVSPost2010Prop28
280
     0
102
RTVSPost2010PropOp28
 70
     1
102
RTVSPost2010Prop29
280
     1
102
RTVSPost2010PropOp29
 70
     1
102
RTVSPost2010Prop30
280
     1
102
RTVSPost2010PropOp30
 70
     1
102
RTVSPost2010Prop31
280
     0
102
RTVSPost2010PropOp31
 70
     1
102
RTVSPost2010Prop32
280
     0
102
RTVSPost2010PropOp32
 70
     1
102
RTVSPost2010Prop33
280
     0
102
RTVSPost2010PropOp33
 70
     1
102
RTVSPost2010Prop34
280
     0
102
RTVSPost2010PropOp34
 70
     1
102
RTVSPost2010Prop35
280
     0
102
RTVSPost2010PropOp35
 70
     1
102
RTVSPost2010Prop36
280
     0
102
RTVSPost2010PropOp36
 70
     1
102
RTVSPost2010Prop37
 90
       50
102
RTVSPost2010PropOp37
 70
     1
102
RTVSPost2010Prop38
140
0.0
102
RTVSPost2010PropOp38
 70
     1
102
RTVSPost2010Prop39
140
1.0
102
RTVSPost2010PropOp39
 70
     1
102
RTVSPost2010Prop40
 90
        0
102
RTVSPost2010PropOp40
 70
     1
102
RTVSPost2010Prop41ColorIndex
 90
       18
102
RTVSPost2010Prop41ColorRGB
 90
        0
102
RTVSPost2010PropOp41
 70
     1
102
RTVSPost2010Prop42
 90
       50
102
RTVSPost2010PropOp42
 70
     1
102
RTVSPost2010Prop43
 90
        3
102
RTVSPost2010PropOp43
 70
     1
102
RTVSPost2010Prop44ColorIndex
 90
        5
102
RTVSPost2010Prop44ColorRGB
 90
      255
102
RTVSPost2010PropOp44
 70
     1
102
RTVSPost2010Prop45
280
     0
102
RTVSPost2010PropOp45
 70
     1
102
RTVSPost2010Prop46
 90
       50
102
RTVSPost2010PropOp46
 70
     1
102
RTVSPost2010Prop47
 90
       50
102
RTVSPost2010PropOp47
 70
     1
102
RTVSPost2010Prop48
 90
       50
102
RTVSPost2010PropOp48
 70
     1
102
RTVSPost2010Prop49
280
     0
102
RTVSPost2010PropOp49
 70
     1
102
RTVSPost2010Prop50
 90
       50
102
RTVSPost2010PropOp50
 70
     1
102
RTVSPost2010Prop51ColorIndex
 90
      256
102
RTVSPost2010Prop51ColorRGB
 90
-16777216
102
RTVSPost2010PropOp51
 70
     0
102
RTVSPost2010Prop52
140
1.0
102
RTVSPost2010PropOp52
 70
     0
102
RTVSPost2010Prop53
 90
        2
102
RTVSPost2010PropOp53
 70
     1
102
RTVSPost2010Prop54
  1
strokes_ogs.tif
102
RTVSPost2010PropOp54
 70
     1
102
RTVSPost2010Prop55
280
     0
102
RTVSPost2010PropOp55
 70
     1
102
RTVSPost2010Prop56
140
1.0
102
RTVSPost2010PropOp56
 70
     1
102
RTVSPost2010Prop57
140
1.0
102
RTVSPost2010PropOp57
 70
     1
  0
XRECORD
  5
101
102
{ACAD_REACTORS
330
100
102
}
330
100
100
AcDbXrecord
280
     1
102
RTVSPropertyOp0
 70
     1
102
RTVSPropertyOp1
 70
     1
102
RTVSPropertyOp2
 70
     1
102
RTVSPropertyOp3
 70
     1
102
RTVSPropertyOp4
 70
     1
102
RTVSPropertyOp5
 70
     1
102
RTVSPropertyOp6
 70
     1
102
RTVSPropertyOp7
 70
     1
102
RTVSPropertyOp8
 70
     1
102
RTVSPropertyOp9
 70
     1
102
RTVSPropertyOp10
 70
     1
102
RTVSPropertyOp11
 70
     1
102
RTVSPropertyOp12
 70
     1
102
RTVSPropertyOp13
 70
     1
102
RTVSPropertyOp14
 70
     1
102
RTVSPropertyOp15
 70
     1
102
RTVSPropertyOp16
 70
     1
102
RTVSPropertyOp17
 70
     1
102
RTVSPropertyOp18
 70
     1
102
RTVSPropertyOp19
 70
     1
102
RTVSPropertyOp20
 70
     1
102
RTVSPropertyOp21
 70
     1
102
RTVSPropertyOp22
 70
     1
102
RTVSPropertyOp23
 70
     1
102
RTVSPropertyOp24
 70
     1
102
RTVSPropertyOp25
 70
     1
102
RTVSPropertyOp26
 70
     1
102
RTVSPropertyOp27
 70
     1
102
RTVSPropertyOp28
 70
     1
102
RTVSPropertyOp29
 70
     1
102
RTVSPropertyOp30
 70
     1
102
RTVSPropertyOp31
 70
     1
102
RTVSPropertyOp32
 70
     1
102
RTVSPropertyOp33
 70
     1
102
RTVSPropertyOp34
 70
     1
102
RTVSPropertyOp35
 70
     1
102
RTVSPropertyOp36
 70
     1
102
RTVSPropertyOp37
 70
     1
102
RTVSPropertyOp38
 70
     1
102
RTVSPropertyOp39
 70
     1
102
RTVSPropertyOp40
 70
     1
102
RTVSPropertyOp41
 70
     1
102
RTVSPropertyOp42
 70
     1
102
RTVSPropertyOp43
 70
     1
102
RTVSPropertyOp44
 70
     1
102
RTVSPropertyOp45
 70
     1
102
RTVSPropertyOp46
 70
     1
102
RTVSPropertyOp47
 70
     1
102
RTVSPropertyOp48
 70
     1
102
RTVSPropertyOp49
 70
     1
102
RTVSPropertyOp50
 70
     1
102
RTVSPropertyOp51
 70
     0
102
RTVSPropertyOp52
 70
     0
102
RTVSPropertyOp53
 70
     1
102
RTVSPropertyOp54
 70
     1
102
RTVSPropertyOp55
 70
     1
102
RTVSPropertyOp56
 70
     1
102
RTVSPropertyOp57
 70
     1
102
RTVSPost2010Prop28
280
     0
102
RTVSPost2010PropOp28
 70
     1
102
RTVSPost2010Prop29
280
     1
102
RTVSPost2010PropOp29
 70
     1
102
RTVSPost2010Prop30
280
     1
102
RTVSPost2010PropOp30
 70
     1
102
RTVSPost2010Prop31
280
     0
102
RTVSPost2010PropOp31
 70
     1
102
RTVSPost2010Prop32
280
     0
102
RTVSPost2010PropOp32
 70
     1
102
RTVSPost2010Prop33
280
     0
102
RTVSPost2010PropOp33
 70
     1
102
RTVSPost2010Prop34
280
     0
102
RTVSPost2010PropOp34
 70
     1
102
RTVSPost2010Prop35
280
     0
102
RTVSPost2010PropOp35
 70
     1
102
RTVSPost2010Prop36
280
     0
102
RTVSPost2010PropOp36
 70
     1
102
RTVSPost2010Prop37
 90
       50
102
RTVSPost2010PropOp37
 70
     1
102
RTVSPost2010Prop38
140
0.0
102
RTVSPost2010PropOp38
 70
     1
102
RTVSPost2010Prop39
140
1.0
102
RTVSPost2010PropOp39
 70
     1
102
RTVSPost2010Prop40
 90
        0
102
RTVSPost2010PropOp40
 70
     1
102
RTVSPost2010Prop41ColorIndex
 90
       18
102
RTVSPost2010Prop41ColorRGB
 90
        0
102
RTVSPost2010PropOp41
 70
     1
102
RTVSPost2010Prop42
 90
       50
102
RTVSPost2010PropOp42
 70
     1
102
RTVSPost2010Prop43
 90
        3
102
RTVSPost2010PropOp43
 70
     1
102
RTVSPost2010Prop44ColorIndex
 90
        5
102
RTVSPost2010Prop44ColorRGB
 90
      255
102
RTVSPost2010PropOp44
 70
     1
102
RTVSPost2010Prop45
280
     0
102
RTVSPost2010PropOp45
 70
     1
102
RTVSPost2010Prop46
 90
       50
102
RTVSPost2010PropOp46
 70
     1
102
RTVSPost2010Prop47
 90
       50
102
RTVSPost2010PropOp47
 70
     1
102
RTVSPost2010Prop48
 90
       50
102
RTVSPost2010PropOp48
 70
     1
102
RTVSPost2010Prop49
280
     0
102
RTVSPost2010PropOp49
 70
     1
102
RTVSPost2010Prop50
 90
       50
102
RTVSPost2010PropOp50
 70
     1
102
RTVSPost2010Prop51ColorIndex
 90
      256
102
RTVSPost2010Prop51ColorRGB
 90
-16777216
102
RTVSPost2010PropOp51
 70
     0
102
RTVSPost2010Prop52
140
1.0
102
RTVSPost2010PropOp52
 70
     0
102
RTVSPost2010Prop53
 90
        2
102
RTVSPost2010PropOp53
 70
     1
102
RTVSPost2010Prop54
  1
strokes_ogs.tif
102
RTVSPost2010PropOp54
 70
     1
102
RTVSPost2010Prop55
280
     0
102
RTVSPost2010PropOp55
 70
     1
102
RTVSPost2010Prop56
140
1.0
102
RTVSPost2010PropOp56
 70
     1
102
RTVSPost2010Prop57
140
1.0
102
RTVSPost2010PropOp57
 70
     1
  0
XRECORD
  5
103
102
{ACAD_REACTORS
330
102
102
}
330
102
100
AcDbXrecord
280
     1
102
RTVSPropertyOp0
 70
     1
102
RTVSPropertyOp1
 70
     1
102
RTVSPropertyOp2
 70
     1
102
RTVSPropertyOp3
 70
     1
102
RTVSPropertyOp4
 70
     1
102
RTVSPropertyOp5
 70
     1
102
RTVSPropertyOp6
 70
     1
102
RTVSPropertyOp7
 70
     1
102
RTVSPropertyOp8
 70
     1
102
RTVSPropertyOp9
 70
     1
102
RTVSPropertyOp10
 70
     1
102
RTVSPropertyOp11
 70
     1
102
RTVSPropertyOp12
 70
     1
102
RTVSPropertyOp13
 70
     1
102
RTVSPropertyOp14
 70
     1
102
RTVSPropertyOp15
 70
     1
102
RTVSPropertyOp16
 70
     1
102
RTVSPropertyOp17
 70
     1
102
RTVSPropertyOp18
 70
     1
102
RTVSPropertyOp19
 70
     1
102
RTVSPropertyOp20
 70
     1
102
RTVSPropertyOp21
 70
     1
102
RTVSPropertyOp22
 70
     1
102
RTVSPropertyOp23
 70
     1
102
RTVSPropertyOp24
 70
     1
102
RTVSPropertyOp25
 70
     1
102
RTVSPropertyOp26
 70
     1
102
RTVSPropertyOp27
 70
     1
102
RTVSPropertyOp28
 70
     1
102
RTVSPropertyOp29
 70
     1
102
RTVSPropertyOp30
 70
     1
102
RTVSPropertyOp31
 70
     1
102
RTVSPropertyOp32
 70
     1
102
RTVSPropertyOp33
 70
     1
102
RTVSPropertyOp34
 70
     1
102
RTVSPropertyOp35
 70
     1
102
RTVSPropertyOp36
 70
     1
102
RTVSPropertyOp37
 70
     1
102
RTVSPropertyOp38
 70
     1
102
RTVSPropertyOp39
 70
     1
102
RTVSPropertyOp40
 70
     1
102
RTVSPropertyOp41
 70
     1
102
RTVSPropertyOp42
 70
     1
102
RTVSPropertyOp43
 70
     1
102
RTVSPropertyOp44
 70
     1
102
RTVSPropertyOp45
 70
     1
102
RTVSPropertyOp46
 70
     1
102
RTVSPropertyOp47
 70
     1
102
RTVSPropertyOp48
 70
     1
102
RTVSPropertyOp49
 70
     1
102
RTVSPropertyOp50
 70
     1
102
RTVSPropertyOp51
 70
     0
102
RTVSPropertyOp52
 70
     0
102
RTVSPropertyOp53
 70
     1
102
RTVSPropertyOp54
 70
     1
102
RTVSPropertyOp55
 70
     1
102
RTVSPropertyOp56
 70
     1
102
RTVSPropertyOp57
 70
     1
102
RTVSPost2010Prop28
280
     0
102
RTVSPost2010PropOp28
 70
     1
102
RTVSPost2010Prop29
280
     1
102
RTVSPost2010PropOp29
 70
     1
102
RTVSPost2010Prop30
280
     1
102
RTVSPost2010PropOp30
 70
     1
102
RTVSPost2010Prop31
280
     0
102
RTVSPost2010PropOp31
 70
     1
102
RTVSPost2010Prop32
280
     0
102
RTVSPost2010PropOp32
 70
     1
102
RTVSPost2010Prop33
280
     0
102
RTVSPost2010PropOp33
 70
     1
102
RTVSPost2010Prop34
280
     0
102
RTVSPost2010PropOp34
 70
     1
102
RTVSPost2010Prop35
280
     0
102
RTVSPost2010PropOp35
 70
     1
102
RTVSPost2010Prop36
280
     0
102
RTVSPost2010PropOp36
 70
     1
102
RTVSPost2010Prop37
 90
       50
102
RTVSPost2010PropOp37
 70
     1
102
RTVSPost2010Prop38
140
0.0
102
RTVSPost2010PropOp38
 70
     1
102
RTVSPost2010Prop39
140
1.0
102
RTVSPost2010PropOp39
 70
     1
102
RTVSPost2010Prop40
 90
        0
102
RTVSPost2010PropOp40
 70
     1
102
RTVSPost2010Prop41ColorIndex
 90
       18
102
RTVSPost2010Prop41ColorRGB
 90
        0
102
RTVSPost2010PropOp41
 70
     1
102
RTVSPost2010Prop42
 90
       50
102
RTVSPost2010PropOp42
 70
     1
102
RTVSPost2010Prop43
 90
        3
102
RTVSPost2010PropOp43
 70
     1
102
RTVSPost2010Prop44ColorIndex
 90
        5
102
RTVSPost2010Prop44ColorRGB
 90
      255
102
RTVSPost2010PropOp44
 70
     1
102
RTVSPost2010Prop45
280
     0
102
RTVSPost2010PropOp45
 70
     1
102
RTVSPost2010Prop46
 90
       50
102
RTVSPost2010PropOp46
 70
     1
102
RTVSPost2010Prop47
 90
       50
102
RTVSPost2010PropOp47
 70
     1
102
RTVSPost2010Prop48
 90
       50
102
RTVSPost2010PropOp48
 70
     1
102
RTVSPost2010Prop49
280
     0
102
RTVSPost2010PropOp49
 70
     1
102
RTVSPost2010Prop50
 90
       50
102
RTVSPost2010PropOp50
 70
     1
102
RTVSPost2010Prop51ColorIndex
 90
      256
102
RTVSPost2010Prop51ColorRGB
 90
-16777216
102
RTVSPost2010PropOp51
 70
     0
102
RTVSPost2010Prop52
140
1.0
102
RTVSPost2010PropOp52
 70
     0
102
RTVSPost2010Prop53
 90
        2
102
RTVSPost2010PropOp53
 70
     1
102
RTVSPost2010Prop54
  1
strokes_ogs.tif
102
RTVSPost2010PropOp54
 70
     1
102
RTVSPost2010Prop55
280
     0
102
RTVSPost2010PropOp55
 70
     1
102
RTVSPost2010Prop56
140
1.0
102
RTVSPost2010PropOp56
 70
     1
102
RTVSPost2010Prop57
140
1.0
102
RTVSPost2010PropOp57
 70
     1
  0
XRECORD
  5
105
102
{ACAD_REACTORS
330
104
102
}
330
104
100
AcDbXrecord
280
     1
102
RTVSPropertyOp0
 70
     1
102
RTVSPropertyOp1
 70
     1
102
RTVSPropertyOp2
 70
     1
102
RTVSPropertyOp3
 70
     1
102
RTVSPropertyOp4
 70
     1
102
RTVSPropertyOp5
 70
     1
102
RTVSPropertyOp6
 70
     1
102
RTVSPropertyOp7
 70
     1
102
RTVSPropertyOp8
 70
     1
102
RTVSPropertyOp9
 70
     1
102
RTVSPropertyOp10
 70
     1
102
RTVSPropertyOp11
 70
     1
102
RTVSPropertyOp12
 70
     1
102
RTVSPropertyOp13
 70
     1
102
RTVSPropertyOp14
 70
     1
102
RTVSPropertyOp15
 70
     1
102
RTVSPropertyOp16
 70
     1
102
RTVSPropertyOp17
 70
     1
102
RTVSPropertyOp18
 70
     1
102
RTVSPropertyOp19
 70
     1
102
RTVSPropertyOp20
 70
     1
102
RTVSPropertyOp21
 70
     1
102
RTVSPropertyOp22
 70
     1
102
RTVSPropertyOp23
 70
     1
102
RTVSPropertyOp24
 70
     1
102
RTVSPropertyOp25
 70
     1
102
RTVSPropertyOp26
 70
     1
102
RTVSPropertyOp27
 70
     1
102
RTVSPropertyOp28
 70
     1
102
RTVSPropertyOp29
 70
     1
102
RTVSPropertyOp30
 70
     1
102
RTVSPropertyOp31
 70
     1
102
RTVSPropertyOp32
 70
     1
102
RTVSPropertyOp33
 70
     1
102
RTVSPropertyOp34
 70
     1
102
RTVSPropertyOp35
 70
     1
102
RTVSPropertyOp36
 70
     1
102
RTVSPropertyOp37
 70
     1
102
RTVSPropertyOp38
 70
     1
102
RTVSPropertyOp39
 70
     1
102
RTVSPropertyOp40
 70
     1
102
RTVSPropertyOp41
 70
     1
102
RTVSPropertyOp42
 70
     1
102
RTVSPropertyOp43
 70
     1
102
RTVSPropertyOp44
 70
     1
102
RTVSPropertyOp45
 70
     1
102
RTVSPropertyOp46
 70
     1
102
RTVSPropertyOp47
 70
     1
102
RTVSPropertyOp48
 70
     1
102
RTVSPropertyOp49
 70
     1
102
RTVSPropertyOp50
 70
     1
102
RTVSPropertyOp51
 70
     0
102
RTVSPropertyOp52
 70
     0
102
RTVSPropertyOp53
 70
     1
102
RTVSPropertyOp54
 70
     1
102
RTVSPropertyOp55
 70
     1
102
RTVSPropertyOp56
 70
     1
102
RTVSPropertyOp57
 70
     1
102
RTVSPost2010Prop28
280
     0
102
RTVSPost2010PropOp28
 70
     1
102
RTVSPost2010Prop29
280
     1
102
RTVSPost2010PropOp29
 70
     1
102
RTVSPost2010Prop30
280
     1
102
RTVSPost2010PropOp30
 70
     1
102
RTVSPost2010Prop31
280
     0
102
RTVSPost2010PropOp31
 70
     1
102
RTVSPost2010Prop32
280
     0
102
RTVSPost2010PropOp32
 70
     1
102
RTVSPost2010Prop33
280
     0
102
RTVSPost2010PropOp33
 70
     1
102
RTVSPost2010Prop34
280
     0
102
RTVSPost2010PropOp34
 70
     1
102
RTVSPost2010Prop35
280
     0
102
RTVSPost2010PropOp35
 70
     1
102
RTVSPost2010Prop36
280
     0
102
RTVSPost2010PropOp36
 70
     1
102
RTVSPost2010Prop37
 90
       50
102
RTVSPost2010PropOp37
 70
     1
102
RTVSPost2010Prop38
140
0.0
102
RTVSPost2010PropOp38
 70
     1
102
RTVSPost2010Prop39
140
1.0
102
RTVSPost2010PropOp39
 70
     1
102
RTVSPost2010Prop40
 90
        0
102
RTVSPost2010PropOp40
 70
     1
102
RTVSPost2010Prop41ColorIndex
 90
       18
102
RTVSPost2010Prop41ColorRGB
 90
        0
102
RTVSPost2010PropOp41
 70
     1
102
RTVSPost2010Prop42
 90
       50
102
RTVSPost2010PropOp42
 70
     1
102
RTVSPost2010Prop43
 90
        3
102
RTVSPost2010PropOp43
 70
     1
102
RTVSPost2010Prop44ColorIndex
 90
        5
102
RTVSPost2010Prop44ColorRGB
 90
      255
102
RTVSPost2010PropOp44
 70
     1
102
RTVSPost2010Prop45
280
     0
102
RTVSPost2010PropOp45
 70
     1
102
RTVSPost2010Prop46
 90
       50
102
RTVSPost2010PropOp46
 70
     1
102
RTVSPost2010Prop47
 90
       50
102
RTVSPost2010PropOp47
 70
     1
102
RTVSPost2010Prop48
 90
       50
102
RTVSPost2010PropOp48
 70
     1
102
RTVSPost2010Prop49
280
     0
102
RTVSPost2010PropOp49
 70
     1
102
RTVSPost2010Prop50
 90
       50
102
RTVSPost2010PropOp50
 70
     1
102
RTVSPost2010Prop51ColorIndex
 90
      256
102
RTVSPost2010Prop51ColorRGB
 90
-16777216
102
RTVSPost2010PropOp51
 70
     0
102
RTVSPost2010Prop52
140
1.0
102
RTVSPost2010PropOp52
 70
     0
102
RTVSPost2010Prop53
 90
        2
102
RTVSPost2010PropOp53
 70
     1
102
RTVSPost2010Prop54
  1
strokes_ogs.tif
102
RTVSPost2010PropOp54
 70
     1
102
RTVSPost2010Prop55
280
     0
102
RTVSPost2010PropOp55
 70
     1
102
RTVSPost2010Prop56
140
1.0
102
RTVSPost2010PropOp56
 70
     1
102
RTVSPost2010Prop57
140
1.0
102
RTVSPost2010PropOp57
 70
     1
  0
XRECORD
  5
10B
102
{ACAD_REACTORS
330
10A
102
}
330
10A
100
AcDbXrecord
280
     1
102
RTVSPropertyOp0
 70
     1
102
RTVSPropertyOp1
 70
     1
102
RTVSPropertyOp2
 70
     1
102
RTVSPropertyOp3
 70
     1
102
RTVSPropertyOp4
 70
     1
102
RTVSPropertyOp5
 70
     1
102
RTVSPropertyOp6
 70
     1
102
RTVSPropertyOp7
 70
     1
102
RTVSPropertyOp8
 70
     1
102
RTVSPropertyOp9
 70
     1
102
RTVSPropertyOp10
 70
     1
102
RTVSPropertyOp11
 70
     1
102
RTVSPropertyOp12
 70
     1
102
RTVSPropertyOp13
 70
     1
102
RTVSPropertyOp14
 70
     1
102
RTVSPropertyOp15
 70
     1
102
RTVSPropertyOp16
 70
     1
102
RTVSPropertyOp17
 70
     1
102
RTVSPropertyOp18
 70
     1
102
RTVSPropertyOp19
 70
     1
102
RTVSPropertyOp20
 70
     1
102
RTVSPropertyOp21
 70
     1
102
RTVSPropertyOp22
 70
     1
102
RTVSPropertyOp23
 70
     1
102
RTVSPropertyOp24
 70
     1
102
RTVSPropertyOp25
 70
     1
102
RTVSPropertyOp26
 70
     1
102
RTVSPropertyOp27
 70
     1
102
RTVSPropertyOp28
 70
     1
102
RTVSPropertyOp29
 70
     1
102
RTVSPropertyOp30
 70
     1
102
RTVSPropertyOp31
 70
     1
102
RTVSPropertyOp32
 70
     1
102
RTVSPropertyOp33
 70
     1
102
RTVSPropertyOp34
 70
     1
102
RTVSPropertyOp35
 70
     1
102
RTVSPropertyOp36
 70
     1
102
RTVSPropertyOp37
 70
     1
102
RTVSPropertyOp38
 70
     1
102
RTVSPropertyOp39
 70
     1
102
RTVSPropertyOp40
 70
     1
102
RTVSPropertyOp41
 70
     1
102
RTVSPropertyOp42
 70
     1
102
RTVSPropertyOp43
 70
     1
102
RTVSPropertyOp44
 70
     1
102
RTVSPropertyOp45
 70
     1
102
RTVSPropertyOp46
 70
     1
102
RTVSPropertyOp47
 70
     1
102
RTVSPropertyOp48
 70
     1
102
RTVSPropertyOp49
 70
     1
102
RTVSPropertyOp50
 70
     1
102
RTVSPropertyOp51
 70
     0
102
RTVSPropertyOp52
 70
     0
102
RTVSPropertyOp53
 70
     1
102
RTVSPropertyOp54
 70
     1
102
RTVSPropertyOp55
 70
     1
102
RTVSPropertyOp56
 70
     1
102
RTVSPropertyOp57
 70
     1
102
RTVSPost2010Prop28
280
     0
102
RTVSPost2010PropOp28
 70
     1
102
RTVSPost2010Prop29
280
     1
102
RTVSPost2010PropOp29
 70
     1
102
RTVSPost2010Prop30
280
     1
102
RTVSPost2010PropOp30
 70
     1
102
RTVSPost2010Prop31
280
     0
102
RTVSPost2010PropOp31
 70
     1
102
RTVSPost2010Prop32
280
     0
102
RTVSPost2010PropOp32
 70
     1
102
RTVSPost2010Prop33
280
     0
102
RTVSPost2010PropOp33
 70
     1
102
RTVSPost2010Prop34
280
     0
102
RTVSPost2010PropOp34
 70
     1
102
RTVSPost2010Prop35
280
     0
102
RTVSPost2010PropOp35
 70
     1
102
RTVSPost2010Prop36
280
     0
102
RTVSPost2010PropOp36
 70
     1
102
RTVSPost2010Prop37
 90
       50
102
RTVSPost2010PropOp37
 70
     1
102
RTVSPost2010Prop38
140
0.0
102
RTVSPost2010PropOp38
 70
     1
102
RTVSPost2010Prop39
140
1.0
102
RTVSPost2010PropOp39
 70
     1
102
RTVSPost2010Prop40
 90
        0
102
RTVSPost2010PropOp40
 70
     1
102
RTVSPost2010Prop41ColorIndex
 90
       18
102
RTVSPost2010Prop41ColorRGB
 90
        0
102
RTVSPost2010PropOp41
 70
     1
102
RTVSPost2010Prop42
 90
       50
102
RTVSPost2010PropOp42
 70
     1
102
RTVSPost2010Prop43
 90
        3
102
RTVSPost2010PropOp43
 70
     1
102
RTVSPost2010Prop44ColorIndex
 90
        5
102
RTVSPost2010Prop44ColorRGB
 90
      255
102
RTVSPost2010PropOp44
 70
     1
102
RTVSPost2010Prop45
280
     0
102
RTVSPost2010PropOp45
 70
     1
102
RTVSPost2010Prop46
 90
       50
102
RTVSPost2010PropOp46
 70
     1
102
RTVSPost2010Prop47
 90
       50
102
RTVSPost2010PropOp47
 70
     1
102
RTVSPost2010Prop48
 90
       50
102
RTVSPost2010PropOp48
 70
     1
102
RTVSPost2010Prop49
280
     0
102
RTVSPost2010PropOp49
 70
     1
102
RTVSPost2010Prop50
 90
       50
102
RTVSPost2010PropOp50
 70
     1
102
RTVSPost2010Prop51ColorIndex
 90
      256
102
RTVSPost2010Prop51ColorRGB
 90
-16777216
102
RTVSPost2010PropOp51
 70
     0
102
RTVSPost2010Prop52
140
1.0
102
RTVSPost2010PropOp52
 70
     0
102
RTVSPost2010Prop53
 90
        2
102
RTVSPost2010PropOp53
 70
     1
102
RTVSPost2010Prop54
  1
strokes_ogs.tif
102
RTVSPost2010PropOp54
 70
     1
102
RTVSPost2010Prop55
280
     0
102
RTVSPost2010PropOp55
 70
     1
102
RTVSPost2010Prop56
140
1.0
102
RTVSPost2010PropOp56
 70
     1
102
RTVSPost2010Prop57
140
1.0
102
RTVSPost2010PropOp57
 70
     1
  0
XRECORD
  5
11F
102
{ACAD_REACTORS
330
11E
102
}
330
11E
100
AcDbXrecord
280
     1
102
RTVSPropertyOp0
 70
     0
102
RTVSPropertyOp1
 70
     0
102
RTVSPropertyOp2
 70
     0
102
RTVSPropertyOp3
 70
     0
102
RTVSPropertyOp4
 70
     0
102
RTVSPropertyOp5
 70
     0
102
RTVSPropertyOp6
 70
     0
102
RTVSPropertyOp7
 70
     0
102
RTVSPropertyOp8
 70
     0
102
RTVSPropertyOp9
 70
     0
102
RTVSPropertyOp10
 70
     0
102
RTVSPropertyOp11
 70
     0
102
RTVSPropertyOp12
 70
     0
102
RTVSPropertyOp13
 70
     0
102
RTVSPropertyOp14
 70
     2
102
RTVSPropertyOp15
 70
     0
102
RTVSPropertyOp16
 70
     0
102
RTVSPropertyOp17
 70
     0
102
RTVSPropertyOp18
 70
     0
102
RTVSPropertyOp19
 70
     0
102
RTVSPropertyOp20
 70
     0
102
RTVSPropertyOp21
 70
     0
102
RTVSPropertyOp22
 70
     0
102
RTVSPropertyOp23
 70
     0
102
RTVSPropertyOp24
 70
     0
102
RTVSPropertyOp25
 70
     0
102
RTVSPropertyOp26
 70
     0
102
RTVSPropertyOp27
 70
     0
102
RTVSPropertyOp28
 70
     0
102
RTVSPropertyOp29
 70
     0
102
RTVSPropertyOp30
 70
     0
102
RTVSPropertyOp31
 70
     0
102
RTVSPropertyOp32
 70
     0
102
RTVSPropertyOp33
 70
     0
102
RTVSPropertyOp34
 70
     0
102
RTVSPropertyOp35
 70
     0
102
RTVSPropertyOp36
 70
     0
102
RTVSPropertyOp37
 70
     0
102
RTVSPropertyOp38
 70
     0
102
RTVSPropertyOp39
 70
     0
102
RTVSPropertyOp40
 70
     0
102
RTVSPropertyOp41
 70
     0
102
RTVSPropertyOp42
 70
     0
102
RTVSPropertyOp43
 70
     0
102
RTVSPropertyOp44
 70
     0
102
RTVSPropertyOp45
 70
     0
102
RTVSPropertyOp46
 70
     0
102
RTVSPropertyOp47
 70
     0
102
RTVSPropertyOp48
 70
     0
102
RTVSPropertyOp49
 70
     0
102
RTVSPropertyOp50
 70
     0
102
RTVSPropertyOp51
 70
     0
102
RTVSPropertyOp52
 70
     0
102
RTVSPropertyOp53
 70
     0
102
RTVSPropertyOp54
 70
     0
102
RTVSPropertyOp55
 70
     0
102
RTVSPropertyOp56
 70
     0
102
RTVSPropertyOp57
 70
     0
102
RTVSPost2010Prop28
280
     0
102
RTVSPost2010PropOp28
 70
     0
102
RTVSPost2010Prop29
280
     1
102
RTVSPost2010PropOp29
 70
     0
102
RTVSPost2010Prop30
280
     1
102
RTVSPost2010PropOp30
 70
     0
102
RTVSPost2010Prop31
280
     0
102
RTVSPost2010PropOp31
 70
     0
102
RTVSPost2010Prop32
280
     0
102
RTVSPost2010PropOp32
 70
     0
102
RTVSPost2010Prop33
280
     0
102
RTVSPost2010PropOp33
 70
     0
102
RTVSPost2010Prop34
280
     0
102
RTVSPost2010PropOp34
 70
     0
102
RTVSPost2010Prop35
280
     0
102
RTVSPost2010PropOp35
 70
     0
102
RTVSPost2010Prop36
280
     0
102
RTVSPost2010PropOp36
 70
     0
102
RTVSPost2010Prop37
 90
       50
102
RTVSPost2010PropOp37
 70
     0
102
RTVSPost2010Prop38
140
0.0
102
RTVSPost2010PropOp38
 70
     0
102
RTVSPost2010Prop39
140
1.0
102
RTVSPost2010PropOp39
 70
     0
102
RTVSPost2010Prop40
 90
        0
102
RTVSPost2010PropOp40
 70
     0
102
RTVSPost2010Prop41ColorIndex
 90
       18
102
RTVSPost2010Prop41ColorRGB
 90
        0
102
RTVSPost2010PropOp41
 70
     0
102
RTVSPost2010Prop42
 90
       50
102
RTVSPost2010PropOp42
 70
     0
102
RTVSPost2010Prop43
 90
        3
102
RTVSPost2010PropOp43
 70
     0
102
RTVSPost2010Prop44ColorIndex
 90
        5
102
RTVSPost2010Prop44ColorRGB
 90
      255
102
RTVSPost2010PropOp44
 70
     0
102
RTVSPost2010Prop45
280
     0
102
RTVSPost2010PropOp45
 70
     0
102
RTVSPost2010Prop46
 90
       50
102
RTVSPost2010PropOp46
 70
     0
102
RTVSPost2010Prop47
 90
       50
102
RTVSPost2010PropOp47
 70
     0
102
RTVSPost2010Prop48
 90
       50
102
RTVSPost2010PropOp48
 70
     0
102
RTVSPost2010Prop49
280
     0
102
RTVSPost2010PropOp49
 70
     0
102
RTVSPost2010Prop50
 90
       50
102
RTVSPost2010PropOp50
 70
     0
102
RTVSPost2010Prop51ColorIndex
 90
      256
102
RTVSPost2010Prop51ColorRGB
 90
-16777216
102
RTVSPost2010PropOp51
 70
     0
102
RTVSPost2010Prop52
140
1.0
102
RTVSPost2010PropOp52
 70
     0
102
RTVSPost2010Prop53
 90
        2
102
RTVSPost2010PropOp53
 70
     0
102
RTVSPost2010Prop54
  1
strokes_ogs.tif
102
RTVSPost2010PropOp54
 70
     0
102
RTVSPost2010Prop55
280
     0
102
RTVSPost2010PropOp55
 70
     0
102
RTVSPost2010Prop56
140
1.0
102
RTVSPost2010PropOp56
 70
     0
102
RTVSPost2010Prop57
140
1.0
102
RTVSPost2010PropOp57
 70
     0
  0
XRECORD
  5
119
102
{ACAD_REACTORS
330
118
102
}
330
118
100
AcDbXrecord
280
     1
102
RTVSPropertyOp0
 70
     1
102
RTVSPropertyOp1
 70
     1
102
RTVSPropertyOp2
 70
     1
102
RTVSPropertyOp3
 70
     1
102
RTVSPropertyOp4
 70
     1
102
RTVSPropertyOp5
 70
     1
102
RTVSPropertyOp6
 70
     1
102
RTVSPropertyOp7
 70
     1
102
RTVSPropertyOp8
 70
     1
102
RTVSPropertyOp9
 70
     1
102
RTVSPropertyOp10
 70
     1
102
RTVSPropertyOp11
 70
     1
102
RTVSPropertyOp12
 70
     1
102
RTVSPropertyOp13
 70
     1
102
RTVSPropertyOp14
 70
     1
102
RTVSPropertyOp15
 70
     1
102
RTVSPropertyOp16
 70
     1
102
RTVSPropertyOp17
 70
     1
102
RTVSPropertyOp18
 70
     1
102
RTVSPropertyOp19
 70
     1
102
RTVSPropertyOp20
 70
     1
102
RTVSPropertyOp21
 70
     1
102
RTVSPropertyOp22
 70
     1
102
RTVSPropertyOp23
 70
     1
102
RTVSPropertyOp24
 70
     1
102
RTVSPropertyOp25
 70
     1
102
RTVSPropertyOp26
 70
     1
102
RTVSPropertyOp27
 70
     1
102
RTVSPropertyOp28
 70
     1
102
RTVSPropertyOp29
 70
     1
102
RTVSPropertyOp30
 70
     1
102
RTVSPropertyOp31
 70
     1
102
RTVSPropertyOp32
 70
     1
102
RTVSPropertyOp33
 70
     1
102
RTVSPropertyOp34
 70
     1
102
RTVSPropertyOp35
 70
     1
102
RTVSPropertyOp36
 70
     1
102
RTVSPropertyOp37
 70
     1
102
RTVSPropertyOp38
 70
     1
102
RTVSPropertyOp39
 70
     1
102
RTVSPropertyOp40
 70
     1
102
RTVSPropertyOp41
 70
     1
102
RTVSPropertyOp42
 70
     1
102
RTVSPropertyOp43
 70
     1
102
RTVSPropertyOp44
 70
     1
102
RTVSPropertyOp45
 70
     1
102
RTVSPropertyOp46
 70
     1
102
RTVSPropertyOp47
 70
     1
102
RTVSPropertyOp48
 70
     1
102
RTVSPropertyOp49
 70
     1
102
RTVSPropertyOp50
 70
     1
102
RTVSPropertyOp51
 70
     0
102
RTVSPropertyOp52
 70
     0
102
RTVSPropertyOp53
 70
     1
102
RTVSPropertyOp54
 70
     1
102
RTVSPropertyOp55
 70
     1
102
RTVSPropertyOp56
 70
     1
102
RTVSPropertyOp57
 70
     1
102
RTVSPost2010Prop28
280
     0
102
RTVSPost2010PropOp28
 70
     1
102
RTVSPost2010Prop29
280
     1
102
RTVSPost2010PropOp29
 70
     1
102
RTVSPost2010Prop30
280
     1
102
RTVSPost2010PropOp30
 70
     1
102
RTVSPost2010Prop31
280
     0
102
RTVSPost2010PropOp31
 70
     1
102
RTVSPost2010Prop32
280
     0
102
RTVSPost2010PropOp32
 70
     1
102
RTVSPost2010Prop33
280
     0
102
RTVSPost2010PropOp33
 70
     1
102
RTVSPost2010Prop34
280
     0
102
RTVSPost2010PropOp34
 70
     1
102
RTVSPost2010Prop35
280
     0
102
RTVSPost2010PropOp35
 70
     1
102
RTVSPost2010Prop36
280
     0
102
RTVSPost2010PropOp36
 70
     1
102
RTVSPost2010Prop37
 90
       50
102
RTVSPost2010PropOp37
 70
     1
102
RTVSPost2010Prop38
140
0.0
102
RTVSPost2010PropOp38
 70
     1
102
RTVSPost2010Prop39
140
1.0
102
RTVSPost2010PropOp39
 70
     1
102
RTVSPost2010Prop40
 90
        0
102
RTVSPost2010PropOp40
 70
     1
102
RTVSPost2010Prop41ColorIndex
 90
       18
102
RTVSPost2010Prop41ColorRGB
 90
        0
102
RTVSPost2010PropOp41
 70
     1
102
RTVSPost2010Prop42
 90
       50
102
RTVSPost2010PropOp42
 70
     1
102
RTVSPost2010Prop43
 90
        3
102
RTVSPost2010PropOp43
 70
     1
102
RTVSPost2010Prop44ColorIndex
 90
        5
102
RTVSPost2010Prop44ColorRGB
 90
      255
102
RTVSPost2010PropOp44
 70
     1
102
RTVSPost2010Prop45
280
     0
102
RTVSPost2010PropOp45
 70
     1
102
RTVSPost2010Prop46
 90
       50
102
RTVSPost2010PropOp46
 70
     1
102
RTVSPost2010Prop47
 90
       50
102
RTVSPost2010PropOp47
 70
     1
102
RTVSPost2010Prop48
 90
       50
102
RTVSPost2010PropOp48
 70
     1
102
RTVSPost2010Prop49
280
     0
102
RTVSPost2010PropOp49
 70
     1
102
RTVSPost2010Prop50
 90
       50
102
RTVSPost2010PropOp50
 70
     1
102
RTVSPost2010Prop51ColorIndex
 90
      256
102
RTVSPost2010Prop51ColorRGB
 90
-16777216
102
RTVSPost2010PropOp51
 70
     0
102
RTVSPost2010Prop52
140
1.0
102
RTVSPost2010PropOp52
 70
     0
102
RTVSPost2010Prop53
 90
        2
102
RTVSPost2010PropOp53
 70
     1
102
RTVSPost2010Prop54
  1
strokes_ogs.tif
102
RTVSPost2010PropOp54
 70
     1
102
RTVSPost2010Prop55
280
     0
102
RTVSPost2010PropOp55
 70
     1
102
RTVSPost2010Prop56
140
1.0
102
RTVSPost2010PropOp56
 70
     1
102
RTVSPost2010Prop57
140
1.0
102
RTVSPost2010PropOp57
 70
     1
  0
XRECORD
  5
121
102
{ACAD_REACTORS
330
120
102
}
330
120
100
AcDbXrecord
280
     1
102
RTVSPropertyOp0
 70
     0
102
RTVSPropertyOp1
 70
     0
102
RTVSPropertyOp2
 70
     0
102
RTVSPropertyOp3
 70
     0
102
RTVSPropertyOp4
 70
     0
102
RTVSPropertyOp5
 70
     0
102
RTVSPropertyOp6
 70
     0
102
RTVSPropertyOp7
 70
     0
102
RTVSPropertyOp8
 70
     0
102
RTVSPropertyOp9
 70
     0
102
RTVSPropertyOp10
 70
     0
102
RTVSPropertyOp11
 70
     0
102
RTVSPropertyOp12
 70
     0
102
RTVSPropertyOp13
 70
     0
102
RTVSPropertyOp14
 70
     2
102
RTVSPropertyOp15
 70
     0
102
RTVSPropertyOp16
 70
     0
102
RTVSPropertyOp17
 70
     0
102
RTVSPropertyOp18
 70
     0
102
RTVSPropertyOp19
 70
     0
102
RTVSPropertyOp20
 70
     0
102
RTVSPropertyOp21
 70
     0
102
RTVSPropertyOp22
 70
     0
102
RTVSPropertyOp23
 70
     0
102
RTVSPropertyOp24
 70
     0
102
RTVSPropertyOp25
 70
     0
102
RTVSPropertyOp26
 70
     0
102
RTVSPropertyOp27
 70
     0
102
RTVSPropertyOp28
 70
     0
102
RTVSPropertyOp29
 70
     0
102
RTVSPropertyOp30
 70
     0
102
RTVSPropertyOp31
 70
     0
102
RTVSPropertyOp32
 70
     0
102
RTVSPropertyOp33
 70
     0
102
RTVSPropertyOp34
 70
     0
102
RTVSPropertyOp35
 70
     0
102
RTVSPropertyOp36
 70
     0
102
RTVSPropertyOp37
 70
     0
102
RTVSPropertyOp38
 70
     0
102
RTVSPropertyOp39
 70
     0
102
RTVSPropertyOp40
 70
     0
102
RTVSPropertyOp41
 70
     0
102
RTVSPropertyOp42
 70
     0
102
RTVSPropertyOp43
 70
     0
102
RTVSPropertyOp44
 70
     0
102
RTVSPropertyOp45
 70
     0
102
RTVSPropertyOp46
 70
     0
102
RTVSPropertyOp47
 70
     0
102
RTVSPropertyOp48
 70
     0
102
RTVSPropertyOp49
 70
     0
102
RTVSPropertyOp50
 70
     0
102
RTVSPropertyOp51
 70
     0
102
RTVSPropertyOp52
 70
     0
102
RTVSPropertyOp53
 70
     0
102
RTVSPropertyOp54
 70
     0
102
RTVSPropertyOp55
 70
     0
102
RTVSPropertyOp56
 70
     0
102
RTVSPropertyOp57
 70
     0
102
RTVSPost2010Prop28
280
     0
102
RTVSPost2010PropOp28
 70
     0
102
RTVSPost2010Prop29
280
     1
102
RTVSPost2010PropOp29
 70
     0
102
RTVSPost2010Prop30
280
     1
102
RTVSPost2010PropOp30
 70
     0
102
RTVSPost2010Prop31
280
     0
102
RTVSPost2010PropOp31
 70
     0
102
RTVSPost2010Prop32
280
     0
102
RTVSPost2010PropOp32
 70
     0
102
RTVSPost2010Prop33
280
     0
102
RTVSPost2010PropOp33
 70
     0
102
RTVSPost2010Prop34
280
     0
102
RTVSPost2010PropOp34
 70
     0
102
RTVSPost2010Prop35
280
     0
102
RTVSPost2010PropOp35
 70
     0
102
RTVSPost2010Prop36
280
     0
102
RTVSPost2010PropOp36
 70
     0
102
RTVSPost2010Prop37
 90
       50
102
RTVSPost2010PropOp37
 70
     0
102
RTVSPost2010Prop38
140
0.0
102
RTVSPost2010PropOp38
 70
     0
102
RTVSPost2010Prop39
140
1.0
102
RTVSPost2010PropOp39
 70
     0
102
RTVSPost2010Prop40
 90
        0
102
RTVSPost2010PropOp40
 70
     0
102
RTVSPost2010Prop41ColorIndex
 90
       18
102
RTVSPost2010Prop41ColorRGB
 90
        0
102
RTVSPost2010PropOp41
 70
     0
102
RTVSPost2010Prop42
 90
       50
102
RTVSPost2010PropOp42
 70
     0
102
RTVSPost2010Prop43
 90
        3
102
RTVSPost2010PropOp43
 70
     0
102
RTVSPost2010Prop44ColorIndex
 90
        5
102
RTVSPost2010Prop44ColorRGB
 90
      255
102
RTVSPost2010PropOp44
 70
     0
102
RTVSPost2010Prop45
280
     0
102
RTVSPost2010PropOp45
 70
     0
102
RTVSPost2010Prop46
 90
       50
102
RTVSPost2010PropOp46
 70
     0
102
RTVSPost2010Prop47
 90
       50
102
RTVSPost2010PropOp47
 70
     0
102
RTVSPost2010Prop48
 90
       50
102
RTVSPost2010PropOp48
 70
     0
102
RTVSPost2010Prop49
280
     0
102
RTVSPost2010PropOp49
 70
     0
102
RTVSPost2010Prop50
 90
       50
102
RTVSPost2010PropOp50
 70
     0
102
RTVSPost2010Prop51ColorIndex
 90
      256
102
RTVSPost2010Prop51ColorRGB
 90
-16777216
102
RTVSPost2010PropOp51
 70
     0
102
RTVSPost2010Prop52
140
1.0
102
RTVSPost2010PropOp52
 70
     0
102
RTVSPost2010Prop53
 90
        2
102
RTVSPost2010PropOp53
 70
     0
102
RTVSPost2010Prop54
  1
strokes_ogs.tif
102
RTVSPost2010PropOp54
 70
     0
102
RTVSPost2010Prop55
280
     0
102
RTVSPost2010PropOp55
 70
     0
102
RTVSPost2010Prop56
140
1.0
102
RTVSPost2010PropOp56
 70
     0
102
RTVSPost2010Prop57
140
1.0
102
RTVSPost2010PropOp57
 70
     0
  0
XRECORD
  5
10F
102
{ACAD_REACTORS
330
10E
102
}
330
10E
100
AcDbXrecord
280
     1
102
RTVSPropertyOp0
 70
     1
102
RTVSPropertyOp1
 70
     1
102
RTVSPropertyOp2
 70
     1
102
RTVSPropertyOp3
 70
     1
102
RTVSPropertyOp4
 70
     1
102
RTVSPropertyOp5
 70
     1
102
RTVSPropertyOp6
 70
     1
102
RTVSPropertyOp7
 70
     1
102
RTVSPropertyOp8
 70
     1
102
RTVSPropertyOp9
 70
     1
102
RTVSPropertyOp10
 70
     1
102
RTVSPropertyOp11
 70
     1
102
RTVSPropertyOp12
 70
     1
102
RTVSPropertyOp13
 70
     1
102
RTVSPropertyOp14
 70
     1
102
RTVSPropertyOp15
 70
     1
102
RTVSPropertyOp16
 70
     1
102
RTVSPropertyOp17
 70
     1
102
RTVSPropertyOp18
 70
     1
102
RTVSPropertyOp19
 70
     1
102
RTVSPropertyOp20
 70
     1
102
RTVSPropertyOp21
 70
     1
102
RTVSPropertyOp22
 70
     1
102
RTVSPropertyOp23
 70
     1
102
RTVSPropertyOp24
 70
     1
102
RTVSPropertyOp25
 70
     1
102
RTVSPropertyOp26
 70
     1
102
RTVSPropertyOp27
 70
     1
102
RTVSPropertyOp28
 70
     1
102
RTVSPropertyOp29
 70
     1
102
RTVSPropertyOp30
 70
     1
102
RTVSPropertyOp31
 70
     1
102
RTVSPropertyOp32
 70
     1
102
RTVSPropertyOp33
 70
     1
102
RTVSPropertyOp34
 70
     1
102
RTVSPropertyOp35
 70
     1
102
RTVSPropertyOp36
 70
     1
102
RTVSPropertyOp37
 70
     1
102
RTVSPropertyOp38
 70
     1
102
RTVSPropertyOp39
 70
     1
102
RTVSPropertyOp40
 70
     1
102
RTVSPropertyOp41
 70
     1
102
RTVSPropertyOp42
 70
     1
102
RTVSPropertyOp43
 70
     1
102
RTVSPropertyOp44
 70
     1
102
RTVSPropertyOp45
 70
     1
102
RTVSPropertyOp46
 70
     1
102
RTVSPropertyOp47
 70
     1
102
RTVSPropertyOp48
 70
     1
102
RTVSPropertyOp49
 70
     1
102
RTVSPropertyOp50
 70
     1
102
RTVSPropertyOp51
 70
     0
102
RTVSPropertyOp52
 70
     0
102
RTVSPropertyOp53
 70
     1
102
RTVSPropertyOp54
 70
     1
102
RTVSPropertyOp55
 70
     1
102
RTVSPropertyOp56
 70
     1
102
RTVSPropertyOp57
 70
     1
102
RTVSPost2010Prop28
280
     0
102
RTVSPost2010PropOp28
 70
     1
102
RTVSPost2010Prop29
280
     1
102
RTVSPost2010PropOp29
 70
     1
102
RTVSPost2010Prop30
280
     1
102
RTVSPost2010PropOp30
 70
     1
102
RTVSPost2010Prop31
280
     0
102
RTVSPost2010PropOp31
 70
     1
102
RTVSPost2010Prop32
280
     0
102
RTVSPost2010PropOp32
 70
     1
102
RTVSPost2010Prop33
280
     0
102
RTVSPost2010PropOp33
 70
     1
102
RTVSPost2010Prop34
280
     0
102
RTVSPost2010PropOp34
 70
     1
102
RTVSPost2010Prop35
280
     0
102
RTVSPost2010PropOp35
 70
     1
102
RTVSPost2010Prop36
280
     0
102
RTVSPost2010PropOp36
 70
     1
102
RTVSPost2010Prop37
 90
       50
102
RTVSPost2010PropOp37
 70
     1
102
RTVSPost2010Prop38
140
0.0
102
RTVSPost2010PropOp38
 70
     1
102
RTVSPost2010Prop39
140
1.0
102
RTVSPost2010PropOp39
 70
     1
102
RTVSPost2010Prop40
 90
        0
102
RTVSPost2010PropOp40
 70
     1
102
RTVSPost2010Prop41ColorIndex
 90
       18
102
RTVSPost2010Prop41ColorRGB
 90
        0
102
RTVSPost2010PropOp41
 70
     1
102
RTVSPost2010Prop42
 90
       50
102
RTVSPost2010PropOp42
 70
     1
102
RTVSPost2010Prop43
 90
        3
102
RTVSPost2010PropOp43
 70
     1
102
RTVSPost2010Prop44ColorIndex
 90
        5
102
RTVSPost2010Prop44ColorRGB
 90
      255
102
RTVSPost2010PropOp44
 70
     1
102
RTVSPost2010Prop45
280
     0
102
RTVSPost2010PropOp45
 70
     1
102
RTVSPost2010Prop46
 90
       50
102
RTVSPost2010PropOp46
 70
     1
102
RTVSPost2010Prop47
 90
       50
102
RTVSPost2010PropOp47
 70
     1
102
RTVSPost2010Prop48
 90
       50
102
RTVSPost2010PropOp48
 70
     1
102
RTVSPost2010Prop49
280
     0
102
RTVSPost2010PropOp49
 70
     1
102
RTVSPost2010Prop50
 90
       50
102
RTVSPost2010PropOp50
 70
     1
102
RTVSPost2010Prop51ColorIndex
 90
      256
102
RTVSPost2010Prop51ColorRGB
 90
-16777216
102
RTVSPost2010PropOp51
 70
     0
102
RTVSPost2010Prop52
140
1.0
102
RTVSPost2010PropOp52
 70
     0
102
RTVSPost2010Prop53
 90
        2
102
RTVSPost2010PropOp53
 70
     1
102
RTVSPost2010Prop54
  1
strokes_ogs.tif
102
RTVSPost2010PropOp54
 70
     1
102
RTVSPost2010Prop55
280
     0
102
RTVSPost2010PropOp55
 70
     1
102
RTVSPost2010Prop56
140
1.0
102
RTVSPost2010PropOp56
 70
     1
102
RTVSPost2010Prop57
140
1.0
102
RTVSPost2010PropOp57
 70
     1
  0
XRECORD
  5
12D
102
{ACAD_REACTORS
330
12C
102
}
330
12C
100
AcDbXrecord
280
     1
102
RTVSPropertyOp0
 70
     1
102
RTVSPropertyOp1
 70
     1
102
RTVSPropertyOp2
 70
     1
102
RTVSPropertyOp3
 70
     1
102
RTVSPropertyOp4
 70
     1
102
RTVSPropertyOp5
 70
     1
102
RTVSPropertyOp6
 70
     1
102
RTVSPropertyOp7
 70
     1
102
RTVSPropertyOp8
 70
     1
102
RTVSPropertyOp9
 70
     1
102
RTVSPropertyOp10
 70
     1
102
RTVSPropertyOp11
 70
     1
102
RTVSPropertyOp12
 70
     1
102
RTVSPropertyOp13
 70
     1
102
RTVSPropertyOp14
 70
     1
102
RTVSPropertyOp15
 70
     1
102
RTVSPropertyOp16
 70
     1
102
RTVSPropertyOp17
 70
     1
102
RTVSPropertyOp18
 70
     1
102
RTVSPropertyOp19
 70
     1
102
RTVSPropertyOp20
 70
     1
102
RTVSPropertyOp21
 70
     1
102
RTVSPropertyOp22
 70
     1
102
RTVSPropertyOp23
 70
     1
102
RTVSPropertyOp24
 70
     1
102
RTVSPropertyOp25
 70
     1
102
RTVSPropertyOp26
 70
     1
102
RTVSPropertyOp27
 70
     1
102
RTVSPropertyOp28
 70
     1
102
RTVSPropertyOp29
 70
     1
102
RTVSPropertyOp30
 70
     1
102
RTVSPropertyOp31
 70
     1
102
RTVSPropertyOp32
 70
     1
102
RTVSPropertyOp33
 70
     1
102
RTVSPropertyOp34
 70
     1
102
RTVSPropertyOp35
 70
     1
102
RTVSPropertyOp36
 70
     1
102
RTVSPropertyOp37
 70
     1
102
RTVSPropertyOp38
 70
     1
102
RTVSPropertyOp39
 70
     1
102
RTVSPropertyOp40
 70
     1
102
RTVSPropertyOp41
 70
     1
102
RTVSPropertyOp42
 70
     1
102
RTVSPropertyOp43
 70
     1
102
RTVSPropertyOp44
 70
     1
102
RTVSPropertyOp45
 70
     1
102
RTVSPropertyOp46
 70
     1
102
RTVSPropertyOp47
 70
     1
102
RTVSPropertyOp48
 70
     1
102
RTVSPropertyOp49
 70
     1
102
RTVSPropertyOp50
 70
     1
102
RTVSPropertyOp51
 70
     0
102
RTVSPropertyOp52
 70
     0
102
RTVSPropertyOp53
 70
     1
102
RTVSPropertyOp54
 70
     1
102
RTVSPropertyOp55
 70
     1
102
RTVSPropertyOp56
 70
     1
102
RTVSPropertyOp57
 70
     1
102
RTVSPost2010Prop28
280
     0
102
RTVSPost2010PropOp28
 70
     1
102
RTVSPost2010Prop29
280
     1
102
RTVSPost2010PropOp29
 70
     1
102
RTVSPost2010Prop30
280
     1
102
RTVSPost2010PropOp30
 70
     1
102
RTVSPost2010Prop31
280
     0
102
RTVSPost2010PropOp31
 70
     1
102
RTVSPost2010Prop32
280
     0
102
RTVSPost2010PropOp32
 70
     1
102
RTVSPost2010Prop33
280
     0
102
RTVSPost2010PropOp33
 70
     1
102
RTVSPost2010Prop34
280
     0
102
RTVSPost2010PropOp34
 70
     1
102
RTVSPost2010Prop35
280
     0
102
RTVSPost2010PropOp35
 70
     1
102
RTVSPost2010Prop36
280
     0
102
RTVSPost2010PropOp36
 70
     1
102
RTVSPost2010Prop37
 90
       50
102
RTVSPost2010PropOp37
 70
     1
102
RTVSPost2010Prop38
140
0.0
102
RTVSPost2010PropOp38
 70
     1
102
RTVSPost2010Prop39
140
1.0
102
RTVSPost2010PropOp39
 70
     1
102
RTVSPost2010Prop40
 90
        0
102
RTVSPost2010PropOp40
 70
     1
102
RTVSPost2010Prop41ColorIndex
 90
       18
102
RTVSPost2010Prop41ColorRGB
 90
        0
102
RTVSPost2010PropOp41
 70
     1
102
RTVSPost2010Prop42
 90
       50
102
RTVSPost2010PropOp42
 70
     1
102
RTVSPost2010Prop43
 90
        3
102
RTVSPost2010PropOp43
 70
     1
102
RTVSPost2010Prop44ColorIndex
 90
        5
102
RTVSPost2010Prop44ColorRGB
 90
      255
102
RTVSPost2010PropOp44
 70
     1
102
RTVSPost2010Prop45
280
     0
102
RTVSPost2010PropOp45
 70
     1
102
RTVSPost2010Prop46
 90
       50
102
RTVSPost2010PropOp46
 70
     1
102
RTVSPost2010Prop47
 90
       50
102
RTVSPost2010PropOp47
 70
     1
102
RTVSPost2010Prop48
 90
       50
102
RTVSPost2010PropOp48
 70
     1
102
RTVSPost2010Prop49
280
     0
102
RTVSPost2010PropOp49
 70
     1
102
RTVSPost2010Prop50
 90
       50
102
RTVSPost2010PropOp50
 70
     1
102
RTVSPost2010Prop51ColorIndex
 90
      256
102
RTVSPost2010Prop51ColorRGB
 90
-16777216
102
RTVSPost2010PropOp51
 70
     0
102
RTVSPost2010Prop52
140
1.0
102
RTVSPost2010PropOp52
 70
     0
102
RTVSPost2010Prop53
 90
        2
102
RTVSPost2010PropOp53
 70
     1
102
RTVSPost2010Prop54
  1
strokes_ogs.tif
102
RTVSPost2010PropOp54
 70
     1
102
RTVSPost2010Prop55
280
     0
102
RTVSPost2010PropOp55
 70
     1
102
RTVSPost2010Prop56
140
1.0
102
RTVSPost2010PropOp56
 70
     1
102
RTVSPost2010Prop57
140
1.0
102
RTVSPost2010PropOp57
 70
     1
  0
XRECORD
  5
12B
102
{ACAD_REACTORS
330
12A
102
}
330
12A
100
AcDbXrecord
280
     1
102
RTVSPropertyOp0
 70
     1
102
RTVSPropertyOp1
 70
     1
102
RTVSPropertyOp2
 70
     1
102
RTVSPropertyOp3
 70
     1
102
RTVSPropertyOp4
 70
     1
102
RTVSPropertyOp5
 70
     1
102
RTVSPropertyOp6
 70
     1
102
RTVSPropertyOp7
 70
     1
102
RTVSPropertyOp8
 70
     1
102
RTVSPropertyOp9
 70
     1
102
RTVSPropertyOp10
 70
     1
102
RTVSPropertyOp11
 70
     1
102
RTVSPropertyOp12
 70
     1
102
RTVSPropertyOp13
 70
     1
102
RTVSPropertyOp14
 70
     1
102
RTVSPropertyOp15
 70
     1
102
RTVSPropertyOp16
 70
     1
102
RTVSPropertyOp17
 70
     1
102
RTVSPropertyOp18
 70
     1
102
RTVSPropertyOp19
 70
     1
102
RTVSPropertyOp20
 70
     1
102
RTVSPropertyOp21
 70
     1
102
RTVSPropertyOp22
 70
     1
102
RTVSPropertyOp23
 70
     1
102
RTVSPropertyOp24
 70
     1
102
RTVSPropertyOp25
 70
     1
102
RTVSPropertyOp26
 70
     1
102
RTVSPropertyOp27
 70
     1
102
RTVSPropertyOp28
 70
     1
102
RTVSPropertyOp29
 70
     1
102
RTVSPropertyOp30
 70
     1
102
RTVSPropertyOp31
 70
     1
102
RTVSPropertyOp32
 70
     1
102
RTVSPropertyOp33
 70
     1
102
RTVSPropertyOp34
 70
     1
102
RTVSPropertyOp35
 70
     1
102
RTVSPropertyOp36
 70
     1
102
RTVSPropertyOp37
 70
     1
102
RTVSPropertyOp38
 70
     1
102
RTVSPropertyOp39
 70
     1
102
RTVSPropertyOp40
 70
     1
102
RTVSPropertyOp41
 70
     1
102
RTVSPropertyOp42
 70
     1
102
RTVSPropertyOp43
 70
     1
102
RTVSPropertyOp44
 70
     1
102
RTVSPropertyOp45
 70
     1
102
RTVSPropertyOp46
 70
     1
102
RTVSPropertyOp47
 70
     1
102
RTVSPropertyOp48
 70
     1
102
RTVSPropertyOp49
 70
     1
102
RTVSPropertyOp50
 70
     1
102
RTVSPropertyOp51
 70
     0
102
RTVSPropertyOp52
 70
     0
102
RTVSPropertyOp53
 70
     1
102
RTVSPropertyOp54
 70
     1
102
RTVSPropertyOp55
 70
     1
102
RTVSPropertyOp56
 70
     1
102
RTVSPropertyOp57
 70
     1
102
RTVSPost2010Prop28
280
     0
102
RTVSPost2010PropOp28
 70
     1
102
RTVSPost2010Prop29
280
     1
102
RTVSPost2010PropOp29
 70
     1
102
RTVSPost2010Prop30
280
     1
102
RTVSPost2010PropOp30
 70
     1
102
RTVSPost2010Prop31
280
     0
102
RTVSPost2010PropOp31
 70
     1
102
RTVSPost2010Prop32
280
     0
102
RTVSPost2010PropOp32
 70
     1
102
RTVSPost2010Prop33
280
     0
102
RTVSPost2010PropOp33
 70
     1
102
RTVSPost2010Prop34
280
     0
102
RTVSPost2010PropOp34
 70
     1
102
RTVSPost2010Prop35
280
     0
102
RTVSPost2010PropOp35
 70
     1
102
RTVSPost2010Prop36
280
     0
102
RTVSPost2010PropOp36
 70
     1
102
RTVSPost2010Prop37
 90
       50
102
RTVSPost2010PropOp37
 70
     1
102
RTVSPost2010Prop38
140
0.0
102
RTVSPost2010PropOp38
 70
     1
102
RTVSPost2010Prop39
140
1.0
102
RTVSPost2010PropOp39
 70
     1
102
RTVSPost2010Prop40
 90
        0
102
RTVSPost2010PropOp40
 70
     1
102
RTVSPost2010Prop41ColorIndex
 90
       18
102
RTVSPost2010Prop41ColorRGB
 90
        0
102
RTVSPost2010PropOp41
 70
     1
102
RTVSPost2010Prop42
 90
       50
102
RTVSPost2010PropOp42
 70
     1
102
RTVSPost2010Prop43
 90
        3
102
RTVSPost2010PropOp43
 70
     1
102
RTVSPost2010Prop44ColorIndex
 90
        5
102
RTVSPost2010Prop44ColorRGB
 90
      255
102
RTVSPost2010PropOp44
 70
     1
102
RTVSPost2010Prop45
280
     0
102
RTVSPost2010PropOp45
 70
     1
102
RTVSPost2010Prop46
 90
       50
102
RTVSPost2010PropOp46
 70
     1
102
RTVSPost2010Prop47
 90
       50
102
RTVSPost2010PropOp47
 70
     1
102
RTVSPost2010Prop48
 90
       50
102
RTVSPost2010PropOp48
 70
     1
102
RTVSPost2010Prop49
280
     0
102
RTVSPost2010PropOp49
 70
     1
102
RTVSPost2010Prop50
 90
       50
102
RTVSPost2010PropOp50
 70
     1
102
RTVSPost2010Prop51ColorIndex
 90
      256
102
RTVSPost2010Prop51ColorRGB
 90
-16777216
102
RTVSPost2010PropOp51
 70
     0
102
RTVSPost2010Prop52
140
1.0
102
RTVSPost2010PropOp52
 70
     0
102
RTVSPost2010Prop53
 90
        2
102
RTVSPost2010PropOp53
 70
     1
102
RTVSPost2010Prop54
  1
strokes_ogs.tif
102
RTVSPost2010PropOp54
 70
     1
102
RTVSPost2010Prop55
280
     0
102
RTVSPost2010PropOp55
 70
     1
102
RTVSPost2010Prop56
140
1.0
102
RTVSPost2010PropOp56
 70
     1
102
RTVSPost2010Prop57
140
1.0
102
RTVSPost2010PropOp57
 70
     1
  0
XRECORD
  5
125
102
{ACAD_REACTORS
330
124
102
}
330
124
100
AcDbXrecord
280
     1
102
RTVSPropertyOp0
 70
     1
102
RTVSPropertyOp1
 70
     1
102
RTVSPropertyOp2
 70
     1
102
RTVSPropertyOp3
 70
     1
102
RTVSPropertyOp4
 70
     1
102
RTVSPropertyOp5
 70
     1
102
RTVSPropertyOp6
 70
     1
102
RTVSPropertyOp7
 70
     1
102
RTVSPropertyOp8
 70
     1
102
RTVSPropertyOp9
 70
     1
102
RTVSPropertyOp10
 70
     1
102
RTVSPropertyOp11
 70
     1
102
RTVSPropertyOp12
 70
     1
102
RTVSPropertyOp13
 70
     1
102
RTVSPropertyOp14
 70
     1
102
RTVSPropertyOp15
 70
     1
102
RTVSPropertyOp16
 70
     1
102
RTVSPropertyOp17
 70
     1
102
RTVSPropertyOp18
 70
     1
102
RTVSPropertyOp19
 70
     1
102
RTVSPropertyOp20
 70
     1
102
RTVSPropertyOp21
 70
     1
102
RTVSPropertyOp22
 70
     1
102
RTVSPropertyOp23
 70
     1
102
RTVSPropertyOp24
 70
     1
102
RTVSPropertyOp25
 70
     1
102
RTVSPropertyOp26
 70
     1
102
RTVSPropertyOp27
 70
     1
102
RTVSPropertyOp28
 70
     1
102
RTVSPropertyOp29
 70
     1
102
RTVSPropertyOp30
 70
     1
102
RTVSPropertyOp31
 70
     1
102
RTVSPropertyOp32
 70
     1
102
RTVSPropertyOp33
 70
     1
102
RTVSPropertyOp34
 70
     1
102
RTVSPropertyOp35
 70
     1
102
RTVSPropertyOp36
 70
     1
102
RTVSPropertyOp37
 70
     1
102
RTVSPropertyOp38
 70
     1
102
RTVSPropertyOp39
 70
     1
102
RTVSPropertyOp40
 70
     1
102
RTVSPropertyOp41
 70
     1
102
RTVSPropertyOp42
 70
     1
102
RTVSPropertyOp43
 70
     1
102
RTVSPropertyOp44
 70
     1
102
RTVSPropertyOp45
 70
     1
102
RTVSPropertyOp46
 70
     1
102
RTVSPropertyOp47
 70
     1
102
RTVSPropertyOp48
 70
     1
102
RTVSPropertyOp49
 70
     1
102
RTVSPropertyOp50
 70
     1
102
RTVSPropertyOp51
 70
     0
102
RTVSPropertyOp52
 70
     0
102
RTVSPropertyOp53
 70
     1
102
RTVSPropertyOp54
 70
     1
102
RTVSPropertyOp55
 70
     1
102
RTVSPropertyOp56
 70
     1
102
RTVSPropertyOp57
 70
     1
102
RTVSPost2010Prop28
280
     0
102
RTVSPost2010PropOp28
 70
     1
102
RTVSPost2010Prop29
280
     1
102
RTVSPost2010PropOp29
 70
     1
102
RTVSPost2010Prop30
280
     1
102
RTVSPost2010PropOp30
 70
     1
102
RTVSPost2010Prop31
280
     0
102
RTVSPost2010PropOp31
 70
     1
102
RTVSPost2010Prop32
280
     0
102
RTVSPost2010PropOp32
 70
     1
102
RTVSPost2010Prop33
280
     0
102
RTVSPost2010PropOp33
 70
     1
102
RTVSPost2010Prop34
280
     0
102
RTVSPost2010PropOp34
 70
     1
102
RTVSPost2010Prop35
280
     0
102
RTVSPost2010PropOp35
 70
     1
102
RTVSPost2010Prop36
280
     0
102
RTVSPost2010PropOp36
 70
     1
102
RTVSPost2010Prop37
 90
       50
102
RTVSPost2010PropOp37
 70
     1
102
RTVSPost2010Prop38
140
0.0
102
RTVSPost2010PropOp38
 70
     1
102
RTVSPost2010Prop39
140
1.0
102
RTVSPost2010PropOp39
 70
     1
102
RTVSPost2010Prop40
 90
        0
102
RTVSPost2010PropOp40
 70
     1
102
RTVSPost2010Prop41ColorIndex
 90
       18
102
RTVSPost2010Prop41ColorRGB
 90
        0
102
RTVSPost2010PropOp41
 70
     1
102
RTVSPost2010Prop42
 90
       50
102
RTVSPost2010PropOp42
 70
     1
102
RTVSPost2010Prop43
 90
        3
102
RTVSPost2010PropOp43
 70
     1
102
RTVSPost2010Prop44ColorIndex
 90
        5
102
RTVSPost2010Prop44ColorRGB
 90
      255
102
RTVSPost2010PropOp44
 70
     1
102
RTVSPost2010Prop45
280
     0
102
RTVSPost2010PropOp45
 70
     1
102
RTVSPost2010Prop46
 90
       50
102
RTVSPost2010PropOp46
 70
     1
102
RTVSPost2010Prop47
 90
       50
102
RTVSPost2010PropOp47
 70
     1
102
RTVSPost2010Prop48
 90
       50
102
RTVSPost2010PropOp48
 70
     1
102
RTVSPost2010Prop49
280
     0
102
RTVSPost2010PropOp49
 70
     1
102
RTVSPost2010Prop50
 90
       50
102
RTVSPost2010PropOp50
 70
     1
102
RTVSPost2010Prop51ColorIndex
 90
      256
102
RTVSPost2010Prop51ColorRGB
 90
-16777216
102
RTVSPost2010PropOp51
 70
     0
102
RTVSPost2010Prop52
140
1.0
102
RTVSPost2010PropOp52
 70
     0
102
RTVSPost2010Prop53
 90
        2
102
RTVSPost2010PropOp53
 70
     1
102
RTVSPost2010Prop54
  1
strokes_ogs.tif
102
RTVSPost2010PropOp54
 70
     1
102
RTVSPost2010Prop55
280
     0
102
RTVSPost2010PropOp55
 70
     1
102
RTVSPost2010Prop56
140
1.0
102
RTVSPost2010PropOp56
 70
     1
102
RTVSPost2010Prop57
140
1.0
102
RTVSPost2010PropOp57
 70
     1
  0
XRECORD
  5
127
102
{ACAD_REACTORS
330
126
102
}
330
126
100
AcDbXrecord
280
     1
102
RTVSPropertyOp0
 70
     1
102
RTVSPropertyOp1
 70
     1
102
RTVSPropertyOp2
 70
     1
102
RTVSPropertyOp3
 70
     1
102
RTVSPropertyOp4
 70
     1
102
RTVSPropertyOp5
 70
     1
102
RTVSPropertyOp6
 70
     1
102
RTVSPropertyOp7
 70
     1
102
RTVSPropertyOp8
 70
     1
102
RTVSPropertyOp9
 70
     1
102
RTVSPropertyOp10
 70
     1
102
RTVSPropertyOp11
 70
     1
102
RTVSPropertyOp12
 70
     1
102
RTVSPropertyOp13
 70
     1
102
RTVSPropertyOp14
 70
     1
102
RTVSPropertyOp15
 70
     1
102
RTVSPropertyOp16
 70
     1
102
RTVSPropertyOp17
 70
     1
102
RTVSPropertyOp18
 70
     1
102
RTVSPropertyOp19
 70
     1
102
RTVSPropertyOp20
 70
     1
102
RTVSPropertyOp21
 70
     1
102
RTVSPropertyOp22
 70
     1
102
RTVSPropertyOp23
 70
     1
102
RTVSPropertyOp24
 70
     1
102
RTVSPropertyOp25
 70
     1
102
RTVSPropertyOp26
 70
     1
102
RTVSPropertyOp27
 70
     1
102
RTVSPropertyOp28
 70
     1
102
RTVSPropertyOp29
 70
     1
102
RTVSPropertyOp30
 70
     1
102
RTVSPropertyOp31
 70
     1
102
RTVSPropertyOp32
 70
     1
102
RTVSPropertyOp33
 70
     1
102
RTVSPropertyOp34
 70
     1
102
RTVSPropertyOp35
 70
     1
102
RTVSPropertyOp36
 70
     1
102
RTVSPropertyOp37
 70
     1
102
RTVSPropertyOp38
 70
     1
102
RTVSPropertyOp39
 70
     1
102
RTVSPropertyOp40
 70
     1
102
RTVSPropertyOp41
 70
     1
102
RTVSPropertyOp42
 70
     1
102
RTVSPropertyOp43
 70
     1
102
RTVSPropertyOp44
 70
     1
102
RTVSPropertyOp45
 70
     1
102
RTVSPropertyOp46
 70
     1
102
RTVSPropertyOp47
 70
     1
102
RTVSPropertyOp48
 70
     1
102
RTVSPropertyOp49
 70
     1
102
RTVSPropertyOp50
 70
     1
102
RTVSPropertyOp51
 70
     0
102
RTVSPropertyOp52
 70
     0
102
RTVSPropertyOp53
 70
     1
102
RTVSPropertyOp54
 70
     1
102
RTVSPropertyOp55
 70
     1
102
RTVSPropertyOp56
 70
     1
102
RTVSPropertyOp57
 70
     1
102
RTVSPost2010Prop28
280
     0
102
RTVSPost2010PropOp28
 70
     1
102
RTVSPost2010Prop29
280
     1
102
RTVSPost2010PropOp29
 70
     1
102
RTVSPost2010Prop30
280
     1
102
RTVSPost2010PropOp30
 70
     1
102
RTVSPost2010Prop31
280
     0
102
RTVSPost2010PropOp31
 70
     1
102
RTVSPost2010Prop32
280
     0
102
RTVSPost2010PropOp32
 70
     1
102
RTVSPost2010Prop33
280
     0
102
RTVSPost2010PropOp33
 70
     1
102
RTVSPost2010Prop34
280
     0
102
RTVSPost2010PropOp34
 70
     1
102
RTVSPost2010Prop35
280
     0
102
RTVSPost2010PropOp35
 70
     1
102
RTVSPost2010Prop36
280
     0
102
RTVSPost2010PropOp36
 70
     1
102
RTVSPost2010Prop37
 90
       50
102
RTVSPost2010PropOp37
 70
     1
102
RTVSPost2010Prop38
140
0.0
102
RTVSPost2010PropOp38
 70
     1
102
RTVSPost2010Prop39
140
1.0
102
RTVSPost2010PropOp39
 70
     1
102
RTVSPost2010Prop40
 90
        0
102
RTVSPost2010PropOp40
 70
     1
102
RTVSPost2010Prop41ColorIndex
 90
       18
102
RTVSPost2010Prop41ColorRGB
 90
        0
102
RTVSPost2010PropOp41
 70
     1
102
RTVSPost2010Prop42
 90
       50
102
RTVSPost2010PropOp42
 70
     1
102
RTVSPost2010Prop43
 90
        3
102
RTVSPost2010PropOp43
 70
     1
102
RTVSPost2010Prop44ColorIndex
 90
        5
102
RTVSPost2010Prop44ColorRGB
 90
      255
102
RTVSPost2010PropOp44
 70
     1
102
RTVSPost2010Prop45
280
     0
102
RTVSPost2010PropOp45
 70
     1
102
RTVSPost2010Prop46
 90
       50
102
RTVSPost2010PropOp46
 70
     1
102
RTVSPost2010Prop47
 90
       50
102
RTVSPost2010PropOp47
 70
     1
102
RTVSPost2010Prop48
 90
       50
102
RTVSPost2010PropOp48
 70
     1
102
RTVSPost2010Prop49
280
     0
102
RTVSPost2010PropOp49
 70
     1
102
RTVSPost2010Prop50
 90
       50
102
RTVSPost2010PropOp50
 70
     1
102
RTVSPost2010Prop51ColorIndex
 90
      256
102
RTVSPost2010Prop51ColorRGB
 90
-16777216
102
RTVSPost2010PropOp51
 70
     0
102
RTVSPost2010Prop52
140
1.0
102
RTVSPost2010PropOp52
 70
     0
102
RTVSPost2010Prop53
 90
        2
102
RTVSPost2010PropOp53
 70
     1
102
RTVSPost2010Prop54
  1
strokes_ogs.tif
102
RTVSPost2010PropOp54
 70
     1
102
RTVSPost2010Prop55
280
     0
102
RTVSPost2010PropOp55
 70
     1
102
RTVSPost2010Prop56
140
1.0
102
RTVSPost2010PropOp56
 70
     1
102
RTVSPost2010Prop57
140
1.0
102
RTVSPost2010PropOp57
 70
     1
  0
XRECORD
  5
117
102
{ACAD_REACTORS
330
116
102
}
330
116
100
AcDbXrecord
280
     1
102
RTVSPropertyOp0
 70
     1
102
RTVSPropertyOp1
 70
     1
102
RTVSPropertyOp2
 70
     1
102
RTVSPropertyOp3
 70
     1
102
RTVSPropertyOp4
 70
     1
102
RTVSPropertyOp5
 70
     1
102
RTVSPropertyOp6
 70
     1
102
RTVSPropertyOp7
 70
     1
102
RTVSPropertyOp8
 70
     1
102
RTVSPropertyOp9
 70
     1
102
RTVSPropertyOp10
 70
     1
102
RTVSPropertyOp11
 70
     1
102
RTVSPropertyOp12
 70
     1
102
RTVSPropertyOp13
 70
     1
102
RTVSPropertyOp14
 70
     1
102
RTVSPropertyOp15
 70
     1
102
RTVSPropertyOp16
 70
     1
102
RTVSPropertyOp17
 70
     1
102
RTVSPropertyOp18
 70
     1
102
RTVSPropertyOp19
 70
     1
102
RTVSPropertyOp20
 70
     1
102
RTVSPropertyOp21
 70
     1
102
RTVSPropertyOp22
 70
     1
102
RTVSPropertyOp23
 70
     1
102
RTVSPropertyOp24
 70
     1
102
RTVSPropertyOp25
 70
     1
102
RTVSPropertyOp26
 70
     1
102
RTVSPropertyOp27
 70
     1
102
RTVSPropertyOp28
 70
     1
102
RTVSPropertyOp29
 70
     1
102
RTVSPropertyOp30
 70
     1
102
RTVSPropertyOp31
 70
     1
102
RTVSPropertyOp32
 70
     1
102
RTVSPropertyOp33
 70
     1
102
RTVSPropertyOp34
 70
     1
102
RTVSPropertyOp35
 70
     1
102
RTVSPropertyOp36
 70
     1
102
RTVSPropertyOp37
 70
     1
102
RTVSPropertyOp38
 70
     1
102
RTVSPropertyOp39
 70
     1
102
RTVSPropertyOp40
 70
     1
102
RTVSPropertyOp41
 70
     1
102
RTVSPropertyOp42
 70
     1
102
RTVSPropertyOp43
 70
     1
102
RTVSPropertyOp44
 70
     1
102
RTVSPropertyOp45
 70
     1
102
RTVSPropertyOp46
 70
     1
102
RTVSPropertyOp47
 70
     1
102
RTVSPropertyOp48
 70
     1
102
RTVSPropertyOp49
 70
     1
102
RTVSPropertyOp50
 70
     1
102
RTVSPropertyOp51
 70
     0
102
RTVSPropertyOp52
 70
     0
102
RTVSPropertyOp53
 70
     1
102
RTVSPropertyOp54
 70
     1
102
RTVSPropertyOp55
 70
     1
102
RTVSPropertyOp56
 70
     1
102
RTVSPropertyOp57
 70
     1
102
RTVSPost2010Prop28
280
     0
102
RTVSPost2010PropOp28
 70
     1
102
RTVSPost2010Prop29
280
     1
102
RTVSPost2010PropOp29
 70
     1
102
RTVSPost2010Prop30
280
     1
102
RTVSPost2010PropOp30
 70
     1
102
RTVSPost2010Prop31
280
     0
102
RTVSPost2010PropOp31
 70
     1
102
RTVSPost2010Prop32
280
     0
102
RTVSPost2010PropOp32
 70
     1
102
RTVSPost2010Prop33
280
     0
102
RTVSPost2010PropOp33
 70
     1
102
RTVSPost2010Prop34
280
     0
102
RTVSPost2010PropOp34
 70
     1
102
RTVSPost2010Prop35
280
     0
102
RTVSPost2010PropOp35
 70
     1
102
RTVSPost2010Prop36
280
     0
102
RTVSPost2010PropOp36
 70
     1
102
RTVSPost2010Prop37
 90
       50
102
RTVSPost2010PropOp37
 70
     1
102
RTVSPost2010Prop38
140
0.0
102
RTVSPost2010PropOp38
 70
     1
102
RTVSPost2010Prop39
140
1.0
102
RTVSPost2010PropOp39
 70
     1
102
RTVSPost2010Prop40
 90
        0
102
RTVSPost2010PropOp40
 70
     1
102
RTVSPost2010Prop41ColorIndex
 90
       18
102
RTVSPost2010Prop41ColorRGB
 90
        0
102
RTVSPost2010PropOp41
 70
     1
102
RTVSPost2010Prop42
 90
       50
102
RTVSPost2010PropOp42
 70
     1
102
RTVSPost2010Prop43
 90
        3
102
RTVSPost2010PropOp43
 70
     1
102
RTVSPost2010Prop44ColorIndex
 90
        5
102
RTVSPost2010Prop44ColorRGB
 90
      255
102
RTVSPost2010PropOp44
 70
     1
102
RTVSPost2010Prop45
280
     0
102
RTVSPost2010PropOp45
 70
     1
102
RTVSPost2010Prop46
 90
       50
102
RTVSPost2010PropOp46
 70
     1
102
RTVSPost2010Prop47
 90
       50
102
RTVSPost2010PropOp47
 70
     1
102
RTVSPost2010Prop48
 90
       50
102
RTVSPost2010PropOp48
 70
     1
102
RTVSPost2010Prop49
280
     0
102
RTVSPost2010PropOp49
 70
     1
102
RTVSPost2010Prop50
 90
       50
102
RTVSPost2010PropOp50
 70
     1
102
RTVSPost2010Prop51ColorIndex
 90
      256
102
RTVSPost2010Prop51ColorRGB
 90
-16777216
102
RTVSPost2010PropOp51
 70
     0
102
RTVSPost2010Prop52
140
1.0
102
RTVSPost2010PropOp52
 70
     0
102
RTVSPost2010Prop53
 90
        2
102
RTVSPost2010PropOp53
 70
     1
102
RTVSPost2010Prop54
  1
strokes_ogs.tif
102
RTVSPost2010PropOp54
 70
     1
102
RTVSPost2010Prop55
280
     0
102
RTVSPost2010PropOp55
 70
     1
102
RTVSPost2010Prop56
140
1.0
102
RTVSPost2010PropOp56
 70
     1
102
RTVSPost2010Prop57
140
1.0
102
RTVSPost2010PropOp57
 70
     1
  0
XRECORD
  5
109
102
{ACAD_REACTORS
330
108
102
}
330
108
100
AcDbXrecord
280
     1
102
RTVSPropertyOp0
 70
     1
102
RTVSPropertyOp1
 70
     1
102
RTVSPropertyOp2
 70
     1
102
RTVSPropertyOp3
 70
     1
102
RTVSPropertyOp4
 70
     1
102
RTVSPropertyOp5
 70
     1
102
RTVSPropertyOp6
 70
     1
102
RTVSPropertyOp7
 70
     1
102
RTVSPropertyOp8
 70
     1
102
RTVSPropertyOp9
 70
     1
102
RTVSPropertyOp10
 70
     1
102
RTVSPropertyOp11
 70
     1
102
RTVSPropertyOp12
 70
     1
102
RTVSPropertyOp13
 70
     1
102
RTVSPropertyOp14
 70
     1
102
RTVSPropertyOp15
 70
     1
102
RTVSPropertyOp16
 70
     1
102
RTVSPropertyOp17
 70
     1
102
RTVSPropertyOp18
 70
     1
102
RTVSPropertyOp19
 70
     1
102
RTVSPropertyOp20
 70
     1
102
RTVSPropertyOp21
 70
     1
102
RTVSPropertyOp22
 70
     1
102
RTVSPropertyOp23
 70
     1
102
RTVSPropertyOp24
 70
     1
102
RTVSPropertyOp25
 70
     1
102
RTVSPropertyOp26
 70
     1
102
RTVSPropertyOp27
 70
     1
102
RTVSPropertyOp28
 70
     1
102
RTVSPropertyOp29
 70
     1
102
RTVSPropertyOp30
 70
     1
102
RTVSPropertyOp31
 70
     1
102
RTVSPropertyOp32
 70
     1
102
RTVSPropertyOp33
 70
     1
102
RTVSPropertyOp34
 70
     1
102
RTVSPropertyOp35
 70
     1
102
RTVSPropertyOp36
 70
     1
102
RTVSPropertyOp37
 70
     1
102
RTVSPropertyOp38
 70
     1
102
RTVSPropertyOp39
 70
     1
102
RTVSPropertyOp40
 70
     1
102
RTVSPropertyOp41
 70
     1
102
RTVSPropertyOp42
 70
     1
102
RTVSPropertyOp43
 70
     1
102
RTVSPropertyOp44
 70
     1
102
RTVSPropertyOp45
 70
     1
102
RTVSPropertyOp46
 70
     1
102
RTVSPropertyOp47
 70
     1
102
RTVSPropertyOp48
 70
     1
102
RTVSPropertyOp49
 70
     1
102
RTVSPropertyOp50
 70
     1
102
RTVSPropertyOp51
 70
     0
102
RTVSPropertyOp52
 70
     0
102
RTVSPropertyOp53
 70
     1
102
RTVSPropertyOp54
 70
     1
102
RTVSPropertyOp55
 70
     1
102
RTVSPropertyOp56
 70
     1
102
RTVSPropertyOp57
 70
     1
102
RTVSPost2010Prop28
280
     0
102
RTVSPost2010PropOp28
 70
     1
102
RTVSPost2010Prop29
280
     1
102
RTVSPost2010PropOp29
 70
     1
102
RTVSPost2010Prop30
280
     1
102
RTVSPost2010PropOp30
 70
     1
102
RTVSPost2010Prop31
280
     0
102
RTVSPost2010PropOp31
 70
     1
102
RTVSPost2010Prop32
280
     0
102
RTVSPost2010PropOp32
 70
     1
102
RTVSPost2010Prop33
280
     0
102
RTVSPost2010PropOp33
 70
     1
102
RTVSPost2010Prop34
280
     0
102
RTVSPost2010PropOp34
 70
     1
102
RTVSPost2010Prop35
280
     0
102
RTVSPost2010PropOp35
 70
     1
102
RTVSPost2010Prop36
280
     0
102
RTVSPost2010PropOp36
 70
     1
102
RTVSPost2010Prop37
 90
       50
102
RTVSPost2010PropOp37
 70
     1
102
RTVSPost2010Prop38
140
0.0
102
RTVSPost2010PropOp38
 70
     1
102
RTVSPost2010Prop39
140
1.0
102
RTVSPost2010PropOp39
 70
     1
102
RTVSPost2010Prop40
 90
        0
102
RTVSPost2010PropOp40
 70
     1
102
RTVSPost2010Prop41ColorIndex
 90
       18
102
RTVSPost2010Prop41ColorRGB
 90
        0
102
RTVSPost2010PropOp41
 70
     1
102
RTVSPost2010Prop42
 90
       50
102
RTVSPost2010PropOp42
 70
     1
102
RTVSPost2010Prop43
 90
        3
102
RTVSPost2010PropOp43
 70
     1
102
RTVSPost2010Prop44ColorIndex
 90
        5
102
RTVSPost2010Prop44ColorRGB
 90
      255
102
RTVSPost2010PropOp44
 70
     1
102
RTVSPost2010Prop45
280
     0
102
RTVSPost2010PropOp45
 70
     1
102
RTVSPost2010Prop46
 90
       50
102
RTVSPost2010PropOp46
 70
     1
102
RTVSPost2010Prop47
 90
       50
102
RTVSPost2010PropOp47
 70
     1
102
RTVSPost2010Prop48
 90
       50
102
RTVSPost2010PropOp48
 70
     1
102
RTVSPost2010Prop49
280
     0
102
RTVSPost2010PropOp49
 70
     1
102
RTVSPost2010Prop50
 90
       50
102
RTVSPost2010PropOp50
 70
     1
102
RTVSPost2010Prop51ColorIndex
 90
      256
102
RTVSPost2010Prop51ColorRGB
 90
-16777216
102
RTVSPost2010PropOp51
 70
     0
102
RTVSPost2010Prop52
140
1.0
102
RTVSPost2010PropOp52
 70
     0
102
RTVSPost2010Prop53
 90
        2
102
RTVSPost2010PropOp53
 70
     1
102
RTVSPost2010Prop54
  1
strokes_ogs.tif
102
RTVSPost2010PropOp54
 70
     1
102
RTVSPost2010Prop55
280
     0
102
RTVSPost2010PropOp55
 70
     1
102
RTVSPost2010Prop56
140
1.0
102
RTVSPost2010PropOp56
 70
     1
102
RTVSPost2010Prop57
140
1.0
102
RTVSPost2010PropOp57
 70
     1
  0
XRECORD
  5
129
102
{ACAD_REACTORS
330
128
102
}
330
128
100
AcDbXrecord
280
     1
102
RTVSPropertyOp0
 70
     1
102
RTVSPropertyOp1
 70
     1
102
RTVSPropertyOp2
 70
     1
102
RTVSPropertyOp3
 70
     1
102
RTVSPropertyOp4
 70
     1
102
RTVSPropertyOp5
 70
     1
102
RTVSPropertyOp6
 70
     1
102
RTVSPropertyOp7
 70
     1
102
RTVSPropertyOp8
 70
     1
102
RTVSPropertyOp9
 70
     1
102
RTVSPropertyOp10
 70
     1
102
RTVSPropertyOp11
 70
     1
102
RTVSPropertyOp12
 70
     1
102
RTVSPropertyOp13
 70
     1
102
RTVSPropertyOp14
 70
     1
102
RTVSPropertyOp15
 70
     1
102
RTVSPropertyOp16
 70
     1
102
RTVSPropertyOp17
 70
     1
102
RTVSPropertyOp18
 70
     1
102
RTVSPropertyOp19
 70
     1
102
RTVSPropertyOp20
 70
     1
102
RTVSPropertyOp21
 70
     1
102
RTVSPropertyOp22
 70
     1
102
RTVSPropertyOp23
 70
     1
102
RTVSPropertyOp24
 70
     1
102
RTVSPropertyOp25
 70
     1
102
RTVSPropertyOp26
 70
     1
102
RTVSPropertyOp27
 70
     1
102
RTVSPropertyOp28
 70
     1
102
RTVSPropertyOp29
 70
     1
102
RTVSPropertyOp30
 70
     1
102
RTVSPropertyOp31
 70
     1
102
RTVSPropertyOp32
 70
     1
102
RTVSPropertyOp33
 70
     1
102
RTVSPropertyOp34
 70
     1
102
RTVSPropertyOp35
 70
     1
102
RTVSPropertyOp36
 70
     1
102
RTVSPropertyOp37
 70
     1
102
RTVSPropertyOp38
 70
     1
102
RTVSPropertyOp39
 70
     1
102
RTVSPropertyOp40
 70
     1
102
RTVSPropertyOp41
 70
     1
102
RTVSPropertyOp42
 70
     1
102
RTVSPropertyOp43
 70
     1
102
RTVSPropertyOp44
 70
     1
102
RTVSPropertyOp45
 70
     1
102
RTVSPropertyOp46
 70
     1
102
RTVSPropertyOp47
 70
     1
102
RTVSPropertyOp48
 70
     1
102
RTVSPropertyOp49
 70
     1
102
RTVSPropertyOp50
 70
     1
102
RTVSPropertyOp51
 70
     0
102
RTVSPropertyOp52
 70
     0
102
RTVSPropertyOp53
 70
     1
102
RTVSPropertyOp54
 70
     1
102
RTVSPropertyOp55
 70
     1
102
RTVSPropertyOp56
 70
     1
102
RTVSPropertyOp57
 70
     1
102
RTVSPost2010Prop28
280
     0
102
RTVSPost2010PropOp28
 70
     1
102
RTVSPost2010Prop29
280
     1
102
RTVSPost2010PropOp29
 70
     1
102
RTVSPost2010Prop30
280
     1
102
RTVSPost2010PropOp30
 70
     1
102
RTVSPost2010Prop31
280
     0
102
RTVSPost2010PropOp31
 70
     1
102
RTVSPost2010Prop32
280
     0
102
RTVSPost2010PropOp32
 70
     1
102
RTVSPost2010Prop33
280
     0
102
RTVSPost2010PropOp33
 70
     1
102
RTVSPost2010Prop34
280
     0
102
RTVSPost2010PropOp34
 70
     1
102
RTVSPost2010Prop35
280
     0
102
RTVSPost2010PropOp35
 70
     1
102
RTVSPost2010Prop36
280
     0
102
RTVSPost2010PropOp36
 70
     1
102
RTVSPost2010Prop37
 90
       50
102
RTVSPost2010PropOp37
 70
     1
102
RTVSPost2010Prop38
140
0.0
102
RTVSPost2010PropOp38
 70
     1
102
RTVSPost2010Prop39
140
1.0
102
RTVSPost2010PropOp39
 70
     1
102
RTVSPost2010Prop40
 90
        0
102
RTVSPost2010PropOp40
 70
     1
102
RTVSPost2010Prop41ColorIndex
 90
       18
102
RTVSPost2010Prop41ColorRGB
 90
        0
102
RTVSPost2010PropOp41
 70
     1
102
RTVSPost2010Prop42
 90
       50
102
RTVSPost2010PropOp42
 70
     1
102
RTVSPost2010Prop43
 90
        3
102
RTVSPost2010PropOp43
 70
     1
102
RTVSPost2010Prop44ColorIndex
 90
        5
102
RTVSPost2010Prop44ColorRGB
 90
      255
102
RTVSPost2010PropOp44
 70
     1
102
RTVSPost2010Prop45
280
     0
102
RTVSPost2010PropOp45
 70
     1
102
RTVSPost2010Prop46
 90
       50
102
RTVSPost2010PropOp46
 70
     1
102
RTVSPost2010Prop47
 90
       50
102
RTVSPost2010PropOp47
 70
     1
102
RTVSPost2010Prop48
 90
       50
102
RTVSPost2010PropOp48
 70
     1
102
RTVSPost2010Prop49
280
     0
102
RTVSPost2010PropOp49
 70
     1
102
RTVSPost2010Prop50
 90
       50
102
RTVSPost2010PropOp50
 70
     1
102
RTVSPost2010Prop51ColorIndex
 90
      256
102
RTVSPost2010Prop51ColorRGB
 90
-16777216
102
RTVSPost2010PropOp51
 70
     0
102
RTVSPost2010Prop52
140
1.0
102
RTVSPost2010PropOp52
 70
     0
102
RTVSPost2010Prop53
 90
        2
102
RTVSPost2010PropOp53
 70
     1
102
RTVSPost2010Prop54
  1
strokes_ogs.tif
102
RTVSPost2010PropOp54
 70
     1
102
RTVSPost2010Prop55
280
     0
102
RTVSPost2010PropOp55
 70
     1
102
RTVSPost2010Prop56
140
1.0
102
RTVSPost2010PropOp56
 70
     1
102
RTVSPost2010Prop57
140
1.0
102
RTVSPost2010PropOp57
 70
     1
  0
ENDSEC
  0
EOF
