  0
SECTION
  2
HEADER
  9
$ACADVER
  1
AC1015
  9
$ACADMAINTVER
 70
     6
  9
$DWGCODEPAGE
  3
ANSI_1255
  9
$INSBASE
 10
0.0
 20
0.0
 30
0.0
  9
$EXTMIN
 10
399716.1121520981
 20
4666580.506646471
 30
0.0
  9
$EXTMAX
 10
414662.3866021385
 20
4678806.95417419
 30
0.0
  9
$LIMMIN
 10
0.0
 20
0.0
  9
$LIMMAX
 10
12.0
 20
9.0
  9
$ORTHOMODE
 70
     0
  9
$REGENMODE
 70
     1
  9
$FILLMODE
 70
     1
  9
$QTEXTMODE
 70
     0
  9
$MIRRTEXT
 70
     1
  9
$LTSCALE
 40
1.0
  9
$ATTMODE
 70
     1
  9
$TEXTSIZE
 40
0.2
  9
$TRACEWID
 40
0.05
  9
$TEXTSTYLE
  7
Standard
  9
$CLAYER
  8
0
  9
$CELTYPE
  6
ByLayer
  9
$CECOLOR
 62
   256
  9
$CELTSCALE
 40
1.0
  9
$DISPSILH
 70
     0
  9
$DIMSCALE
 40
1.0
  9
$DIMASZ
 40
0.18
  9
$DIMEXO
 40
0.0625
  9
$DIMDLI
 40
0.38
  9
$DIMRND
 40
0.0
  9
$DIMDLE
 40
0.0
  9
$DIMEXE
 40
0.18
  9
$DIMTP
 40
0.0
  9
$DIMTM
 40
0.0
  9
$DIMTXT
 40
0.18
  9
$DIMCEN
 40
0.09
  9
$DIMTSZ
 40
0.0
  9
$DIMTOL
 70
     0
  9
$DIMLIM
 70
     0
  9
$DIMTIH
 70
     1
  9
$DIMTOH
 70
     1
  9
$DIMSE1
 70
     0
  9
$DIMSE2
 70
     0
  9
$DIMTAD
 70
     0
  9
$DIMZIN
 70
     0
  9
$DIMBLK
  1

  9
$DIMASO
 70
     1
  9
$DIMSHO
 70
     1
  9
$DIMPOST
  1

  9
$DIMAPOST
  1

  9
$DIMALT
 70
     0
  9
$DIMALTD
 70
     2
  9
$DIMALTF
 40
25.4
  9
$DIMLFAC
 40
1.0
  9
$DIMTOFL
 70
     0
  9
$DIMTVP
 40
0.0
  9
$DIMTIX
 70
     0
  9
$DIMSOXD
 70
     0
  9
$DIMSAH
 70
     0
  9
$DIMBLK1
  1

  9
$DIMBLK2
  1

  9
$DIMSTYLE
  2
Standard
  9
$DIMCLRD
 70
     0
  9
$DIMCLRE
 70
     0
  9
$DIMCLRT
 70
     0
  9
$DIMTFAC
 40
1.0
  9
$DIMGAP
 40
0.09
  9
$DIMJUST
 70
     0
  9
$DIMSD1
 70
     0
  9
$DIMSD2
 70
     0
  9
$DIMTOLJ
 70
     1
  9
$DIMTZIN
 70
     0
  9
$DIMALTZ
 70
     0
  9
$DIMALTTZ
 70
     0
  9
$DIMUPT
 70
     0
  9
$DIMDEC
 70
     4
  9
$DIMTDEC
 70
     4
  9
$DIMALTU
 70
     2
  9
$DIMALTTD
 70
     2
  9
$DIMTXSTY
  7
Standard
  9
$DIMAUNIT
 70
     0
  9
$DIMADEC
 70
     0
  9
$DIMALTRND
 40
0.0
  9
$DIMAZIN
 70
     0
  9
$DIMDSEP
 70
    46
  9
$DIMATFIT
 70
     3
  9
$DIMFRAC
 70
     0
  9
$DIMLDRBLK
  1

  9
$DIMLUNIT
 70
     2
  9
$DIMLWD
 70
    -2
  9
$DIMLWE
 70
    -2
  9
$DIMTMOVE
 70
     0
  9
$LUNITS
 70
     2
  9
$LUPREC
 70
     4
  9
$SKETCHINC
 40
0.1
  9
$FILLETRAD
 40
0.5
  9
$AUNITS
 70
     0
  9
$AUPREC
 70
     0
  9
$MENU
  1
.
  9
$ELEVATION
 40
0.0
  9
$PELEVATION
 40
0.0
  9
$THICKNESS
 40
0.0
  9
$LIMCHECK
 70
     0
  9
$CHAMFERA
 40
0.0
  9
$CHAMFERB
 40
0.0
  9
$CHAMFERC
 40
0.0
  9
$CHAMFERD
 40
0.0
  9
$SKPOLY
 70
     0
  9
$TDCREATE
 40
2458654.376208067
  9
$TDUCREATE
 40
2458654.251208067
  9
$TDUPDATE
 40
2458654.3762086
  9
$TDUUPDATE
 40
2458654.2512086
  9
$TDINDWG
 40
0.0000000116
  9
$TDUSRTIMER
 40
0.0000000116
  9
$USRTIMER
 70
     1
  9
$ANGBASE
 50
0.0
  9
$ANGDIR
 70
     0
  9
$PDMODE
 70
     0
  9
$PDSIZE
 40
0.0
  9
$PLINEWID
 40
0.0
  9
$SPLFRAME
 70
     0
  9
$SPLINETYPE
 70
     6
  9
$SPLINESEGS
 70
     8
  9
$HANDSEED
  5
158
  9
$SURFTAB1
 70
     6
  9
$SURFTAB2
 70
     6
  9
$SURFTYPE
 70
     6
  9
$SURFU
 70
     6
  9
$SURFV
 70
     6
  9
$UCSBASE
  2

  9
$UCSNAME
  2

  9
$UCSORG
 10
0.0
 20
0.0
 30
0.0
  9
$UCSXDIR
 10
1.0
 20
0.0
 30
0.0
  9
$UCSYDIR
 10
0.0
 20
1.0
 30
0.0
  9
$UCSORTHOREF
  2

  9
$UCSORTHOVIEW
 70
     0
  9
$UCSORGTOP
 10
0.0
 20
0.0
 30
0.0
  9
$UCSORGBOTTOM
 10
0.0
 20
0.0
 30
0.0
  9
$UCSORGLEFT
 10
0.0
 20
0.0
 30
0.0
  9
$UCSORGRIGHT
 10
0.0
 20
0.0
 30
0.0
  9
$UCSORGFRONT
 10
0.0
 20
0.0
 30
0.0
  9
$UCSORGBACK
 10
0.0
 20
0.0
 30
0.0
  9
$PUCSBASE
  2

  9
$PUCSNAME
  2

  9
$PUCSORG
 10
0.0
 20
0.0
 30
0.0
  9
$PUCSXDIR
 10
1.0
 20
0.0
 30
0.0
  9
$PUCSYDIR
 10
0.0
 20
1.0
 30
0.0
  9
$PUCSORTHOREF
  2

  9
$PUCSORTHOVIEW
 70
     0
  9
$PUCSORGTOP
 10
0.0
 20
0.0
 30
0.0
  9
$PUCSORGBOTTOM
 10
0.0
 20
0.0
 30
0.0
  9
$PUCSORGLEFT
 10
0.0
 20
0.0
 30
0.0
  9
$PUCSORGRIGHT
 10
0.0
 20
0.0
 30
0.0
  9
$PUCSORGFRONT
 10
0.0
 20
0.0
 30
0.0
  9
$PUCSORGBACK
 10
0.0
 20
0.0
 30
0.0
  9
$USERI1
 70
     0
  9
$USERI2
 70
     0
  9
$USERI3
 70
     0
  9
$USERI4
 70
     0
  9
$USERI5
 70
     0
  9
$USERR1
 40
0.0
  9
$USERR2
 40
0.0
  9
$USERR3
 40
0.0
  9
$USERR4
 40
0.0
  9
$USERR5
 40
0.0
  9
$WORLDVIEW
 70
     1
  9
$SHADEDGE
 70
     3
  9
$SHADEDIF
 70
    70
  9
$TILEMODE
 70
     1
  9
$MAXACTVP
 70
    64
  9
$PINSBASE
 10
0.0
 20
0.0
 30
0.0
  9
$PLIMCHECK
 70
     0
  9
$PEXTMIN
 10
1.000000000000000E+20
 20
1.000000000000000E+20
 30
1.000000000000000E+20
  9
$PEXTMAX
 10
-1.000000000000000E+20
 20
-1.000000000000000E+20
 30
-1.000000000000000E+20
  9
$PLIMMIN
 10
0.0
 20
0.0
  9
$PLIMMAX
 10
12.0
 20
9.0
  9
$UNITMODE
 70
     0
  9
$VISRETAIN
 70
     1
  9
$PLINEGEN
 70
     0
  9
$PSLTSCALE
 70
     1
  9
$TREEDEPTH
 70
  3020
  9
$CMLSTYLE
  2
Standard
  9
$CMLJUST
 70
     0
  9
$CMLSCALE
 40
1.0
  9
$PROXYGRAPHICS
 70
     1
  9
$MEASUREMENT
 70
     0
  9
$CELWEIGHT
370
    -1
  9
$ENDCAPS
280
     0
  9
$JOINSTYLE
280
     0
  9
$LWDISPLAY
290
     0
  9
$INSUNITS
 70
     1
  9
$HYPERLINKBASE
  1

  9
$STYLESHEET
  1

  9
$XEDIT
290
     1
  9
$CEPSNTYPE
380
     0
  9
$PSTYLEMODE
290
     1
  9
$FINGERPRINTGUID
  2
{956584a6-7b66-41b8-bb17-7b15d934352e}
  9
$VERSIONGUID
  2
{FAEB1C32-E019-11D5-929B-00C0DF256EC4}
  9
$EXTNAMES
290
     1
  9
$PSVPSCALE
 40
0.0
  9
$OLESTARTUP
290
     0
  0
ENDSEC
  0
SECTION
  2
CLASSES
  0
CLASS
  1
ACDBDICTIONARYWDFLT
  2
AcDbDictionaryWithDefault
  3
ObjectDBX Classes
 90
        0
280
     0
281
     0
  0
CLASS
  1
VISUALSTYLE
  2
AcDbVisualStyle
  3
ObjectDBX Classes
 90
     4095
280
     0
281
     0
  0
CLASS
  1
MATERIAL
  2
AcDbMaterial
  3
ObjectDBX Classes
 90
     1153
280
     0
281
     0
  0
CLASS
  1
SCALE
  2
AcDbScale
  3
ObjectDBX Classes
 90
     1153
280
     0
281
     0
  0
CLASS
  1
TABLESTYLE
  2
AcDbTableStyle
  3
ObjectDBX Classes
 90
     4095
280
     0
281
     0
  0
CLASS
  1
MLEADERSTYLE
  2
AcDbMLeaderStyle
  3
ACDB_MLEADERSTYLE_CLASS
 90
     4095
280
     0
281
     0
  0
CLASS
  1
SUN
  2
AcDbSun
  3
SCENEOE
 90
     1153
280
     0
281
     0
  0
CLASS
  1
DICTIONARYVAR
  2
AcDbDictionaryVar
  3
ObjectDBX Classes
 90
        0
280
     0
281
     0
  0
CLASS
  1
ACDBPLACEHOLDER
  2
AcDbPlaceHolder
  3
ObjectDBX Classes
 90
        0
280
     0
281
     0
  0
CLASS
  1
LAYOUT
  2
AcDbLayout
  3
ObjectDBX Classes
 90
        0
280
     0
281
     0
  0
ENDSEC
  0
SECTION
  2
TABLES
  0
TABLE
  2
VPORT
  5
8
102
{ACAD_XDICTIONARY
360
11D
102
}
330
0
100
AcDbSymbolTable
 70
     1
  0
VPORT
  5
29
330
8
100
AcDbSymbolTableRecord
100
AcDbViewportTableRecord
  2
*Active
 70
     0
 10
0.0
 20
0.0
 11
1.0
 21
1.0
 12
407189.2493771183
 22
4672693.73041033
 13
0.0
 23
0.0
 14
0.5
 24
0.5
 15
0.5
 25
0.5
 16
0.0
 26
0.0
 36
1.0
 17
0.0
 27
0.0
 37
0.0
 40
12470.97647827216
 41
1.222454389646435
 42
50.0
 43
0.0
 44
0.0
 50
0.0
 51
0.0
 71
     0
 72
   100
 73
     1
 74
     3
 75
     0
 76
     0
 77
     0
 78
     0
281
     0
 65
     1
110
0.0
120
0.0
130
0.0
111
1.0
121
0.0
131
0.0
112
0.0
122
1.0
132
0.0
 79
     0
146
0.0
  0
ENDTAB
  0
TABLE
  2
LTYPE
  5
5
330
0
100
AcDbSymbolTable
 70
     1
  0
LTYPE
  5
14
330
5
100
AcDbSymbolTableRecord
100
AcDbLinetypeTableRecord
  2
ByBlock
 70
     0
  3

 72
    65
 73
     0
 40
0.0
  0
LTYPE
  5
15
330
5
100
AcDbSymbolTableRecord
100
AcDbLinetypeTableRecord
  2
ByLayer
 70
     0
  3

 72
    65
 73
     0
 40
0.0
  0
LTYPE
  5
16
330
5
100
AcDbSymbolTableRecord
100
AcDbLinetypeTableRecord
  2
Continuous
 70
     0
  3
Solid line
 72
    65
 73
     0
 40
0.0
  0
ENDTAB
  0
TABLE
  2
LAYER
  5
2
330
0
100
AcDbSymbolTable
 70
     2
  0
LAYER
  5
10
330
2
100
AcDbSymbolTableRecord
100
AcDbLayerTableRecord
  2
0
 70
     0
 62
     7
  6
Continuous
370
    -3
390
F
  0
LAYER
  5
B2
330
2
100
AcDbSymbolTableRecord
100
AcDbLayerTableRecord
  2
LXJD_collections
 70
     0
 62
   254
  6
Continuous
370
    -1
390
F
  0
ENDTAB
  0
TABLE
  2
STYLE
  5
3
330
0
100
AcDbSymbolTable
 70
     1
  0
STYLE
  5
11
330
3
100
AcDbSymbolTableRecord
100
AcDbTextStyleTableRecord
  2
Standard
 70
     0
 40
0.0
 41
1.0
 50
0.0
 71
     0
 42
0.2
  3
txt
  4

  0
ENDTAB
  0
TABLE
  2
VIEW
  5
6
330
0
100
AcDbSymbolTable
 70
     0
  0
ENDTAB
  0
TABLE
  2
UCS
  5
7
330
0
100
AcDbSymbolTable
 70
     0
  0
ENDTAB
  0
TABLE
  2
APPID
  5
9
330
0
100
AcDbSymbolTable
 70
     2
  0
APPID
  5
12
330
9
100
AcDbSymbolTableRecord
100
AcDbRegAppTableRecord
  2
ACAD
 70
     0
  0
APPID
  5
155
330
9
100
AcDbSymbolTableRecord
100
AcDbRegAppTableRecord
  2
ACAD_MLEADERVER
 70
     0
  0
ENDTAB
  0
TABLE
  2
DIMSTYLE
  5
A
330
0
100
AcDbSymbolTable
 70
     1
100
AcDbDimStyleTable
  0
DIMSTYLE
105
27
330
A
100
AcDbSymbolTableRecord
100
AcDbDimStyleTableRecord
  2
Standard
 70
     0
178
     0
340
11
  0
ENDTAB
  0
TABLE
  2
BLOCK_RECORD
  5
1
330
0
100
AcDbSymbolTable
 70
     1
  0
BLOCK_RECORD
  5
1F
330
1
100
AcDbSymbolTableRecord
100
AcDbBlockTableRecord
  2
*Model_Space
340
22
  0
BLOCK_RECORD
  5
1B
330
1
100
AcDbSymbolTableRecord
100
AcDbBlockTableRecord
  2
*Paper_Space
340
1E
  0
BLOCK_RECORD
  5
23
330
1
100
AcDbSymbolTableRecord
100
AcDbBlockTableRecord
  2
*Paper_Space0
340
26
  0
ENDTAB
  0
ENDSEC
  0
SECTION
  2
BLOCKS
  0
BLOCK
  5
20
330
1F
100
AcDbEntity
  8
0
100
AcDbBlockBegin
  2
*Model_Space
 70
     0
 10
0.0
 20
0.0
 30
0.0
  3
*Model_Space
  1

  0
ENDBLK
  5
21
330
1F
100
AcDbEntity
  8
0
100
AcDbBlockEnd
  0
BLOCK
  5
1C
330
1B
100
AcDbEntity
 67
     1
  8
0
100
AcDbBlockBegin
  2
*Paper_Space
 70
     0
 10
0.0
 20
0.0
 30
0.0
  3
*Paper_Space
  1

  0
ENDBLK
  5
1D
330
1B
100
AcDbEntity
 67
     1
  8
0
100
AcDbBlockEnd
  0
BLOCK
  5
24
330
23
100
AcDbEntity
  8
0
100
AcDbBlockBegin
  2
*Paper_Space0
 70
     0
 10
0.0
 20
0.0
 30
0.0
  3
*Paper_Space0
  1

  0
ENDBLK
  5
25
330
23
100
AcDbEntity
  8
0
100
AcDbBlockEnd
  0
ENDSEC
  0
SECTION
  2
ENTITIES
  0
LWPOLYLINE
  5
B3
330
1F
100
AcDbEntity
  8
LXJD_collections
100
AcDbPolyline
 90
       37
 70
     1
 43
0.0
 10
401126.8621118463
 20
4670041.035962463
 10
401131.1975927542
 20
4670032.0903518
 10
401133.5383836864
 20
4670022.284294883
 10
401134.1820439904
 20
4670021.05353799
 10
401134.7056654724
 20
4670017.159126046
 10
401139.6022553417
 20
4670006.984038426
 10
401140.8754904205
 20
4670003.52331569
 10
401142.0910665364
 20
4670001.840321904
 10
401144.503456834
 20
4669997.141960755
 10
401144.4909971773
 20
4669996.253711211
 10
401146.3081889563
 20
4669990.342037773
 10
401146.9456248829
 20
4669988.667151413
 10
401147.5767572962
 20
4669986.548140368
 10
401153.6158495069
 20
4669969.471314225
 10
401154.1380523836
 20
4669968.099037807
 10
401153.3396059618
 20
4669963.278817097
 10
401133.8021946778
 20
4669952.757082037
 10
401131.2588699609
 20
4669948.128207424
 10
401131.837115053
 20
4669942.234019249
 10
401134.8215375966
 20
4669931.19721618
 10
401134.0594824424
 20
4669923.98894466
 10
401134.768295365
 20
4669920.847302133
 10
401133.3566945882
 20
4669921.000266121
 10
401132.1115078608
 20
4669920.573443396
 10
401127.7401423524
 20
4669921.079059875
 10
401110.9044227979
 20
4669934.087164205
 10
401091.614249744
 20
4669954.681761892
 10
401079.8512606812
 20
4669970.062018992
 10
401060.5612425884
 20
4669984.770708057
 10
401055.0040228555
 20
4669994.955088017
 10
401056.3442975951
 20
4670002.155238173
 10
401071.6385863167
 20
4670014.71242497
 10
401082.5006659224
 20
4670023.44476592
 10
401085.0844985676
 20
4670025.074363126
 10
401099.6275105316
 20
4670031.200622794
 10
401124.3951492216
 20
4670041.848014555
 10
401126.8863699712
 20
4670042.764992545
  0
LWPOLYLINE
  5
B4
330
1F
100
AcDbEntity
  8
LXJD_collections
100
AcDbPolyline
 90
       41
 70
     1
 43
0.0
 10
401187.8917332802
 20
4670074.941721221
 10
401189.6481466066
 20
4670064.69965706
 10
401195.7354480998
 20
4670051.064924097
 10
401204.2524693079
 20
4670028.067260761
 10
401207.3024129472
 20
4670021.69413935
 10
401207.8446779752
 20
4670019.132105518
 10
401215.2178557744
 20
4670002.925063601
 10
401220.1378414404
 20
4669994.415558712
 10
401216.9743298047
 20
4669992.682904189
 10
401211.8955851424
 20
4669989.866566435
 10
401192.850273856
 20
4669980.80457718
 10
401187.1216077391
 20
4669978.774736911
 10
401174.4658606748
 20
4669971.73328395
 10
401164.9252281708
 20
4669968.868412579
 10
401164.3533123251
 20
4669969.320721021
 10
401161.1149073262
 20
4669968.144549903
 10
401154.2532160306
 20
4669967.796498676
 10
401154.1380523836
 20
4669968.099037807
 10
401153.6158495069
 20
4669969.471314225
 10
401147.5767572962
 20
4669986.548140368
 10
401146.9456248829
 20
4669988.667151413
 10
401146.3081889563
 20
4669990.342037773
 10
401144.4909971773
 20
4669996.253711211
 10
401144.503456834
 20
4669997.141960755
 10
401142.0910665364
 20
4670001.840321904
 10
401140.8754904205
 20
4670003.52331569
 10
401139.6022553417
 20
4670006.984038426
 10
401134.7056654724
 20
4670017.159126046
 10
401134.1820439904
 20
4670021.05353799
 10
401133.5383836864
 20
4670022.284294883
 10
401131.1975927542
 20
4670032.0903518
 10
401126.8621118463
 20
4670041.035962463
 10
401126.8863699712
 20
4670042.764992545
 10
401126.9041741288
 20
4670044.034007212
 10
401122.0917596488
 20
4670060.205203049
 10
401127.8141497563
 20
4670061.79084503
 10
401134.752174978
 20
4670061.693508938
 10
401139.1405875395
 20
4670062.40930998
 10
401158.103143042
 20
4670065.586231097
 10
401178.9637686285
 20
4670068.625458987
 10
401189.2949139319
 20
4670076.466272741
  0
LWPOLYLINE
  5
B5
330
1F
100
AcDbEntity
  8
LXJD_collections
100
AcDbPolyline
 90
       11
 70
     1
 43
0.0
 10
401066.1268073485
 20
4670110.523481266
 10
401067.1163172118
 20
4670092.739952205
 10
401067.0259052155
 20
4670086.299708548
 10
401068.1339670584
 20
4670076.955139169
 10
401071.101077981
 20
4670064.696886377
 10
401067.3250896668
 20
4670066.415822539
 10
401046.7075689792
 20
4670074.812600994
 10
401041.0490235157
 20
4670077.779627692
 10
401044.3778161362
 20
4670091.282231997
 10
401056.5630002976
 20
4670105.993151737
 10
401063.6085461697
 20
4670113.557367967
  0
LWPOLYLINE
  5
B6
330
1F
100
AcDbEntity
  8
LXJD_collections
100
AcDbPolyline
 90
       37
 70
     1
 43
0.0
 10
400994.8406506024
 20
4670152.172473519
 10
401000.974295596
 20
4670141.868817586
 10
401007.1328402064
 20
4670133.341693276
 10
401009.5871939996
 20
4670125.755153119
 10
401018.7643067052
 20
4670108.634151276
 10
401020.5688835223
 20
4670101.834076424
 10
401021.7188399486
 20
4670095.487544058
 10
401022.3609145579
 20
4670094.145759117
 10
401024.1545843627
 20
4670086.568536767
 10
401023.4454498049
 20
4670083.13567037
 10
401024.7435634658
 20
4670081.451440173
 10
401022.075522223
 20
4670073.825816164
 10
401020.8662989715
 20
4670075.952933784
 10
401008.3899291334
 20
4670087.567399847
 10
401004.0778713761
 20
4670092.292438676
 10
401002.8451847981
 20
4670092.753961579
 10
401001.5361592182
 20
4670093.660911464
 10
400994.7230344042
 20
4670102.641415182
 10
400991.0359779157
 20
4670104.803341224
 10
400988.5051181416
 20
4670106.949024187
 10
400987.2771149845
 20
4670107.743637475
 10
400986.0803901352
 20
4670110.759134928
 10
400975.4507218418
 20
4670118.571550032
 10
400973.5869749819
 20
4670121.152139382
 10
400971.7044327424
 20
4670122.40037821
 10
400964.8383177571
 20
4670127.60551527
 10
400962.9682605355
 20
4670129.74191483
 10
400962.6695614972
 20
4670130.058563941
 10
400969.4231987073
 20
4670136.425907535
 10
400975.8080273312
 20
4670143.999365332
 10
400976.4750540599
 20
4670144.434269791
 10
400977.7185755547
 20
4670144.749874924
 10
400980.2261260531
 20
4670146.824754057
 10
400991.7145909016
 20
4670153.104872238
 10
400992.2973269553
 20
4670153.429837172
 10
400994.2095068936
 20
4670154.291525676
 10
400994.8735114616
 20
4670154.511470036
  0
LWPOLYLINE
  5
B7
330
1F
100
AcDbEntity
  8
LXJD_collections
100
AcDbPolyline
 90
       25
 70
     1
 43
0.0
 10
401183.1845394339
 20
4670145.752980418
 10
401189.8187360531
 20
4670124.003266395
 10
401192.7861067292
 20
4670111.745003098
 10
401190.8210827011
 20
4670107.108032737
 10
401190.7494666936
 20
4670102.000306411
 10
401188.6893933683
 20
4670090.590004471
 10
401177.9459435386
 20
4670084.410265746
 10
401169.6211063451
 20
4670079.862468087
 10
401165.2435341567
 20
4670079.923860547
 10
401149.4913131091
 20
4670081.810646919
 10
401139.3368545802
 20
4670076.400132112
 10
401130.4820633603
 20
4670075.302711371
 10
401124.2282860123
 20
4670077.056376805
 10
401117.163661551
 20
4670086.387359031
 10
401128.241001196
 20
4670092.215266658
 10
401130.1656414109
 20
4670093.965236926
 10
401134.5960949815
 20
4670097.679127211
 10
401138.443736525
 20
4670101.068039871
 10
401141.0165997845
 20
4670107.806523365
 10
401142.9333708308
 20
4670109.001346917
 10
401147.5118800976
 20
4670117.377679394
 10
401157.1176227118
 20
4670130.792279259
 10
401170.5585454372
 20
4670146.707392915
 10
401174.4652410965
 20
4670154.31576369
 10
401170.809257287
 20
4670164.584492052
  0
LWPOLYLINE
  5
B8
330
1F
100
AcDbEntity
  8
LXJD_collections
100
AcDbPolyline
 90
       26
 70
     1
 43
0.0
 10
401165.2815928835
 20
4670170.992476824
 10
401170.2777707943
 20
4670167.92375264
 10
401170.809257287
 20
4670164.584492052
 10
401174.4652410965
 20
4670154.31576369
 10
401170.5585454372
 20
4670146.707392915
 10
401157.1176227118
 20
4670130.792279259
 10
401147.5118800976
 20
4670117.377679394
 10
401142.9333708308
 20
4670109.001346917
 10
401141.0165997845
 20
4670107.806523365
 10
401138.443736525
 20
4670101.068039871
 10
401134.5960949815
 20
4670097.679127211
 10
401130.1656414109
 20
4670093.965236926
 10
401128.241001196
 20
4670092.215266658
 10
401117.163661551
 20
4670086.387359031
 10
401114.2592095749
 20
4670084.859342173
 10
401109.1134118677
 20
4670077.268461266
 10
401095.8093561865
 20
4670071.124764313
 10
401082.1236163595
 20
4670084.866057604
 10
401085.5240201061
 20
4670103.476469434
 10
401086.8393099201
 20
4670108.899894893
 10
401093.8848205899
 20
4670116.464211102
 10
401109.1428889563
 20
4670126.467597975
 10
401120.8135493289
 20
4670145.739292186
 10
401138.1316609104
 20
4670167.153024743
 10
401146.998695971
 20
4670175.024923912
 10
401149.5716307268
 20
4670175.877308066
  0
LWPOLYLINE
  5
B9
330
1F
100
AcDbEntity
  8
LXJD_collections
100
AcDbPolyline
 90
       10
 70
     1
 43
0.0
 10
401048.8916189336
 20
4670189.173699446
 10
401053.7630103573
 20
4670177.221893474
 10
401054.7741747476
 20
4670155.106733022
 10
401049.9882893104
 20
4670131.962463502
 10
401045.52039014
 20
4670125.583721438
 10
401031.0742696822
 20
4670132.228064618
 10
401022.4861357831
 20
4670150.118298234
 10
401025.8554828629
 20
4670160.621674381
 10
401037.498320458
 20
4670183.780737976
 10
401044.5375027535
 20
4670190.900812767
  0
LWPOLYLINE
  5
BA
330
1F
100
AcDbEntity
  8
LXJD_collections
100
AcDbPolyline
 90
       37
 70
     1
 43
0.0
 10
400955.3260505978
 20
4670209.035183481
 10
400959.6145180045
 20
4670202.644474491
 10
400975.7839184289
 20
4670189.312154191
 10
400980.1908820767
 20
4670185.4742272
 10
400982.6437362818
 20
4670183.662736401
 10
400988.8319376562
 20
4670177.245405269
 10
400994.543346803
 20
4670178.053638273
 10
400995.8181368537
 20
4670180.590107018
 10
400996.5715100344
 20
4670181.44552266
 10
400997.0257480657
 20
4670172.465727496
 10
400996.996109248
 20
4670170.356038155
 10
400996.7823941159
 20
4670155.143784484
 10
400994.8735114616
 20
4670154.511470036
 10
400994.2095068936
 20
4670154.291525676
 10
400992.2973269553
 20
4670153.429837172
 10
400991.7145909016
 20
4670153.104872238
 10
400980.2261260531
 20
4670146.824754057
 10
400977.7185755547
 20
4670144.749874924
 10
400976.4750540599
 20
4670144.434269791
 10
400975.8080273312
 20
4670143.999365332
 10
400969.4231987073
 20
4670136.425907535
 10
400962.6695614972
 20
4670130.058563941
 10
400959.2094445903
 20
4670126.796212553
 10
400954.6900170433
 20
4670122.639490001
 10
400954.1009584201
 20
4670121.870262705
 10
400946.4897172825
 20
4670121.088831222
 10
400941.52956912
 20
4670126.711481508
 10
400932.8636772927
 20
4670139.049877475
 10
400923.5556810398
 20
4670146.84391235
 10
400921.7215486438
 20
4670151.534276887
 10
400924.9615591637
 20
4670158.707539092
 10
400926.8909177653
 20
4670160.790598467
 10
400937.1749848782
 20
4670175.41692503
 10
400938.4732117931
 20
4670179.619106689
 10
400945.6015383627
 20
4670193.06814131
 10
400953.98739895
 20
4670207.832301935
 10
400955.2528970126
 20
4670209.733341508
  0
LWPOLYLINE
  5
BB
330
1F
100
AcDbEntity
  8
LXJD_collections
100
AcDbPolyline
 90
       16
 70
     1
 43
0.0
 10
400855.7184663286
 20
4670210.43579657
 10
400864.9901671907
 20
4670194.201699434
 10
400865.5636819869
 20
4670193.860407006
 10
400876.0024928619
 20
4670172.501106176
 10
400882.2077892336
 20
4670167.305057203
 10
400879.3914009453
 20
4670159.276938998
 10
400872.0329636919
 20
4670160.585808891
 10
400869.5347945738
 20
4670159.042729042
 10
400860.1380655334
 20
4670166.393875904
 10
400846.4232797007
 20
4670178.025922444
 10
400834.6190213053
 20
4670190.408740826
 10
400842.969185207
 20
4670202.618841843
 10
400844.9048071043
 20
4670205.146052262
 10
400846.2497263289
 20
4670206.792952185
 10
400847.5120671038
 20
4670208.441087793
 10
400851.6144739826
 20
4670216.391748847
  0
LWPOLYLINE
  5
BC
330
1F
100
AcDbEntity
  8
LXJD_collections
100
AcDbPolyline
 90
       42
 70
     1
 43
0.0
 10
400812.8249102171
 20
4670297.11092775
 10
400814.6885510169
 20
4670294.530356554
 10
400819.6376110098
 20
4670288.130333229
 10
400823.854094555
 20
4670276.631779518
 10
400822.3167133535
 20
4670255.44090223
 10
400824.6973748509
 20
4670242.635541859
 10
400828.3499303785
 20
4670238.030666598
 10
400834.6845865095
 20
4670236.164433226
 10
400848.9477511659
 20
4670222.414497101
 10
400848.9180667152
 20
4670220.304747919
 10
400851.6144739826
 20
4670216.391748847
 10
400847.5120671038
 20
4670208.441087793
 10
400846.2497263289
 20
4670206.792952185
 10
400844.9048071043
 20
4670205.146052262
 10
400842.969185207
 20
4670202.618841843
 10
400834.6190213053
 20
4670190.408740826
 10
400846.4232797007
 20
4670178.025922444
 10
400860.1380655334
 20
4670166.393875904
 10
400869.5347945738
 20
4670159.042729042
 10
400872.0329636919
 20
4670160.585808891
 10
400879.3914009453
 20
4670159.276938998
 10
400874.3762328089
 20
4670144.981042095
 10
400874.3637387806
 20
4670144.09281047
 10
400853.8251803591
 20
4670122.836050305
 10
400853.4047975143
 20
4670122.536758509
 10
400851.9893793234
 20
4670121.529115117
 10
400836.4106757317
 20
4670135.741946698
 10
400830.7538988081
 20
4670138.820075103
 10
400810.7853164426
 20
4670152.206229252
 10
400786.9768463719
 20
4670162.759012183
 10
400779.5265207894
 20
4670167.5284044
 10
400741.3715918853
 20
4670196.068319826
 10
400757.2541682361
 20
4670199.160901904
 10
400790.6519145466
 20
4670241.893002798
 10
400793.2609505172
 20
4670251.185381505
 10
400796.1434128731
 20
4670274.0231416
 10
400794.8938478884
 20
4670279.149500501
 10
400796.9903248511
 20
4670293.113535485
 10
400800.1820247932
 20
4670296.84470083
 10
400812.2236061441
 20
4670301.339753854
 10
400812.2298572462
 20
4670301.78385991
 10
400812.3188156951
 20
4670301.782607759
  0
LWPOLYLINE
  5
BD
330
1F
100
AcDbEntity
  8
LXJD_collections
100
AcDbPolyline
 90
       33
 70
     1
 43
0.0
 10
400829.0173315019
 20
4670326.536114664
 10
400832.030784128
 20
4670317.608890388
 10
400846.8169763277
 20
4670294.078212075
 10
400856.6667315435
 20
4670277.835859866
 10
400867.7429349043
 20
4670260.6879141
 10
400876.8599634162
 20
4670233.460969668
 10
400883.6963086179
 20
4670226.14592312
 10
400889.4038398029
 20
4670238.894900502
 10
400890.7652810463
 20
4670235.375476575
 10
400888.6751522585
 20
4670221.855639212
 10
400888.5439696686
 20
4670212.528415841
 10
400888.8362336442
 20
4670192.200305575
 10
400885.4946865924
 20
4670177.809509637
 10
400882.2077892336
 20
4670167.305057203
 10
400876.0024928619
 20
4670172.501106176
 10
400865.5636819869
 20
4670193.860407006
 10
400864.9901671907
 20
4670194.201699434
 10
400855.7184663286
 20
4670210.43579657
 10
400851.6144739826
 20
4670216.391748847
 10
400848.9180667152
 20
4670220.304747919
 10
400848.9477511659
 20
4670222.414497101
 10
400834.6845865095
 20
4670236.164433226
 10
400828.3499303785
 20
4670238.030666598
 10
400824.6973748509
 20
4670242.635541859
 10
400822.3167133535
 20
4670255.44090223
 10
400823.854094555
 20
4670276.631779518
 10
400819.6376110098
 20
4670288.130333229
 10
400814.6885510169
 20
4670294.530356554
 10
400812.8249102171
 20
4670297.11092775
 10
400812.3188156951
 20
4670301.782607759
 10
400811.728249225
 20
4670307.232886713
 10
400820.8703704909
 20
4670328.76091066
 10
400833.3968340384
 20
4670334.416043187
  0
LWPOLYLINE
  5
BE
330
1F
100
AcDbEntity
  8
LXJD_collections
100
AcDbPolyline
 90
       24
 70
     1
 43
0.0
 10
400865.2540681575
 20
4670348.016160756
 10
400873.1510251422
 20
4670328.025275827
 10
400884.9957157276
 20
4670318.529587224
 10
400897.2451447556
 20
4670296.70058246
 10
400908.4954704117
 20
4670275.470772129
 10
400891.349348128
 20
4670276.903790243
 10
400889.3732328996
 20
4670271.489670455
 10
400889.8731942445
 20
4670265.929598747
 10
400890.8605431314
 20
4670242.148817858
 10
400889.4038398029
 20
4670238.894900502
 10
400883.6963086179
 20
4670226.14592312
 10
400876.8599634162
 20
4670233.460969668
 10
400867.7429349043
 20
4670260.6879141
 10
400856.6667315435
 20
4670277.835859866
 10
400846.8169763277
 20
4670294.078212075
 10
400832.030784128
 20
4670317.608890388
 10
400829.0173315019
 20
4670326.536114664
 10
400833.3968340384
 20
4670334.416043187
 10
400837.4079829533
 20
4670341.633309052
 10
400836.759715351
 20
4670342.530814585
 10
400841.3618196854
 20
4670352.572583686
 10
400843.2864655479
 20
4670354.322485396
 10
400850.2648286852
 20
4670357.111826996
 10
400861.8298352911
 20
4670360.502854982
  0
LWPOLYLINE
  5
BF
330
1F
100
AcDbEntity
  8
LXJD_collections
100
AcDbPolyline
 90
       23
 70
     1
 43
0.0
 10
400747.7179252668
 20
4670372.549009136
 10
400751.3028751898
 20
4670357.283298526
 10
400756.6923289625
 20
4670341.103685875
 10
400761.4739805665
 20
4670322.822463691
 10
400763.3313396139
 20
4670319.797634668
 10
400768.9770679276
 20
4670315.94211828
 10
400774.538297801
 20
4670306.090588227
 10
400775.5505507468
 20
4670289.972588223
 10
400779.1761856957
 20
4670277.593861964
 10
400786.9541782856
 20
4670249.164012991
 10
400790.6519145466
 20
4670241.893002798
 10
400757.2541682361
 20
4670199.160901904
 10
400741.3715918853
 20
4670196.068319826
 10
400737.041973474
 20
4670195.225303025
 10
400724.2916197515
 20
4670228.389788788
 10
400714.5096229134
 20
4670255.293049428
 10
400704.7305629539
 20
4670276.5323184
 10
400705.6479323342
 20
4670294.733249528
 10
400697.1094829672
 20
4670316.065982041
 10
400687.3258725611
 20
4670336.972167542
 10
400691.4536480756
 20
4670360.236632533
 10
400711.7734329678
 20
4670371.833788775
 10
400744.6639394023
 20
4670378.58925084
  0
LWPOLYLINE
  5
C0
330
1F
100
AcDbEntity
  8
LXJD_collections
100
AcDbPolyline
 90
       36
 70
     1
 43
0.0
 10
400837.4034975021
 20
4670388.278498706
 10
400844.3287078339
 20
4670387.292669889
 10
400855.1844384645
 20
4670384.083684711
 10
400856.8463717976
 20
4670378.675989438
 10
400861.8298352911
 20
4670360.502854982
 10
400850.2648286852
 20
4670357.111826996
 10
400843.2864655479
 20
4670354.322485396
 10
400841.3618196854
 20
4670352.572583686
 10
400836.759715351
 20
4670342.530814585
 10
400837.4079829533
 20
4670341.633309052
 10
400833.3968340384
 20
4670334.416043187
 10
400820.8703704909
 20
4670328.76091066
 10
400811.728249225
 20
4670307.232886713
 10
400812.3188156951
 20
4670301.782607759
 10
400812.2298572462
 20
4670301.78385991
 10
400812.2236061441
 20
4670301.339753854
 10
400800.1820247932
 20
4670296.84470083
 10
400796.9903248511
 20
4670293.113535485
 10
400794.8938478884
 20
4670279.149500501
 10
400796.1434128731
 20
4670274.0231416
 10
400793.2609505172
 20
4670251.185381505
 10
400790.6519145466
 20
4670241.893002798
 10
400786.9541782856
 20
4670249.164012991
 10
400779.1761856957
 20
4670277.593861964
 10
400775.5505507468
 20
4670289.972588223
 10
400774.538297801
 20
4670306.090588227
 10
400768.9770679276
 20
4670315.94211828
 10
400763.3313396139
 20
4670319.797634668
 10
400761.4739805665
 20
4670322.822463691
 10
400756.6923289625
 20
4670341.103685875
 10
400751.3028751898
 20
4670357.283298526
 10
400747.7179252668
 20
4670372.549009136
 10
400744.6639394023
 20
4670378.58925084
 10
400773.1052886792
 20
4670386.185133249
 10
400786.3621592963
 20
4670388.996963318
 10
400805.3114530907
 20
4670391.284641148
  0
LWPOLYLINE
  5
C1
330
1F
100
AcDbEntity
  8
LXJD_collections
100
AcDbPolyline
 90
       75
 70
     1
 43
0.0
 10
401022.188710555
 20
4670074.149323175
 10
401019.3778417523
 20
4670058.204257964
 10
401011.6012894183
 20
4670045.652639644
 10
401005.5559140109
 20
4670021.082261241
 10
401002.8409494098
 20
4670004.239250488
 10
400993.097567034
 20
4669986.939743948
 10
400972.5625855985
 20
4670001.221779023
 10
400954.5010125887
 20
4670021.022172151
 10
400934.0317654295
 20
4670039.967911846
 10
400904.0198829862
 20
4670063.873364805
 10
400894.0939800015
 20
4670072.625842207
 10
400885.0933078948
 20
4670086.212998448
 10
400876.1388203729
 20
4670094.090830339
 10
400865.0076469827
 20
4670107.352458314
 10
400857.510486645
 20
4670114.676863614
 10
400853.4048717122
 20
4670122.536757466
 10
400857.3365159936
 20
4670126.470120911
 10
400861.5869861233
 20
4670130.869302774
 10
400866.3356778417
 20
4670135.783977522
 10
400868.399607571
 20
4670137.920069657
 10
400870.979536532
 20
4670140.590184464
 10
400874.3638129719
 20
4670144.092809426
 10
400874.3763080401
 20
4670144.981114976
 10
400876.0145841819
 20
4670149.651116424
 10
400877.6367778236
 20
4670154.275279632
 10
400879.391401985
 20
4670159.277012914
 10
400888.3900114903
 20
4670157.676475933
 10
400899.1960901691
 20
4670155.754421477
 10
400912.3886647188
 20
4670153.407931121
 10
400921.810858278
 20
4670151.732054992
 10
400923.5556810398
 20
4670146.84391235
 10
400929.6466864045
 20
4670141.743615531
 10
400932.8636772927
 20
4670139.049877475
 10
400937.351003831
 20
4670132.660881479
 10
400940.0645165379
 20
4670128.797389832
 10
400941.52956912
 20
4670126.711481508
 10
400943.441414279
 20
4670124.544322013
 10
400944.9259371297
 20
4670122.861458035
 10
400946.4897172825
 20
4670121.088831222
 10
400950.6468234807
 20
4670121.515639969
 10
400954.1009584201
 20
4670121.870262705
 10
400954.6900170433
 20
4670122.639490001
 10
400957.0129972626
 20
4670124.776036575
 10
400959.2094445903
 20
4670126.796212553
 10
400961.6266688927
 20
4670129.075313213
 10
400962.6695614972
 20
4670130.058563941
 10
400963.7670006879
 20
4670128.829416196
 10
400964.8383177571
 20
4670127.60551527
 10
400967.8950549539
 20
4670125.288228512
 10
400970.1412208694
 20
4670123.585425138
 10
400971.7044327424
 20
4670122.40037821
 10
400973.5869749819
 20
4670121.152139382
 10
400975.4507218418
 20
4670118.571550032
 10
400976.5919437865
 20
4670117.732832644
 10
400978.2756803618
 20
4670116.495298981
 10
400980.5357225555
 20
4670114.834297508
 10
400983.376622511
 20
4670112.746289587
 10
400986.0803901352
 20
4670110.759134928
 10
400986.5554387552
 20
4670109.56209611
 10
400987.2771149845
 20
4670107.743637475
 10
400988.5051181416
 20
4670106.949024187
 10
400991.0359779157
 20
4670104.803341224
 10
400993.3019573743
 20
4670103.474673091
 10
400994.7230344042
 20
4670102.641415182
 10
400999.2681991705
 20
4670096.650278742
 10
401001.5361592182
 20
4670093.660911464
 10
401004.0778713761
 20
4670092.292438676
 10
401006.6201578046
 20
4670089.506681821
 10
401011.7021299387
 20
4670084.483956871
 10
401014.2251082681
 20
4670082.135358721
 10
401015.7645193001
 20
4670080.702298804
 10
401017.3039299099
 20
4670079.26916503
 10
401018.3529134098
 20
4670078.292672224
 10
401019.5353643661
 20
4670077.191940781
 10
401020.8662989715
 20
4670075.952933784
  0
LWPOLYLINE
  5
C2
330
1F
100
AcDbEntity
  8
LXJD_collections
100
AcDbPolyline
 90
      110
 70
     1
 43
0.0
 10
401277.2601582411
 20
4670458.882890926
 10
401269.5105049239
 20
4670466.740491859
 10
401264.1150618414
 20
4670476.895802983
 10
401261.016372644
 20
4670482.728149258
 10
401253.6079268041
 20
4670496.381262278
 10
401246.8024026795
 20
4670504.213050457
 10
401242.4705070115
 20
4670509.1981873
 10
401237.991987026
 20
4670514.659870077
 10
401234.4196954441
 20
4670519.016292702
 10
401229.8065056154
 20
4670524.531021757
 10
401231.7555521695
 20
4670526.549822215
 10
401232.636781115
 20
4670527.462719126
 10
401234.1213806065
 20
4670529.000453307
 10
401235.3639684278
 20
4670530.28755209
 10
401236.6246259168
 20
4670531.593250015
 10
401238.4324835781
 20
4670533.465871092
 10
401239.6482679221
 20
4670535.731454269
 10
401240.8661858328
 20
4670538.001073204
 10
401242.0963720416
 20
4670540.293660068
 10
401242.9280499041
 20
4670541.843427644
 10
401244.2656970799
 20
4670542.998557024
 10
401246.0569622782
 20
4670544.545373549
 10
401247.8149507827
 20
4670546.063453778
 10
401249.5414660169
 20
4670547.554398918
 10
401250.90938195
 20
4670548.735645545
 10
401252.7653925681
 20
4670550.338333991
 10
401254.4901775456
 20
4670551.827751052
 10
401256.975724334
 20
4670553.974177276
 10
401258.413419762
 20
4670555.607568854
 10
401260.5612888222
 20
4670558.047722968
 10
401262.5865464912
 20
4670560.348608834
 10
401264.6329160633
 20
4670562.673447951
 10
401266.4588734236
 20
4670564.747940537
 10
401267.7531414495
 20
4670566.218327587
 10
401269.8188122655
 20
4670568.565148847
 10
401271.4893268181
 20
4670570.794707716
 10
401272.6100843879
 20
4670572.290444015
 10
401273.6069019526
 20
4670573.620833326
 10
401276.2029400542
 20
4670576.138913097
 10
401278.1892495547
 20
4670577.911590721
 10
401280.8659157794
 20
4670580.300419086
 10
401282.8657491794
 20
4670582.085179888
 10
401284.7695468583
 20
4670583.784269893
 10
401286.8349052182
 20
4670585.627553049
 10
401289.5944869262
 20
4670588.612061603
 10
401292.7811254548
 20
4670592.010290849
 10
401294.5085386351
 20
4670593.768112927
 10
401297.2413688125
 20
4670596.549095303
 10
401298.7542374067
 20
4670598.088648756
 10
401300.7550590668
 20
4670600.12475934
 10
401302.511902336
 20
4670601.91255434
 10
401304.581148806
 20
4670604.01823594
 10
401306.1287356431
 20
4670602.924346382
 10
401307.3880685308
 20
4670602.034106608
 10
401308.686199601
 20
4670601.116560723
 10
401310.9133018949
 20
4670598.2119871
 10
401312.6710247388
 20
4670595.91962556
 10
401315.3395280057
 20
4670592.439308592
 10
401318.2208282315
 20
4670588.681580643
 10
401321.6722272261
 20
4670584.180332646
 10
401324.1807817188
 20
4670580.908741911
 10
401328.3772394151
 20
4670577.040107489
 10
401331.0376632392
 20
4670574.587389632
 10
401333.47772654
 20
4670572.338035976
 10
401337.2239573082
 20
4670568.509493461
 10
401339.6699135856
 20
4670565.573093046
 10
401341.5296322941
 20
4670563.340441572
 10
401346.6903527585
 20
4670560.824401771
 10
401352.7979342117
 20
4670557.846792182
 10
401360.8453726798
 20
4670553.923365574
 10
401363.5495231651
 20
4670552.605027886
 10
401364.9522010248
 20
4670551.58495967
 10
401365.7601011715
 20
4670549.858453359
 10
401367.154632835
 20
4670546.878072594
 10
401365.4028585155
 20
4670544.800071682
 10
401362.9810855315
 20
4670541.927376053
 10
401359.2000700696
 20
4670537.442345751
 10
401355.9675615334
 20
4670533.607991945
 10
401353.6793441385
 20
4670530.893781521
 10
401351.4900518567
 20
4670528.296919183
 10
401349.8505517264
 20
4670526.35212095
 10
401347.5196611951
 20
4670523.807513702
 10
401345.5081351155
 20
4670521.611530325
 10
401342.2167309087
 20
4670518.018422673
 10
401340.8698614094
 20
4670516.701934392
 10
401337.7773706339
 20
4670513.679156518
 10
401335.0913019498
 20
4670511.053687407
 10
401332.65192943
 20
4670508.669328777
 10
401330.8682364936
 20
4670506.925867245
 10
401328.475283242
 20
4670504.586991733
 10
401326.5575175966
 20
4670502.712478962
 10
401324.2937404095
 20
4670500.499769762
 10
401321.6104918839
 20
4670497.6577896
 10
401319.7070675253
 20
4670495.64186669
 10
401317.2014282392
 20
4670492.987994251
 10
401315.324439162
 20
4670491.000016647
 10
401313.8352147426
 20
4670489.422695041
 10
401311.0331049191
 20
4670486.619640306
 10
401308.6454334223
 20
4670484.277363334
 10
401307.0251944694
 20
4670482.527841446
 10
401302.7065710472
 20
4670478.785285733
 10
401299.3320314326
 20
4670475.860942474
 10
401296.4238723385
 20
4670473.561369723
 10
401292.9836937899
 20
4670470.841111082
 10
401291.3606592575
 20
4670469.088523198
 10
401291.0545274436
 20
4670468.757974542
 10
401287.4608909091
 20
4670466.16525465
 10
401285.8017821612
 20
4670464.968326339
 10
401282.8885188032
 20
4670462.866520553
 10
401280.3049961881
 20
4670461.053753036
  0
LWPOLYLINE
  5
C3
330
1F
100
AcDbEntity
  8
LXJD_collections
100
AcDbPolyline
 90
       29
 70
     1
 43
0.0
 10
399746.0261901303
 20
4672029.515484373
 10
399747.7834274218
 20
4672029.293188213
 10
399749.6699821752
 20
4672028.377860485
 10
399750.9021758381
 20
4672027.916158239
 10
399755.9027378057
 20
4672025.290507942
 10
399757.7844787565
 20
4672024.042035628
 10
399762.7676640823
 20
4672020.195094383
 10
399775.2271071537
 20
4672013.576185594
 10
399785.0276500663
 20
4672006.457606128
 10
399787.0799328911
 20
4672004.966926935
 10
399790.6729591059
 20
4671990.477895997
 10
399784.1337914358
 20
4671974.797694944
 10
399779.1203152991
 20
4671973.7609464
 10
399771.4382800017
 20
4671967.873017658
 10
399768.2467381395
 20
4671964.142389907
 10
399770.0431681636
 20
4671956.897869106
 10
399771.8286157665
 20
4671948.876111568
 10
399773.2123946391
 20
4671946.344345948
 10
399771.7985924138
 20
4671946.76635269
 10
399763.0897517353
 20
4671955.775199629
 10
399754.3744622303
 20
4671964.339823856
 10
399745.6881624526
 20
4671969.128066038
 10
399742.4805076894
 20
4671970.062133548
 10
399738.1641607195
 20
4671974.343862688
 10
399742.872505189
 20
4671997.599714404
 10
399742.896214998
 20
4671999.265309538
 10
399742.6010961792
 20
4672019.14942762
 10
399742.0558732136
 20
4672027.264630601
 10
399740.858382403
 20
4672030.169291475
  0
LWPOLYLINE
  5
C4
330
1F
100
AcDbEntity
  8
LXJD_collections
100
AcDbPolyline
 90
       46
 70
     1
 43
0.0
 10
399825.7016596998
 20
4672148.019265329
 10
399830.00057366
 20
4672142.516123993
 10
399830.6421477126
 20
4672141.174309837
 10
399833.0530282609
 20
4672136.475385043
 10
399836.761203517
 20
4672130.092180843
 10
399838.5766785764
 20
4672124.180195554
 10
399837.0364766527
 20
4672102.989350243
 10
399834.8088900312
 20
4672099.62269268
 10
399833.8814259833
 20
4672101.81262126
 10
399828.8745737037
 20
4672103.99397267
 10
399821.9622290055
 20
4672105.758199241
 10
399817.5034184752
 20
4672105.82162408
 10
399808.6845653367
 20
4672101.282492475
 10
399807.8912717394
 20
4672091.964747321
 10
399807.2132899297
 20
4672090.752641272
 10
399802.739083317
 20
4672083.930533113
 10
399795.7129751776
 20
4672077.699983799
 10
399788.6569108471
 20
4672069.359786134
 10
399784.0814786832
 20
4672055.431275162
 10
399781.4791653101
 20
4672052.469606216
 10
399776.3822249877
 20
4672048.321825354
 10
399773.8386875009
 20
4672043.693472006
 10
399766.1455844175
 20
4672037.028243336
 10
399755.9027378057
 20
4672025.290507942
 10
399750.9021758381
 20
4672027.916158239
 10
399749.6699821752
 20
4672028.377860485
 10
399747.7834274218
 20
4672029.293188213
 10
399746.0261901303
 20
4672029.515484373
 10
399745.2410052476
 20
4672030.551067086
 10
399741.5217910582
 20
4672036.157116674
 10
399739.7463224201
 20
4672039.069854128
 10
399735.552966955
 20
4672057.787895164
 10
399725.7210667946
 20
4672074.920180136
 10
399722.6671660457
 20
4672080.849872195
 10
399720.8407085822
 20
4672085.984712216
 10
399718.4490019228
 20
4672092.015989906
 10
399716.1121520981
 20
4672107.708869496
 10
399718.7320142644
 20
4672111.891916286
 10
399732.7806306336
 20
4672129.905889944
 10
399736.6452929038
 20
4672134.515363734
 10
399740.4909828571
 20
4672137.792490128
 10
399749.2897295125
 20
4672135.112876041
 10
399753.0768568511
 20
4672134.281454389
 10
399776.9700137328
 20
4672136.051599307
 10
399794.0695972101
 20
4672142.138813958
 10
399816.9219324243
 20
4672152.031269137
  0
LWPOLYLINE
  5
C5
330
1F
100
AcDbEntity
  8
LXJD_collections
100
AcDbPolyline
 90
       33
 70
     1
 43
0.0
 10
402586.273484353
 20
4669089.136872502
 10
402589.1606643201
 20
4669088.938362837
 10
402593.2250162197
 20
4669088.565123136
 10
402596.1121975511
 20
4669088.366690246
 10
402599.639328295
 20
4669087.525111532
 10
402602.1738646042
 20
4669087.410897138
 10
402605.2958524732
 20
4669087.129880243
 10
402606.5843668506
 20
4669086.477847204
 10
402610.6890981562
 20
4669084.756253761
 10
402612.1621135658
 20
4669084.656708176
 10
402613.5195512419
 20
4669084.717151013
 10
402614.9926408836
 20
4669084.617604995
 10
402618.8079542086
 20
4669083.296436468
 10
402625.5574784051
 20
4669080.904158789
 10
402631.6604838506
 20
4669078.679356224
 10
402634.4788960423
 20
4669077.768313467
 10
402637.7679446393
 20
4669076.771501878
 10
402646.1770228773
 20
4669074.570468497
 10
402647.4986042362
 20
4669067.089912624
 10
402637.2151149315
 20
4669052.350041266
 10
402623.8692496724
 20
4669043.205504024
 10
402601.0819011719
 20
4669038.411522428
 10
402577.7759979476
 20
4669037.956168977
 10
402560.0920794884
 20
4669037.75638309
 10
402559.1895599372
 20
4669037.552935353
 10
402559.5137854224
 20
4669037.764376402
 10
402568.5049238867
 20
4669054.632155259
 10
402572.4214550914
 20
4669063.018502538
 10
402572.4674922593
 20
4669066.34956842
 10
402568.256340426
 20
4669069.10863953
 10
402576.3318386322
 20
4669070.960660678
 10
402584.7384693419
 20
4669087.392264772
 10
402585.5827539783
 20
4669089.209567023
  0
LWPOLYLINE
  5
C6
330
1F
100
AcDbEntity
  8
LXJD_collections
100
AcDbPolyline
 90
       47
 70
     1
 43
0.0
 10
402624.5383729108
 20
4669246.424332692
 10
402639.7072182021
 20
4669232.786511315
 10
402644.0452062016
 20
4669223.841847916
 10
402646.4174672473
 20
4669216.146104255
 10
402646.3944634923
 20
4669214.480459075
 10
402651.3812169354
 20
4669210.635628148
 10
402654.466569033
 20
4669206.705917858
 10
402659.4303317116
 20
4669201.195440493
 10
402668.2214508494
 20
4669197.631275716
 10
402670.7776712937
 20
4669197.262787687
 10
402684.5542398411
 20
4669195.739959924
 10
402687.1334536592
 20
4669197.036979402
 10
402692.0665199101
 20
4669189.305873546
 10
402684.7245864683
 20
4669160.198663331
 10
402680.6963354536
 20
4669143.706527453
 10
402676.0315256994
 20
4669123.002872924
 10
402668.1283159664
 20
4669101.122368636
 10
402659.0026768125
 20
4669080.48026468
 10
402655.2209826891
 20
4669075.867994619
 10
402636.3210727178
 20
4669077.350736178
 10
402615.6040186847
 20
4669084.855693625
 10
402609.3320738989
 20
4669085.386531374
 10
402605.5613379246
 20
4669087.548811136
 10
402598.6285887031
 20
4669088.088788011
 10
402596.7348215079
 20
4669088.559219177
 10
402586.1239905519
 20
4669089.630010647
 10
402589.1753794063
 20
4669096.110282063
 10
402590.8031420253
 20
4669099.899529314
 10
402592.2337830655
 20
4669103.098604492
 10
402594.4118439634
 20
4669107.432690459
 10
402596.9735567347
 20
4669116.129199159
 10
402597.5454553515
 20
4669118.102881817
 10
402600.1254314195
 20
4669126.961435503
 10
402600.9800445539
 20
4669128.006673192
 10
402610.0745489288
 20
4669139.128806953
 10
402614.7624812687
 20
4669161.498035605
 10
402615.5123261168
 20
4669167.929077086
 10
402613.8883435737
 20
4669177.707992629
 10
402614.4834745926
 20
4669183.158359728
 10
402610.9228828637
 20
4669200.532812156
 10
402605.52840925
 20
4669222.70809861
 10
402604.8002280688
 20
4669225.865369589
 10
402603.18994774
 20
4669232.846717331
 10
402600.7412138095
 20
4669240.987845683
 10
402601.2165738125
 20
4669241.094411761
 10
402618.4768497971
 20
4669244.963159027
 10
402622.8962650081
 20
4669247.90060572
  0
LWPOLYLINE
  5
C7
330
1F
100
AcDbEntity
  8
LXJD_collections
100
AcDbPolyline
 90
       22
 70
     1
 43
0.0
 10
402779.5899560413
 20
4669412.992571366
 10
402787.5735364893
 20
4669405.979594525
 10
402788.3242754007
 20
4669405.320102545
 10
402784.4127704648
 20
4669397.266729916
 10
402768.4318870956
 20
4669376.719186987
 10
402751.7319760624
 20
4669357.958379236
 10
402734.3465316488
 20
4669331.433102846
 10
402707.7035620937
 20
4669316.585755146
 10
402683.6672925883
 20
4669311.031458626
 10
402647.4480911809
 20
4669338.629945345
 10
402631.9575636337
 20
4669353.614726827
 10
402619.5417255856
 20
4669369.889851165
 10
402610.1934379787
 20
4669376.035195845
 10
402610.792195492
 20
4669376.45209274
 10
402636.680589615
 20
4669378.537810721
 10
402639.8255966324
 20
4669378.938616618
 10
402660.7534742604
 20
4669386.756856739
 10
402672.7467078244
 20
4669402.033584804
 10
402683.6439050349
 20
4669399.10149315
 10
402712.7890542451
 20
4669409.694004986
 10
402734.2658317904
 20
4669415.394834851
 10
402759.003840182
 20
4669423.938241291
  0
LWPOLYLINE
  5
C8
330
1F
100
AcDbEntity
  8
LXJD_collections
100
AcDbPolyline
 90
       30
 70
     1
 43
0.0
 10
402794.3613596602
 20
4669477.64729178
 10
402796.9282023157
 20
4669478.056133185
 10
402796.9220771854
 20
4669477.611977717
 10
402794.6654127695
 20
4669451.766369868
 10
402792.6783217475
 20
4669445.463402206
 10
402791.9180114402
 20
4669438.255025858
 10
402791.3290320508
 20
4669437.48579818
 10
402787.2659378353
 20
4669418.439603386
 10
402788.3993129236
 20
4669410.7609867
 10
402787.5735364893
 20
4669405.979594525
 10
402779.5899560413
 20
4669412.992571366
 10
402759.003840182
 20
4669423.938241291
 10
402734.2658317904
 20
4669415.394834851
 10
402712.7890542451
 20
4669409.694004986
 10
402683.6439050349
 20
4669399.10149315
 10
402672.7467078244
 20
4669402.033584804
 10
402674.2089740883
 20
4669403.896259413
 10
402675.7286550442
 20
4669424.199007866
 10
402680.4114296445
 20
4669440.237943312
 10
402688.0753924645
 20
4669450.793798597
 10
402691.9024910281
 20
4669460.559679137
 10
402701.9923715626
 20
4669453.489248658
 10
402712.0988529659
 20
4669455.459895136
 10
402717.1850769422
 20
4669458.832491983
 10
402732.3242022697
 20
4669460.289392813
 10
402734.2715803037
 20
4669463.705388599
 10
402736.8368267507
 20
4669464.003245047
 10
402751.416199585
 20
4669472.797731307
 10
402766.6134935935
 20
4669478.474253691
 10
402785.5353154945
 20
4669478.65756999
  0
LWPOLYLINE
  5
C9
330
1F
100
AcDbEntity
  8
LXJD_collections
100
AcDbPolyline
 90
       17
 70
     1
 43
0.0
 10
404506.871491858
 20
4668125.651119974
 10
404508.6799979752
 20
4668118.852081434
 10
404504.9110865914
 20
4668115.127211897
 10
404492.1728974538
 20
4668108.080924058
 10
404488.3439278164
 20
4668106.022704687
 10
404485.8473515302
 20
4668104.723853246
 10
404482.6748360164
 20
4668102.323503213
 10
404463.0765008712
 20
4668101.256257712
 10
404445.5287865605
 20
4668111.267162031
 10
404445.0065467255
 20
4668112.51372213
 10
404458.2670191678
 20
4668118.313363705
 10
404467.7199502982
 20
4668120.739541528
 10
404470.1030402908
 20
4668122.817407045
 10
404479.149692772
 20
4668122.694854452
 10
404500.7083771785
 20
4668134.286033312
 10
404502.6085301811
 20
4668134.260299635
 10
404503.8478636562
 20
4668134.24351568
  0
LWPOLYLINE
  5
CA
330
1F
100
AcDbEntity
  8
LXJD_collections
100
AcDbPolyline
 90
       38
 70
     1
 43
0.0
 10
404500.1150557342
 20
4668230.803418094
 10
404517.7842539805
 20
4668229.786735907
 10
404522.162866016
 20
4668229.727446168
 10
404527.8633960046
 20
4668229.65026073
 10
404529.0680611373
 20
4668227.079666659
 10
404533.9918789091
 20
4668218.461519258
 10
404534.6362293952
 20
4668217.231228252
 10
404540.1188041096
 20
4668201.05356463
 10
404543.0687886764
 20
4668187.020284026
 10
404543.0627769428
 20
4668186.576197522
 10
404543.6305409236
 20
4668185.791032801
 10
404543.6245282256
 20
4668185.346872275
 10
404546.6663665087
 20
4668178.08703728
 10
404551.6802836887
 20
4668170.022873747
 10
404561.4829886399
 20
4668149.45565627
 10
404559.433981602
 20
4668138.488652536
 10
404546.0756547079
 20
4668134.449250842
 10
404535.979765963
 20
4668133.364192953
 10
404519.6953342854
 20
4668139.026618225
 10
404513.9721757346
 20
4668137.438140434
 10
404509.5935063024
 20
4668137.49743431
 10
404506.4374813457
 20
4668136.318591929
 10
404504.5313138063
 20
4668135.900160931
 10
404502.6085301811
 20
4668134.260299635
 10
404500.7083771785
 20
4668134.286033312
 10
404479.149692772
 20
4668122.694854452
 10
404470.1030402908
 20
4668122.817407045
 10
404470.9810827953
 20
4668123.582923966
 10
404464.2533946007
 20
4668139.333224024
 10
404455.0172088867
 20
4668159.004601741
 10
404452.1365936864
 20
4668178.145574879
 10
404444.1516988947
 20
4668192.580235651
 10
404438.5550437463
 20
4668200.319116982
 10
404437.5952112316
 20
4668201.158781903
 10
404446.8258052977
 20
4668206.981581676
 10
404455.2363991974
 20
4668217.862326105
 10
404474.2563183664
 20
4668231.153685432
 10
404493.193331778
 20
4668232.229883969
  0
LWPOLYLINE
  5
CB
330
1F
100
AcDbEntity
  8
LXJD_collections
100
AcDbPolyline
 90
       25
 70
     1
 43
0.0
 10
401061.9767426688
 20
4672332.228653713
 10
401076.366814039
 20
4672321.919917176
 10
401076.8902495294
 20
4672318.025499159
 10
401076.8543744654
 20
4672315.471581418
 10
401081.7366571425
 20
4672304.408038801
 10
401082.3503757428
 20
4672301.067650708
 10
401084.6838571603
 20
4672284.931099653
 10
401079.9828790047
 20
4672266.835723751
 10
401078.7011337633
 20
4672264.691175548
 10
401075.9325607324
 20
4672249.847994968
 10
401075.2172682121
 20
4672240.084619972
 10
401073.9381664747
 20
4672237.215009719
 10
401060.5493485212
 20
4672230.628478181
 10
401044.2707529948
 20
4672235.85485964
 10
401031.7218689391
 20
4672242.028540439
 10
401030.5239668047
 20
4672244.932877633
 10
401029.8696214516
 20
4672245.386367038
 10
401030.542693488
 20
4672246.265421374
 10
401027.6484526164
 20
4672263.631528265
 10
401028.5773711504
 20
4672282.720807332
 10
401030.6561013768
 20
4672301.349659731
 10
401030.8886135878
 20
4672317.894350461
 10
401036.1624876568
 20
4672334.701500257
 10
401043.1106836376
 20
4672335.492289297
 10
401053.1902794272
 20
4672335.794946481
  0
LWPOLYLINE
  5
CC
330
1F
100
AcDbEntity
  8
LXJD_collections
100
AcDbPolyline
 90
       36
 70
     1
 43
0.0
 10
401145.7853687005
 20
4672554.72708843
 10
401148.8278289366
 20
4672547.909770095
 10
401150.6738107005
 20
4672544.107782353
 10
401158.6639721227
 20
4672530.89050998
 10
401159.8540793856
 20
4672527.430984253
 10
401167.8738433502
 20
4672510.4372595
 10
401172.1594460041
 20
4672503.935578572
 10
401173.96345286
 20
4672497.13560545
 10
401167.4811211845
 20
4672482.455578624
 10
401165.4386722968
 20
4672472.266573056
 10
401164.5459709738
 20
4672455.731148403
 10
401147.9425602453
 20
4672436.871364811
 10
401137.1257435849
 20
4672432.016011943
 10
401124.3916086957
 20
4672424.975790384
 10
401117.3842637773
 20
4672419.965490606
 10
401107.4482526369
 20
4672429.878263656
 10
401104.4245648376
 20
4672438.028219347
 10
401101.4180363014
 20
4672447.399458349
 10
401097.6198765893
 20
4672447.452801353
 10
401087.1106722893
 20
4672457.706957567
 10
401082.8189165769
 20
4672469.650673674
 10
401074.7992559741
 20
4672480.758258373
 10
401066.1252978112
 20
4672492.319380396
 10
401064.9695507385
 20
4672498.221801139
 10
401067.0838250157
 20
4672513.518441408
 10
401070.2931451132
 20
4672518.58212744
 10
401077.9593585129
 20
4672523.472112509
 10
401083.0021404729
 20
4672523.845550226
 10
401093.7482966114
 20
4672530.469313207
 10
401105.8451819592
 20
4672539.184256187
 10
401106.5415337433
 20
4672541.728817414
 10
401107.1429337348
 20
4672543.386309616
 10
401112.2932913521
 20
4672551.421343835
 10
401123.1749400634
 20
4672561.819287659
 10
401129.491965302
 20
4672564.729195062
 10
401130.8130067556
 20
4672564.710646842
  0
LWPOLYLINE
  5
CD
330
1F
100
AcDbEntity
  8
LXJD_collections
100
AcDbPolyline
 90
       21
 70
     1
 43
0.0
 10
404294.1693666379
 20
4667083.812988305
 10
404298.4883396096
 20
4667073.203779698
 10
404303.320859018
 20
4667057.812281889
 10
404301.1341231151
 20
4667036.741004863
 10
404297.303216901
 20
4667035.653382796
 10
404296.6540003236
 20
4667035.469065368
 10
404290.3575479508
 20
4667034.332869643
 10
404283.2901081868
 20
4667025.099929073
 10
404274.2181498799
 20
4667008.231194882
 10
404264.7817522955
 20
4667007.137553366
 10
404249.0792919347
 20
4667013.236778178
 10
404234.7516897119
 20
4667023.204371195
 10
404232.8737740666
 20
4667024.895734268
 10
404218.5676341807
 20
4667042.526018152
 10
404201.1907179847
 20
4667059.198566516
 10
404200.0504567958
 20
4667060.489224648
 10
404211.3122524613
 20
4667062.059691052
 10
404236.5956252232
 20
4667067.713476364
 10
404258.0825226302
 20
4667073.752089935
 10
404277.7064297769
 20
4667076.484406954
 10
404293.0066900122
 20
4667084.524927768
  0
LWPOLYLINE
  5
CE
330
1F
100
AcDbEntity
  8
LXJD_collections
100
AcDbPolyline
 90
       30
 70
     1
 43
0.0
 10
404284.8557803598
 20
4667183.113985779
 10
404295.8819988645
 20
4667161.308102136
 10
404304.4250474512
 20
4667139.20272122
 10
404317.3699015612
 20
4667118.703492888
 10
404318.5807970189
 20
4667116.576986854
 10
404321.5128188539
 20
4667101.211227587
 10
404320.2161446032
 20
4667097.00864362
 10
404318.8968767522
 20
4667091.140512431
 10
404319.15379678
 20
4667089.704536987
 10
404308.1204642131
 20
4667088.732296238
 10
404298.0630851508
 20
4667091.513009227
 10
404288.6892803288
 20
4667094.104650415
 10
404271.1497798749
 20
4667104.8930935
 10
404256.2125197119
 20
4667118.644944984
 10
404241.8477360814
 20
4667131.944797757
 10
404238.7892026232
 20
4667137.983410366
 10
404238.4234545376
 20
4667153.647578591
 10
404229.0884084876
 20
4667166.101670017
 10
404226.6427905469
 20
4667168.578154119
 10
404224.7664247049
 20
4667170.380560558
 10
404224.8523618362
 20
4667176.709663558
 10
404226.7163760419
 20
4667176.458170049
 10
404234.9164338504
 20
4667175.351419101
 10
404246.2184292349
 20
4667173.865214968
 10
404247.4638883194
 20
4667174.292613828
 10
404252.5780722595
 20
4667179.665067412
 10
404265.450693696
 20
4667196.482144381
 10
404272.4547794518
 20
4667201.051578113
 10
404274.9456072634
 20
4667201.906160789
 10
404275.7734485242
 20
4667201.894926117
  0
LWPOLYLINE
  5
CF
330
1F
100
AcDbEntity
  8
LXJD_collections
100
AcDbPolyline
 90
       15
 70
     1
 43
0.0
 10
404465.3226873462
 20
4667230.53709606
 10
404472.6079480028
 20
4667228.483187707
 10
404478.9962645072
 20
4667226.682186046
 10
404500.2074143728
 20
4667212.401774664
 10
404500.8623811507
 20
4667211.948678072
 10
404501.3468715444
 20
4667210.402701736
 10
404502.7342934909
 20
4667209.813209698
 10
404503.1679037099
 20
4667206.702468955
 10
404503.2615483098
 20
4667206.030123541
 10
404500.0976691626
 20
4667204.296041938
 10
404489.3214252391
 20
4667201.887669347
 10
404483.0371847187
 20
4667201.6395561
 10
404467.3755942489
 20
4667210.736243535
 10
404463.1798313448
 20
4667224.342193523
 10
404463.2715710999
 20
4667231.115391274
  0
LWPOLYLINE
  5
D0
330
1F
100
AcDbEntity
  8
LXJD_collections
100
AcDbPolyline
 90
       36
 70
     1
 43
0.0
 10
404348.5531536545
 20
4667236.446143123
 10
404353.2187483965
 20
4667236.07096919
 10
404352.3315065508
 20
4667234.728941249
 10
404355.2349359846
 20
4667217.253641804
 10
404358.8475390299
 20
4667203.322376982
 10
404362.4527795034
 20
4667188.836009727
 10
404364.7704705272
 20
4667176.92136665
 10
404366.4707326634
 20
4667162.127639835
 10
404370.7248814784
 20
4667146.743930086
 10
404379.9729949302
 20
4667133.958043961
 10
404390.4437853516
 20
4667113.825622482
 10
404390.9131945024
 20
4667113.402909514
 10
404377.7277969627
 20
4667108.55621671
 10
404360.0134490259
 20
4667100.355893151
 10
404357.4232721334
 20
4667098.280927248
 10
404335.9004764013
 20
4667089.57717842
 10
404319.4346610971
 20
4667088.134580723
 10
404319.15379678
 20
4667089.704536987
 10
404318.8968767522
 20
4667091.140512431
 10
404320.2161446032
 20
4667097.00864362
 10
404321.5128188539
 20
4667101.211227587
 10
404318.5807970189
 20
4667116.576986854
 10
404317.3699015612
 20
4667118.703492888
 10
404304.4250474512
 20
4667139.20272122
 10
404295.8819988645
 20
4667161.308102136
 10
404284.8557803598
 20
4667183.113985779
 10
404275.7734485242
 20
4667201.894926117
 10
404275.6111841232
 20
4667202.230337795
 10
404276.2842948008
 20
4667203.109663231
 10
404281.4224694532
 20
4667210.258633195
 10
404287.133123206
 20
4667216.955675812
 10
404299.1939656032
 20
4667222.678098056
 10
404303.6905414939
 20
4667225.171443036
 10
404306.1874586314
 20
4667226.470327157
 10
404317.0314433595
 20
4667233.875098172
 10
404338.5237884759
 20
4667240.358092032
  0
LWPOLYLINE
  5
D1
330
1F
100
AcDbEntity
  8
LXJD_collections
100
AcDbPolyline
 90
       42
 70
     1
 43
0.0
 10
404418.2581598422
 20
4667257.490687639
 10
404436.3984881912
 20
4667248.360286375
 10
404445.1944178071
 20
4667244.909345279
 10
404448.316176308
 20
4667243.534373929
 10
404460.7447139026
 20
4667233.703963275
 10
404465.3226873462
 20
4667230.53709606
 10
404463.2715710999
 20
4667231.115391274
 10
404463.1798313448
 20
4667224.342193523
 10
404467.3755942489
 20
4667210.736243535
 10
404483.0371847187
 20
4667201.6395561
 10
404489.3214252391
 20
4667201.887669347
 10
404500.0976691626
 20
4667204.296041938
 10
404503.2615483098
 20
4667206.030123541
 10
404503.1679037099
 20
4667206.702468955
 10
404505.8169933508
 20
4667205.55129718
 10
404510.7535774162
 20
4667197.821543275
 10
404510.9573108655
 20
4667183.586702801
 10
404511.0509248909
 20
4667177.049635487
 10
404500.1512995174
 20
4667159.427932725
 10
404484.7837804516
 20
4667141.422614153
 10
404461.3186265922
 20
4667135.743169888
 10
404439.1605914328
 20
4667128.935725443
 10
404432.8401775372
 20
4667126.022735251
 10
404419.5217214861
 20
4667118.984414579
 10
404412.9815763648
 20
4667115.882475011
 10
404397.895237432
 20
4667108.727014654
 10
404392.3217131865
 20
4667112.134322926
 10
404390.9131945024
 20
4667113.402909514
 10
404390.4437853516
 20
4667113.825622482
 10
404379.9729949302
 20
4667133.958043961
 10
404370.7248814784
 20
4667146.743930086
 10
404366.4707326634
 20
4667162.127639835
 10
404364.7704705272
 20
4667176.92136665
 10
404362.4527795034
 20
4667188.836009727
 10
404358.8475390299
 20
4667203.322376982
 10
404355.2349359846
 20
4667217.253641804
 10
404352.3315065508
 20
4667234.728941249
 10
404353.2187483965
 20
4667236.07096919
 10
404358.1532187175
 20
4667243.534699524
 10
404370.7923201328
 20
4667249.249451304
 10
404389.8118301867
 20
4667256.210262111
 10
404400.5879570323
 20
4667258.618537802
  0
LWPOLYLINE
  5
D2
330
1F
100
AcDbEntity
  8
LXJD_collections
100
AcDbPolyline
 90
        7
 70
     1
 43
0.0
 10
405106.0467865494
 20
4672932.585057819
 10
405108.6058450726
 20
4672930.57325619
 10
405095.8349118718
 20
4672917.161889656
 10
405087.8234480151
 20
4672913.173867725
 10
405072.2380696225
 20
4672928.107458686
 10
405070.4540142172
 20
4672938.667026719
 10
405080.9478039455
 20
4672957.001535188
  0
LWPOLYLINE
  5
D3
330
1F
100
AcDbEntity
  8
LXJD_collections
100
AcDbPolyline
 90
       18
 70
     1
 43
0.0
 10
404616.4409284496
 20
4668253.883797329
 10
404625.1141596739
 20
4668241.438971265
 10
404627.4604043333
 20
4668231.634211363
 10
404633.5980564459
 20
4668215.003561915
 10
404644.2210390913
 20
4668212.305537591
 10
404650.4683569671
 20
4668203.780715079
 10
404646.5658364895
 20
4668196.28146816
 10
404642.1286428304
 20
4668192.010213881
 10
404638.3403094559
 20
4668192.950001988
 10
404632.1680827042
 20
4668207.026654308
 10
404627.9035966732
 20
4668215.524745305
 10
404624.2129004252
 20
4668223.681981054
 10
404615.6193273726
 20
4668242.011642037
 10
404614.4192150499
 20
4668244.915387068
 10
404612.5881134906
 20
4668250.048781858
 10
404608.9394967646
 20
4668255.206835057
 10
404608.5166938532
 20
4668259.925670145
 10
404612.7368196979
 20
4668261.041478347
  0
LWPOLYLINE
  5
D4
330
1F
100
AcDbEntity
  8
LXJD_collections
100
AcDbPolyline
 90
       28
 70
     1
 43
0.0
 10
404531.9073708752
 20
4668387.964093762
 10
404531.2013245684
 20
4668384.641969895
 10
404522.2233649219
 20
4668374.546175206
 10
404517.1102187831
 20
4668369.173574241
 10
404509.4659947988
 20
4668359.948173408
 10
404502.4572471491
 20
4668354.934472179
 10
404496.6877098051
 20
4668349.903915305
 10
404486.5064600998
 20
4668342.489952765
 10
404480.1525353432
 20
4668337.023083166
 10
404473.098539289
 20
4668328.678221043
 10
404465.9979647186
 20
4668316.891266895
 10
404465.2964683623
 20
4668313.90221021
 10
404454.5066888285
 20
4668304.275250167
 10
404450.022951992
 20
4668302.670145823
 10
404446.9301874562
 20
4668306.154931345
 10
404441.4765808031
 20
4668324.442287443
 10
404440.9554137958
 20
4668328.669530693
 10
404445.505581614
 20
4668341.268465851
 10
404449.3464784349
 20
4668344.215039716
 10
404453.7370571771
 20
4668345.044007639
 10
404464.5446100974
 20
4668349.895121387
 10
404472.1918483633
 20
4668353.234363561
 10
404477.3050398839
 20
4668358.606871455
 10
404488.7555049981
 20
4668368.224912223
 10
404500.8728984429
 20
4668378.278080281
 10
404507.2207561826
 20
4668383.300860963
 10
404516.1627114618
 20
4668390.731589717
 10
404526.9085080976
 20
4668391.03038154
  0
LWPOLYLINE
  5
D5
330
1F
100
AcDbEntity
  8
LXJD_collections
100
AcDbPolyline
 90
       27
 70
     1
 43
0.0
 10
404535.2653561925
 20
4669099.689482578
 10
404539.5456915254
 20
4669092.41275353
 10
404540.7622276496
 20
4669090.730381452
 10
404543.780928118
 20
4669081.804830456
 10
404546.2891562365
 20
4669077.883887949
 10
404552.3837958002
 20
4669064.252233173
 10
404557.9182114238
 20
4669051.961002447
 10
404557.3129111424
 20
4669049.096728721
 10
404547.1162910237
 20
4669047.442803121
 10
404538.869057947
 20
4669042.445759644
 10
404535.6668958464
 20
4669037.824662351
 10
404533.0609928873
 20
4669034.528277193
 10
404524.9461466991
 20
4669039.302564612
 10
404519.2688308168
 20
4669041.045368213
 10
404519.3545546994
 20
4669047.374500852
 10
404518.8620627343
 20
4669053.711459435
 10
404519.5260025177
 20
4669060.032749204
 10
404518.3214972557
 20
4669062.603417614
 10
404518.3275134701
 20
4669063.047597235
 10
404520.319229739
 20
4669069.795155392
 10
404520.3718675788
 20
4669073.681500418
 10
404520.4636070575
 20
4669080.454782489
 10
404519.3042235
 20
4669086.356558572
 10
404519.957633449
 20
4669091.900582045
 10
404519.9907202289
 20
4669094.343411688
 10
404521.4102310438
 20
4669101.542948933
 10
404526.4776784516
 20
4669103.584470264
  0
LWPOLYLINE
  5
D6
330
1F
100
AcDbEntity
  8
LXJD_collections
100
AcDbPolyline
 90
       23
 70
     1
 43
0.0
 10
404985.7602817212
 20
4672355.7144966
 10
404995.804976961
 20
4672353.468908657
 10
404995.7195907824
 20
4672347.139700538
 10
405012.6776221575
 20
4672343.135001596
 10
405026.4259160639
 20
4672339.950946869
 10
405034.0385293383
 20
4672341.069952095
 10
405062.267951046
 20
4672333.914753534
 10
405091.2207053899
 20
4672331.414417403
 10
405094.9487566871
 20
4672337.058396605
 10
405093.0285146749
 20
4672324.61547411
 10
405090.7133987377
 20
4672293.772400409
 10
405083.1818040061
 20
4672292.541292212
 10
405047.3215759834
 20
4672297.244886291
 10
405037.9851217627
 20
4672260.166234836
 10
405023.3065326355
 20
4672243.372222645
 10
404979.2013214209
 20
4672249.075878256
 10
404960.6557899204
 20
4672270.094068835
 10
404954.2028014055
 20
4672294.922569132
 10
404953.3314856127
 20
4672298.275109431
 10
404952.2556508933
 20
4672302.414382801
 10
404956.8834924414
 20
4672321.009773082
 10
404967.2984172518
 20
4672346.190501476
 10
404973.0885984955
 20
4672365.896419014
  0
LWPOLYLINE
  5
D7
330
1F
100
AcDbEntity
  8
LXJD_collections
100
AcDbPolyline
 90
       21
 70
     1
 43
0.0
 10
404988.680961818
 20
4672378.622398343
 10
404993.5764591348
 20
4672378.042896091
 10
405015.5829230325
 20
4672374.858511594
 10
405035.0884220645
 20
4672369.931044461
 10
405035.6544601747
 20
4672369.034935835
 10
405047.6266797354
 20
4672368.873497866
 10
405086.6016164186
 20
4672362.462017745
 10
405100.8477005155
 20
4672341.057877202
 10
405097.0375473686
 20
4672340.22067068
 10
405094.9487566871
 20
4672337.058396605
 10
405091.2207053899
 20
4672331.414417403
 10
405062.267951046
 20
4672333.914753534
 10
405034.0385293383
 20
4672341.069952095
 10
405026.4259160639
 20
4672339.950946869
 10
405012.6776221575
 20
4672343.135001596
 10
404995.7195907824
 20
4672347.139700538
 10
404995.804976961
 20
4672353.468908657
 10
404985.7602817212
 20
4672355.7144966
 10
404973.0885984955
 20
4672365.896419014
 10
404970.1561885751
 20
4672368.252635321
 10
404973.4585308623
 20
4672380.424477011
  0
LWPOLYLINE
  5
D8
330
1F
100
AcDbEntity
  8
LXJD_collections
100
AcDbPolyline
 90
        6
 70
     1
 43
0.0
 10
405187.467455522
 20
4672880.079152434
 10
405175.0907794207
 20
4672850.149027161
 10
405142.3204859953
 20
4672871.199320985
 10
405149.0666415679
 20
4672878.042054831
 10
405152.0755468555
 20
4672892.819297059
 10
405159.9721636483
 20
4672898.66314545
  0
LWPOLYLINE
  5
D9
330
1F
100
AcDbEntity
  8
LXJD_collections
100
AcDbPolyline
 90
       17
 70
     1
 43
0.0
 10
405125.6491096203
 20
4672917.339054879
 10
405152.426807957
 20
4672894.54452806
 10
405152.0755468555
 20
4672892.819297059
 10
405149.0666415679
 20
4672878.042054831
 10
405142.3204859953
 20
4672871.199320985
 10
405130.4807482947
 20
4672859.190368143
 10
405122.025288664
 20
4672851.338800418
 10
405114.3439427919
 20
4672876.84400853
 10
405088.2371437002
 20
4672900.407099434
 10
405085.3649400105
 20
4672910.04352229
 10
405084.8638229356
 20
4672911.724586749
 10
405093.3281237083
 20
4672915.91402632
 10
405095.4985525286
 20
4672916.994447569
 10
405095.9501381738
 20
4672917.301420306
 10
405097.7413708833
 20
4672919.16391153
 10
405108.5944076173
 20
4672930.561216111
 10
405110.7395763197
 20
4672932.310740768
  0
LWPOLYLINE
  5
DA
330
1F
100
AcDbEntity
  8
LXJD_collections
100
AcDbPolyline
 90
       34
 70
     1
 43
0.0
 10
406129.8991135791
 20
4666676.997958034
 10
406131.8056363776
 20
4666677.416848048
 10
406146.9497796199
 20
4666678.881290682
 10
406152.0758220019
 20
4666678.71945324
 10
406163.1486584612
 20
4666666.449449312
 10
406174.3483372673
 20
4666650.974666013
 10
406183.9405842271
 20
4666640.914648755
 10
406191.0845599256
 20
4666629.207043328
 10
406199.734508703
 20
4666614.654651946
 10
406202.6700119224
 20
4666610.143343596
 10
406201.4801048773
 20
4666609.189643349
 10
406188.7675626397
 20
4666597.919844939
 10
406172.8145500888
 20
4666585.360503293
 10
406162.0380167613
 20
4666582.949503209
 10
406142.5362872013
 20
4666583.208922877
 10
406128.6152148157
 20
4666580.506646471
 10
406116.6376215304
 20
4666580.999188309
 10
406114.7370571492
 20
4666581.024480204
 10
406097.7999462299
 20
4666587.69120125
 10
406080.2431351379
 20
4666591.256586837
 10
406073.1434740822
 20
4666602.456794047
 10
406071.5815716448
 20
4666604.920885386
 10
406067.1872795991
 20
4666610.088039707
 10
406048.4044378827
 20
4666620.888520556
 10
406034.8308206288
 20
4666638.060990026
 10
406033.5308667022
 20
4666639.744096634
 10
406031.6761672704
 20
4666643.211633413
 10
406032.3933996829
 20
4666647.42225545
 10
406040.8506914423
 20
4666668.077219741
 10
406055.1253568159
 20
4666680.933929402
 10
406061.1656577945
 20
4666679.245557508
 10
406077.6201195247
 20
4666679.803962117
 10
406095.2551142403
 20
4666682.123425868
 10
406109.7986073485
 20
4666681.929854005
  0
LWPOLYLINE
  5
DB
330
1F
100
AcDbEntity
  8
LXJD_collections
100
AcDbPolyline
 90
       40
 70
     1
 43
0.0
 10
406025.890034976
 20
4666587.316055167
 10
406013.2792317322
 20
4666583.708025101
 10
406012.0678102843
 20
4666585.834232784
 10
406010.2915081099
 20
4666595.186693516
 10
406003.3841778865
 20
4666597.833049049
 10
406003.4685046372
 20
4666604.162192104
 10
406004.0913752823
 20
4666607.485567425
 10
406003.5646666562
 20
4666611.379622567
 10
406015.5629891462
 20
4666612.441382328
 10
406017.6336530028
 20
4666625.185326335
 10
406016.38399596
 20
4666630.64384149
 10
406007.6706757311
 20
4666634.202614314
 10
405995.7108567463
 20
4666636.027833626
 10
405992.5280442053
 20
4666639.06881964
 10
405993.2453746704
 20
4666643.279439858
 10
405995.2080640438
 20
4666647.917649315
 10
405996.1458453539
 20
4666668.672764841
 10
406001.4853705782
 20
4666691.035170815
 10
406007.8557755024
 20
4666697.724807471
 10
406015.3694469259
 20
4666697.18044732
 10
406026.7669539936
 20
4666696.584358861
 10
406036.1368672883
 20
4666692.683588715
 10
406049.2961065331
 20
4666687.843923369
 10
406060.2091133282
 20
4666683.963906253
 10
406060.4112876485
 20
4666683.891979174
 10
406059.7455653241
 20
4666683.704308297
 10
406055.6618198009
 20
4666681.417052117
 10
406055.1253568159
 20
4666680.933929402
 10
406040.8506914423
 20
4666668.077219741
 10
406032.3933996829
 20
4666647.42225545
 10
406031.6761672704
 20
4666643.211633413
 10
406033.5308667022
 20
4666639.744096634
 10
406034.8308206288
 20
4666638.060990026
 10
406048.4044378827
 20
4666620.888520556
 10
406067.1872795991
 20
4666610.088039707
 10
406071.5815716448
 20
4666604.920885386
 10
406073.1434740822
 20
4666602.456794047
 10
406065.1566186495
 20
4666600.34196713
 10
406058.2698698455
 20
4666598.323602288
 10
406044.353226074
 20
4666595.954599107
  0
LWPOLYLINE
  5
DC
330
1F
100
AcDbEntity
  8
LXJD_collections
100
AcDbPolyline
 90
       29
 70
     1
 43
0.0
 10
406145.4554026276
 20
4666709.44171633
 10
406148.5673704912
 20
4666707.290211269
 10
406154.9522916139
 20
4666708.871195303
 10
406156.7540287063
 20
4666707.625561207
 10
406159.9486195431
 20
4666705.472961722
 10
406160.5152110842
 20
4666704.577060871
 10
406161.1928362572
 20
4666702.059841838
 10
406155.334246322
 20
4666694.095443377
 10
406151.9903656438
 20
4666678.814234789
 10
406152.0758220019
 20
4666678.71945324
 10
406146.9497796199
 20
4666678.881290682
 10
406131.8056363776
 20
4666677.416848048
 10
406129.8991135791
 20
4666676.997958034
 10
406109.7986073485
 20
4666681.929854005
 10
406095.2551142403
 20
4666682.123425868
 10
406077.6201195247
 20
4666679.803962117
 10
406061.1656577945
 20
4666679.245557508
 10
406055.1253568159
 20
4666680.933929402
 10
406055.6618198009
 20
4666681.417052117
 10
406059.7455653241
 20
4666683.704308297
 10
406060.4112876485
 20
4666683.891979174
 10
406060.2091133282
 20
4666683.963906253
 10
406063.8174870798
 20
4666685.984770337
 10
406069.5251585604
 20
4666686.353030411
 10
406090.9715579637
 20
4666689.399147768
 10
406113.052438666
 20
4666690.437875507
 10
406120.0157912289
 20
4666692.011134706
 10
406132.2060195767
 20
4666707.507892516
 10
406144.8828317848
 20
4666709.893589584
  0
LWPOLYLINE
  5
DD
330
1F
100
AcDbEntity
  8
LXJD_collections
100
AcDbPolyline
 90
       34
 70
     1
 43
0.0
 10
406234.6507173732
 20
4666729.467516887
 10
406243.9292011279
 20
4666718.68275385
 10
406245.7678247918
 20
4666713.993935963
 10
406248.2231322309
 20
4666705.96515076
 10
406254.3232663206
 20
4666692.335235209
 10
406258.5906825755
 20
4666683.838241025
 10
406264.1404778209
 20
4666672.325572035
 10
406269.6282574564
 20
4666656.149367339
 10
406268.8152778003
 20
4666644.721419645
 10
406262.4672123058
 20
4666639.69714706
 10
406261.760369805
 20
4666636.263709093
 10
406244.541567934
 20
4666621.721926703
 10
406227.988084178
 20
4666607.50461769
 10
406211.3976727206
 20
4666596.730510887
 10
406202.6700119224
 20
4666610.143343596
 10
406199.734508703
 20
4666614.654651946
 10
406191.0845599256
 20
4666629.207043328
 10
406183.9405842271
 20
4666640.914648755
 10
406174.3483372673
 20
4666650.974666013
 10
406163.1486584612
 20
4666666.449449312
 10
406152.0758220019
 20
4666678.71945324
 10
406151.9903656438
 20
4666678.814234789
 10
406155.334246322
 20
4666694.095443377
 10
406161.1928362572
 20
4666702.059841838
 10
406163.6670619935
 20
4666705.423500649
 10
406167.42248902
 20
4666701.930823564
 10
406180.0549961387
 20
4666700.985401687
 10
406180.6438138141
 20
4666701.754982469
 10
406186.4916643031
 20
4666712.671844647
 10
406194.1456774224
 20
4666716.457040656
 10
406209.3796950536
 20
4666724.694816479
 10
406212.6156744748
 20
4666731.870523394
 10
406213.9053648116
 20
4666735.62931585
 10
406227.8216677225
 20
4666737.998597039
  0
LWPOLYLINE
  5
DE
330
1F
100
AcDbEntity
  8
LXJD_collections
100
AcDbPolyline
 90
       20
 70
     1
 43
0.0
 10
406796.9357485221
 20
4673460.317489109
 10
406796.6151564779
 20
4673459.750279419
 10
406794.7266673291
 20
4673460.552765043
 10
406781.5297984508
 20
4673461.615907619
 10
406772.7082718173
 20
4673462.621204081
 10
406768.9549011261
 20
4673466.002607359
 10
406768.4725638556
 20
4673473.227799598
 10
406762.7771567453
 20
4673498.142672493
 10
406762.4629945298
 20
4673499.517045425
 10
406765.3369433578
 20
4673523.24533948
 10
406765.4353142
 20
4673530.672651466
 10
406769.2240294552
 20
4673529.968406924
 10
406802.0165491906
 20
4673527.926986263
 10
406802.4398126289
 20
4673519.52626105
 10
406816.2828255604
 20
4673517.128887142
 10
406823.699596141
 20
4673509.812030313
 10
406819.855407757
 20
4673500.089801161
 10
406816.4785932223
 20
4673488.251369287
 10
406811.2473115014
 20
4673473.54983051
 10
406803.7172495092
 20
4673472.316839116
  0
LWPOLYLINE
  5
DF
330
1F
100
AcDbEntity
  8
LXJD_collections
100
AcDbPolyline
 90
       44
 70
     1
 43
0.0
 10
404353.6502908788
 20
4671046.338660566
 10
404359.8105284512
 20
4671037.703528324
 10
404359.1464783916
 20
4671031.382168043
 10
404356.5578420479
 20
4671029.307209026
 10
404350.2241593199
 20
4671025.172992063
 10
404345.7466228704
 20
4671023.901145474
 10
404336.9642193064
 20
4671021.910289247
 10
404336.2989985416
 20
4671021.586143803
 10
404335.060246392
 20
4671021.602964625
 10
404322.447637773
 20
4671023.440059109
 10
404318.0646529425
 20
4671023.055371576
 10
404316.8032743735
 20
4671023.072502913
 10
404315.5212440345
 20
4671024.31159314
 10
404308.0061650244
 20
4671024.413664822
 10
404303.5526767501
 20
4671024.918369968
 10
404302.9746223215
 20
4671024.926221947
 10
404299.1697656363
 20
4671024.533693262
 10
404296.5991340912
 20
4671023.791148079
 10
404294.127664752
 20
4671024.269008911
 10
404287.1620519697
 20
4671022.253533804
 10
404286.4953195726
 20
4671021.818304766
 10
404286.5526440341
 20
4671026.037734967
 10
404284.7332239628
 20
4671031.948549828
 10
404282.8624402698
 20
4671034.084068603
 10
404281.6478290019
 20
4671035.877568323
 10
404281.6704585437
 20
4671037.543149344
 10
404284.2652982408
 20
4671040.062281019
 10
404285.5100802593
 20
4671040.489507376
 10
404287.4094508401
 20
4671040.463702698
 10
404289.8869487834
 20
4671040.430044404
 10
404291.7908447931
 20
4671040.737356922
 10
404294.9350727581
 20
4671041.138928714
 10
404303.7834438624
 20
4671041.907229496
 10
404314.4906117242
 20
4671039.651698124
 10
404317.6347623772
 20
4671040.053133265
 10
404323.9110755801
 20
4671039.967894415
 10
404326.4711419141
 20
4671039.933127662
 10
404328.9365773529
 20
4671039.011222949
 10
404328.9426095882
 20
4671039.455426952
 10
404328.3931319762
 20
4671041.572987837
 10
404334.0435012392
 20
4671044.050568339
 10
404341.6577111708
 20
4671045.16877825
 10
404346.0632217256
 20
4671047.219132223
 10
404351.7675053835
 20
4671047.585896165
  0
LWPOLYLINE
  5
E0
330
1F
100
AcDbEntity
  8
LXJD_collections
100
AcDbPolyline
 90
       23
 70
     1
 43
0.0
 10
404337.1493781745
 20
4671084.211543648
 10
404343.2763177595
 20
4671073.133554311
 10
404338.7909135925
 20
4671065.198307122
 10
404328.7444713288
 20
4671067.444822133
 10
404314.2144871658
 20
4671067.975330829
 10
404307.2548809921
 20
4671066.403905275
 10
404303.6572410957
 20
4671064.740910866
 10
404288.2982621652
 20
4671063.329730235
 10
404270.029478132
 20
4671062.245316963
 10
404266.2079658961
 20
4671060.63128923
 10
404258.0323050007
 20
4671060.742391973
 10
404260.7070459275
 20
4671069.146487223
 10
404263.8979656264
 20
4671072.990203744
 10
404266.3860141433
 20
4671073.733779514
 10
404274.6971078295
 20
4671077.507848524
 10
404289.8488693479
 20
4671080.189534096
 10
404296.8326006178
 20
4671083.537522668
 10
404296.1599153721
 20
4671082.658168261
 10
404309.4242887779
 20
4671086.253951295
 10
404310.6691372558
 20
4671086.681325835
 10
404313.8958361622
 20
4671087.081708444
 10
404318.301329488
 20
4671089.132032414
 10
404325.9215254136
 20
4671090.69434372
  0
LWPOLYLINE
  5
E1
330
1F
100
AcDbEntity
  8
LXJD_collections
100
AcDbPolyline
 90
       23
 70
     1
 43
0.0
 10
404354.8683584841
 20
4671136.057451298
 10
404363.6307540752
 20
4671130.496544247
 10
404366.0614188408
 20
4671127.020782417
 10
404365.4321236985
 20
4671123.253384839
 10
404361.1599758856
 20
4671113.888338768
 10
404353.319072556
 20
4671113.200330691
 10
404350.0983441364
 20
4671113.244058396
 10
404338.1553484458
 20
4671109.630272686
 10
404319.8160435681
 20
4671109.435115968
 10
404317.2994345114
 20
4671106.581834554
 10
404298.3246773572
 20
4671102.175055119
 10
404280.0273306182
 20
4671098.980858449
 10
404275.5799257546
 20
4671099.929703822
 10
404273.1371511076
 20
4671102.517259867
 10
404271.5018420518
 20
4671121.974764058
 10
404272.797837256
 20
4671126.177377483
 10
404277.2380935416
 20
4671130.781471344
 10
404291.1691837235
 20
4671134.812413134
 10
404306.9136301733
 20
4671132.488460593
 10
404322.709358129
 20
4671133.939784041
 10
404335.2452307494
 20
4671132.547884231
 10
404339.7211944522
 20
4671133.708764018
 10
404353.6356572984
 20
4671136.518467096
  0
LWPOLYLINE
  5
E2
330
1F
100
AcDbEntity
  8
LXJD_collections
100
AcDbPolyline
 90
       31
 70
     1
 43
0.0
 10
408716.6055934739
 20
4669666.441706724
 10
408715.0199841746
 20
4669661.324670761
 10
408714.7836117577
 20
4669660.56196848
 10
408714.6717767785
 20
4669661.398681284
 10
408711.5384337502
 20
4669662.065065683
 10
408711.5168605917
 20
4669660.399474484
 10
408706.8975533792
 20
4669641.801912907
 10
408700.5481393881
 20
4669636.331263574
 10
408686.1374202929
 20
4669646.290948933
 10
408675.5915089496
 20
4669654.867860184
 10
408673.6485466215
 20
4669651.561364242
 10
408671.6553720064
 20
4669644.368501985
 10
408667.8111642911
 20
4669640.975659313
 10
408665.9056791779
 20
4669640.556063768
 10
408654.7709902852
 20
4669654.693382238
 10
408646.0870334993
 20
4669666.689066126
 10
408641.781244625
 20
4669672.297602538
 10
408629.3409336564
 20
4669687.673628224
 10
408616.328278772
 20
4669703.501275868
 10
408605.7619433898
 20
4669716.853967247
 10
408619.726175806
 20
4669723.447383302
 10
408633.6946235417
 20
4669730.373773534
 10
408645.115559965
 20
4669738.332967253
 10
408654.6410110373
 20
4669746.649743564
 10
408655.2960652998
 20
4669746.19704638
 10
408655.7073576085
 20
4669745.711575624
 10
408672.7085861094
 20
4669725.647993428
 10
408690.0328003583
 20
4669704.656084357
 10
408704.3456712903
 20
4669687.145875341
 10
408713.9878013241
 20
4669673.491098652
 10
408717.3253998691
 20
4669668.764497337
  0
LWPOLYLINE
  5
E3
330
1F
100
AcDbEntity
  8
LXJD_collections
100
AcDbPolyline
 90
       21
 70
     1
 43
0.0
 10
408683.9563055264
 20
4669771.257505086
 10
408700.1787874027
 20
4669754.499991529
 10
408704.4917581375
 20
4669749.446499374
 10
408716.2971903456
 20
4669736.077900226
 10
408720.7028349877
 20
4669731.800717474
 10
408729.9765654769
 20
4669720.686017231
 10
408738.0171069962
 20
4669710.031564372
 10
408742.4270209274
 20
4669706.087556571
 10
408740.4568608212
 20
4669700.671349421
 10
408739.9963726284
 20
4669700.097650562
 10
408728.2817717257
 20
4669685.503230111
 10
408726.9501473919
 20
4669684.7430317
 10
408714.9179886239
 20
4669674.237493571
 10
408713.9878013241
 20
4669673.491098652
 10
408704.3456712903
 20
4669687.145875341
 10
408690.0328003583
 20
4669704.656084357
 10
408672.7085861094
 20
4669725.647993428
 10
408655.7073576085
 20
4669745.711575624
 10
408667.4539485759
 20
4669760.032590176
 10
408672.5470534358
 20
4669764.186698152
 10
408680.8449878693
 20
4669773.407868369
  0
LWPOLYLINE
  5
E4
330
1F
100
AcDbEntity
  8
LXJD_collections
100
AcDbPolyline
 90
       20
 70
     1
 43
0.0
 10
408605.9097393809
 20
4669874.774151449
 10
408621.4941016359
 20
4669859.801612007
 10
408623.9503212459
 20
4669858.103940358
 10
408627.1269636122
 20
4669854.6199789
 10
408640.1825309943
 20
4669842.12348378
 10
408652.0006333553
 20
4669829.754008509
 10
408651.2909722765
 20
4669825.987340256
 10
408641.0760289885
 20
4669815.458366991
 10
408627.0300146475
 20
4669802.535791229
 10
408613.0385129759
 20
4669793.83267597
 10
408603.7161050678
 20
4669801.172251706
 10
408589.3159443802
 20
4669811.909364378
 10
408573.8156350332
 20
4669826.991960592
 10
408561.6101519312
 20
4669842.091034863
 10
408563.2812665905
 20
4669842.787558224
 10
408571.5230073731
 20
4669847.678195036
 10
408577.8608919765
 20
4669852.260383568
 10
408590.0245175028
 20
4669866.539933329
 10
408599.6554904117
 20
4669876.632131277
 10
408601.0591942958
 20
4669878.150953693
  0
LWPOLYLINE
  5
E5
330
1F
100
AcDbEntity
  8
LXJD_collections
100
AcDbPolyline
 90
       33
 70
     1
 43
0.0
 10
408555.6854046807
 20
4669938.6167309
 10
408562.3156452925
 20
4669936.395858631
 10
408566.3780689609
 20
4669935.035184712
 10
408577.5898269684
 20
4669926.893762111
 10
408579.3081401327
 20
4669924.520070653
 10
408579.4564235605
 20
4669924.315197879
 10
408585.077754291
 20
4669918.245257078
 10
408596.3054747664
 20
4669911.325182129
 10
408608.1723400311
 20
4669902.731016009
 10
408615.0498537978
 20
4669897.97746026
 10
408614.3559406331
 20
4669895.432097994
 10
408605.4367128414
 20
4669882.887363345
 10
408601.0591942958
 20
4669878.150953693
 10
408599.6554904117
 20
4669876.632131277
 10
408590.0245175028
 20
4669866.539933329
 10
408577.8608919765
 20
4669852.260383568
 10
408571.5230073731
 20
4669847.678195036
 10
408563.2812665905
 20
4669842.787558224
 10
408561.6101519312
 20
4669842.091034863
 10
408558.0487087378
 20
4669840.606714037
 10
408550.0875142975
 20
4669844.62457608
 10
408543.3741803172
 20
4669862.036486292
 10
408535.9900707442
 20
4669878.679792115
 10
408532.2396639354
 20
4669882.504381104
 10
408521.0897856385
 20
4669895.420551863
 10
408515.5670743271
 20
4669902.710902697
 10
408523.2691261085
 20
4669916.937179802
 10
408527.1621895282
 20
4669924.105363213
 10
408529.7279674022
 20
4669930.846498129
 10
408532.9602232056
 20
4669938.023172954
 10
408536.7049706151
 20
4669947.705243768
 10
408536.8921737113
 20
4669948.189299393
 10
408537.5586560736
 20
4669948.624918571
  0
LWPOLYLINE
  5
E6
330
1F
100
AcDbEntity
  8
LXJD_collections
100
AcDbPolyline
 90
       36
 70
     1
 43
0.0
 10
408494.6311543436
 20
4669263.631384819
 10
408512.0070011155
 20
4669240.195117749
 10
408526.9930596026
 20
4669230.148540024
 10
408499.7541920223
 20
4669219.142436017
 10
408461.8165793028
 20
4669211.527884946
 10
408425.790265866
 20
4669204.777106133
 10
408381.0090506917
 20
4669204.581574298
 10
408344.778349212
 20
4669226.597529158
 10
408321.8203306634
 20
4669259.102341397
 10
408328.0638370019
 20
4669260.592095923
 10
408342.1244261955
 20
4669263.946965678
 10
408362.2464492726
 20
4669261.131050892
 10
408367.8532547213
 20
4669260.280820492
 10
408391.1967690194
 20
4669257.423111149
 10
408402.5134027556
 20
4669257.2760488
 10
408403.1785882077
 20
4669257.600583998
 10
408403.7567079734
 20
4669257.593071736
 10
408403.7466077157
 20
4669256.815785582
 10
408404.3959204648
 20
4669255.918797201
 10
408411.9070456924
 20
4669255.377109711
 10
408415.7125562794
 20
4669255.771756082
 10
408420.7571191879
 20
4669256.150454667
 10
408421.4294436892
 20
4669257.030270921
 10
408428.3840091979
 20
4669258.161504104
 10
408428.3782382131
 20
4669257.717266733
 10
408428.9506640726
 20
4669257.265739953
 10
408428.95643214
 20
4669257.709755573
 10
408428.9622030884
 20
4669258.153992944
 10
408428.3897792226
 20
4669258.605667523
 10
408437.8555413552
 20
4669262.258583391
 10
408454.2719115903
 20
4669260.379543968
 10
408458.1456836007
 20
4669262.910667436
 10
408461.271094121
 20
4669264.952999699
 10
408474.563957428
 20
4669270.666390611
 10
408486.6351238325
 20
4669277.72829899
 10
408488.1647788096
 20
4669278.41945607
  0
LWPOLYLINE
  5
E7
330
1F
100
AcDbEntity
  8
LXJD_collections
100
AcDbPolyline
 90
       29
 70
     1
 43
0.0
 10
408483.6085574596
 20
4669372.997603389
 10
408515.4945152492
 20
4669368.8641388
 10
408536.2063887852
 20
4669360.599186451
 10
408558.8225139333
 20
4669352.642905872
 10
408575.9563076635
 20
4669348.980887787
 10
408566.2067184256
 20
4669342.329992557
 10
408547.7269513443
 20
4669325.244997649
 10
408531.7684021859
 20
4669311.458903599
 10
408525.6332067709
 20
4669304.045083943
 10
408508.8831027675
 20
4669292.321051119
 10
408487.8913944592
 20
4669279.044626429
 10
408488.1457515605
 20
4669278.463032461
 10
408488.1647788096
 20
4669278.41945607
 10
408486.6351238325
 20
4669277.72829899
 10
408474.563957428
 20
4669270.666390611
 10
408461.271094121
 20
4669264.952999699
 10
408458.1456836007
 20
4669262.910667436
 10
408456.8047338293
 20
4669264.566763957
 10
408449.3931999239
 20
4669272.770135444
 10
408444.4467216983
 20
4669279.941954805
 10
408440.7305718752
 20
4669286.431508896
 10
408427.7940784858
 20
4669308.14448015
 10
408423.4521571008
 20
4669312.890348416
 10
408433.6043062008
 20
4669322.950571301
 10
408441.8367108348
 20
4669327.063711579
 10
408445.1014932311
 20
4669330.35306014
 10
408462.354004946
 20
4669348.342186516
 10
408466.7925166175
 20
4669352.948915395
 10
408482.1738770214
 20
4669373.183630562
  0
LWPOLYLINE
  5
E8
330
1F
100
AcDbEntity
  8
LXJD_collections
100
AcDbPolyline
 90
       31
 70
     1
 43
0.0
 10
408429.8078306252
 20
4669463.153034912
 10
408453.9233581148
 20
4669430.744414646
 10
408476.2421632932
 20
4669399.914092596
 10
408483.6085574596
 20
4669372.997603389
 10
408482.1738770214
 20
4669373.183630562
 10
408466.7925166175
 20
4669352.948915395
 10
408462.354004946
 20
4669348.342186516
 10
408445.1014932311
 20
4669330.35306014
 10
408441.8367108348
 20
4669327.063711579
 10
408433.6043062008
 20
4669322.950571301
 10
408423.4521571008
 20
4669312.890348416
 10
408421.5216923857
 20
4669315.000404762
 10
408410.0897301633
 20
4669306.264456553
 10
408410.0955013892
 20
4669306.708616983
 10
408405.0293314509
 20
4669304.66440181
 10
408393.6580125971
 20
4669300.592007818
 10
408374.7304662876
 20
4669299.949541358
 10
408372.84219153
 20
4669300.862558238
 10
408373.4145342558
 20
4669300.4108826
 10
408363.3428606433
 20
4669300.986044757
 10
408360.5385779768
 20
4669301.370762286
 10
408360.2198743616
 20
4669302.248219452
 10
408350.0102023067
 20
4669336.697354698
 10
408343.8591994458
 20
4669352.880565502
 10
408342.6375651656
 20
4669354.229074718
 10
408342.8960161389
 20
4669374.104799747
 10
408341.7782725705
 20
4669383.448112971
 10
408342.5600433373
 20
4669399.096917245
 10
408346.5964940838
 20
4669417.257606926
 10
408360.7260622613
 20
4669436.508796247
 10
408387.0318709597
 20
4669470.927473855
  0
LWPOLYLINE
  5
E9
330
1F
100
AcDbEntity
  8
LXJD_collections
100
AcDbPolyline
 90
       32
 70
     1
 43
0.0
 10
411563.573233514
 20
4670264.490443141
 10
411566.6586956067
 20
4670260.2316864
 10
411572.8826519245
 20
4670255.933470013
 10
411583.4605951308
 20
4670243.14046487
 10
411594.6473346257
 20
4670232.783117483
 10
411595.2969505554
 20
4670231.886481307
 10
411600.1915860433
 20
4670226.908828561
 10
411591.3236287016
 20
4670218.054471697
 10
411587.4868179176
 20
4670215.104089878
 10
411574.1496275604
 20
4670205.498645977
 10
411570.31280264
 20
4670202.548267899
 10
411569.0530260593
 20
4670200.898286596
 10
411567.814224101
 20
4670200.91383244
 10
411567.1534604735
 20
4670200.922124514
 10
411563.9884683506
 20
4670198.851807641
 10
411560.1627835863
 20
4670196.789709399
 10
411558.9183330224
 20
4670196.361156056
 10
411546.4120403156
 20
4670189.707762185
 10
411543.1336309876
 20
4670195.781830185
 10
411539.4755425185
 20
4670200.49206893
 10
411529.2998698316
 20
4670197.36777993
 10
411526.1825419206
 20
4670200.992153713
 10
411525.0565879416
 20
4670210.001717173
 10
411525.1778748971
 20
4670219.66193926
 10
411523.7941122073
 20
4670224.875023825
 10
411522.8116613952
 20
4670228.576083061
 10
411526.7150842585
 20
4670243.408444038
 10
411535.253080747
 20
4670249.783910975
 10
411535.6373503953
 20
4670250.070812616
 10
411546.6815406019
 20
4670264.536261627
 10
411547.8150935635
 20
4670266.020949842
 10
411557.9970790827
 20
4670274.333358624
  0
LWPOLYLINE
  5
EA
330
1F
100
AcDbEntity
  8
LXJD_collections
100
AcDbPolyline
 90
       30
 70
     1
 43
0.0
 10
411589.2899449145
 20
4670306.146607215
 10
411598.6731647631
 20
4670303.474643317
 10
411612.4215881138
 20
4670293.196166345
 10
411616.8702819908
 20
4670292.251888018
 10
411622.4543728429
 20
4670289.627603591
 10
411626.2061835007
 20
4670285.804697702
 10
411637.3985565121
 20
4670275.891502043
 10
411638.5606609127
 20
4670274.287526363
 10
411638.043922885
 20
4670274.661803691
 10
411634.8943756414
 20
4670273.812891096
 10
411622.7057063475
 20
4670256.97435725
 10
411608.5755654436
 20
4670236.82844475
 10
411602.1983517212
 20
4670228.912506972
 10
411600.1915860433
 20
4670226.908828561
 10
411595.2969505554
 20
4670231.886481307
 10
411594.6473346257
 20
4670232.783117483
 10
411583.4605951308
 20
4670243.14046487
 10
411572.8826519245
 20
4670255.933470013
 10
411566.6586956067
 20
4670260.2316864
 10
411563.573233514
 20
4670264.490443141
 10
411557.9970790827
 20
4670274.333358624
 10
411547.8150935635
 20
4670266.020949842
 10
411546.6815406019
 20
4670264.536261627
 10
411549.0915889348
 20
4670269.003351444
 10
411561.2636958961
 20
4670284.509371482
 10
411565.0990886747
 20
4670287.348759368
 10
411565.1102354049
 20
4670288.236951288
 10
411567.0307550344
 20
4670289.878766746
 10
411569.036386212
 20
4670294.122333385
 10
411575.4315044084
 20
4670307.65313839
  0
LWPOLYLINE
  5
EB
330
1F
100
AcDbEntity
  8
LXJD_collections
100
AcDbPolyline
 90
       29
 70
     1
 43
0.0
 10
411553.088949779
 20
4670330.810941068
 10
411554.3110780966
 20
4670329.462889633
 10
411561.7152156015
 20
4670320.485652857
 10
411567.1910053632
 20
4670302.648062562
 10
411569.036386212
 20
4670294.122333385
 10
411567.0307550344
 20
4670289.878766746
 10
411565.1102354049
 20
4670288.236951288
 10
411565.0990886747
 20
4670287.348759368
 10
411561.2636958961
 20
4670284.509371482
 10
411549.0915889348
 20
4670269.003351444
 10
411546.6815406019
 20
4670264.536261627
 10
411535.6373503953
 20
4670250.070812616
 10
411535.253080747
 20
4670249.783910975
 10
411533.2125132565
 20
4670254.321369806
 10
411532.5783146401
 20
4670256.439351614
 10
411530.0709795998
 20
4670260.690941955
 10
411529.5096014601
 20
4670262.030714685
 10
411527.0399093863
 20
4670269.280181053
 10
411519.037671024
 20
4670283.262640522
 10
411518.8423197386
 20
4670283.134830283
 10
411515.334789687
 20
4670290.971888365
 10
411511.7032638021
 20
4670297.791829357
 10
411514.9908548074
 20
4670309.633513387
 10
411523.3694090052
 20
4670325.631254417
 10
411523.6310199993
 20
4670326.568490527
 10
411524.6668182954
 20
4670330.279272432
 10
411524.6988846789
 20
4670332.833178268
 10
411530.4715095956
 20
4670338.646599573
 10
411539.3252781491
 20
4670339.868155889
  0
LWPOLYLINE
  5
EC
330
1F
100
AcDbEntity
  8
LXJD_collections
100
AcDbPolyline
 90
       33
 70
     1
 43
0.0
 10
411470.6148835557
 20
4670341.064261898
 10
411473.0043230482
 20
4670339.972997895
 10
411470.5786120654
 20
4670338.177215143
 10
411469.8062589914
 20
4670329.302544244
 10
411468.4767263748
 20
4670322.100625588
 10
411468.4502200901
 20
4670319.990883552
 10
411469.5342274718
 20
4670307.650146468
 10
411471.0878071887
 20
4670280.089023937
 10
411474.6791748984
 20
4670270.907581727
 10
411474.1091128822
 20
4670270.722379231
 10
411472.244638886
 20
4670266.96993657
 10
411471.9892918558
 20
4670266.360713864
 10
411462.1951503115
 20
4670269.206286359
 10
411460.8736355668
 20
4670269.222890575
 10
411435.7309887598
 20
4670273.314708704
 10
411408.6943321102
 20
4670277.874593602
 10
411402.4230995461
 20
4670278.397679594
 10
411396.7243150145
 20
4670278.469332477
 10
411385.4526829937
 20
4670282.053804865
 10
411386.9680910341
 20
4670304.023628169
 10
411386.886111789
 20
4670307.990208745
 10
411386.5572815817
 20
4670323.90767914
 10
411391.776529646
 20
4670330.94704248
 10
411394.9600517869
 20
4670335.240784564
 10
411406.9437214661
 20
4670342.308573179
 10
411423.8930662448
 20
4670336.987030484
 10
411431.5024230123
 20
4670337.77978411
 10
411434.6520440424
 20
4670338.628671047
 10
411437.8113585307
 20
4670340.254796557
 10
411442.2712405777
 20
4670340.198745361
 10
411451.1292842805
 20
4670341.753185668
 10
411452.3792256256
 20
4670342.626026009
 10
411458.6616396835
 20
4670342.991319884
  0
LWPOLYLINE
  5
ED
330
1F
100
AcDbEntity
  8
LXJD_collections
100
AcDbPolyline
 90
       68
 70
     1
 43
0.0
 10
412129.0105791355
 20
4669874.944139875
 10
412130.3639341933
 20
4669877.481581483
 10
412134.8038166131
 20
4669882.423584889
 10
412153.6239826336
 20
4669874.637296213
 10
412169.3470428203
 20
4669870.221299143
 10
412174.7794706395
 20
4669868.997136727
 10
412175.6076073725
 20
4669868.810560036
 10
412182.530426936
 20
4669867.502695734
 10
412195.6875368903
 20
4669862.674463345
 10
412209.531739595
 20
4669859.947749488
 10
412212.9876760539
 20
4669859.398996953
 10
412235.3370375833
 20
4669855.850499433
 10
412237.2366934362
 20
4669855.826843058
 10
412255.4626722049
 20
4669853.378797258
 10
412269.9071685355
 20
4669852.421565757
 10
412281.3467922218
 20
4669855.610828288
 10
412290.2327904607
 20
4669859.387126392
 10
412300.9138187768
 20
4669861.36425948
 10
412319.3922993203
 20
4669872.572980505
 10
412332.0102418992
 20
4669877.524486905
 10
412347.2245886388
 20
4669885.331244263
 10
412355.4650585608
 20
4669890.337227671
 10
412358.7014036661
 20
4669891.518647376
 10
412362.418114741
 20
4669891.47242826
 10
412360.8374930236
 20
4669885.654342204
 10
412361.1060768563
 20
4669885.602724051
 10
412364.1341959171
 20
4669876.680839107
 10
412362.8731713931
 20
4669874.91953959
 10
412363.4718319398
 20
4669869.914737553
 10
412365.1881835201
 20
4669861.786331215
 10
412365.7964363131
 20
4669857.55866093
 10
412368.6450880689
 20
4669834.201781075
 10
412368.6188553832
 20
4669832.09204598
 10
412368.5926236185
 20
4669829.98238418
 10
412369.6987653492
 20
4669812.644066988
 10
412370.8742737725
 20
4669807.520927285
 10
412370.7528088979
 20
4669807.074473017
 10
412370.8632295374
 20
4669806.632676769
 10
412374.5686892357
 20
4669799.034860563
 10
412375.0834040052
 20
4669793.920001676
 10
412376.1897457463
 20
4669783.244973562
 10
412376.8353617388
 20
4669782.015335369
 10
412375.3962389684
 20
4669765.930310278
 10
412373.4813732718
 20
4669764.732503481
 10
412367.2040380183
 20
4669764.810553374
 10
412345.1604129261
 20
4669765.86209731
 10
412336.3171443433
 20
4669765.527817652
 10
412329.4107747615
 20
4669768.168003412
 10
412321.2821102763
 20
4669772.155989931
 10
412319.9702491553
 20
4669772.949727679
 10
412311.3421226153
 20
4669783.27409633
 10
412310.0882906087
 20
4669788.73145988
 10
412294.9110793408
 20
4669783.922820788
 10
412272.8260538254
 20
4669781.643416815
 10
412259.6521521741
 20
4669785.138952827
 10
412258.4187348824
 20
4669785.59857772
 10
412247.0730009202
 20
4669789.959914714
 10
412233.3431070937
 20
4669795.239421766
 10
412221.4136528549
 20
4669799.163869783
 10
412197.5300305933
 20
4669805.014106577
 10
412190.6334319061
 20
4669808.431635521
 10
412190.6389663046
 20
4669808.87583478
 10
412171.7508544353
 20
4669811.221188712
 10
412163.6486193252
 20
4669817.319151639
 10
412145.4120413679
 20
4669825.542388262
 10
412129.8143183297
 20
4669833.399617847
 10
412128.498336305
 20
4669833.860292436
 10
412121.8533677037
 20
4669850.823416375
  0
LWPOLYLINE
  5
EE
330
1F
100
AcDbEntity
  8
LXJD_collections
100
AcDbPolyline
 90
       26
 70
     1
 43
0.0
 10
412602.023575853
 20
4670502.633486792
 10
412602.6182900277
 20
4670502.399525768
 10
412593.5294120497
 20
4670482.189274862
 10
412585.709468524
 20
4670464.406515396
 10
412581.1807911216
 20
4670452.246725936
 10
412578.4360315414
 20
4670437.399344219
 10
412577.1709506474
 20
4670435.305012349
 10
412577.1557970829
 20
4670434.083628559
 10
412576.6843494971
 20
4670429.552790096
 10
412575.8907894247
 20
4670431.989294993
 10
412575.2618092638
 20
4670434.55135541
 10
412574.0436418354
 20
4670436.232269252
 10
412556.3214688294
 20
4670432.565309444
 10
412539.8903618786
 20
4670426.439072142
 10
412523.4442110097
 20
4670419.091478728
 10
412513.6260081989
 20
4670415.134506423
 10
412512.6855811737
 20
4670417.448206175
 10
412506.0170175791
 20
4670439.186654316
 10
412499.3263621742
 20
4670459.148559278
 10
412502.5171513885
 20
4670463.32897868
 10
412502.9015400822
 20
4670463.510205483
 10
412520.8794043921
 20
4670471.985437337
 10
412541.2774205219
 20
4670484.947729013
 10
412560.8838994582
 20
4670494.032894467
 10
412581.1289472635
 20
4670501.333504673
 10
412599.4125672167
 20
4670503.660922608
  0
LWPOLYLINE
  5
EF
330
1F
100
AcDbEntity
  8
LXJD_collections
100
AcDbPolyline
 90
       33
 70
     1
 43
0.0
 10
414644.3782330325
 20
4671699.963019316
 10
414659.2631430604
 20
4671681.125633819
 10
414662.3866021385
 20
4671673.091919892
 10
414657.1235828458
 20
4671654.498596638
 10
414651.225476865
 20
4671638.023012782
 10
414647.170151797
 20
4671616.860872759
 10
414636.8134874052
 20
4671593.664931953
 10
414631.0552480734
 20
4671588.737377093
 10
414623.4629574782
 20
4671582.388284815
 10
414605.0456243947
 20
4671568.729752097
 10
414599.9157374555
 20
4671561.129227303
 10
414597.2117928998
 20
4671549.279199967
 10
414596.5620047539
 20
4671550.175532844
 10
414592.9026591594
 20
4671554.884212279
 10
414583.0897198995
 20
4671576.547659234
 10
414581.2726750377
 20
4671583.343872595
 10
414592.7657615464
 20
4671598.085886076
 10
414598.4890189787
 20
4671600.126519887
 10
414599.7478348508
 20
4671601.777060649
 10
414593.0323417996
 20
4671620.07127557
 10
414593.0484985104
 20
4671621.403748099
 10
414580.1235397567
 20
4671645.214971486
 10
414575.8759400414
 20
4671662.702039182
 10
414577.2428957077
 20
4671666.461257944
 10
414583.5952594804
 20
4671672.714241776
 10
414585.4496180692
 20
4671674.301144757
 10
414585.5146142974
 20
4671674.356826399
 10
414602.6540693414
 20
4671684.810114257
 10
414615.333060905
 20
4671695.20662716
 10
414615.9194740002
 20
4671696.665881456
 10
414623.0065286015
 20
4671701.443677817
 10
414634.15958815
 20
4671701.58877421
 10
414640.6826042589
 20
4671701.67358467
  0
LWPOLYLINE
  5
F0
330
1F
100
AcDbEntity
  8
LXJD_collections
100
AcDbPolyline
 90
       39
 70
     1
 43
0.0
 10
407411.8873231139
 20
4675597.377522967
 10
407414.9182459382
 20
4675589.341481475
 10
407416.7550000909
 20
4675584.652870486
 10
407420.312465456
 20
4675572.722763214
 10
407423.3419483229
 20
4675564.575681685
 10
407425.8447532381
 20
4675560.322582526
 10
407428.8201869632
 20
4675548.06706534
 10
407430.6569628228
 20
4675543.378505131
 10
407431.8393895126
 20
4675539.142696113
 10
407423.590084823
 20
4675533.25419589
 10
407408.3980707125
 20
4675526.679597989
 10
407402.0644165535
 20
4675522.098481184
 10
407395.6423923916
 20
4675517.074310963
 10
407385.484572228
 20
4675510.433480695
 10
407374.1004740392
 20
4675504.697317088
 10
407371.6245644497
 20
4675504.729915903
 10
407363.8594515803
 20
4675510.430968717
 10
407366.6247546261
 20
4675513.680362002
 10
407369.8711527652
 20
4675515.74775023
 10
407374.3183069114
 20
4675521.242118943
 10
407374.9844242488
 20
4675521.67749365
 10
407380.634437773
 20
4675524.490713216
 10
407383.2717933436
 20
4675530.453051557
 10
407389.0599305409
 20
4675537.484562734
 10
407394.7332371377
 20
4675542.074350093
 10
407396.6431465723
 20
4675542.937644268
 10
407397.881094574
 20
4675542.921349047
 10
407406.8126020206
 20
4675550.466812417
 10
407406.8959054408
 20
4675556.79600753
 10
407406.247330559
 20
4675557.693050839
 10
407402.0340713327
 20
4675569.96485557
 10
407400.1753235235
 20
4675572.987795581
 10
407400.2484032809
 20
4675578.539784204
 10
407394.7198351587
 20
4675584.942898641
 10
407392.2286038736
 20
4675590.084345815
 10
407387.67967698
 20
4675597.943059487
 10
407401.2097522764
 20
4675601.405024851
 10
407407.5097232971
 20
4675603.43220988
 10
407408.1860629037
 20
4675604.644987664
  0
LWPOLYLINE
  5
F1
330
1F
100
AcDbEntity
  8
LXJD_collections
100
AcDbPolyline
 90
       36
 70
     1
 43
0.0
 10
407403.1556039741
 20
4675485.861842771
 10
407403.8678310249
 20
4675485.790333621
 10
407404.5567863324
 20
4675485.596692353
 10
407405.2015363717
 20
4675485.286802642
 10
407405.7824907601
 20
4675484.870080301
 10
407406.2819975101
 20
4675484.35918719
 10
407406.6848793569
 20
4675483.769646502
 10
407406.97889493
 20
4675483.119371101
 10
407407.1551106913
 20
4675482.428119241
 10
407407.2081723787
 20
4675481.716894247
 10
407407.1364677065
 20
4675481.007306321
 10
407406.9421753442
 20
4675480.320915936
 10
407406.6311987368
 20
4675479.678578743
 10
407406.2129867279
 20
4675479.099811856
 10
407405.7002464624
 20
4675478.602200848
 10
407405.1085572962
 20
4675478.200865419
 10
407404.4558974161
 20
4675477.907999976
 10
407403.7620975862
 20
4675477.732503113
 10
407403.0482385969
 20
4675477.679707238
 10
407402.3360107268
 20
4675477.751216528
 10
407401.6470546997
 20
4675477.944858206
 10
407401.0023041252
 20
4675478.25474855
 10
407400.4213494507
 20
4675478.671471668
 10
407399.9218426982
 20
4675479.182365606
 10
407399.5189611329
 20
4675479.771907069
 10
407399.2249460911
 20
4675480.422183107
 10
407399.048731047
 20
4675481.11343538
 10
407398.995670176
 20
4675481.824660522
 10
407399.0673756655
 20
4675482.534248307
 10
407399.2616687475
 20
4675483.220638279
 10
407399.57264589
 20
4675483.862974842
 10
407399.9908581849
 20
4675484.441740952
 10
407400.503598453
 20
4675484.939351134
 10
407401.0952873378
 20
4675485.340685787
 10
407401.7479466866
 20
4675485.633550595
 10
407402.4417457993
 20
4675485.809047041
  0
LWPOLYLINE
  5
F2
330
1F
100
AcDbEntity
  8
LXJD_collections
100
AcDbPolyline
 90
       27
 70
     1
 43
0.0
 10
411204.7981899073
 20
4675598.456150717
 10
411202.1513412904
 20
4675584.940697274
 10
411182.6300000279
 20
4675588.185606767
 10
411176.4167225083
 20
4675592.928460242
 10
411176.4545756916
 20
4675595.926453811
 10
411174.8396724121
 20
4675618.380193334
 10
411173.9270237549
 20
4675644.156763782
 10
411169.6442235681
 20
4675651.429533751
 10
411164.5808067161
 20
4675655.713563989
 10
411162.1596588152
 20
4675660.075332713
 10
411157.1885834911
 20
4675665.135713503
 10
411149.1362026981
 20
4675674.566123193
 10
411151.1044152864
 20
4675680.094086561
 10
411160.6036467514
 20
4675687.192771498
 10
411168.8692285366
 20
4675694.640206374
 10
411178.403266095
 20
4675697.962520618
 10
411178.9865364736
 20
4675698.399427783
 10
411187.8057177121
 20
4675697.399610854
 10
411186.9590953356
 20
4675682.639837801
 10
411187.5547854056
 20
4675677.52369713
 10
411188.5459770149
 20
4675657.965288679
 10
411188.4772877282
 20
4675652.524422956
 10
411187.2015195989
 20
4675649.542007991
 10
411193.3180324233
 20
4675637.137523444
 10
411194.5795940481
 20
4675632.457220782
 10
411200.7031447747
 20
4675620.608007628
 10
411201.3143435551
 20
4675616.713278538
  0
LWPOLYLINE
  5
F3
330
1F
100
AcDbEntity
  8
LXJD_collections
100
AcDbPolyline
 90
       36
 70
     1
 43
0.0
 10
411811.9750089735
 20
4672587.650668907
 10
411820.8092971779
 20
4672587.540034154
 10
411822.6498180964
 20
4672582.852616251
 10
411824.4118989582
 20
4672579.797411888
 10
411830.0046822703
 20
4672570.100272441
 10
411831.0831791646
 20
4672557.31534525
 10
411834.1335796707
 20
4672543.728367744
 10
411835.7372577454
 20
4672526.716880661
 10
411835.0967762871
 20
4672521.727471162
 10
411833.0170273575
 20
4672507.316236879
 10
411824.6207217607
 20
4672489.652455328
 10
411822.6633038705
 20
4672485.012753553
 10
411816.8495798439
 20
4672475.756825794
 10
411811.1600370325
 20
4672469.831177857
 10
411810.4953879485
 20
4672469.506258347
 10
411807.3676925591
 20
4672470.322775451
 10
411792.8683151471
 20
4672473.058656709
 10
411779.7483263104
 20
4672480.441653384
 10
411770.3944105218
 20
4672485.223211069
 10
411767.1896676005
 20
4672486.484959656
 10
411754.6983469648
 20
4672491.305773064
 10
411760.5232719219
 20
4672501.449841315
 10
411769.5185925378
 20
4672520.771853311
 10
411776.6028078926
 20
4672532.56609317
 10
411777.9934534091
 20
4672538.10134536
 10
411785.6597312351
 20
4672550.221511457
 10
411787.6129857101
 20
4672554.528195061
 10
411788.2998832536
 20
4672556.629662614
 10
411790.2052845187
 20
4672563.713269196
 10
411790.2692691513
 20
4672568.821021449
 10
411792.2475527455
 20
4672575.126368626
 10
411794.2007975882
 20
4672579.433112532
 10
411790.2770975459
 20
4672586.819856768
 10
411793.7285161024
 20
4672587.879210947
 10
411800.2272785272
 20
4672588.13710487
 10
411810.7476789717
 20
4672588.554526331
  0
LWPOLYLINE
  5
F4
330
1F
100
AcDbEntity
  8
LXJD_collections
100
AcDbPolyline
 90
       27
 70
     1
 43
0.0
 10
411809.243764768
 20
4672672.864426837
 10
411812.1452331062
 20
4672661.744969254
 10
411814.6805611728
 20
4672652.029017136
 10
411819.5249917513
 20
4672636.642635935
 10
411821.2973629122
 20
4672626.514359594
 10
411823.6574621017
 20
4672617.156187385
 10
411830.3119484934
 20
4672594.639637877
 10
411832.7601076708
 20
4672585.724568234
 10
411824.4118989582
 20
4672579.797411888
 10
411822.6498180964
 20
4672582.852616251
 10
411820.8092971779
 20
4672587.540034154
 10
411811.9750089735
 20
4672587.650668907
 10
411810.7476789717
 20
4672588.554526331
 10
411800.2272785272
 20
4672588.13710487
 10
411798.8705918654
 20
4672596.254972513
 10
411793.3378926986
 20
4672609.428868938
 10
411792.1480511422
 20
4672613.330796604
 10
411787.3454654598
 20
4672632.048196301
 10
411787.3552029444
 20
4672632.825476585
 10
411783.130483479
 20
4672651.535737294
 10
411783.1360481728
 20
4672651.979906805
 10
411782.5845683718
 20
4672654.096859525
 10
411782.6109996868
 20
4672656.206571338
 10
411780.8664407925
 20
4672668.555512586
 10
411789.7367955492
 20
4672671.331894718
 10
411790.5160201391
 20
4672671.430772198
 10
411804.8721573919
 20
4672673.252341113
  0
LWPOLYLINE
  5
F5
330
1F
100
AcDbEntity
  8
LXJD_collections
100
AcDbPolyline
 90
       64
 70
     1
 43
0.0
 10
411722.6144955704
 20
4672744.692239845
 10
411724.3589282939
 20
4672732.343265524
 10
411725.5596982127
 20
4672729.329647699
 10
411726.6811991661
 20
4672719.98702625
 10
411726.5809712471
 20
4672711.992194217
 10
411727.2039153306
 20
4672708.985959992
 10
411729.5011439411
 20
4672694.630967606
 10
411731.2080207256
 20
4672679.28386863
 10
411733.6505293553
 20
4672669.924697245
 10
411733.6143389049
 20
4672667.037638855
 10
411736.6348393566
 20
4672657.671133442
 10
411739.0100495534
 20
4672649.534271983
 10
411740.1482861437
 20
4672641.524059175
 10
411742.5588838721
 20
4672629.610876886
 10
411743.1544492148
 20
4672627.71551814
 10
411739.3894395566
 20
4672627.096311131
 10
411736.8146833288
 20
4672625.907014523
 10
411724.7999287683
 20
4672622.614924967
 10
411717.2811122668
 20
4672622.264947245
 10
411713.4678992502
 20
4672621.091111543
 10
411712.7809107655
 20
4672618.989670861
 10
411712.7113011886
 20
4672613.437855802
 10
411712.0595992501
 20
4672607.560097732
 10
411713.8680223133
 20
4672600.318761713
 10
411716.9623130007
 20
4672596.837325409
 10
411718.8138994271
 20
4672593.038157194
 10
411719.2916584321
 20
4672585.036157272
 10
411719.0869917048
 20
4672583.769550772
 10
411718.6969633472
 20
4672583.711030032
 10
411717.3703889021
 20
4672583.283418011
 10
411712.3451490721
 20
4672584.234762655
 10
411708.080696193
 20
4672593.172729825
 10
411708.1071486244
 20
4672595.282386206
 10
411705.7360556135
 20
4672603.752358789
 10
411703.891365397
 20
4672608.106612025
 10
411702.0872060074
 20
4672615.681052493
 10
411701.4754028452
 20
4672619.5756718
 10
411701.485149788
 20
4672620.352953596
 10
411698.4758173708
 20
4672630.607792201
 10
411695.9846781825
 20
4672636.080776281
 10
411694.2587567486
 20
4672643.320972974
 10
411693.6358209816
 20
4672646.327312056
 10
411693.0171365785
 20
4672649.666683943
 10
411692.5032093526
 20
4672654.78177176
 10
411691.874779194
 20
4672657.343936024
 10
411688.8543366498
 20
4672666.710388822
 10
411688.2843999428
 20
4672673.936206127
 10
411686.5345162392
 20
4672685.841123988
 10
411685.3434277149
 20
4672689.631894574
 10
411683.5029538252
 20
4672694.319355953
 10
411683.5349860348
 20
4672696.87322305
 10
411683.5447341629
 20
4672697.650422517
 10
411680.5884650489
 20
4672712.12477139
 10
411679.9920043381
 20
4672717.24077699
 10
411676.9925741458
 20
4672728.27290364
 10
411675.1367940099
 20
4672731.738834119
 10
411675.8446777556
 20
4672735.505909758
 10
411679.6634075037
 20
4672737.123868895
 10
411690.4186735426
 20
4672738.765832535
 10
411699.1910398022
 20
4672740.321601498
 10
411708.7275086476
 20
4672743.533731484
 10
411715.0244001352
 20
4672745.231636601
 10
411718.1770948221
 20
4672746.413657476
 10
411722.2805637146
 20
4672747.148985527
  0
LWPOLYLINE
  5
F6
330
1F
100
AcDbEntity
  8
LXJD_collections
100
AcDbPolyline
 90
       45
 70
     1
 43
0.0
 10
411748.0128325271
 20
4672761.698502607
 10
411757.9684386464
 20
4672752.245137389
 10
411765.3645920675
 20
4672742.823773353
 10
411764.0260527481
 20
4672734.844559786
 10
411763.8980380092
 20
4672724.628994538
 10
411763.7227157585
 20
4672710.638264526
 10
411764.8497616407
 20
4672701.739719491
 10
411765.4574161972
 20
4672697.511971138
 10
411764.6855728416
 20
4672688.637204963
 10
411765.3029686579
 20
4672685.186723405
 10
411766.4843607827
 20
4672680.618690188
 10
411767.0961925628
 20
4672676.724036984
 10
411767.6453394765
 20
4672667.832691741
 10
411770.0164826324
 20
4672659.362817947
 10
411771.2020555192
 20
4672655.127803726
 10
411774.8928097963
 20
4672646.530303804
 10
411777.8869424956
 20
4672635.054147182
 10
411778.2274157894
 20
4672633.916702753
 10
411770.9196213101
 20
4672632.587154327
 10
411767.7822642467
 20
4672632.626466015
 10
411760.2592874768
 20
4672631.943333656
 10
411755.7841611073
 20
4672630.666767214
 10
411755.7799865397
 20
4672630.333657533
 10
411750.1601647683
 20
4672629.959847343
 10
411748.82803419
 20
4672629.08806152
 10
411746.9193830609
 20
4672628.334654129
 10
411743.1544492148
 20
4672627.71551814
 10
411742.5588838721
 20
4672629.610876886
 10
411740.1482861437
 20
4672641.524059175
 10
411739.0100495534
 20
4672649.534271983
 10
411736.6348393566
 20
4672657.671133442
 10
411733.6143389049
 20
4672667.037638855
 10
411733.6505293553
 20
4672669.924697245
 10
411731.2080207256
 20
4672679.28386863
 10
411729.5011439411
 20
4672694.630967606
 10
411727.2039153306
 20
4672708.985959992
 10
411726.5809712471
 20
4672711.992194217
 10
411726.6811991661
 20
4672719.98702625
 10
411725.5596982127
 20
4672729.329647699
 10
411724.3589282939
 20
4672732.343265524
 10
411722.6144955704
 20
4672744.692239845
 10
411722.2805637146
 20
4672747.148985527
 10
411721.4048910508
 20
4672753.591849203
 10
411722.9068394062
 20
4672768.010170409
 10
411730.4198577779
 20
4672767.91598128
  0
LWPOLYLINE
  5
F7
330
1F
100
AcDbEntity
  8
LXJD_collections
100
AcDbPolyline
 90
       44
 70
     1
 43
0.0
 10
411793.5597667858
 20
4672877.624927703
 10
411795.3946976846
 20
4672872.493461218
 10
411800.9878951671
 20
4672870.757568106
 10
411812.8590188225
 20
4672862.612810069
 10
411814.0992364947
 20
4672856.156108122
 10
411815.1735420784
 20
4672843.038074052
 10
411817.5711710645
 20
4672836.677934601
 10
411816.3271212336
 20
4672836.249213893
 10
411815.0438556861
 20
4672835.005101428
 10
411816.9236681602
 20
4672831.133308109
 10
411814.9399058047
 20
4672824.383729863
 10
411816.7122870156
 20
4672814.255496243
 10
411817.9020299291
 20
4672810.353609688
 10
411819.6632202435
 20
4672799.337037509
 10
411820.2389143546
 20
4672792.555521742
 10
411820.1916336576
 20
4672788.780192059
 10
411821.3396674145
 20
4672781.547267644
 10
411821.2923873985
 20
4672777.771932111
 10
411820.5094947162
 20
4672768.008864162
 10
411812.3359554234
 20
4672768.111229923
 10
411804.740317654
 20
4672768.206366528
 10
411789.6524550787
 20
4672770.061219789
 10
411780.2404938652
 20
4672770.179137747
 10
411768.2858355745
 20
4672771.661625497
 10
411764.5241957697
 20
4672774.59615827
 10
411764.0102284132
 20
4672779.711149632
 10
411764.6466456526
 20
4672784.367564217
 10
411764.7259584549
 20
4672790.696655679
 10
411763.5891173995
 20
4672798.817976247
 10
411762.4453222301
 20
4672806.384143399
 10
411762.4731511244
 20
4672808.604794523
 10
411763.1094922128
 20
4672813.261117006
 10
411763.1568046463
 20
4672817.036508012
 10
411762.7222324574
 20
4672828.480599732
 10
411762.2259160257
 20
4672841.591355248
 10
411761.0891637147
 20
4672849.712765122
 10
411761.1156032982
 20
4672851.822492745
 10
411764.8741514239
 20
4672854.865762805
 10
411766.7880473442
 20
4672856.415601304
 10
411773.1869238346
 20
4672859.667151625
 10
411783.4234423481
 20
4672872.643440605
 10
411785.3543579946
 20
4672875.173525275
 10
411788.7936885436
 20
4672878.280878943
 10
411789.1126987447
 20
4672878.569164746
  0
LWPOLYLINE
  5
F8
330
1F
100
AcDbEntity
  8
LXJD_collections
100
AcDbPolyline
 90
       51
 70
     1
 43
0.0
 10
411732.1055286812
 20
4672546.672467814
 10
411723.9020041656
 20
4672550.995455436
 10
411719.7182543496
 20
4672566.37351547
 10
411718.649631778
 20
4672579.935736159
 10
411718.6649445235
 20
4672581.157122388
 10
411719.0869917048
 20
4672583.769550772
 10
411719.2916584321
 20
4672585.036157272
 10
411718.8138994271
 20
4672593.038157194
 10
411716.9623130007
 20
4672596.837325409
 10
411713.8680223133
 20
4672600.318761713
 10
411712.0595992501
 20
4672607.560097732
 10
411712.7113011886
 20
4672613.437855802
 10
411712.7809107655
 20
4672618.989670861
 10
411713.4678992502
 20
4672621.091111543
 10
411717.2811122668
 20
4672622.264947245
 10
411724.7999287683
 20
4672622.614924967
 10
411736.8146833288
 20
4672625.907014523
 10
411739.3894395566
 20
4672627.096311131
 10
411743.1544492148
 20
4672627.71551814
 10
411746.9193830609
 20
4672628.334654129
 10
411748.82803419
 20
4672629.08806152
 10
411750.1601647683
 20
4672629.959847343
 10
411755.7799865397
 20
4672630.333657533
 10
411755.7841611073
 20
4672630.666767214
 10
411760.2592874768
 20
4672631.943333656
 10
411767.7822642467
 20
4672632.626466015
 10
411770.9196213101
 20
4672632.587154327
 10
411778.2274157894
 20
4672633.916702753
 10
411782.3411209648
 20
4672634.665180495
 10
411783.5837418085
 20
4672634.982774344
 10
411786.672013458
 20
4672635.851189032
 10
411787.3552029444
 20
4672632.825476585
 10
411787.3454654598
 20
4672632.048196301
 10
411792.1480511422
 20
4672613.330796604
 10
411793.3378926986
 20
4672609.428868938
 10
411798.8705918654
 20
4672596.254972513
 10
411800.2272785272
 20
4672588.13710487
 10
411793.7285161024
 20
4672587.879210947
 10
411790.2770975459
 20
4672586.819856768
 10
411794.2007975882
 20
4672579.433112532
 10
411792.2475527455
 20
4672575.126368626
 10
411790.2692691513
 20
4672568.821021449
 10
411790.2052845187
 20
4672563.713269196
 10
411788.2998832536
 20
4672556.629662614
 10
411787.6129857101
 20
4672554.528195061
 10
411785.6597312351
 20
4672550.221511457
 10
411777.9934534091
 20
4672538.10134536
 10
411776.9039385201
 20
4672533.764764776
 10
411772.2533736692
 20
4672534.730592846
 10
411756.5532475233
 20
4672540.480145178
 10
411747.1827278449
 20
4672543.929240981
  0
LWPOLYLINE
  5
F9
330
1F
100
AcDbEntity
  8
LXJD_collections
100
AcDbPolyline
 90
       29
 70
     1
 43
0.0
 10
409269.5939926355
 20
4672611.877767437
 10
409273.8946932675
 20
4672607.123638816
 10
409289.4197916631
 20
4672587.932882211
 10
409294.40612935
 20
4672583.98163011
 10
409296.8343526103
 20
4672580.174485273
 10
409292.3011513039
 20
4672568.01661864
 10
409290.319177576
 20
4672561.60084183
 10
409281.2616467074
 20
4672544.392738652
 10
409276.678328455
 20
4672528.348636148
 10
409265.0283133097
 20
4672508.619573609
 10
409263.1801786481
 20
4672503.952438059
 10
409263.6424668342
 20
4672497.198621261
 10
409256.5596656756
 20
4672485.8511355
 10
409256.2163105466
 20
4672485.893917953
 10
409237.6794457425
 20
4672488.204509122
 10
409213.7833292696
 20
4672496.337541399
 10
409213.2607128143
 20
4672496.515374197
 10
409213.2721651747
 20
4672497.403663713
 10
409219.8362660291
 20
4672519.752390504
 10
409229.6145691352
 20
4672541.615587078
 10
409231.6066222693
 20
4672548.808586555
 10
409233.4774030732
 20
4672553.004608409
 10
409234.188043614
 20
4672556.882411844
 10
409238.8201058098
 20
4672576.701890313
 10
409251.1582721643
 20
4672604.973365083
 10
409253.1774009659
 20
4672614.275968323
 10
409253.8923192607
 20
4672618.486925748
 10
409255.0718070782
 20
4672621.107575627
 10
409255.3346600335
 20
4672621.691443522
  0
LWPOLYLINE
  5
FA
330
1F
100
AcDbEntity
  8
LXJD_collections
100
AcDbPolyline
 90
       26
 70
     1
 43
0.0
 10
409421.6677037617
 20
4672732.3808283
 10
409406.3073807556
 20
4672713.032505251
 10
409409.1290778319
 20
4672688.452684424
 10
409415.0609424733
 20
4672661.722772895
 10
409420.4635807127
 20
4672638.775705366
 10
409422.1720044686
 20
4672638.186208275
 10
409421.6906067161
 20
4672637.871429018
 10
409405.24592071
 20
4672630.531165738
 10
409398.2820585514
 20
4672628.399605516
 10
409397.6952941662
 20
4672630.394403957
 10
409394.6427383983
 20
4672640.773736237
 10
409389.3285247027
 20
4672664.164001307
 10
409383.9260851379
 20
4672687.111160889
 10
409374.7471763631
 20
4672711.772817957
 10
409374.7586087805
 20
4672712.6610802
 10
409374.7857618428
 20
4672714.770785709
 10
409391.9078914105
 20
4672723.434963224
 10
409394.9383109211
 20
4672723.513993711
 10
409401.4625175987
 20
4672727.976362273
 10
409402.1287623227
 20
4672728.41203043
 10
409403.8908931753
 20
4672724.169256023
 10
409405.7726432301
 20
4672722.812322253
 10
409412.7621233125
 20
4672726.942500222
 10
409419.3022173421
 20
4672733.609768256
 10
409419.7630979171
 20
4672731.961089062
 10
409422.7311703439
 20
4672733.773329746
  0
LWPOLYLINE
  5
FB
330
1F
100
AcDbEntity
  8
LXJD_collections
100
AcDbPolyline
 90
       18
 70
     1
 43
0.0
 10
409434.0712047081
 20
4672714.452240537
 10
409441.9392451789
 20
4672690.584943854
 10
409447.9412753661
 20
4672669.295960274
 10
409455.7837938932
 20
4672643.430086494
 10
409446.9220517922
 20
4672634.992658208
 10
409445.0074254121
 20
4672633.795621593
 10
409426.1275558911
 20
4672636.148524448
 10
409424.2286379741
 20
4672636.172950369
 10
409423.6938791316
 20
4672637.661191843
 10
409422.1720044686
 20
4672638.186208275
 10
409420.4635807127
 20
4672638.775705366
 10
409415.0609424733
 20
4672661.722772895
 10
409409.1290778319
 20
4672688.452684424
 10
409406.3073807556
 20
4672713.032505251
 10
409421.6677037617
 20
4672732.3808283
 10
409422.7311703439
 20
4672733.773329746
 10
409424.572960654
 20
4672734.897744412
 10
409426.7368497365
 20
4672734.869909426
  0
LWPOLYLINE
  5
FC
330
1F
100
AcDbEntity
  8
LXJD_collections
100
AcDbPolyline
 90
       37
 70
     1
 43
0.0
 10
409255.9978725022
 20
4672685.760097794
 10
409249.4011785442
 20
4672660.857382938
 10
409245.5373736223
 20
4672655.798544444
 10
409235.5148395701
 20
4672659.814709672
 10
409231.1332280884
 20
4672659.427019052
 10
409223.9175609153
 20
4672661.063847564
 10
409217.3206243561
 20
4672663.580457292
 10
409216.6565685135
 20
4672663.833793332
 10
409218.6700790611
 20
4672672.692360379
 10
409219.9958502378
 20
4672679.449642635
 10
409221.9119362305
 20
4672680.757672138
 10
409226.9368184055
 20
4672679.804404491
 10
409231.9731531594
 20
4672679.739480881
 10
409232.6823549612
 20
4672683.506375274
 10
409239.2362269156
 20
4672705.077915768
 10
409238.9359080751
 20
4672726.626736717
 10
409245.4510845697
 20
4672745.200269673
 10
409250.6404982934
 20
4672757.016330738
 10
409263.9977586672
 20
4672768.283098842
 10
409282.3583343588
 20
4672776.931059821
 10
409286.2062379461
 20
4672780.768398423
 10
409296.3159522652
 20
4672783.525664886
 10
409300.7585016745
 20
4672782.246876978
 10
409303.8686325856
 20
4672780.096631406
 10
409305.7504240036
 20
4672778.739753566
 10
409309.3841912462
 20
4672772.36276319
 10
409307.9927308483
 20
4672760.497695552
 10
409308.389161604
 20
4672759.652593035
 10
409309.1982683162
 20
4672757.927813015
 10
409306.4469184203
 20
4672754.560103393
 10
409304.0804661266
 20
4672751.663527538
 10
409286.9968389476
 20
4672745.997552966
 10
409269.7487919241
 20
4672727.562278639
 10
409269.1436248721
 20
4672725.460024067
 10
409267.7625439489
 20
4672720.813398093
 10
409265.9018405614
 20
4672717.394669618
 10
409259.9932981835
 20
4672701.034368248
  0
LWPOLYLINE
  5
FD
330
1F
100
AcDbEntity
  8
LXJD_collections
100
AcDbPolyline
 90
       50
 70
     1
 43
0.0
 10
409324.7341144273
 20
4672607.00977623
 10
409324.2913663319
 20
4672609.028674012
 10
409321.9946181868
 20
4672623.051427776
 10
409321.9326337604
 20
4672623.451243032
 10
409322.6665225464
 20
4672623.931195999
 10
409320.881995241
 20
4672632.838673797
 10
409319.4622453124
 20
4672639.392503244
 10
409319.0974737109
 20
4672641.746214884
 10
409317.2325631867
 20
4672650.297965209
 10
409315.184316373
 20
4672661.812715296
 10
409314.3885942008
 20
4672667.238817915
 10
409314.4543760202
 20
4672672.346523298
 10
409313.1705629669
 20
4672675.250607974
 10
409308.3916537787
 20
4672695.302302438
 10
409307.9552559555
 20
4672706.302537901
 10
409308.6419324024
 20
4672714.733994463
 10
409303.1649445949
 20
4672725.465962403
 10
409297.6798780206
 20
4672741.972923555
 10
409301.5335138657
 20
4672746.254529651
 10
409305.3413772078
 20
4672746.98288225
 10
409306.4469184203
 20
4672754.560103393
 10
409309.1982683162
 20
4672757.927813015
 10
409308.389161604
 20
4672759.652593035
 10
409311.1572944479
 20
4672762.566977561
 10
409316.2764387352
 20
4672768.942318724
 10
409322.7909831619
 20
4672781.074628808
 10
409328.509602758
 20
4672789.108037481
 10
409331.0860854903
 20
4672790.407348503
 10
409331.0732201458
 20
4672789.408258296
 10
409339.8200909976
 20
4672782.521142955
 10
409352.8398700806
 20
4672767.583034013
 10
409366.988011209
 20
4672744.079064462
 10
409370.6385815091
 20
4672732.593209618
 10
409372.4289315946
 20
4672724.129889315
 10
409373.6016286559
 20
4672719.006134356
 10
409374.7586087805
 20
4672712.6610802
 10
409374.7471763631
 20
4672711.772817957
 10
409383.9260851379
 20
4672687.111160889
 10
409389.3285247027
 20
4672664.164001307
 10
409394.6427383983
 20
4672640.773736237
 10
409397.6952941662
 20
4672630.394403957
 10
409392.5852240068
 20
4672628.472908203
 10
409376.7195678376
 20
4672614.794998633
 10
409375.3542610476
 20
4672611.369889467
 10
409370.0563451843
 20
4672591.114681733
 10
409348.5036188219
 20
4672578.287450223
 10
409346.2434826089
 20
4672581.31839398
 10
409344.1549182962
 20
4672580.453530834
 10
409331.6913420467
 20
4672593.718662917
 10
409330.0712552137
 20
4672596.813570574
  0
LWPOLYLINE
  5
FE
330
1F
100
AcDbEntity
  8
LXJD_collections
100
AcDbPolyline
 90
       27
 70
     1
 43
0.0
 10
409383.2207015747
 20
4672808.216456105
 10
409393.4071585941
 20
4672788.60585648
 10
409406.9559786564
 20
4672763.443803737
 10
409418.5789420353
 20
4672736.196493093
 10
409419.3022173421
 20
4672733.609768256
 10
409412.7621233125
 20
4672726.942500222
 10
409405.7726432301
 20
4672722.812322253
 10
409403.8908931753
 20
4672724.169256023
 10
409402.1287623227
 20
4672728.41203043
 10
409401.4625175987
 20
4672727.976362273
 10
409394.9383109211
 20
4672723.513993711
 10
409391.9078914105
 20
4672723.434963224
 10
409374.7857618428
 20
4672714.770785709
 10
409374.7586087805
 20
4672712.6610802
 10
409373.6016286559
 20
4672719.006134356
 10
409372.4289315946
 20
4672724.129889315
 10
409370.6385815091
 20
4672732.593209618
 10
409366.988011209
 20
4672744.079064462
 10
409352.8398700806
 20
4672767.583034013
 10
409339.8200909976
 20
4672782.521142955
 10
409331.0732201458
 20
4672789.408258296
 10
409331.0860854903
 20
4672790.407348503
 10
409331.1232637789
 20
4672793.29451965
 10
409332.4275373957
 20
4672798.3864076
 10
409342.0092691661
 20
4672805.03750279
 10
409362.850781098
 20
4672813.986761816
 10
409371.6904757493
 20
4672814.31721238
  0
LWPOLYLINE
  5
FF
330
1F
100
AcDbEntity
  8
LXJD_collections
100
AcDbPolyline
 90
       27
 70
     1
 43
0.0
 10
409449.3353227886
 20
4672822.647026959
 10
409449.7390827932
 20
4672809.092926768
 10
409461.4548590619
 20
4672789.063169733
 10
409460.7615703155
 20
4672786.517815863
 10
409462.6612485434
 20
4672786.549925393
 10
409462.6605216964
 20
4672786.493398204
 10
409462.6548104839
 20
4672786.049234861
 10
409462.055417254
 20
4672784.391146301
 10
409460.1393312008
 20
4672783.083073599
 10
409452.3424063986
 20
4672767.524315767
 10
409444.5950783761
 20
4672749.410758804
 10
409429.9170993696
 20
4672738.160690788
 10
409424.572960654
 20
4672734.897744412
 10
409422.7311703439
 20
4672733.773329746
 10
409419.7630979171
 20
4672731.961089062
 10
409419.3022173421
 20
4672733.609768256
 10
409418.5789420353
 20
4672736.196493093
 10
409406.9559786564
 20
4672763.443803737
 10
409393.4071585941
 20
4672788.60585648
 10
409383.2207015747
 20
4672808.216456105
 10
409380.5145986197
 20
4672813.426319821
 10
409378.7399858592
 20
4672823.111030532
 10
409396.4252132149
 20
4672824.216214092
 10
409415.2930655929
 20
4672820.974884032
 10
409420.8858448617
 20
4672819.237071946
 10
409425.937788808
 20
4672820.393636661
 10
409443.0496041367
 20
4672828.280685473
  0
LWPOLYLINE
  5
100
330
1F
100
AcDbEntity
  8
LXJD_collections
100
AcDbPolyline
 90
       27
 70
     1
 43
0.0
 10
413707.5550139276
 20
4674221.879818633
 10
413711.5921910508
 20
4674194.288728781
 10
413713.2361743009
 20
4674173.501349059
 10
413716.2380638605
 20
4674162.470117703
 10
413717.3305808926
 20
4674150.573775712
 10
413719.7342086682
 20
4674137.884038246
 10
413726.6258261571
 20
4674134.356888058
 10
413731.3841898934
 20
4674134.613176981
 10
413729.0912948647
 20
4674133.438235686
 10
413708.9979612776
 20
4674137.57144745
 10
413685.7775113131
 20
4674142.520515242
 10
413673.3197556249
 20
4674156.666288941
 10
413653.266096959
 20
4674164.019713977
 10
413628.1785498327
 20
4674171.546166328
 10
413625.1304683478
 20
4674178.802110982
 10
413634.0921727184
 20
4674189.242402835
 10
413637.2397227939
 20
4674190.092129131
 10
413641.7657784243
 20
4674202.363763874
 10
413641.7862152646
 20
4674204.02930563
 10
413644.5113705289
 20
4674217.544594234
 10
413647.0080604038
 20
4674219.179749086
 10
413659.6372875399
 20
4674219.024803534
 10
413682.2910500613
 20
4674221.745344355
 10
413688.0070440485
 20
4674223.341177054
 10
413692.392808873
 20
4674224.175737828
 10
413704.4079336327
 20
4674227.804260169
 10
413711.254914809
 20
4674230.013913661
  0
LWPOLYLINE
  5
101
330
1F
100
AcDbEntity
  8
LXJD_collections
100
AcDbPolyline
 90
       23
 70
     1
 43
0.0
 10
414013.2561527917
 20
4674241.792855894
 10
414015.6550705398
 20
4674235.433432328
 10
414024.2335924381
 20
4674214.561414891
 10
414025.3835880376
 20
4674207.328807804
 10
414030.7956866999
 20
4674184.052236089
 10
414031.9551898056
 20
4674177.596928194
 10
414030.6709040607
 20
4674173.836738967
 10
414023.7005081011
 20
4674170.923378916
 10
413999.6907656959
 20
4674165.330905461
 10
413974.4373057199
 20
4674159.309422622
 10
413970.0828283787
 20
4674161.028374235
 10
413970.0936865077
 20
4674161.916667786
 10
413963.8581711731
 20
4674176.497409788
 10
413962.7222026987
 20
4674180.21978782
 10
413957.8466052602
 20
4674193.337084794
 10
413957.2071534096
 20
4674195.057464844
 10
413954.7987705548
 20
4674200.639693042
 10
413950.5217086163
 20
4674208.687921726
 10
413949.9129138981
 20
4674212.915435046
 10
413955.774029338
 20
4674226.392462019
 10
413963.9879175731
 20
4674229.734738458
 10
413985.4644836413
 20
4674237.468128848
 10
414008.8041924458
 20
4674242.291458274
  0
LWPOLYLINE
  5
102
330
1F
100
AcDbEntity
  8
LXJD_collections
100
AcDbPolyline
 90
       32
 70
     1
 43
0.0
 10
413731.3841898934
 20
4674134.613176981
 10
413726.6258261571
 20
4674134.356888058
 10
413719.7342086682
 20
4674137.884038246
 10
413717.3305808926
 20
4674150.573775712
 10
413716.2380638605
 20
4674162.470117703
 10
413713.2361743009
 20
4674173.501349059
 10
413711.5921910508
 20
4674194.288728781
 10
413707.5550139276
 20
4674221.879818633
 10
413711.254914809
 20
4674230.013913661
 10
413712.0332776242
 20
4674230.265044318
 10
413713.9318219944
 20
4674230.241767453
 10
413719.0037528513
 20
4674233.178073304
 10
413724.0647159362
 20
4674235.22609767
 10
413739.2940810107
 20
4674245.145391721
 10
413746.9764747466
 20
4674252.269840617
 10
413747.5597694037
 20
4674252.706899989
 10
413760.3236366704
 20
4674263.544917324
 10
413774.2330355031
 20
4674266.817167595
 10
413775.4658233799
 20
4674266.357856776
 10
413782.8058144458
 20
4674252.275028646
 10
413784.6676259507
 20
4674249.253742756
 10
413786.4939992791
 20
4674243.345461908
 10
413787.0033237426
 20
4674231.012131495
 10
413787.6283410807
 20
4674228.11704063
 10
413791.2489771714
 20
4674220.409851474
 10
413789.7339198762
 20
4674216.30409864
 10
413792.7997180252
 20
4674206.062560716
 10
413793.5997401958
 20
4674203.389712748
 10
413789.5130007644
 20
4674179.785055345
 10
413788.5561749476
 20
4674155.58678706
 10
413770.7727975893
 20
4674139.368633858
 10
413751.8223865375
 20
4674135.713879631
  0
LWPOLYLINE
  5
103
330
1F
100
AcDbEntity
  8
LXJD_collections
100
AcDbPolyline
 90
       28
 70
     1
 43
0.0
 10
413642.4298213484
 20
4674310.300970684
 10
413641.8316096498
 20
4674308.642395843
 10
413641.0159058778
 20
4674295.992189388
 10
413638.279353961
 20
4674274.814258632
 10
413637.5876361438
 20
4674272.268483011
 10
413639.4139547173
 20
4674266.360178758
 10
413645.4529218653
 20
4674247.18469093
 10
413646.6877382888
 20
4674246.359147262
 10
413638.4825011775
 20
4674244.271665295
 10
413636.4913052423
 20
4674236.744398496
 10
413632.7141410769
 20
4674231.682193988
 10
413631.3879995609
 20
4674231.254258637
 10
413610.1127928668
 20
4674239.955505554
 10
413607.678727124
 20
4674243.428151838
 10
413600.1052323628
 20
4674245.186980623
 10
413578.1914660714
 20
4674255.673056346
 10
413565.7491300208
 20
4674271.040339717
 10
413563.9392403053
 20
4674278.281228288
 10
413565.2967430658
 20
4674281.263025296
 10
413581.7753030704
 20
4674292.055063026
 10
413581.2499838724
 20
4674303.055897318
 10
413582.602021966
 20
4674305.593622695
 10
413583.2002461818
 20
4674307.252045854
 10
413578.2333755301
 20
4674312.865891989
 10
413585.842240587
 20
4674313.994023073
 10
413612.2927031675
 20
4674316.667747477
 10
413636.2560981353
 20
4674318.483681127
 10
413643.9923166084
 20
4674320.418699966
  0
LWPOLYLINE
  5
104
330
1F
100
AcDbEntity
  8
LXJD_collections
100
AcDbPolyline
 90
       41
 70
     1
 43
0.0
 10
413725.0188183049
 20
4674366.92547134
 10
413731.8597744269
 20
4674359.289969583
 10
413744.8582944039
 20
4674342.139109598
 10
413750.9963311824
 20
4674324.295174447
 10
413757.1388827018
 20
4674313.558637195
 10
413759.6406312245
 20
4674308.863687379
 10
413761.4011359492
 20
4674304.936409563
 10
413763.1994652757
 20
4674305.899352171
 10
413764.5573791679
 20
4674299.141616794
 10
413760.563109573
 20
4674283.087666827
 10
413760.5263715435
 20
4674280.089577808
 10
413761.0782944115
 20
4674277.972760872
 10
413762.3567986915
 20
4674274.514494416
 10
413762.3418306065
 20
4674273.292961868
 10
413759.7000687924
 20
4674266.551030736
 10
413752.1109699727
 20
4674260.313855133
 10
413749.5263478319
 20
4674258.235544059
 10
413746.3420239536
 20
4674254.387603967
 10
413743.7627672063
 20
4674252.753435359
 10
413724.7713782323
 20
4674238.993285345
 10
413721.5371736183
 20
4674237.81135876
 10
413703.2065326374
 20
4674230.817479716
 10
413669.1044807677
 20
4674223.573021512
 10
413662.2389348258
 20
4674229.209938476
 10
413647.991332464
 20
4674245.487688775
 10
413646.6877382888
 20
4674246.359147262
 10
413645.4529218653
 20
4674247.18469093
 10
413639.4139547173
 20
4674266.360178758
 10
413637.5876361438
 20
4674272.268483011
 10
413638.279353961
 20
4674274.814258632
 10
413641.0159058778
 20
4674295.992189388
 10
413641.8316096498
 20
4674308.642395843
 10
413642.4298213484
 20
4674310.300970684
 10
413643.9923166084
 20
4674320.418699966
 10
413646.5551454359
 20
4674337.014516148
 10
413648.3530135354
 20
4674337.751783054
 10
413663.6474320985
 20
4674344.023400057
 10
413688.3486375115
 20
4674352.160623908
 10
413703.5314407604
 20
4674358.304528663
 10
413716.3283659423
 20
4674365.019145913
 10
413722.5588034261
 20
4674368.288232108
  0
LWPOLYLINE
  5
105
330
1F
100
AcDbEntity
  8
LXJD_collections
100
AcDbPolyline
 90
       24
 70
     1
 43
0.0
 10
413814.7391656327
 20
4674385.816035629
 10
413820.3153567875
 20
4674382.749254095
 10
413824.7562668812
 20
4674381.362274312
 10
413837.2414935029
 20
4674376.21185878
 10
413847.2694968904
 20
4674372.646465464
 10
413865.0578010915
 20
4674366.049367343
 10
413861.4543859702
 20
4674344.486980765
 10
413853.5968729459
 20
4674323.038518278
 10
413845.1138167717
 20
4674297.710789769
 10
413843.1473984708
 20
4674292.182151196
 10
413839.9753759123
 20
4674289.333501546
 10
413819.0127351751
 20
4674276.374600165
 10
413799.3720616992
 20
4674263.510668277
 10
413785.6911156814
 20
4674278.892772437
 10
413783.8239460517
 20
4674281.46997918
 10
413781.3952513533
 20
4674285.386608466
 10
413791.0799005819
 20
4674307.701067673
 10
413794.9489589277
 20
4674313.539602188
 10
413804.0407997058
 20
4674334.639765416
 10
413807.8530691934
 20
4674342.589014046
 10
413806.7033979594
 20
4674349.821672213
 10
413810.7913624841
 20
4674373.537319985
 10
413812.8094605758
 20
4674383.28537282
 10
413814.7408121942
 20
4674385.950487024
  0
LWPOLYLINE
  5
106
330
1F
100
AcDbEntity
  8
LXJD_collections
100
AcDbPolyline
 90
       26
 70
     1
 43
0.0
 10
413558.9305477184
 20
4674405.635827466
 10
413567.2219536217
 20
4674390.961710342
 10
413575.3766360078
 20
4674382.754542052
 10
413575.1693670434
 20
4674365.876644548
 10
413578.5974388037
 20
4674342.513053002
 10
413578.5810769728
 20
4674341.180645472
 10
413577.0578768066
 20
4674317.988826253
 10
413577.2748159874
 20
4674314.8500584
 10
413567.6316565361
 20
4674316.771899783
 10
413562.544716886
 20
4674312.614285109
 10
413551.6941509221
 20
4674302.974755027
 10
413540.5576289052
 20
4674317.104457738
 10
413534.9508869828
 20
4674324.391954483
 10
413533.0838189563
 20
4674326.969140144
 10
413522.0046794309
 20
4674345.762474037
 10
413520.7153925411
 20
4674348.332629775
 10
413522.1288425376
 20
4674355.866922276
 10
413527.2949093815
 20
4674366.46472868
 10
413526.6495485408
 20
4674367.694359974
 10
413523.5552726749
 20
4674371.175014579
 10
413523.0507539425
 20
4674372.779732025
 10
413522.3635268781
 20
4674374.965588826
 10
413536.9952783698
 20
4674390.000263019
 10
413541.5261669381
 20
4674395.941663513
 10
413553.5418347577
 20
4674406.344230426
 10
413557.3645952735
 20
4674408.407291829
  0
LWPOLYLINE
  5
107
330
1F
100
AcDbEntity
  8
LXJD_collections
100
AcDbPolyline
 90
       19
 70
     1
 43
0.0
 10
413539.3412358712
 20
4674426.397586565
 10
413547.7886448429
 20
4674426.625331154
 10
413550.6548200336
 20
4674426.702722888
 10
413558.9305477184
 20
4674405.635827466
 10
413557.3645952735
 20
4674408.407291829
 10
413553.5418347577
 20
4674406.344230426
 10
413541.5261669381
 20
4674395.941663513
 10
413536.9952783698
 20
4674390.000263019
 10
413522.3635268781
 20
4674374.965588826
 10
413523.0507539425
 20
4674372.779732025
 10
413519.232414929
 20
4674375.448191671
 10
413514.8105867035
 20
4674378.389983366
 10
413510.5190523634
 20
4674385.217150579
 10
413500.0806899489
 20
4674409.111153145
 10
413498.2764408442
 20
4674416.796124637
 10
413500.8870153422
 20
4674420.984141424
 10
413507.1698137377
 20
4674421.684341228
 10
413520.4705196219
 20
4674429.183589833
 10
413523.0348337483
 20
4674429.596350099
  0
LWPOLYLINE
  5
108
330
1F
100
AcDbEntity
  8
LXJD_collections
100
AcDbPolyline
 90
       25
 70
     1
 43
0.0
 10
413841.4193859303
 20
4674461.228787255
 10
413841.3527724198
 20
4674455.787846344
 10
413841.3392063227
 20
4674454.849380695
 10
413847.0005707822
 20
4674451.831847313
 10
413848.8895400987
 20
4674451.031380696
 10
413871.417075513
 20
4674436.762658956
 10
413879.5057524702
 20
4674429.889305333
 10
413880.0628467199
 20
4674421.44237891
 10
413875.268643262
 20
4674393.959445853
 10
413871.2120869638
 20
4674372.797604874
 10
413868.6366832448
 20
4674364.722097357
 10
413865.0578010915
 20
4674366.049367343
 10
413847.2694968904
 20
4674372.646465464
 10
413837.2414935029
 20
4674376.21185878
 10
413824.7562668812
 20
4674381.362274312
 10
413820.3153567875
 20
4674382.749254095
 10
413814.7391656327
 20
4674385.816035629
 10
413814.7408121942
 20
4674385.950487024
 10
413814.7799605541
 20
4674389.147179101
 10
413818.0362569789
 20
4674398.880195794
 10
413822.1336786101
 20
4674423.37306047
 10
413822.8570070238
 20
4674435.247130518
 10
413821.6704777735
 20
4674439.481746189
 10
413823.8286708632
 20
4674460.666758009
 10
413826.3511411375
 20
4674464.411671769
  0
LWPOLYLINE
  5
109
330
1F
100
AcDbEntity
  8
LXJD_collections
100
AcDbPolyline
 90
       25
 70
     1
 43
0.0
 10
413682.2664245307
 20
4674475.506164454
 10
413690.1778393963
 20
4674454.197644142
 10
413702.5520206745
 20
4674433.27868846
 10
413716.1917071167
 20
4674414.565169701
 10
413718.4337384344
 20
4674395.436258514
 10
413714.9854194148
 20
4674370.046983082
 10
413716.3283659423
 20
4674365.019145913
 10
413703.5314407604
 20
4674358.304528663
 10
413688.3486375115
 20
4674352.160623908
 10
413663.6474320985
 20
4674344.023400057
 10
413648.3530135354
 20
4674337.751783054
 10
413646.6014701794
 20
4674340.78989347
 10
413628.6089763494
 20
4674361.333673912
 10
413618.8400152306
 20
4674385.996772003
 10
413616.0114836011
 20
4674411.129852468
 10
413612.4789960551
 20
4674432.717911709
 10
413610.793210609
 20
4674441.622984337
 10
413616.3849406919
 20
4674441.554344098
 10
413623.9165852517
 20
4674443.127708266
 10
413635.338628531
 20
4674445.541801359
 10
413640.982827332
 20
4674448.026811977
 10
413662.6205822516
 20
4674462.19841211
 10
413675.3439159743
 20
4674476.479539416
 10
413678.9466513354
 20
4674479.455969714
 10
413679.8474655888
 20
4674480.200168116
  0
LWPOLYLINE
  5
10A
330
1F
100
AcDbEntity
  8
LXJD_collections
100
AcDbPolyline
 90
       51
 70
     1
 43
0.0
 10
413767.3461247273
 20
4674479.571643124
 10
413771.100826747
 20
4674476.082911653
 10
413782.9767998882
 20
4674468.385734607
 10
413784.2094034331
 20
4674467.926365375
 10
413792.9841655677
 20
4674463.154531474
 10
413797.9824520997
 20
4674460.094916087
 10
413799.2055368848
 20
4674458.858250646
 10
413803.6723832458
 20
4674459.580952604
 10
413804.0080921958
 20
4674460.252294724
 10
413810.4044593311
 20
4674443.062382806
 10
413810.3677415116
 20
4674440.064361752
 10
413810.8055064303
 20
4674428.620350663
 10
413809.9366469074
 20
4674404.865240623
 10
413810.4424114554
 20
4674398.973194886
 10
413805.2509587694
 20
4674386.265463022
 10
413800.7157769325
 20
4674373.216522929
 10
413797.840002222
 20
4674347.375924036
 10
413785.6279670033
 20
4674327.64671321
 10
413770.9653435535
 20
4674310.057536022
 10
413763.1994652757
 20
4674305.899352171
 10
413761.4011359492
 20
4674304.936409563
 10
413759.6406312245
 20
4674308.863687379
 10
413757.1388827018
 20
4674313.558637195
 10
413750.9963311824
 20
4674324.295174447
 10
413744.8582944039
 20
4674342.139109598
 10
413731.8597744269
 20
4674359.289969583
 10
413725.0188183049
 20
4674366.92547134
 10
413722.5588034261
 20
4674368.288232108
 10
413716.3283659423
 20
4674365.019145913
 10
413714.9854194148
 20
4674370.046983082
 10
413718.4337384344
 20
4674395.436258514
 10
413716.1917071167
 20
4674414.565169701
 10
413702.5520206745
 20
4674433.27868846
 10
413690.1778393963
 20
4674454.197644142
 10
413682.2664245307
 20
4674475.506164454
 10
413679.8474655888
 20
4674480.200168116
 10
413678.9466513354
 20
4674479.455969714
 10
413685.5582053793
 20
4674488.126051097
 10
413698.4415906966
 20
4674508.735384308
 10
413702.8952609363
 20
4674515.121919458
 10
413704.9805222744
 20
4674515.279137841
 10
413706.6962073231
 20
4674515.408527439
 10
413726.1602534916
 20
4674507.173834682
 10
413730.523985941
 20
4674506.231954304
 10
413739.3299695823
 20
4674504.013946999
 10
413746.5073551061
 20
4674497.802071857
 10
413748.6446280263
 20
4674495.952336838
 10
413748.047572047
 20
4674494.578460298
 10
413748.5993975638
 20
4674492.461632886
 10
413750.4665706286
 20
4674489.884490696
 10
413754.8883469405
 20
4674486.942821084
  0
LWPOLYLINE
  5
10B
330
1F
100
AcDbEntity
  8
LXJD_collections
100
AcDbPolyline
 90
       31
 70
     1
 43
0.0
 10
413531.7330309239
 20
4674526.107372841
 10
413533.1910134255
 20
4674526.429547017
 10
413538.2291511437
 20
4674537.466140176
 10
413543.1959014392
 20
4674531.852437517
 10
413547.4240688623
 20
4674526.904933073
 10
413559.3097595041
 20
4674512.997258631
 10
413574.2537726957
 20
4674499.709220206
 10
413582.9710166486
 20
4674490.273519306
 10
413601.6751979857
 20
4674473.940867133
 10
413609.0923114818
 20
4674466.187081882
 10
413609.0460637001
 20
4674466.153071571
 10
413611.6252545281
 20
4674464.045913708
 10
413613.1147607766
 20
4674462.265551682
 10
413603.9019729783
 20
4674453.590493986
 10
413594.9924959342
 20
4674447.369495259
 10
413581.6766133617
 20
4674438.648848902
 10
413570.888991793
 20
4674434.117038151
 10
413552.0013901802
 20
4674428.796193523
 10
413550.9416198302
 20
4674428.346838638
 10
413550.6807359319
 20
4674428.812416582
 10
413535.5919998589
 20
4674430.33052589
 10
413527.4149625932
 20
4674429.986725297
 10
413519.2952345222
 20
4674434.306597319
 10
413515.5187969244
 20
4674436.018818895
 10
413511.2068290726
 20
4674441.180371148
 10
413510.718487628
 20
4674455.179369893
 10
413512.8297802346
 20
4674472.478001395
 10
413518.1718096808
 20
4674497.399668121
 10
413523.4414878044
 20
4674516.43637543
 10
413527.3065709342
 20
4674521.941648215
 10
413529.8128082813
 20
4674524.353979927
  0
LWPOLYLINE
  5
10C
330
1F
100
AcDbEntity
  8
LXJD_collections
100
AcDbPolyline
 90
       35
 70
     1
 43
0.0
 10
413657.2362976153
 20
4674541.446752642
 10
413671.6911387403
 20
4674535.383523167
 10
413689.8331676948
 20
4674527.053919477
 10
413702.941556891
 20
4674518.897201483
 10
413703.0377247922
 20
4674518.72660586
 10
413704.9805222744
 20
4674515.279137841
 10
413702.8952609363
 20
4674515.121919458
 10
413698.4415906966
 20
4674508.735384308
 10
413685.5582053793
 20
4674488.126051097
 10
413678.9466513354
 20
4674479.455969714
 10
413675.3439159743
 20
4674476.479539416
 10
413662.6205822516
 20
4674462.19841211
 10
413640.982827332
 20
4674448.026811977
 10
413635.338628531
 20
4674445.541801359
 10
413623.9165852517
 20
4674443.127708266
 10
413616.3849406919
 20
4674441.554344098
 10
413610.793210609
 20
4674441.622984337
 10
413608.3701340774
 20
4674454.424032414
 10
413599.4863447201
 20
4674450.313014195
 10
413594.9924959342
 20
4674447.369495259
 10
413603.9019729783
 20
4674453.590493986
 10
413613.1147607766
 20
4674462.265551682
 10
413613.5028727593
 20
4674462.631097856
 10
413615.4275964291
 20
4674464.443507356
 10
413630.0603285526
 20
4674479.589428253
 10
413633.2378056296
 20
4674482.882033845
 10
413635.8850693241
 20
4674490.068208841
 10
413641.6273401607
 20
4674500.547916234
 10
413644.3114513038
 20
4674510.731994782
 10
413644.9614235029
 20
4674516.60993088
 10
413645.1385577522
 20
4674531.044933611
 10
413644.664359698
 20
4674539.490963967
 10
413645.8124101266
 20
4674541.769863871
 10
413646.6104356028
 20
4674543.353968891
 10
413648.5238834111
 20
4674544.552085558
  0
LWPOLYLINE
  5
10D
330
1F
100
AcDbEntity
  8
LXJD_collections
100
AcDbPolyline
 90
       32
 70
     1
 43
0.0
 10
413793.3046035978
 20
4674543.221197155
 10
413802.7449966375
 20
4674538.885532388
 10
413807.9583882815
 20
4674543.347727898
 10
413823.4716667142
 20
4674532.634676482
 10
413834.0160102692
 20
4674524.065423127
 10
413827.4941130489
 20
4674503.822194884
 10
413818.38221985
 20
4674481.056518847
 10
413809.342198942
 20
4674464.175849067
 10
413804.9417116829
 20
4674462.11974729
 10
413804.0080921958
 20
4674460.252294724
 10
413803.6723832458
 20
4674459.580952604
 10
413799.2055368848
 20
4674458.858250646
 10
413797.9824520997
 20
4674460.094916087
 10
413792.9841655677
 20
4674463.154531474
 10
413784.2094034331
 20
4674467.926365375
 10
413782.9767998882
 20
4674468.385734607
 10
413771.100826747
 20
4674476.082911653
 10
413767.3461247273
 20
4674479.571643124
 10
413754.8883469405
 20
4674486.942821084
 10
413750.4665706286
 20
4674489.884490696
 10
413748.5993975638
 20
4674492.461632886
 10
413748.047572047
 20
4674494.578460298
 10
413748.6446280263
 20
4674495.952336838
 10
413746.5073551061
 20
4674497.802071857
 10
413747.4607052129
 20
4674500.582623355
 10
413748.7300462972
 20
4674503.1213197
 10
413750.0915142341
 20
4674506.436370162
 10
413760.9883151813
 20
4674526.625765664
 10
413770.6627328972
 20
4674541.388551172
 10
413775.7752355728
 20
4674547.656053241
 10
413780.5166712459
 20
4674546.941058611
 10
413784.5920638311
 20
4674546.326507973
  0
LWPOLYLINE
  5
10E
330
1F
100
AcDbEntity
  8
LXJD_collections
100
AcDbPolyline
 90
       31
 70
     1
 43
0.0
 10
413776.2990369888
 20
4674590.405843162
 10
413783.7475727932
 20
4674585.206063028
 10
413785.6200999045
 20
4674583.073085003
 10
413796.9956079037
 20
4674581.712065485
 10
413813.801566233
 20
4674565.40330249
 10
413817.4179641411
 20
4674557.36310233
 10
413808.5014299524
 20
4674543.812455565
 10
413807.9583882815
 20
4674543.347727898
 10
413802.7449966375
 20
4674538.885532388
 10
413793.3046035978
 20
4674543.221197155
 10
413784.5920638311
 20
4674546.326507973
 10
413780.5166712459
 20
4674546.941058611
 10
413775.7752355728
 20
4674547.656053241
 10
413770.6627328972
 20
4674541.388551172
 10
413760.9883151813
 20
4674526.625765664
 10
413750.0915142341
 20
4674506.436370162
 10
413748.7300462972
 20
4674503.1213197
 10
413747.4607052129
 20
4674500.582623355
 10
413746.5073551061
 20
4674497.802071857
 10
413739.3299695823
 20
4674504.013946999
 10
413730.523985941
 20
4674506.231954304
 10
413726.1602534916
 20
4674507.173834682
 10
413706.6962073231
 20
4674515.408527439
 10
413704.9805222744
 20
4674515.279137841
 10
413703.0377247922
 20
4674518.72660586
 10
413709.9892897198
 20
4674528.139457691
 10
413711.3195281776
 20
4674528.900406514
 10
413723.5274390668
 20
4674548.296422748
 10
413739.5012380938
 20
4674571.866324471
 10
413756.7997869346
 20
4674595.753305751
 10
413758.7213510559
 20
4674598.536213228
  0
LWPOLYLINE
  5
10F
330
1F
100
AcDbEntity
  8
LXJD_collections
100
AcDbPolyline
 90
       26
 70
     1
 43
0.0
 10
413549.7349156708
 20
4674607.178445132
 10
413557.7916404051
 20
4674597.750816193
 10
413546.8481171436
 20
4674573.786375578
 10
413537.7980698572
 20
4674556.128750158
 10
413535.8464790111
 20
4674551.821584163
 10
413535.1711180918
 20
4674550.608212445
 10
413532.632146781
 20
4674545.530928181
 10
413522.9012820277
 20
4674526.215896475
 10
413515.2181528465
 20
4674512.31731081
 10
413505.7632650993
 20
4674495.962766505
 10
413504.9599353449
 20
4674497.117775247
 10
413502.4174827933
 20
4674498.481752384
 10
413500.5394821735
 20
4674500.170633961
 10
413498.0892595531
 20
4674502.310816242
 10
413497.4507399598
 20
4674504.095510477
 10
413501.3827273709
 20
4674515.041682822
 10
413503.3794607271
 20
4674523.013037894
 10
413505.4089449813
 20
4674533.649349949
 10
413500.0098064612
 20
4674557.814733181
 10
413500.0302790266
 20
4674559.480265815
 10
413502.6885722094
 20
4674567.554633487
 10
413514.2558349961
 20
4674588.51295407
 10
413516.2020447796
 20
4674592.375896897
 10
413516.3112153534
 20
4674601.25896033
 10
413518.250524918
 20
4674604.566822163
 10
413534.1472085808
 20
4674621.807032327
  0
LWPOLYLINE
  5
110
330
1F
100
AcDbEntity
  8
LXJD_collections
100
AcDbPolyline
 90
       40
 70
     1
 43
0.0
 10
413607.0853630396
 20
4674612.026895424
 10
413622.1526590932
 20
4674602.069024786
 10
413630.2095596513
 20
4674592.641547697
 10
413638.1833568481
 20
4674576.440707373
 10
413638.1683673271
 20
4674575.21930039
 10
413638.8123656678
 20
4674573.878758879
 10
413642.3767816924
 20
4674561.619019507
 10
413644.2274707114
 20
4674557.70928536
 10
413644.8673844046
 20
4674556.035649399
 10
413642.9116972404
 20
4674551.395290499
 10
413641.6477017166
 20
4674549.300753429
 10
413641.6368013949
 20
4674548.412507798
 10
413645.8124101266
 20
4674541.769863871
 10
413644.664359698
 20
4674539.490963967
 10
413645.1385577522
 20
4674531.044933611
 10
413644.9614235029
 20
4674516.60993088
 10
413644.3114513038
 20
4674510.731994782
 10
413641.6273401607
 20
4674500.547916234
 10
413635.8850693241
 20
4674490.068208841
 10
413633.2378056296
 20
4674482.882033845
 10
413630.0603285526
 20
4674479.589428253
 10
413615.4275964291
 20
4674464.443507356
 10
413613.5028727593
 20
4674462.631097856
 10
413609.0923856297
 20
4674466.187080972
 10
413601.6751979857
 20
4674473.940867133
 10
413582.9710166486
 20
4674490.273519306
 10
413574.2537726957
 20
4674499.709220206
 10
413559.3097595041
 20
4674512.997258631
 10
413543.1959014392
 20
4674531.852437517
 10
413538.2291511437
 20
4674537.466140176
 10
413540.1173925195
 20
4674543.328907948
 10
413546.6298550793
 20
4674556.020243747
 10
413556.2835469815
 20
4674575.780506895
 10
413558.2487584709
 20
4674581.198039617
 10
413560.9179623946
 20
4674590.160716137
 10
413571.741551585
 20
4674604.353834454
 10
413579.434651523
 20
4674612.3664147
 10
413582.591642353
 20
4674613.993489538
 10
413590.8516310859
 20
4674621.110516667
 10
413594.9937956611
 20
4674623.009356541
  0
LWPOLYLINE
  5
111
330
1F
100
AcDbEntity
  8
LXJD_collections
100
AcDbPolyline
 90
       39
 70
     1
 43
0.0
 10
413661.5652508891
 20
4674641.869811471
 10
413663.525342626
 20
4674641.480559804
 10
413679.8871847968
 20
4674638.230910458
 10
413704.9839192174
 20
4674631.592960756
 10
413726.8912251046
 20
4674620.663025832
 10
413746.9014443448
 20
4674609.867591454
 10
413759.9934081008
 20
4674600.3784188
 10
413758.7213510559
 20
4674598.536213228
 10
413756.7997869346
 20
4674595.753305751
 10
413739.5012380938
 20
4674571.866324471
 10
413723.5274390668
 20
4674548.296422748
 10
413711.3195281776
 20
4674528.900406514
 10
413709.9892897198
 20
4674528.139457691
 10
413703.0377247922
 20
4674518.72660586
 10
413702.941556891
 20
4674518.897201483
 10
413689.8331676948
 20
4674527.053919477
 10
413671.6911387403
 20
4674535.383523167
 10
413657.2362976153
 20
4674541.446752642
 10
413648.5238834111
 20
4674544.552085558
 10
413646.6104356028
 20
4674543.353968891
 10
413645.8124101266
 20
4674541.769863871
 10
413641.6368013949
 20
4674548.412507798
 10
413641.6477017166
 20
4674549.300753429
 10
413642.9116972404
 20
4674551.395290499
 10
413644.8673844046
 20
4674556.035649399
 10
413644.2274707114
 20
4674557.70928536
 10
413642.3767816924
 20
4674561.619019507
 10
413638.8123656678
 20
4674573.878758879
 10
413638.1683673271
 20
4674575.21930039
 10
413638.1833568481
 20
4674576.440707373
 10
413630.2095596513
 20
4674592.641547697
 10
413622.1526590932
 20
4674602.069024786
 10
413607.0853630396
 20
4674612.026895424
 10
413594.9937956611
 20
4674623.009356541
 10
413593.4513206801
 20
4674624.410353296
 10
413594.0604264702
 20
4674626.957159624
 10
413609.939884445
 20
4674636.090738482
 10
413632.0459358192
 20
4674641.372204878
 10
413657.2407125102
 20
4674642.728786071
  0
LWPOLYLINE
  5
112
330
1F
100
AcDbEntity
  8
LXJD_collections
100
AcDbPolyline
 90
       30
 70
     1
 43
0.0
 10
413663.525342626
 20
4674641.480559804
 10
413661.5652508891
 20
4674641.869811471
 10
413661.032129198
 20
4674642.238009156
 10
413661.0634638162
 20
4674644.79190276
 10
413659.9084068049
 20
4674651.580463087
 10
413658.6709020659
 20
4674658.370028806
 10
413658.7131360105
 20
4674661.812148114
 10
413660.7409904982
 20
4674672.337482166
 10
413663.3678005885
 20
4674677.858041938
 10
413663.9605283795
 20
4674679.072342778
 10
413665.9311551355
 20
4674684.934158606
 10
413672.34382478
 20
4674689.51975516
 10
413680.505565866
 20
4674688.642241941
 10
413704.9200667167
 20
4674680.235828135
 10
413728.7119570142
 20
4674668.172254335
 10
413731.2134024587
 20
4674663.477231567
 10
413731.2174868266
 20
4674663.810392099
 10
413731.7953045147
 20
4674663.80330839
 10
413734.3444709487
 20
4674662.994664751
 10
413740.5751540662
 20
4674659.475576213
 10
413751.8729580792
 20
4674651.785323936
 10
413742.0897559487
 20
4674628.139487239
 10
413734.4698589183
 20
4674619.348460005
 10
413734.0400120725
 20
4674619.569763543
 10
413734.2636869068
 20
4674616.685581069
 10
413726.8912251046
 20
4674620.663025832
 10
413704.9839192174
 20
4674631.592960756
 10
413679.8871847968
 20
4674638.230910458
 10
413666.3809984888
 20
4674640.913419883
 10
413666.2507919595
 20
4674641.240914711
  0
LWPOLYLINE
  5
113
330
1F
100
AcDbEntity
  8
LXJD_collections
100
AcDbPolyline
 90
       35
 70
     1
 43
0.0
 10
413646.6014701794
 20
4674340.78989347
 10
413648.3530135354
 20
4674337.751783054
 10
413646.5551454359
 20
4674337.014516148
 10
413643.9923166084
 20
4674320.418699966
 10
413636.2560981353
 20
4674318.483681127
 10
413612.2927031675
 20
4674316.667747477
 10
413585.842240587
 20
4674313.994023073
 10
413581.9015873157
 20
4674313.409795824
 10
413578.9141285357
 20
4674314.52329966
 10
413577.2748159874
 20
4674314.8500584
 10
413577.0578768066
 20
4674317.988826253
 10
413578.2561775976
 20
4674336.234342832
 10
413578.5810769728
 20
4674341.180645472
 10
413578.5974388037
 20
4674342.513053002
 10
413575.1693670434
 20
4674365.876644548
 10
413575.3766360078
 20
4674382.754542052
 10
413567.2219536217
 20
4674390.961710342
 10
413558.9305477184
 20
4674405.635827466
 10
413554.6656481193
 20
4674416.492760093
 10
413550.6548200336
 20
4674426.702722888
 10
413551.4240542288
 20
4674427.485765671
 10
413550.9416198302
 20
4674428.346838638
 10
413552.0013901802
 20
4674428.796193523
 10
413570.888991793
 20
4674434.117038151
 10
413581.6766133617
 20
4674438.648848902
 10
413594.9924959342
 20
4674447.369495259
 10
413599.4863447201
 20
4674450.313014195
 10
413608.3701340774
 20
4674454.424032414
 10
413610.793210609
 20
4674441.622984337
 10
413612.4789960551
 20
4674432.717911709
 10
413616.0114836011
 20
4674411.129852468
 10
413618.7213217805
 20
4674387.051024073
 10
413618.8400152306
 20
4674385.996772003
 10
413628.6089763494
 20
4674361.333673912
 10
413644.4575711568
 20
4674343.237739757
  0
LWPOLYLINE
  5
114
330
1F
100
AcDbEntity
  8
LXJD_collections
100
AcDbPolyline
 90
       35
 70
     1
 43
0.0
 10
410636.9532977955
 20
4678731.338897644
 10
410626.208248984
 20
4678729.809594431
 10
410625.6422073318
 20
4678730.705328206
 10
410621.2511053809
 20
4678735.758765802
 10
410616.3320989692
 20
4678744.70585584
 10
410611.3863452176
 20
4678751.543188936
 10
410609.532865474
 20
4678755.009541645
 10
410604.0152164503
 20
4678762.298373622
 10
410602.7433921425
 20
4678766.09056965
 10
410605.3924189748
 20
4678773.27551069
 10
410605.9749139835
 20
4678773.720378155
 10
410612.9739715426
 20
4678779.065171069
 10
410627.6335592997
 20
4678789.984489438
 10
410638.4434620694
 20
4678796.621413512
 10
410638.4533454334
 20
4678797.398684352
 10
410642.8253279724
 20
4678797.343093895
 10
410655.5707183807
 20
4678806.95417419
 10
410656.7869075231
 20
4678805.272791603
 10
410657.9917312788
 20
4678802.703174888
 10
410667.3920988223
 20
4678795.809224926
 10
410665.316926569
 20
4678781.842378472
 10
410665.4376511457
 20
4678781.229514204
 10
410668.3710981499
 20
4678775.473311719
 10
410672.0740184459
 20
4678768.207464415
 10
410673.8583692174
 20
4678759.30021308
 10
410672.4411368045
 20
4678751.655348621
 10
410667.3978721121
 20
4678750.83099386
 10
410664.2265373275
 20
4678747.983888068
 10
410657.9077810659
 20
4678744.177202408
 10
410656.0105165031
 20
4678744.20132162
 10
410656.66052436
 20
4678743.415655992
 10
410652.1791355258
 20
4678741.362535478
 10
410643.9588647584
 20
4678737.246860305
 10
410640.3957574613
 20
4678734.914025183
 10
410636.3047019232
 20
4678732.235532342
  0
LWPOLYLINE
  5
115
330
1F
100
AcDbEntity
  8
LXJD_collections
100
AcDbPolyline
 90
       35
 70
     1
 43
0.0
 10
413907.024884131
 20
4674465.978609351
 10
413895.4165058575
 20
4674441.57752788
 10
413886.9082658232
 20
4674420.914341308
 10
413884.4062686366
 20
4674418.834946741
 10
413879.9481630409
 20
4674420.785170726
 10
413880.0628467199
 20
4674421.44237891
 10
413879.5057524702
 20
4674429.889305333
 10
413871.417075513
 20
4674436.762658956
 10
413848.8895400987
 20
4674451.031380696
 10
413847.0005707822
 20
4674451.831847313
 10
413841.3392063227
 20
4674454.849380695
 10
413841.3527724198
 20
4674455.787846344
 10
413841.4193859303
 20
4674461.228787255
 10
413826.3511411375
 20
4674464.411671769
 10
413823.8286708632
 20
4674460.666758009
 10
413822.4269104473
 20
4674446.907074771
 10
413806.7775584596
 20
4674456.988651145
 10
413804.2269268543
 20
4674459.664299716
 10
413804.0080921958
 20
4674460.252294724
 10
413804.9417116829
 20
4674462.11974729
 10
413809.342198942
 20
4674464.175849067
 10
413818.38221985
 20
4674481.056518847
 10
413827.4941130489
 20
4674503.822194884
 10
413832.8387215107
 20
4674520.411273734
 10
413834.0160102692
 20
4674524.065423127
 10
413838.4541811419
 20
4674518.088831691
 10
413846.2170796148
 20
4674514.878466529
 10
413852.1999972833
 20
4674512.404136518
 10
413860.9342806962
 20
4674511.075619134
 10
413884.7350862438
 20
4674499.678866471
 10
413887.2680981064
 20
4674497.537809535
 10
413905.2663237012
 20
4674477.43878052
 10
413908.3349249164
 20
4674471.848523295
 10
413907.9869439359
 20
4674468.700126293
 10
413907.685244343
 20
4674465.970530722
  0
LWPOLYLINE
  5
116
330
1F
100
AcDbEntity
  8
LXJD_collections
100
AcDbPolyline
 90
       50
 70
     1
 43
0.0
 10
413932.9919038091
 20
4674321.178630788
 10
413924.211512135
 20
4674325.506093138
 10
413922.3292919228
 20
4674326.861797038
 10
413920.4457884874
 20
4674328.106466201
 10
413913.5637805626
 20
4674332.410718813
 10
413899.083529012
 20
4674329.700394817
 10
413889.5748645777
 20
4674328.484124751
 10
413888.3367205582
 20
4674328.499274375
 10
413870.1627668913
 20
4674334.274353475
 10
413858.8916641409
 20
4674337.491649113
 10
413861.4543859702
 20
4674344.486980765
 10
413865.0578010915
 20
4674366.049367343
 10
413868.6366832448
 20
4674364.722097357
 10
413871.2120869638
 20
4674372.797604874
 10
413875.268643262
 20
4674393.959445853
 10
413879.9481630409
 20
4674420.785170726
 10
413884.4062686366
 20
4674418.834946741
 10
413886.9082658232
 20
4674420.914341308
 10
413895.4165058575
 20
4674441.57752788
 10
413907.024884131
 20
4674465.978609351
 10
413907.685244343
 20
4674465.970530722
 10
413907.9869439359
 20
4674468.700126293
 10
413923.2429964429
 20
4674455.563155197
 10
413925.7665296397
 20
4674452.644874581
 10
413944.5027412977
 20
4674438.867111934
 10
413958.1674090006
 20
4674422.152755987
 10
413957.5016887925
 20
4674421.716698439
 10
413962.5257918146
 20
4674420.766879885
 10
413976.3778450064
 20
4674419.375853741
 10
413970.5942130295
 20
4674412.228053174
 10
413968.1085266353
 20
4674411.481020379
 10
413963.5780170357
 20
4674405.539516117
 10
413962.2420719956
 20
4674397.559913077
 10
413986.153424944
 20
4674395.157606623
 10
413996.6450035084
 20
4674375.483738943
 10
413990.7012260237
 20
4674355.233326927
 10
413991.8973714339
 20
4674351.776002456
 10
414000.6574150028
 20
4674345.782986238
 10
414014.2817784113
 20
4674325.737726578
 10
414015.3597647549
 20
4674312.620045689
 10
414014.6519084732
 20
4674308.741837985
 10
414005.89699629
 20
4674308.404531633
 10
414000.7953932293
 20
4674303.025223147
 10
414000.1295905545
 20
4674302.589154917
 10
413997.5559142159
 20
4674301.399043598
 10
413988.8321302657
 20
4674303.615699671
 10
413968.1236466401
 20
4674311.420507701
 10
413957.4555619289
 20
4674316.659416468
 10
413948.102736266
 20
4674321.43812665
 10
413941.6391164661
 20
4674321.327127345
  0
LWPOLYLINE
  5
117
330
1F
100
AcDbEntity
  8
LXJD_collections
100
AcDbPolyline
 90
       30
 70
     1
 43
0.0
 10
410625.6422073318
 20
4678730.705328206
 10
410626.208248984
 20
4678729.809594431
 10
410627.5157874708
 20
4678729.995735579
 10
410626.8413100574
 20
4678727.691447139
 10
410618.556048341
 20
4678718.468105597
 10
410597.6113764244
 20
4678706.407147313
 10
410597.32894213
 20
4678706.228129328
 10
410579.2295300474
 20
4678694.757926398
 10
410559.5122134514
 20
4678681.904083894
 10
410550.0636166487
 20
4678678.526065453
 10
410548.1034463659
 20
4678677.825219623
 10
410546.9141066786
 20
4678677.400036789
 10
410537.5787091559
 20
4678689.401974727
 10
410528.9188599994
 20
4678702.616872225
 10
410519.7904890486
 20
4678724.389182606
 10
410519.8329029764
 20
4678727.720451422
 10
410526.1885073951
 20
4678734.414057132
 10
410550.960333175
 20
4678748.980292719
 10
410567.4179822729
 20
4678758.543818272
 10
410582.0324759849
 20
4678765.909823189
 10
410593.3931055162
 20
4678770.42968618
 10
410602.3113915329
 20
4678777.534868513
 10
410605.9749139835
 20
4678773.720378155
 10
410605.3924189748
 20
4678773.27551069
 10
410602.7433921425
 20
4678766.09056965
 10
410604.0152164503
 20
4678762.298373622
 10
410609.532865474
 20
4678755.009541645
 10
410611.3863452176
 20
4678751.543188936
 10
410616.3320989692
 20
4678744.70585584
 10
410621.2511053809
 20
4678735.758765802
  0
LWPOLYLINE
  5
118
330
1F
100
AcDbEntity
  8
LXJD_collections
100
AcDbPolyline
 90
       14
 70
     1
 43
0.0
 10
413810.7582965657
 20
4674168.724980416
 10
413806.7986744597
 20
4674182.250287264
 10
413807.5917284894
 20
4674198.888391801
 10
413809.061417619
 20
4674222.652941747
 10
413802.194527856
 20
4674239.384838081
 10
413799.3720616992
 20
4674263.510668277
 10
413819.0127351751
 20
4674276.374600165
 10
413839.9753759123
 20
4674289.333501546
 10
413857.4292878693
 20
4674274.382359182
 10
413871.3669908141
 20
4674257.563993174
 10
413871.5099802122
 20
4674221.095621109
 10
413867.712726204
 20
4674199.737833907
 10
413843.2922522324
 20
4674178.632415813
 10
413822.5235458995
 20
4674166.995426935
  0
LWPOLYLINE
  5
119
330
1F
100
AcDbEntity
  8
LXJD_collections
100
AcDbPolyline
 90
       20
 70
     1
 43
0.0
 10
408577.4459087465
 20
4669436.918061763
 10
408587.5991192359
 20
4669431.119600661
 10
408616.2734125406
 20
4669412.534524355
 10
408644.2707828156
 20
4669379.965279709
 10
408658.4569691396
 20
4669359.013936238
 10
408635.0251755238
 20
4669348.656274439
 10
408630.1799488328
 20
4669346.100785274
 10
408631.2154097292
 20
4669347.928176669
 10
408599.7498643681
 20
4669348.780347101
 10
408584.6495335611
 20
4669350.197805462
 10
408584.6437742499
 20
4669349.75372185
 10
408579.6266521801
 20
4669351.484587441
 10
408575.9563809094
 20
4669348.980812902
 10
408558.8225129742
 20
4669352.642831944
 10
408536.2063887852
 20
4669360.599186451
 10
408524.901512769
 20
4669365.110269492
 10
408542.3338479861
 20
4669393.503436735
 10
408545.9293663067
 20
4669428.661526
 10
408560.3917343037
 20
4669444.132301565
 10
408561.9308436131
 20
4669445.7787016
  0
LWPOLYLINE
  5
11A
330
1F
100
AcDbEntity
  8
LXJD_collections
100
AcDbPolyline
 90
       12
 70
     1
 43
0.0
 10
408548.2172022314
 20
4669509.480846391
 10
408562.9930853471
 20
4669483.079907564
 10
408569.6895094728
 20
4669464.335609757
 10
408577.4459087465
 20
4669436.918061763
 10
408561.9308436131
 20
4669445.7787016
 10
408560.3917343037
 20
4669444.132301565
 10
408541.7935140159
 20
4669447.372716624
 10
408510.2170014825
 20
4669446.005675475
 10
408499.9918944836
 20
4669445.036045102
 10
408505.4478765221
 20
4669466.835061844
 10
408497.6884745264
 20
4669499.14211337
 10
408521.7966781703
 20
4669510.712215638
  0
LWPOLYLINE
  5
11B
330
1F
100
AcDbEntity
  8
LXJD_collections
100
AcDbPolyline
 90
       21
 70
     1
 43
0.0
 10
409792.8276215341
 20
4671409.267734312
 10
409807.2346819909
 20
4671405.64058826
 10
409811.6881445677
 20
4671405.139319819
 10
409816.0583139492
 20
4671404.657378353
 10
409816.0377212555
 20
4671402.973563388
 10
409815.9993390673
 20
4671399.975561554
 10
409815.9837013899
 20
4671398.754114714
 10
409817.075951819
 20
4671387.301344598
 10
409816.875513874
 20
4671371.645023241
 10
409814.3327707939
 20
4671366.568990284
 10
409798.6044619265
 20
4671370.213056726
 10
409787.333917529
 20
4671373.689115343
 10
409785.4403491981
 20
4671374.157616072
 10
409779.180055218
 20
4671375.459370915
 10
409770.9393676546
 20
4671376.897670974
 10
409756.5308424696
 20
4671380.413897453
 10
409757.3166036861
 20
4671390.176808445
 10
409759.2855703387
 20
4671402.03454518
 10
409759.9789408132
 20
4671404.579981416
 10
409760.6722356857
 20
4671407.125343838
 10
409771.3731609928
 20
4671410.764156454
  0
ENDSEC
  0
SECTION
  2
OBJECTS
  0
DICTIONARY
  5
C
330
0
100
AcDbDictionary
281
     1
  3
ACAD_GROUP
350
D
  3
ACAD_LAYOUT
350
1A
  3
ACAD_MATERIAL
350
43
  3
ACAD_MLEADERSTYLE
350
6B
  3
ACAD_MLINESTYLE
350
17
  3
ACAD_PLOTSETTINGS
350
19
  3
ACAD_PLOTSTYLENAME
350
E
  3
ACAD_SCALELIST
350
47
  3
ACAD_TABLESTYLE
350
69
  3
ACAD_VISUALSTYLE
350
2A
  3
AcDbVariableDictionary
350
6E
  3
ESRI_PRJ
350
11C
  0
DICTIONARY
  5
11D
330
8
100
AcDbDictionary
280
     1
281
     1
  3
ACAD_XREC_ROUNDTRIP
360
11E
  0
DICTIONARY
  5
D
102
{ACAD_REACTORS
330
C
102
}
330
C
100
AcDbDictionary
281
     1
  0
DICTIONARY
  5
1A
102
{ACAD_REACTORS
330
C
102
}
330
C
100
AcDbDictionary
281
     1
  3
Layout1
350
1E
  3
Layout2
350
26
  3
Model
350
22
  0
DICTIONARY
  5
43
102
{ACAD_REACTORS
330
C
102
}
330
C
100
AcDbDictionary
281
     1
  3
ByBlock
350
45
  3
ByLayer
350
44
  3
Global
350
46
  0
DICTIONARY
  5
6B
102
{ACAD_REACTORS
330
C
102
}
330
C
100
AcDbDictionary
281
     1
  3
Standard
350
6C
  0
DICTIONARY
  5
17
102
{ACAD_REACTORS
330
C
102
}
330
C
100
AcDbDictionary
281
     1
  3
Standard
350
18
  0
DICTIONARY
  5
19
102
{ACAD_REACTORS
330
C
102
}
330
C
100
AcDbDictionary
281
     1
  0
ACDBDICTIONARYWDFLT
  5
E
102
{ACAD_REACTORS
330
C
102
}
330
C
100
AcDbDictionary
281
     1
  3
Normal
350
F
100
AcDbDictionaryWithDefault
340
F
  0
DICTIONARY
  5
47
102
{ACAD_REACTORS
330
C
102
}
330
C
100
AcDbDictionary
281
     1
  3
A0
350
48
  3
A1
350
49
  3
A2
350
4A
  3
A3
350
4B
  3
A4
350
4C
  3
A5
350
4D
  3
A6
350
4E
  3
A7
350
4F
  3
A8
350
50
  3
A9
350
51
  3
B0
350
52
  3
B1
350
53
  3
B2
350
54
  3
B3
350
55
  3
B4
350
56
  3
B5
350
57
  3
B6
350
58
  3
B7
350
59
  3
B8
350
5A
  3
B9
350
5B
  3
C0
350
5C
  3
C1
350
5D
  3
C2
350
5E
  3
C3
350
5F
  3
C4
350
60
  3
C5
350
61
  3
C6
350
62
  3
C7
350
63
  3
C8
350
64
  3
C9
350
65
  3
D0
350
66
  3
D1
350
67
  3
D2
350
68
  0
DICTIONARY
  5
69
102
{ACAD_REACTORS
330
C
102
}
330
C
100
AcDbDictionary
281
     1
  3
Standard
350
6A
  0
DICTIONARY
  5
2A
102
{ACAD_REACTORS
330
C
102
}
330
C
100
AcDbDictionary
281
     1
  3
2dWireframe
350
2F
  3
Basic
350
32
  3
Brighten
350
36
  3
ColorChange
350
3A
  3
Conceptual
350
34
  3
Dim
350
35
  3
EdgeColorOff
350
3D
  3
Facepattern
350
39
  3
Flat
350
2B
  3
FlatWithEdges
350
2C
  3
Gouraud
350
2D
  3
GouraudWithEdges
350
2E
  3
Hidden
350
31
  3
JitterOff
350
3B
  3
Linepattern
350
38
  3
OverhangOff
350
3C
  3
Realistic
350
33
  3
Shaded
350
42
  3
Shaded with edges
350
41
  3
Shades of Gray
350
3E
  3
Sketchy
350
3F
  3
Thicken
350
37
  3
Wireframe
350
30
  3
X-Ray
350
40
  0
DICTIONARY
  5
6E
102
{ACAD_REACTORS
330
C
102
}
330
C
100
AcDbDictionary
281
     1
  3
CANNOSCALE
350
77
  3
CMLEADERSTYLE
350
70
  3
CTABLESTYLE
350
6F
  3
DIMASSOC
350
73
  3
HIDETEXT
350
74
  3
MSLTSCALE
350
78
  0
XRECORD
  5
11C
102
{ACAD_REACTORS
330
C
102
}
330
C
100
AcDbXrecord
280
     1
  1
PROJCS["Hu_Tzu_Shan_UTM_Zone_51N",GEOGCS["GCS_Hu_Tzu_Shan",DATUM["D_Hu_Tzu_Shan",SPHEROID["International_1924",6378388.0,297.0]],PRIMEM["Greenwich",0.0],UNIT["Degree",0.0174532925199433]],PROJECTION["Transverse_Mercator"],PARAMETER["False_Easting",500000.0],PARAMETER["False_Northing",0.0],PARAMETER["Central_Meridian",123.0],PARAMETER["Scale_Factor",0.9996],PARAMETER["Latitude_Of_Origin",0.0],UNIT["Meter",1.0]]
  0
XRECORD
  5
11E
102
{ACAD_REACTORS
330
11D
102
}
330
11D
100
AcDbXrecord
280
     1
102
VTR_0.000_0.000_1.000_1.000_VISUALSTYLE
340
2F
102
VTR_0.000_0.000_1.000_1.000_GRIDDISPLAY
 70
     3
102
VTR_0.000_0.000_1.000_1.000_GRIDMAJOR
 70
     5
102
VTR_0.000_0.000_1.000_1.000_DEFAULTLIGHTING
280
     1
102
VTR_0.000_0.000_1.000_1.000_DEFAULTLIGHTINGTYPE
 70
     1
102
VTR_0.000_0.000_1.000_1.000_BRIGHTNESS
141
0.0
102
VTR_0.000_0.000_1.000_1.000_CONTRAST
142
0.0
  0
LAYOUT
  5
1E
102
{ACAD_REACTORS
330
1A
102
}
330
1A
100
AcDbPlotSettings
  1

  2
none_device
  4

  6

 40
0.0
 41
0.0
 42
0.0
 43
0.0
 44
0.0
 45
0.0
 46
0.0
 47
0.0
 48
0.0
 49
0.0
140
0.0
141
0.0
142
1.0
143
1.0
 70
   688
 72
     0
 73
     0
 74
     5
  7

 75
    16
147
1.0
148
0.0
149
0.0
100
AcDbLayout
  1
Layout1
 70
     1
 71
     1
 10
0.0
 20
0.0
 11
12.0
 21
9.0
 12
0.0
 22
0.0
 32
0.0
 14
1.000000000000000E+20
 24
1.000000000000000E+20
 34
1.000000000000000E+20
 15
-1.000000000000000E+20
 25
-1.000000000000000E+20
 35
-1.000000000000000E+20
146
0.0
 13
0.0
 23
0.0
 33
0.0
 16
1.0
 26
0.0
 36
0.0
 17
0.0
 27
1.0
 37
0.0
 76
     0
330
1B
  0
LAYOUT
  5
26
102
{ACAD_REACTORS
330
1A
102
}
330
1A
100
AcDbPlotSettings
  1

  2
none_device
  4

  6

 40
0.0
 41
0.0
 42
0.0
 43
0.0
 44
0.0
 45
0.0
 46
0.0
 47
0.0
 48
0.0
 49
0.0
140
0.0
141
0.0
142
1.0
143
1.0
 70
   688
 72
     0
 73
     0
 74
     5
  7

 75
    16
147
1.0
148
0.0
149
0.0
100
AcDbLayout
  1
Layout2
 70
     1
 71
     2
 10
0.0
 20
0.0
 11
0.0
 21
0.0
 12
0.0
 22
0.0
 32
0.0
 14
0.0
 24
0.0
 34
0.0
 15
0.0
 25
0.0
 35
0.0
146
0.0
 13
0.0
 23
0.0
 33
0.0
 16
1.0
 26
0.0
 36
0.0
 17
0.0
 27
1.0
 37
0.0
 76
     0
330
23
  0
LAYOUT
  5
22
102
{ACAD_REACTORS
330
1A
102
}
330
1A
100
AcDbPlotSettings
  1

  2
none_device
  4
Letter_(8.50_x_11.00_Inches)
  6

 40
6.35
 41
6.35
 42
6.35000508
 43
6.35000508
 44
215.9
 45
279.4
 46
0.0
 47
0.0
 48
0.0
 49
0.0
140
0.0
141
0.0
142
1.0
143
1.0
 70
  1712
 72
     0
 73
     0
 74
     0
  7

 75
     0
147
1.0
148
0.0
149
0.0
100
AcDbLayout
  1
Model
 70
     1
 71
     0
 10
0.0
 20
0.0
 11
12.0
 21
9.0
 12
0.0
 22
0.0
 32
0.0
 14
399716.1121520981
 24
4666580.506646471
 34
0.0
 15
414662.3866021385
 25
4678806.95417419
 35
0.0
146
0.0
 13
0.0
 23
0.0
 33
0.0
 16
1.0
 26
0.0
 36
0.0
 17
0.0
 27
1.0
 37
0.0
 76
     0
330
1F
331
29
  0
MATERIAL
  5
45
102
{ACAD_REACTORS
330
43
102
}
102
{ACAD_XDICTIONARY
360
151
102
}
330
43
100
AcDbMaterial
  1
ByBlock
  0
MATERIAL
  5
44
102
{ACAD_REACTORS
330
43
102
}
102
{ACAD_XDICTIONARY
360
14F
102
}
330
43
100
AcDbMaterial
  1
ByLayer
  0
MATERIAL
  5
46
102
{ACAD_REACTORS
330
43
102
}
102
{ACAD_XDICTIONARY
360
153
102
}
330
43
100
AcDbMaterial
  1
Global
  0
MLEADERSTYLE
  5
6C
102
{ACAD_REACTORS
330
6B
102
}
102
{ACAD_XDICTIONARY
360
156
102
}
330
6B
100
AcDbMLeaderStyle
170
     2
171
     1
172
     0
 90
        2
 40
0.0
 41
0.0
173
     1
 91
-1056964608
340
14
 92
       -2
290
     1
 42
0.09
291
     1
 43
0.36
  3
Standard
341
0
 44
0.18
300

342
11
174
     1
178
     6
175
     1
176
     0
 93
-1056964608
 45
0.18
292
     0
297
     0
 46
0.18
343
0
 94
-1056964608
 47
1.0
 49
1.0
140
1.0
293
     1
141
0.0
294
     1
177
     0
142
1.0
295
     0
296
     0
143
0.125
1001
ACAD_MLEADERVER
1070
     2
  0
MLINESTYLE
  5
18
102
{ACAD_REACTORS
330
17
102
}
330
17
100
AcDbMlineStyle
  2
Standard
 70
     0
  3

 62
   256
 51
90.0
 52
90.0
 71
     2
 49
0.5
 62
   256
  6
BYLAYER
 49
-0.5
 62
   256
  6
BYLAYER
  0
ACDBPLACEHOLDER
  5
F
102
{ACAD_REACTORS
330
E
102
}
330
E
  0
SCALE
  5
48
102
{ACAD_REACTORS
330
47
102
}
330
47
100
AcDbScale
 70
     0
300
1:1
140
1.0
141
1.0
290
     1
  0
SCALE
  5
49
102
{ACAD_REACTORS
330
47
102
}
330
47
100
AcDbScale
 70
     0
300
1:2
140
1.0
141
2.0
290
     0
  0
SCALE
  5
4A
102
{ACAD_REACTORS
330
47
102
}
330
47
100
AcDbScale
 70
     0
300
1:4
140
1.0
141
4.0
290
     0
  0
SCALE
  5
4B
102
{ACAD_REACTORS
330
47
102
}
330
47
100
AcDbScale
 70
     0
300
1:5
140
1.0
141
5.0
290
     0
  0
SCALE
  5
4C
102
{ACAD_REACTORS
330
47
102
}
330
47
100
AcDbScale
 70
     0
300
1:8
140
1.0
141
8.0
290
     0
  0
SCALE
  5
4D
102
{ACAD_REACTORS
330
47
102
}
330
47
100
AcDbScale
 70
     0
300
1:10
140
1.0
141
10.0
290
     0
  0
SCALE
  5
4E
102
{ACAD_REACTORS
330
47
102
}
330
47
100
AcDbScale
 70
     0
300
1:16
140
1.0
141
16.0
290
     0
  0
SCALE
  5
4F
102
{ACAD_REACTORS
330
47
102
}
330
47
100
AcDbScale
 70
     0
300
1:20
140
1.0
141
20.0
290
     0
  0
SCALE
  5
50
102
{ACAD_REACTORS
330
47
102
}
330
47
100
AcDbScale
 70
     0
300
1:30
140
1.0
141
30.0
290
     0
  0
SCALE
  5
51
102
{ACAD_REACTORS
330
47
102
}
330
47
100
AcDbScale
 70
     0
300
1:40
140
1.0
141
40.0
290
     0
  0
SCALE
  5
52
102
{ACAD_REACTORS
330
47
102
}
330
47
100
AcDbScale
 70
     0
300
1:50
140
1.0
141
50.0
290
     0
  0
SCALE
  5
53
102
{ACAD_REACTORS
330
47
102
}
330
47
100
AcDbScale
 70
     0
300
1:100
140
1.0
141
100.0
290
     0
  0
SCALE
  5
54
102
{ACAD_REACTORS
330
47
102
}
330
47
100
AcDbScale
 70
     0
300
2:1
140
2.0
141
1.0
290
     0
  0
SCALE
  5
55
102
{ACAD_REACTORS
330
47
102
}
330
47
100
AcDbScale
 70
     0
300
4:1
140
4.0
141
1.0
290
     0
  0
SCALE
  5
56
102
{ACAD_REACTORS
330
47
102
}
330
47
100
AcDbScale
 70
     0
300
8:1
140
8.0
141
1.0
290
     0
  0
SCALE
  5
57
102
{ACAD_REACTORS
330
47
102
}
330
47
100
AcDbScale
 70
     0
300
10:1
140
10.0
141
1.0
290
     0
  0
SCALE
  5
58
102
{ACAD_REACTORS
330
47
102
}
330
47
100
AcDbScale
 70
     0
300
100:1
140
100.0
141
1.0
290
     0
  0
SCALE
  5
59
102
{ACAD_REACTORS
330
47
102
}
330
47
100
AcDbScale
 70
     0
300
1/128" = 1'-0"
140
0.0078125
141
12.0
290
     0
  0
SCALE
  5
5A
102
{ACAD_REACTORS
330
47
102
}
330
47
100
AcDbScale
 70
     0
300
1/64" = 1'-0"
140
0.015625
141
12.0
290
     0
  0
SCALE
  5
5B
102
{ACAD_REACTORS
330
47
102
}
330
47
100
AcDbScale
 70
     0
300
1/32" = 1'-0"
140
0.03125
141
12.0
290
     0
  0
SCALE
  5
5C
102
{ACAD_REACTORS
330
47
102
}
330
47
100
AcDbScale
 70
     0
300
1/16" = 1'-0"
140
0.0625
141
12.0
290
     0
  0
SCALE
  5
5D
102
{ACAD_REACTORS
330
47
102
}
330
47
100
AcDbScale
 70
     0
300
3/32" = 1'-0"
140
0.09375
141
12.0
290
     0
  0
SCALE
  5
5E
102
{ACAD_REACTORS
330
47
102
}
330
47
100
AcDbScale
 70
     0
300
1/8" = 1'-0"
140
0.125
141
12.0
290
     0
  0
SCALE
  5
5F
102
{ACAD_REACTORS
330
47
102
}
330
47
100
AcDbScale
 70
     0
300
3/16" = 1'-0"
140
0.1875
141
12.0
290
     0
  0
SCALE
  5
60
102
{ACAD_REACTORS
330
47
102
}
330
47
100
AcDbScale
 70
     0
300
1/4" = 1'-0"
140
0.25
141
12.0
290
     0
  0
SCALE
  5
61
102
{ACAD_REACTORS
330
47
102
}
330
47
100
AcDbScale
 70
     0
300
3/8" = 1'-0"
140
0.375
141
12.0
290
     0
  0
SCALE
  5
62
102
{ACAD_REACTORS
330
47
102
}
330
47
100
AcDbScale
 70
     0
300
1/2" = 1'-0"
140
0.5
141
12.0
290
     0
  0
SCALE
  5
63
102
{ACAD_REACTORS
330
47
102
}
330
47
100
AcDbScale
 70
     0
300
3/4" = 1'-0"
140
0.75
141
12.0
290
     0
  0
SCALE
  5
64
102
{ACAD_REACTORS
330
47
102
}
330
47
100
AcDbScale
 70
     0
300
1" = 1'-0"
140
1.0
141
12.0
290
     0
  0
SCALE
  5
65
102
{ACAD_REACTORS
330
47
102
}
330
47
100
AcDbScale
 70
     0
300
1-1/2" = 1'-0"
140
1.5
141
12.0
290
     0
  0
SCALE
  5
66
102
{ACAD_REACTORS
330
47
102
}
330
47
100
AcDbScale
 70
     0
300
3" = 1'-0"
140
3.0
141
12.0
290
     0
  0
SCALE
  5
67
102
{ACAD_REACTORS
330
47
102
}
330
47
100
AcDbScale
 70
     0
300
6" = 1'-0"
140
6.0
141
12.0
290
     0
  0
SCALE
  5
68
102
{ACAD_REACTORS
330
47
102
}
330
47
100
AcDbScale
 70
     0
300
1'-0" = 1'-0"
140
12.0
141
12.0
290
     0
  0
TABLESTYLE
  5
6A
102
{ACAD_REACTORS
330
69
102
}
330
69
100
AcDbTableStyle
  3
Standard
 70
     0
 71
     0
 40
0.06
 41
0.06
280
     0
281
     0
  7
Standard
140
0.18
170
     2
 62
     0
 63
   257
283
     0
274
    -2
284
     1
 64
     0
275
    -2
285
     1
 65
     0
276
    -2
286
     1
 66
     0
277
    -2
287
     1
 67
     0
278
    -2
288
     1
 68
     0
279
    -2
289
     1
 69
     0
  7
Standard
140
0.25
170
     5
 62
     0
 63
   257
283
     0
274
    -2
284
     1
 64
     0
275
    -2
285
     1
 65
     0
276
    -2
286
     1
 66
     0
277
    -2
287
     1
 67
     0
278
    -2
288
     1
 68
     0
279
    -2
289
     1
 69
     0
  7
Standard
140
0.18
170
     5
 62
     0
 63
   257
283
     0
274
    -2
284
     1
 64
     0
275
    -2
285
     1
 65
     0
276
    -2
286
     1
 66
     0
277
    -2
287
     1
 67
     0
278
    -2
288
     1
 68
     0
279
    -2
289
     1
 69
     0
  0
VISUALSTYLE
  5
2F
102
{ACAD_REACTORS
330
2A
102
}
102
{ACAD_XDICTIONARY
360
127
102
}
330
2A
100
AcDbVisualStyle
  2
2dWireframe
 70
     4
 71
     0
 72
     2
 73
     0
 90
        0
 40
0.6
 41
30.0
 62
     5
 63
     7
 74
     1
 91
        4
 64
     7
 65
   257
 75
     1
175
     1
 42
1.0
 92
        0
 66
   257
 43
1.0
 76
     1
 77
     6
 78
     2
 67
     7
 79
     5
170
     0
171
     0
290
     0
174
     0
 93
        1
 44
0.0
173
     0
291
     0
 45
0.0
1001
ACAD
1000
AcDbSavedByObjectVersion
1070
     0
  0
VISUALSTYLE
  5
32
102
{ACAD_REACTORS
330
2A
102
}
102
{ACAD_XDICTIONARY
360
12D
102
}
330
2A
100
AcDbVisualStyle
  2
Basic
 70
     7
 71
     1
 72
     0
 73
     1
 90
        0
 40
0.6
 41
30.0
 62
     5
 63
     7
 74
     0
 91
        4
 64
     7
 65
   257
 75
     1
175
     1
 42
1.0
 92
        8
 66
     7
 43
1.0
 76
     1
 77
     6
 78
     2
 67
     7
 79
     5
170
     0
171
     0
290
     0
174
     0
 93
        1
 44
0.0
173
     0
291
     1
 45
0.0
1001
ACAD
1000
AcDbSavedByObjectVersion
1070
     0
  0
VISUALSTYLE
  5
36
102
{ACAD_REACTORS
330
2A
102
}
102
{ACAD_XDICTIONARY
360
135
102
}
330
2A
100
AcDbVisualStyle
  2
Brighten
 70
    12
 71
     2
 72
     2
 73
     0
 90
        0
 40
0.6
 41
30.0
 62
     5
 63
     7
 74
     1
 91
        4
 64
     7
 65
   257
 75
     1
175
     1
 42
1.0
 92
        8
 66
     7
 43
1.0
 76
     1
 77
     6
 78
     2
 67
     7
 79
     5
170
     0
171
     0
290
     0
174
     0
 93
        1
 44
50.0
173
     0
291
     1
 45
0.0
1001
ACAD
1000
AcDbSavedByObjectVersion
1070
     0
  0
VISUALSTYLE
  5
3A
102
{ACAD_REACTORS
330
2A
102
}
102
{ACAD_XDICTIONARY
360
13D
102
}
330
2A
100
AcDbVisualStyle
  2
ColorChange
 70
    16
 71
     2
 72
     2
 73
     3
 90
        0
 40
0.6
 41
30.0
 62
     5
 63
     8
 74
     1
 91
        4
 64
     7
 65
   257
 75
     1
175
     1
 42
1.0
 92
        8
 66
     8
 43
1.0
 76
     1
 77
     6
 78
     2
 67
     7
 79
     5
170
     0
171
     0
290
     0
174
     0
 93
        1
 44
0.0
173
     0
291
     1
 45
0.0
1001
ACAD
1000
AcDbSavedByObjectVersion
1070
     0
  0
VISUALSTYLE
  5
34
102
{ACAD_REACTORS
330
2A
102
}
102
{ACAD_XDICTIONARY
360
131
102
}
330
2A
100
AcDbVisualStyle
  2
Conceptual
 70
     9
 71
     3
 72
     2
 73
     0
 90
        0
 40
0.6
 41
30.0
 62
     5
 63
     7
 74
     2
 91
        2
 64
     7
 65
   257
 75
     1
175
     1
 42
179.0
 92
        8
 66
     7
 43
1.0
 76
     1
 77
     6
 78
     2
 67
     7
 79
     3
170
     0
171
     0
290
     0
174
     0
 93
        1
 44
0.0
173
     0
291
     0
 45
0.0
1001
ACAD
1000
AcDbSavedByObjectVersion
1070
     0
  0
VISUALSTYLE
  5
35
102
{ACAD_REACTORS
330
2A
102
}
102
{ACAD_XDICTIONARY
360
133
102
}
330
2A
100
AcDbVisualStyle
  2
Dim
 70
    11
 71
     2
 72
     2
 73
     0
 90
        0
 40
0.6
 41
30.0
 62
     5
 63
     7
 74
     1
 91
        4
 64
     7
 65
   257
 75
     1
175
     1
 42
1.0
 92
        8
 66
     7
 43
1.0
 76
     1
 77
     6
 78
     2
 67
     7
 79
     5
170
     0
171
     0
290
     0
174
     0
 93
        1
 44
-50.0
173
     0
291
     1
 45
0.0
1001
ACAD
1000
AcDbSavedByObjectVersion
1070
     0
  0
VISUALSTYLE
  5
3D
102
{ACAD_REACTORS
330
2A
102
}
102
{ACAD_XDICTIONARY
360
143
102
}
330
2A
100
AcDbVisualStyle
  2
EdgeColorOff
 70
    22
 71
     2
 72
     2
 73
     0
 90
        0
 40
0.6
 41
30.0
 62
     5
 63
     7
 74
     1
 91
        4
 64
     7
 65
   257
 75
     1
175
     1
 42
1.0
 92
        8
 66
     7
 43
1.0
 76
     1
 77
     6
 78
     2
 67
     7
 79
     5
170
     0
171
     0
290
     0
174
     0
 93
        1
 44
0.0
173
     0
291
     1
 45
0.0
1001
ACAD
1000
AcDbSavedByObjectVersion
1070
     0
  0
VISUALSTYLE
  5
39
102
{ACAD_REACTORS
330
2A
102
}
102
{ACAD_XDICTIONARY
360
13B
102
}
330
2A
100
AcDbVisualStyle
  2
Facepattern
 70
    15
 71
     2
 72
     2
 73
     0
 90
        0
 40
0.6
 41
30.0
 62
     5
 63
     7
 74
     1
 91
        4
 64
     7
 65
   257
 75
     1
175
     1
 42
1.0
 92
        8
 66
     7
 43
1.0
 76
     1
 77
     6
 78
     2
 67
     7
 79
     5
170
     0
171
     0
290
     0
174
     0
 93
        1
 44
0.0
173
     0
291
     1
 45
0.0
1001
ACAD
1000
AcDbSavedByObjectVersion
1070
     0
  0
VISUALSTYLE
  5
2B
102
{ACAD_REACTORS
330
2A
102
}
102
{ACAD_XDICTIONARY
360
11F
102
}
330
2A
100
AcDbVisualStyle
  2
Flat
 70
     0
 71
     2
 72
     1
 73
     1
 90
        2
 40
0.6
 41
30.0
 62
     5
 63
     7
 74
     0
 91
        0
 64
     7
 65
   257
 75
     1
175
     1
 42
1.0
 92
        8
 66
     7
 43
1.0
 76
     1
 77
     6
 78
     2
 67
     7
 79
     5
170
     0
171
     0
290
     0
174
     0
 93
       13
 44
0.0
173
     0
291
     1
 45
0.0
1001
ACAD
1000
AcDbSavedByObjectVersion
1070
     0
  0
VISUALSTYLE
  5
2C
102
{ACAD_REACTORS
330
2A
102
}
102
{ACAD_XDICTIONARY
360
121
102
}
330
2A
100
AcDbVisualStyle
  2
FlatWithEdges
 70
     1
 71
     2
 72
     1
 73
     1
 90
        2
 40
0.6
 41
30.0
 62
     5
 63
     7
 74
     1
 91
        0
 64
     7
 65
   257
 75
     1
175
     1
 42
1.0
 92
        0
 66
   257
 43
1.0
 76
     1
 77
     6
 78
     2
 67
     7
 79
     5
170
     0
171
     0
290
     0
174
     0
 93
       13
 44
0.0
173
     0
291
     1
 45
0.0
1001
ACAD
1000
AcDbSavedByObjectVersion
1070
     0
  0
VISUALSTYLE
  5
2D
102
{ACAD_REACTORS
330
2A
102
}
102
{ACAD_XDICTIONARY
360
123
102
}
330
2A
100
AcDbVisualStyle
  2
Gouraud
 70
     2
 71
     2
 72
     2
 73
     1
 90
        2
 40
0.6
 41
30.0
 62
     5
 63
     7
 74
     0
 91
        0
 64
     7
 65
   257
 75
     1
175
     1
 42
1.0
 92
        0
 66
     7
 43
1.0
 76
     1
 77
     6
 78
     2
 67
     7
 79
     5
170
     0
171
     0
290
     0
174
     0
 93
       13
 44
0.0
173
     0
291
     1
 45
0.0
1001
ACAD
1000
AcDbSavedByObjectVersion
1070
     0
  0
VISUALSTYLE
  5
2E
102
{ACAD_REACTORS
330
2A
102
}
102
{ACAD_XDICTIONARY
360
125
102
}
330
2A
100
AcDbVisualStyle
  2
GouraudWithEdges
 70
     3
 71
     2
 72
     2
 73
     1
 90
        2
 40
0.6
 41
30.0
 62
     5
 63
     7
 74
     1
 91
        0
 64
     7
 65
   257
 75
     1
175
     1
 42
1.0
 92
        0
 66
   257
 43
1.0
 76
     1
 77
     6
 78
     2
 67
     7
 79
     5
170
     0
171
     0
290
     0
174
     0
 93
       13
 44
0.0
173
     0
291
     1
 45
0.0
1001
ACAD
1000
AcDbSavedByObjectVersion
1070
     0
  0
VISUALSTYLE
  5
31
102
{ACAD_REACTORS
330
2A
102
}
102
{ACAD_XDICTIONARY
360
12B
102
}
330
2A
100
AcDbVisualStyle
  2
Hidden
 70
     6
 71
     1
 72
     2
 73
     2
 90
        0
 40
0.6
 41
30.0
 62
     5
 63
     7
 74
     2
 91
        2
 64
     7
 65
   257
 75
     2
175
     1
 42
40.0
 92
        0
 66
   257
 43
1.0
 76
     1
 77
     6
 78
     2
 67
     7
 79
     3
170
     0
171
     0
290
     0
174
     0
 93
        1
 44
0.0
173
     0
291
     0
 45
0.0
1001
ACAD
1000
AcDbSavedByObjectVersion
1070
     0
  0
VISUALSTYLE
  5
3B
102
{ACAD_REACTORS
330
2A
102
}
102
{ACAD_XDICTIONARY
360
13F
102
}
330
2A
100
AcDbVisualStyle
  2
JitterOff
 70
    20
 71
     2
 72
     2
 73
     0
 90
        0
 40
0.6
 41
30.0
 62
     5
 63
     7
 74
     1
 91
        4
 64
     7
 65
   257
 75
     1
175
     1
 42
1.0
 92
       10
 66
     7
 43
1.0
 76
     1
 77
     6
 78
     2
 67
     7
 79
     5
170
     0
171
     0
290
     0
174
     0
 93
        1
 44
0.0
173
     0
291
     1
 45
0.0
1001
ACAD
1000
AcDbSavedByObjectVersion
1070
     0
  0
VISUALSTYLE
  5
38
102
{ACAD_REACTORS
330
2A
102
}
102
{ACAD_XDICTIONARY
360
139
102
}
330
2A
100
AcDbVisualStyle
  2
Linepattern
 70
    14
 71
     2
 72
     2
 73
     0
 90
        0
 40
0.6
 41
30.0
 62
     5
 63
     7
 74
     1
 91
        4
 64
     7
 65
   257
 75
     7
175
     7
 42
1.0
 92
        8
 66
     7
 43
1.0
 76
     1
 77
     6
 78
     2
 67
     7
 79
     5
170
     0
171
     0
290
     0
174
     0
 93
        1
 44
0.0
173
     0
291
     1
 45
0.0
1001
ACAD
1000
AcDbSavedByObjectVersion
1070
     0
  0
VISUALSTYLE
  5
3C
102
{ACAD_REACTORS
330
2A
102
}
102
{ACAD_XDICTIONARY
360
141
102
}
330
2A
100
AcDbVisualStyle
  2
OverhangOff
 70
    21
 71
     2
 72
     2
 73
     0
 90
        0
 40
0.6
 41
30.0
 62
     5
 63
     7
 74
     1
 91
        4
 64
     7
 65
   257
 75
     1
175
     1
 42
1.0
 92
        9
 66
     7
 43
1.0
 76
     1
 77
     6
 78
     2
 67
     7
 79
     5
170
     0
171
     0
290
     0
174
     0
 93
        1
 44
0.0
173
     0
291
     1
 45
0.0
1001
ACAD
1000
AcDbSavedByObjectVersion
1070
     0
  0
VISUALSTYLE
  5
33
102
{ACAD_REACTORS
330
2A
102
}
102
{ACAD_XDICTIONARY
360
12F
102
}
330
2A
100
AcDbVisualStyle
  2
Realistic
 70
     8
 71
     2
 72
     3
 73
     0
 90
        2
 40
0.6
 41
30.0
 62
     5
 63
     7
 74
     0
 91
        0
 64
     7
 65
   257
 75
     1
175
     1
 42
1.0
 92
        8
 66
   257
 43
1.0
 76
     1
 77
     6
 78
     2
 67
     7
 79
     3
170
     0
171
     0
290
     0
174
     0
 93
       13
 44
0.0
173
     0
291
     0
 45
0.0
1001
ACAD
1000
AcDbSavedByObjectVersion
1070
     0
  0
VISUALSTYLE
  5
42
102
{ACAD_REACTORS
330
2A
102
}
102
{ACAD_XDICTIONARY
360
14D
102
}
330
2A
100
AcDbVisualStyle
  2
Shaded
 70
    27
 71
     2
 72
     2
 73
     1
 90
        2
 40
0.6
 41
30.0
 62
     5
 63
     7
 74
     0
 91
        4
 64
     7
 65
   257
 75
     1
175
     1
 42
1.0
 92
        8
 66
   257
 43
1.0
 76
     1
 77
     6
 78
     2
 67
     8
 79
     3
170
     0
171
     0
290
     0
174
     0
 93
        5
 44
0.0
173
     0
291
     0
 45
0.0
1001
ACAD
1000
AcDbSavedByObjectVersion
1070
     0
  0
VISUALSTYLE
  5
41
102
{ACAD_REACTORS
330
2A
102
}
102
{ACAD_XDICTIONARY
360
14B
102
}
330
2A
100
AcDbVisualStyle
  2
Shaded with edges
 70
    26
 71
     2
 72
     2
 73
     1
 90
        2
 40
0.6
 41
30.0
 62
     5
 63
     7
 74
     1
 91
       10
 64
     7
 65
   257
 75
     2
175
     1
 42
1.0
 92
        8
 66
   257
 43
1.0
 76
     1
 77
     6
 78
     2
 67
     7
 79
     3
170
     0
171
     0
290
     0
174
     0
 93
        5
 44
0.0
173
     0
291
     0
 45
0.0
1001
ACAD
1000
AcDbSavedByObjectVersion
1070
     0
  0
VISUALSTYLE
  5
3E
102
{ACAD_REACTORS
330
2A
102
}
102
{ACAD_XDICTIONARY
360
145
102
}
330
2A
100
AcDbVisualStyle
  2
Shades of Gray
 70
    23
 71
     2
 72
     2
 73
     3
 90
        0
 40
0.6
 41
30.0
 62
     5
 63
     7
 74
     2
 91
        2
 64
     7
 65
     7
 75
     1
175
     1
 42
40.0
 92
        8
 66
     7
 43
1.0
 76
     1
 77
     6
 78
     2
 67
     7
 79
     3
170
     0
171
     0
290
     0
174
     0
 93
        1
 44
0.0
173
     0
291
     0
 45
0.0
1001
ACAD
1000
AcDbSavedByObjectVersion
1070
     0
  0
VISUALSTYLE
  5
3F
102
{ACAD_REACTORS
330
2A
102
}
102
{ACAD_XDICTIONARY
360
147
102
}
330
2A
100
AcDbVisualStyle
  2
Sketchy
 70
    24
 71
     1
 72
     2
 73
     2
 90
        0
 40
0.6
 41
30.0
 62
     5
 63
     7
 74
     2
 91
        2
 64
     7
 65
     7
 75
     1
175
     1
 42
40.0
 92
       11
 66
     7
 43
1.0
 76
     1
 77
     6
 78
     2
 67
     7
 79
     6
170
     0
171
     0
290
     0
174
     0
 93
        1
 44
0.0
173
     0
291
     0
 45
0.0
1001
ACAD
1000
AcDbSavedByObjectVersion
1070
     0
  0
VISUALSTYLE
  5
37
102
{ACAD_REACTORS
330
2A
102
}
102
{ACAD_XDICTIONARY
360
137
102
}
330
2A
100
AcDbVisualStyle
  2
Thicken
 70
    13
 71
     2
 72
     2
 73
     0
 90
        0
 40
0.6
 41
30.0
 62
     5
 63
     7
 74
     1
 91
        4
 64
     7
 65
   257
 75
     1
175
     1
 42
1.0
 92
       12
 66
     7
 43
1.0
 76
     1
 77
     6
 78
     2
 67
     7
 79
     5
170
     0
171
     0
290
     0
174
     0
 93
        1
 44
0.0
173
     0
291
     1
 45
0.0
1001
ACAD
1000
AcDbSavedByObjectVersion
1070
     0
  0
VISUALSTYLE
  5
30
102
{ACAD_REACTORS
330
2A
102
}
102
{ACAD_XDICTIONARY
360
129
102
}
330
2A
100
AcDbVisualStyle
  2
Wireframe
 70
     5
 71
     0
 72
     2
 73
     0
 90
        0
 40
0.6
 41
30.0
 62
     5
 63
     7
 74
     1
 91
        4
 64
     7
 65
   257
 75
     1
175
     1
 42
1.0
 92
        0
 66
   257
 43
1.0
 76
     1
 77
     6
 78
     2
 67
     7
 79
     3
170
     0
171
     0
290
     0
174
     0
 93
        1
 44
0.0
173
     0
291
     0
 45
0.0
1001
ACAD
1000
AcDbSavedByObjectVersion
1070
     0
  0
VISUALSTYLE
  5
40
102
{ACAD_REACTORS
330
2A
102
}
102
{ACAD_XDICTIONARY
360
149
102
}
330
2A
100
AcDbVisualStyle
  2
X-Ray
 70
    25
 71
     2
 72
     2
 73
     1
 90
        1
 40
0.5
 41
30.0
 62
     5
 63
     7
 74
     1
 91
        0
 64
     7
 65
   257
 75
     1
175
     1
 42
1.0
 92
        8
 66
     7
 43
1.0
 76
     1
 77
     6
 78
     2
 67
     7
 79
     3
170
     0
171
     0
290
     0
174
     0
 93
       13
 44
0.0
173
     0
291
     0
 45
0.0
1001
ACAD
1000
AcDbSavedByObjectVersion
1070
     0
  0
DICTIONARYVAR
  5
77
102
{ACAD_REACTORS
330
6E
102
}
330
6E
100
DictionaryVariables
280
     0
  1
1:1
  0
DICTIONARYVAR
  5
70
102
{ACAD_REACTORS
330
6E
102
}
330
6E
100
DictionaryVariables
280
     0
  1
Standard
  0
DICTIONARYVAR
  5
6F
102
{ACAD_REACTORS
330
6E
102
}
330
6E
100
DictionaryVariables
280
     0
  1
Standard
  0
DICTIONARYVAR
  5
73
102
{ACAD_REACTORS
330
6E
102
}
330
6E
100
DictionaryVariables
280
     0
  1
2
  0
DICTIONARYVAR
  5
74
102
{ACAD_REACTORS
330
6E
102
}
330
6E
100
DictionaryVariables
280
     0
  1
1
  0
DICTIONARYVAR
  5
78
102
{ACAD_REACTORS
330
6E
102
}
330
6E
100
DictionaryVariables
280
     0
  1
1
  0
DICTIONARY
  5
151
330
45
100
AcDbDictionary
280
     1
281
     1
  3
ACAD_XREC_ROUNDTRIP
360
152
  0
DICTIONARY
  5
14F
330
44
100
AcDbDictionary
280
     1
281
     1
  3
ACAD_XREC_ROUNDTRIP
360
150
  0
DICTIONARY
  5
153
330
46
100
AcDbDictionary
280
     1
281
     1
  3
ACAD_XREC_ROUNDTRIP
360
154
  0
DICTIONARY
  5
156
330
6C
100
AcDbDictionary
280
     1
281
     1
  3
ACAD_XREC_ROUNDTRIP
360
157
  0
DICTIONARY
  5
127
330
2F
100
AcDbDictionary
280
     1
281
     1
  3
ACAD_XREC_ROUNDTRIP
360
128
  0
DICTIONARY
  5
12D
330
32
100
AcDbDictionary
280
     1
281
     1
  3
ACAD_XREC_ROUNDTRIP
360
12E
  0
DICTIONARY
  5
135
330
36
100
AcDbDictionary
280
     1
281
     1
  3
ACAD_XREC_ROUNDTRIP
360
136
  0
DICTIONARY
  5
13D
330
3A
100
AcDbDictionary
280
     1
281
     1
  3
ACAD_XREC_ROUNDTRIP
360
13E
  0
DICTIONARY
  5
131
330
34
100
AcDbDictionary
280
     1
281
     1
  3
ACAD_XREC_ROUNDTRIP
360
132
  0
DICTIONARY
  5
133
330
35
100
AcDbDictionary
280
     1
281
     1
  3
ACAD_XREC_ROUNDTRIP
360
134
  0
DICTIONARY
  5
143
330
3D
100
AcDbDictionary
280
     1
281
     1
  3
ACAD_XREC_ROUNDTRIP
360
144
  0
DICTIONARY
  5
13B
330
39
100
AcDbDictionary
280
     1
281
     1
  3
ACAD_XREC_ROUNDTRIP
360
13C
  0
DICTIONARY
  5
11F
330
2B
100
AcDbDictionary
280
     1
281
     1
  3
ACAD_XREC_ROUNDTRIP
360
120
  0
DICTIONARY
  5
121
330
2C
100
AcDbDictionary
280
     1
281
     1
  3
ACAD_XREC_ROUNDTRIP
360
122
  0
DICTIONARY
  5
123
330
2D
100
AcDbDictionary
280
     1
281
     1
  3
ACAD_XREC_ROUNDTRIP
360
124
  0
DICTIONARY
  5
125
330
2E
100
AcDbDictionary
280
     1
281
     1
  3
ACAD_XREC_ROUNDTRIP
360
126
  0
DICTIONARY
  5
12B
330
31
100
AcDbDictionary
280
     1
281
     1
  3
ACAD_XREC_ROUNDTRIP
360
12C
  0
DICTIONARY
  5
13F
330
3B
100
AcDbDictionary
280
     1
281
     1
  3
ACAD_XREC_ROUNDTRIP
360
140
  0
DICTIONARY
  5
139
330
38
100
AcDbDictionary
280
     1
281
     1
  3
ACAD_XREC_ROUNDTRIP
360
13A
  0
DICTIONARY
  5
141
330
3C
100
AcDbDictionary
280
     1
281
     1
  3
ACAD_XREC_ROUNDTRIP
360
142
  0
DICTIONARY
  5
12F
330
33
100
AcDbDictionary
280
     1
281
     1
  3
ACAD_XREC_ROUNDTRIP
360
130
  0
DICTIONARY
  5
14D
330
42
100
AcDbDictionary
280
     1
281
     1
  3
ACAD_XREC_ROUNDTRIP
360
14E
  0
DICTIONARY
  5
14B
330
41
100
AcDbDictionary
280
     1
281
     1
  3
ACAD_XREC_ROUNDTRIP
360
14C
  0
DICTIONARY
  5
145
330
3E
100
AcDbDictionary
280
     1
281
     1
  3
ACAD_XREC_ROUNDTRIP
360
146
  0
DICTIONARY
  5
147
330
3F
100
AcDbDictionary
280
     1
281
     1
  3
ACAD_XREC_ROUNDTRIP
360
148
  0
DICTIONARY
  5
137
330
37
100
AcDbDictionary
280
     1
281
     1
  3
ACAD_XREC_ROUNDTRIP
360
138
  0
DICTIONARY
  5
129
330
30
100
AcDbDictionary
280
     1
281
     1
  3
ACAD_XREC_ROUNDTRIP
360
12A
  0
DICTIONARY
  5
149
330
40
100
AcDbDictionary
280
     1
281
     1
  3
ACAD_XREC_ROUNDTRIP
360
14A
  0
XRECORD
  5
152
102
{ACAD_REACTORS
330
151
102
}
330
151
100
AcDbXrecord
280
     1
102
MATERIAL
148
0.0
149
0.0
149
0.0
 93
        0
 94
      127
282
     0
 72
     1
 77
     1
171
     1
175
     1
179
     1
273
     0
  0
XRECORD
  5
150
102
{ACAD_REACTORS
330
14F
102
}
330
14F
100
AcDbXrecord
280
     1
102
MATERIAL
148
0.0
149
0.0
149
0.0
 93
        0
 94
      127
282
     0
 72
     1
 77
     1
171
     1
175
     1
179
     1
273
     0
  0
XRECORD
  5
154
102
{ACAD_REACTORS
330
153
102
}
330
153
100
AcDbXrecord
280
     1
102
MATERIAL
148
0.0
149
0.0
149
0.0
 93
        0
 94
      127
282
     0
 72
     1
 77
     1
171
     1
175
     1
179
     1
273
     0
  0
XRECORD
  5
157
102
{ACAD_REACTORS
330
156
102
}
330
156
100
AcDbXrecord
280
     1
102
ACAD_ROUNDTRIP_2010_MLEADER_STYLE
  0
XRECORD
  5
128
102
{ACAD_REACTORS
330
127
102
}
330
127
100
AcDbXrecord
280
     1
102
RTVSPropertyOp0
 70
     1
102
RTVSPropertyOp1
 70
     1
102
RTVSPropertyOp2
 70
     1
102
RTVSPropertyOp3
 70
     1
102
RTVSPropertyOp4
 70
     1
102
RTVSPropertyOp5
 70
     1
102
RTVSPropertyOp6
 70
     1
102
RTVSPropertyOp7
 70
     1
102
RTVSPropertyOp8
 70
     1
102
RTVSPropertyOp9
 70
     1
102
RTVSPropertyOp10
 70
     1
102
RTVSPropertyOp11
 70
     1
102
RTVSPropertyOp12
 70
     1
102
RTVSPropertyOp13
 70
     1
102
RTVSPropertyOp14
 70
     1
102
RTVSPropertyOp15
 70
     1
102
RTVSPropertyOp16
 70
     1
102
RTVSPropertyOp17
 70
     1
102
RTVSPropertyOp18
 70
     1
102
RTVSPropertyOp19
 70
     1
102
RTVSPropertyOp20
 70
     1
102
RTVSPropertyOp21
 70
     1
102
RTVSPropertyOp22
 70
     1
102
RTVSPropertyOp23
 70
     1
102
RTVSPropertyOp24
 70
     1
102
RTVSPropertyOp25
 70
     1
102
RTVSPropertyOp26
 70
     1
102
RTVSPropertyOp27
 70
     1
102
RTVSPropertyOp28
 70
     1
102
RTVSPropertyOp29
 70
     1
102
RTVSPropertyOp30
 70
     1
102
RTVSPropertyOp31
 70
     1
102
RTVSPropertyOp32
 70
     1
102
RTVSPropertyOp33
 70
     1
102
RTVSPropertyOp34
 70
     1
102
RTVSPropertyOp35
 70
     1
102
RTVSPropertyOp36
 70
     1
102
RTVSPropertyOp37
 70
     1
102
RTVSPropertyOp38
 70
     1
102
RTVSPropertyOp39
 70
     1
102
RTVSPropertyOp40
 70
     1
102
RTVSPropertyOp41
 70
     1
102
RTVSPropertyOp42
 70
     1
102
RTVSPropertyOp43
 70
     1
102
RTVSPropertyOp44
 70
     1
102
RTVSPropertyOp45
 70
     1
102
RTVSPropertyOp46
 70
     1
102
RTVSPropertyOp47
 70
     1
102
RTVSPropertyOp48
 70
     1
102
RTVSPropertyOp49
 70
     1
102
RTVSPropertyOp50
 70
     1
102
RTVSPropertyOp51
 70
     0
102
RTVSPropertyOp52
 70
     0
102
RTVSPropertyOp53
 70
     1
102
RTVSPropertyOp54
 70
     1
102
RTVSPropertyOp55
 70
     1
102
RTVSPropertyOp56
 70
     1
102
RTVSPropertyOp57
 70
     1
102
RTVSPost2010Prop28
280
     1
102
RTVSPost2010PropOp28
 70
     1
102
RTVSPost2010Prop29
280
     1
102
RTVSPost2010PropOp29
 70
     1
102
RTVSPost2010Prop30
280
     0
102
RTVSPost2010PropOp30
 70
     1
102
RTVSPost2010Prop31
280
     0
102
RTVSPost2010PropOp31
 70
     1
102
RTVSPost2010Prop32
280
     0
102
RTVSPost2010PropOp32
 70
     1
102
RTVSPost2010Prop33
280
     0
102
RTVSPost2010PropOp33
 70
     1
102
RTVSPost2010Prop34
280
     0
102
RTVSPost2010PropOp34
 70
     1
102
RTVSPost2010Prop35
280
     0
102
RTVSPost2010PropOp35
 70
     1
102
RTVSPost2010Prop36
280
     0
102
RTVSPost2010PropOp36
 70
     1
102
RTVSPost2010Prop37
 90
       50
102
RTVSPost2010PropOp37
 70
     1
102
RTVSPost2010Prop38
140
0.0
102
RTVSPost2010PropOp38
 70
     1
102
RTVSPost2010Prop39
140
1.0
102
RTVSPost2010PropOp39
 70
     1
102
RTVSPost2010Prop40
 90
        0
102
RTVSPost2010PropOp40
 70
     1
102
RTVSPost2010Prop41ColorIndex
 90
       18
102
RTVSPost2010Prop41ColorRGB
 90
        0
102
RTVSPost2010PropOp41
 70
     1
102
RTVSPost2010Prop42
 90
       50
102
RTVSPost2010PropOp42
 70
     1
102
RTVSPost2010Prop43
 90
        3
102
RTVSPost2010PropOp43
 70
     1
102
RTVSPost2010Prop44ColorIndex
 90
        5
102
RTVSPost2010Prop44ColorRGB
 90
      255
102
RTVSPost2010PropOp44
 70
     1
102
RTVSPost2010Prop45
280
     0
102
RTVSPost2010PropOp45
 70
     1
102
RTVSPost2010Prop46
 90
       50
102
RTVSPost2010PropOp46
 70
     1
102
RTVSPost2010Prop47
 90
       50
102
RTVSPost2010PropOp47
 70
     1
102
RTVSPost2010Prop48
 90
       50
102
RTVSPost2010PropOp48
 70
     1
102
RTVSPost2010Prop49
280
     0
102
RTVSPost2010PropOp49
 70
     1
102
RTVSPost2010Prop50
 90
       50
102
RTVSPost2010PropOp50
 70
     1
102
RTVSPost2010Prop51ColorIndex
 90
      256
102
RTVSPost2010Prop51ColorRGB
 90
-16777216
102
RTVSPost2010PropOp51
 70
     0
102
RTVSPost2010Prop52
140
1.0
102
RTVSPost2010PropOp52
 70
     0
102
RTVSPost2010Prop53
 90
        2
102
RTVSPost2010PropOp53
 70
     1
102
RTVSPost2010Prop54
  1
strokes_ogs.tif
102
RTVSPost2010PropOp54
 70
     1
102
RTVSPost2010Prop55
280
     0
102
RTVSPost2010PropOp55
 70
     1
102
RTVSPost2010Prop56
140
1.0
102
RTVSPost2010PropOp56
 70
     1
102
RTVSPost2010Prop57
140
1.0
102
RTVSPost2010PropOp57
 70
     1
  0
XRECORD
  5
12E
102
{ACAD_REACTORS
330
12D
102
}
330
12D
100
AcDbXrecord
280
     1
102
RTVSPropertyOp0
 70
     1
102
RTVSPropertyOp1
 70
     1
102
RTVSPropertyOp2
 70
     1
102
RTVSPropertyOp3
 70
     1
102
RTVSPropertyOp4
 70
     1
102
RTVSPropertyOp5
 70
     1
102
RTVSPropertyOp6
 70
     1
102
RTVSPropertyOp7
 70
     1
102
RTVSPropertyOp8
 70
     1
102
RTVSPropertyOp9
 70
     1
102
RTVSPropertyOp10
 70
     1
102
RTVSPropertyOp11
 70
     1
102
RTVSPropertyOp12
 70
     1
102
RTVSPropertyOp13
 70
     1
102
RTVSPropertyOp14
 70
     1
102
RTVSPropertyOp15
 70
     1
102
RTVSPropertyOp16
 70
     1
102
RTVSPropertyOp17
 70
     1
102
RTVSPropertyOp18
 70
     1
102
RTVSPropertyOp19
 70
     1
102
RTVSPropertyOp20
 70
     1
102
RTVSPropertyOp21
 70
     1
102
RTVSPropertyOp22
 70
     1
102
RTVSPropertyOp23
 70
     1
102
RTVSPropertyOp24
 70
     1
102
RTVSPropertyOp25
 70
     1
102
RTVSPropertyOp26
 70
     1
102
RTVSPropertyOp27
 70
     1
102
RTVSPropertyOp28
 70
     1
102
RTVSPropertyOp29
 70
     1
102
RTVSPropertyOp30
 70
     1
102
RTVSPropertyOp31
 70
     1
102
RTVSPropertyOp32
 70
     1
102
RTVSPropertyOp33
 70
     1
102
RTVSPropertyOp34
 70
     1
102
RTVSPropertyOp35
 70
     1
102
RTVSPropertyOp36
 70
     1
102
RTVSPropertyOp37
 70
     1
102
RTVSPropertyOp38
 70
     1
102
RTVSPropertyOp39
 70
     1
102
RTVSPropertyOp40
 70
     1
102
RTVSPropertyOp41
 70
     1
102
RTVSPropertyOp42
 70
     1
102
RTVSPropertyOp43
 70
     1
102
RTVSPropertyOp44
 70
     1
102
RTVSPropertyOp45
 70
     1
102
RTVSPropertyOp46
 70
     1
102
RTVSPropertyOp47
 70
     1
102
RTVSPropertyOp48
 70
     1
102
RTVSPropertyOp49
 70
     1
102
RTVSPropertyOp50
 70
     1
102
RTVSPropertyOp51
 70
     0
102
RTVSPropertyOp52
 70
     0
102
RTVSPropertyOp53
 70
     1
102
RTVSPropertyOp54
 70
     1
102
RTVSPropertyOp55
 70
     1
102
RTVSPropertyOp56
 70
     1
102
RTVSPropertyOp57
 70
     1
102
RTVSPost2010Prop28
280
     0
102
RTVSPost2010PropOp28
 70
     1
102
RTVSPost2010Prop29
280
     1
102
RTVSPost2010PropOp29
 70
     1
102
RTVSPost2010Prop30
280
     1
102
RTVSPost2010PropOp30
 70
     1
102
RTVSPost2010Prop31
280
     0
102
RTVSPost2010PropOp31
 70
     1
102
RTVSPost2010Prop32
280
     0
102
RTVSPost2010PropOp32
 70
     1
102
RTVSPost2010Prop33
280
     0
102
RTVSPost2010PropOp33
 70
     1
102
RTVSPost2010Prop34
280
     0
102
RTVSPost2010PropOp34
 70
     1
102
RTVSPost2010Prop35
280
     0
102
RTVSPost2010PropOp35
 70
     1
102
RTVSPost2010Prop36
280
     0
102
RTVSPost2010PropOp36
 70
     1
102
RTVSPost2010Prop37
 90
       50
102
RTVSPost2010PropOp37
 70
     1
102
RTVSPost2010Prop38
140
0.0
102
RTVSPost2010PropOp38
 70
     1
102
RTVSPost2010Prop39
140
1.0
102
RTVSPost2010PropOp39
 70
     1
102
RTVSPost2010Prop40
 90
        0
102
RTVSPost2010PropOp40
 70
     1
102
RTVSPost2010Prop41ColorIndex
 90
       18
102
RTVSPost2010Prop41ColorRGB
 90
        0
102
RTVSPost2010PropOp41
 70
     1
102
RTVSPost2010Prop42
 90
       50
102
RTVSPost2010PropOp42
 70
     1
102
RTVSPost2010Prop43
 90
        3
102
RTVSPost2010PropOp43
 70
     1
102
RTVSPost2010Prop44ColorIndex
 90
        5
102
RTVSPost2010Prop44ColorRGB
 90
      255
102
RTVSPost2010PropOp44
 70
     1
102
RTVSPost2010Prop45
280
     0
102
RTVSPost2010PropOp45
 70
     1
102
RTVSPost2010Prop46
 90
       50
102
RTVSPost2010PropOp46
 70
     1
102
RTVSPost2010Prop47
 90
       50
102
RTVSPost2010PropOp47
 70
     1
102
RTVSPost2010Prop48
 90
       50
102
RTVSPost2010PropOp48
 70
     1
102
RTVSPost2010Prop49
280
     0
102
RTVSPost2010PropOp49
 70
     1
102
RTVSPost2010Prop50
 90
       50
102
RTVSPost2010PropOp50
 70
     1
102
RTVSPost2010Prop51ColorIndex
 90
      256
102
RTVSPost2010Prop51ColorRGB
 90
-16777216
102
RTVSPost2010PropOp51
 70
     0
102
RTVSPost2010Prop52
140
1.0
102
RTVSPost2010PropOp52
 70
     0
102
RTVSPost2010Prop53
 90
        2
102
RTVSPost2010PropOp53
 70
     1
102
RTVSPost2010Prop54
  1
strokes_ogs.tif
102
RTVSPost2010PropOp54
 70
     1
102
RTVSPost2010Prop55
280
     0
102
RTVSPost2010PropOp55
 70
     1
102
RTVSPost2010Prop56
140
1.0
102
RTVSPost2010PropOp56
 70
     1
102
RTVSPost2010Prop57
140
1.0
102
RTVSPost2010PropOp57
 70
     1
  0
XRECORD
  5
136
102
{ACAD_REACTORS
330
135
102
}
330
135
100
AcDbXrecord
280
     1
102
RTVSPropertyOp0
 70
     1
102
RTVSPropertyOp1
 70
     1
102
RTVSPropertyOp2
 70
     1
102
RTVSPropertyOp3
 70
     1
102
RTVSPropertyOp4
 70
     1
102
RTVSPropertyOp5
 70
     1
102
RTVSPropertyOp6
 70
     1
102
RTVSPropertyOp7
 70
     1
102
RTVSPropertyOp8
 70
     1
102
RTVSPropertyOp9
 70
     1
102
RTVSPropertyOp10
 70
     1
102
RTVSPropertyOp11
 70
     1
102
RTVSPropertyOp12
 70
     1
102
RTVSPropertyOp13
 70
     1
102
RTVSPropertyOp14
 70
     1
102
RTVSPropertyOp15
 70
     1
102
RTVSPropertyOp16
 70
     1
102
RTVSPropertyOp17
 70
     1
102
RTVSPropertyOp18
 70
     1
102
RTVSPropertyOp19
 70
     1
102
RTVSPropertyOp20
 70
     1
102
RTVSPropertyOp21
 70
     1
102
RTVSPropertyOp22
 70
     1
102
RTVSPropertyOp23
 70
     1
102
RTVSPropertyOp24
 70
     1
102
RTVSPropertyOp25
 70
     1
102
RTVSPropertyOp26
 70
     1
102
RTVSPropertyOp27
 70
     1
102
RTVSPropertyOp28
 70
     1
102
RTVSPropertyOp29
 70
     1
102
RTVSPropertyOp30
 70
     1
102
RTVSPropertyOp31
 70
     1
102
RTVSPropertyOp32
 70
     1
102
RTVSPropertyOp33
 70
     1
102
RTVSPropertyOp34
 70
     1
102
RTVSPropertyOp35
 70
     1
102
RTVSPropertyOp36
 70
     1
102
RTVSPropertyOp37
 70
     1
102
RTVSPropertyOp38
 70
     1
102
RTVSPropertyOp39
 70
     1
102
RTVSPropertyOp40
 70
     1
102
RTVSPropertyOp41
 70
     1
102
RTVSPropertyOp42
 70
     1
102
RTVSPropertyOp43
 70
     1
102
RTVSPropertyOp44
 70
     1
102
RTVSPropertyOp45
 70
     1
102
RTVSPropertyOp46
 70
     1
102
RTVSPropertyOp47
 70
     1
102
RTVSPropertyOp48
 70
     1
102
RTVSPropertyOp49
 70
     1
102
RTVSPropertyOp50
 70
     1
102
RTVSPropertyOp51
 70
     0
102
RTVSPropertyOp52
 70
     0
102
RTVSPropertyOp53
 70
     1
102
RTVSPropertyOp54
 70
     1
102
RTVSPropertyOp55
 70
     1
102
RTVSPropertyOp56
 70
     1
102
RTVSPropertyOp57
 70
     1
102
RTVSPost2010Prop28
280
     0
102
RTVSPost2010PropOp28
 70
     1
102
RTVSPost2010Prop29
280
     1
102
RTVSPost2010PropOp29
 70
     1
102
RTVSPost2010Prop30
280
     1
102
RTVSPost2010PropOp30
 70
     1
102
RTVSPost2010Prop31
280
     0
102
RTVSPost2010PropOp31
 70
     1
102
RTVSPost2010Prop32
280
     0
102
RTVSPost2010PropOp32
 70
     1
102
RTVSPost2010Prop33
280
     0
102
RTVSPost2010PropOp33
 70
     1
102
RTVSPost2010Prop34
280
     0
102
RTVSPost2010PropOp34
 70
     1
102
RTVSPost2010Prop35
280
     0
102
RTVSPost2010PropOp35
 70
     1
102
RTVSPost2010Prop36
280
     0
102
RTVSPost2010PropOp36
 70
     1
102
RTVSPost2010Prop37
 90
       50
102
RTVSPost2010PropOp37
 70
     1
102
RTVSPost2010Prop38
140
0.0
102
RTVSPost2010PropOp38
 70
     1
102
RTVSPost2010Prop39
140
1.0
102
RTVSPost2010PropOp39
 70
     1
102
RTVSPost2010Prop40
 90
        0
102
RTVSPost2010PropOp40
 70
     1
102
RTVSPost2010Prop41ColorIndex
 90
       18
102
RTVSPost2010Prop41ColorRGB
 90
        0
102
RTVSPost2010PropOp41
 70
     1
102
RTVSPost2010Prop42
 90
       50
102
RTVSPost2010PropOp42
 70
     1
102
RTVSPost2010Prop43
 90
        3
102
RTVSPost2010PropOp43
 70
     1
102
RTVSPost2010Prop44ColorIndex
 90
        5
102
RTVSPost2010Prop44ColorRGB
 90
      255
102
RTVSPost2010PropOp44
 70
     1
102
RTVSPost2010Prop45
280
     0
102
RTVSPost2010PropOp45
 70
     1
102
RTVSPost2010Prop46
 90
       50
102
RTVSPost2010PropOp46
 70
     1
102
RTVSPost2010Prop47
 90
       50
102
RTVSPost2010PropOp47
 70
     1
102
RTVSPost2010Prop48
 90
       50
102
RTVSPost2010PropOp48
 70
     1
102
RTVSPost2010Prop49
280
     0
102
RTVSPost2010PropOp49
 70
     1
102
RTVSPost2010Prop50
 90
       50
102
RTVSPost2010PropOp50
 70
     1
102
RTVSPost2010Prop51ColorIndex
 90
      256
102
RTVSPost2010Prop51ColorRGB
 90
-16777216
102
RTVSPost2010PropOp51
 70
     0
102
RTVSPost2010Prop52
140
1.0
102
RTVSPost2010PropOp52
 70
     0
102
RTVSPost2010Prop53
 90
        2
102
RTVSPost2010PropOp53
 70
     1
102
RTVSPost2010Prop54
  1
strokes_ogs.tif
102
RTVSPost2010PropOp54
 70
     1
102
RTVSPost2010Prop55
280
     0
102
RTVSPost2010PropOp55
 70
     1
102
RTVSPost2010Prop56
140
1.0
102
RTVSPost2010PropOp56
 70
     1
102
RTVSPost2010Prop57
140
1.0
102
RTVSPost2010PropOp57
 70
     1
  0
XRECORD
  5
13E
102
{ACAD_REACTORS
330
13D
102
}
330
13D
100
AcDbXrecord
280
     1
102
RTVSPropertyOp0
 70
     1
102
RTVSPropertyOp1
 70
     1
102
RTVSPropertyOp2
 70
     1
102
RTVSPropertyOp3
 70
     1
102
RTVSPropertyOp4
 70
     1
102
RTVSPropertyOp5
 70
     1
102
RTVSPropertyOp6
 70
     1
102
RTVSPropertyOp7
 70
     1
102
RTVSPropertyOp8
 70
     1
102
RTVSPropertyOp9
 70
     1
102
RTVSPropertyOp10
 70
     1
102
RTVSPropertyOp11
 70
     1
102
RTVSPropertyOp12
 70
     1
102
RTVSPropertyOp13
 70
     1
102
RTVSPropertyOp14
 70
     1
102
RTVSPropertyOp15
 70
     1
102
RTVSPropertyOp16
 70
     1
102
RTVSPropertyOp17
 70
     1
102
RTVSPropertyOp18
 70
     1
102
RTVSPropertyOp19
 70
     1
102
RTVSPropertyOp20
 70
     1
102
RTVSPropertyOp21
 70
     1
102
RTVSPropertyOp22
 70
     1
102
RTVSPropertyOp23
 70
     1
102
RTVSPropertyOp24
 70
     1
102
RTVSPropertyOp25
 70
     1
102
RTVSPropertyOp26
 70
     1
102
RTVSPropertyOp27
 70
     1
102
RTVSPropertyOp28
 70
     1
102
RTVSPropertyOp29
 70
     1
102
RTVSPropertyOp30
 70
     1
102
RTVSPropertyOp31
 70
     1
102
RTVSPropertyOp32
 70
     1
102
RTVSPropertyOp33
 70
     1
102
RTVSPropertyOp34
 70
     1
102
RTVSPropertyOp35
 70
     1
102
RTVSPropertyOp36
 70
     1
102
RTVSPropertyOp37
 70
     1
102
RTVSPropertyOp38
 70
     1
102
RTVSPropertyOp39
 70
     1
102
RTVSPropertyOp40
 70
     1
102
RTVSPropertyOp41
 70
     1
102
RTVSPropertyOp42
 70
     1
102
RTVSPropertyOp43
 70
     1
102
RTVSPropertyOp44
 70
     1
102
RTVSPropertyOp45
 70
     1
102
RTVSPropertyOp46
 70
     1
102
RTVSPropertyOp47
 70
     1
102
RTVSPropertyOp48
 70
     1
102
RTVSPropertyOp49
 70
     1
102
RTVSPropertyOp50
 70
     1
102
RTVSPropertyOp51
 70
     0
102
RTVSPropertyOp52
 70
     0
102
RTVSPropertyOp53
 70
     1
102
RTVSPropertyOp54
 70
     1
102
RTVSPropertyOp55
 70
     1
102
RTVSPropertyOp56
 70
     1
102
RTVSPropertyOp57
 70
     1
102
RTVSPost2010Prop28
280
     0
102
RTVSPost2010PropOp28
 70
     1
102
RTVSPost2010Prop29
280
     1
102
RTVSPost2010PropOp29
 70
     1
102
RTVSPost2010Prop30
280
     1
102
RTVSPost2010PropOp30
 70
     1
102
RTVSPost2010Prop31
280
     0
102
RTVSPost2010PropOp31
 70
     1
102
RTVSPost2010Prop32
280
     0
102
RTVSPost2010PropOp32
 70
     1
102
RTVSPost2010Prop33
280
     0
102
RTVSPost2010PropOp33
 70
     1
102
RTVSPost2010Prop34
280
     0
102
RTVSPost2010PropOp34
 70
     1
102
RTVSPost2010Prop35
280
     0
102
RTVSPost2010PropOp35
 70
     1
102
RTVSPost2010Prop36
280
     0
102
RTVSPost2010PropOp36
 70
     1
102
RTVSPost2010Prop37
 90
       50
102
RTVSPost2010PropOp37
 70
     1
102
RTVSPost2010Prop38
140
0.0
102
RTVSPost2010PropOp38
 70
     1
102
RTVSPost2010Prop39
140
1.0
102
RTVSPost2010PropOp39
 70
     1
102
RTVSPost2010Prop40
 90
        0
102
RTVSPost2010PropOp40
 70
     1
102
RTVSPost2010Prop41ColorIndex
 90
       18
102
RTVSPost2010Prop41ColorRGB
 90
        0
102
RTVSPost2010PropOp41
 70
     1
102
RTVSPost2010Prop42
 90
       50
102
RTVSPost2010PropOp42
 70
     1
102
RTVSPost2010Prop43
 90
        3
102
RTVSPost2010PropOp43
 70
     1
102
RTVSPost2010Prop44ColorIndex
 90
        5
102
RTVSPost2010Prop44ColorRGB
 90
      255
102
RTVSPost2010PropOp44
 70
     1
102
RTVSPost2010Prop45
280
     0
102
RTVSPost2010PropOp45
 70
     1
102
RTVSPost2010Prop46
 90
       50
102
RTVSPost2010PropOp46
 70
     1
102
RTVSPost2010Prop47
 90
       50
102
RTVSPost2010PropOp47
 70
     1
102
RTVSPost2010Prop48
 90
       50
102
RTVSPost2010PropOp48
 70
     1
102
RTVSPost2010Prop49
280
     0
102
RTVSPost2010PropOp49
 70
     1
102
RTVSPost2010Prop50
 90
       50
102
RTVSPost2010PropOp50
 70
     1
102
RTVSPost2010Prop51ColorIndex
 90
      256
102
RTVSPost2010Prop51ColorRGB
 90
-16777216
102
RTVSPost2010PropOp51
 70
     0
102
RTVSPost2010Prop52
140
1.0
102
RTVSPost2010PropOp52
 70
     0
102
RTVSPost2010Prop53
 90
        2
102
RTVSPost2010PropOp53
 70
     1
102
RTVSPost2010Prop54
  1
strokes_ogs.tif
102
RTVSPost2010PropOp54
 70
     1
102
RTVSPost2010Prop55
280
     0
102
RTVSPost2010PropOp55
 70
     1
102
RTVSPost2010Prop56
140
1.0
102
RTVSPost2010PropOp56
 70
     1
102
RTVSPost2010Prop57
140
1.0
102
RTVSPost2010PropOp57
 70
     1
  0
XRECORD
  5
132
102
{ACAD_REACTORS
330
131
102
}
330
131
100
AcDbXrecord
280
     1
102
RTVSPropertyOp0
 70
     1
102
RTVSPropertyOp1
 70
     1
102
RTVSPropertyOp2
 70
     1
102
RTVSPropertyOp3
 70
     1
102
RTVSPropertyOp4
 70
     1
102
RTVSPropertyOp5
 70
     1
102
RTVSPropertyOp6
 70
     1
102
RTVSPropertyOp7
 70
     1
102
RTVSPropertyOp8
 70
     1
102
RTVSPropertyOp9
 70
     1
102
RTVSPropertyOp10
 70
     1
102
RTVSPropertyOp11
 70
     1
102
RTVSPropertyOp12
 70
     1
102
RTVSPropertyOp13
 70
     1
102
RTVSPropertyOp14
 70
     1
102
RTVSPropertyOp15
 70
     1
102
RTVSPropertyOp16
 70
     1
102
RTVSPropertyOp17
 70
     1
102
RTVSPropertyOp18
 70
     1
102
RTVSPropertyOp19
 70
     1
102
RTVSPropertyOp20
 70
     1
102
RTVSPropertyOp21
 70
     1
102
RTVSPropertyOp22
 70
     1
102
RTVSPropertyOp23
 70
     1
102
RTVSPropertyOp24
 70
     1
102
RTVSPropertyOp25
 70
     1
102
RTVSPropertyOp26
 70
     1
102
RTVSPropertyOp27
 70
     1
102
RTVSPropertyOp28
 70
     1
102
RTVSPropertyOp29
 70
     1
102
RTVSPropertyOp30
 70
     1
102
RTVSPropertyOp31
 70
     1
102
RTVSPropertyOp32
 70
     1
102
RTVSPropertyOp33
 70
     1
102
RTVSPropertyOp34
 70
     1
102
RTVSPropertyOp35
 70
     1
102
RTVSPropertyOp36
 70
     1
102
RTVSPropertyOp37
 70
     1
102
RTVSPropertyOp38
 70
     1
102
RTVSPropertyOp39
 70
     1
102
RTVSPropertyOp40
 70
     1
102
RTVSPropertyOp41
 70
     1
102
RTVSPropertyOp42
 70
     1
102
RTVSPropertyOp43
 70
     1
102
RTVSPropertyOp44
 70
     1
102
RTVSPropertyOp45
 70
     1
102
RTVSPropertyOp46
 70
     1
102
RTVSPropertyOp47
 70
     1
102
RTVSPropertyOp48
 70
     1
102
RTVSPropertyOp49
 70
     1
102
RTVSPropertyOp50
 70
     1
102
RTVSPropertyOp51
 70
     0
102
RTVSPropertyOp52
 70
     0
102
RTVSPropertyOp53
 70
     1
102
RTVSPropertyOp54
 70
     1
102
RTVSPropertyOp55
 70
     1
102
RTVSPropertyOp56
 70
     1
102
RTVSPropertyOp57
 70
     1
102
RTVSPost2010Prop28
280
     0
102
RTVSPost2010PropOp28
 70
     1
102
RTVSPost2010Prop29
280
     1
102
RTVSPost2010PropOp29
 70
     1
102
RTVSPost2010Prop30
280
     1
102
RTVSPost2010PropOp30
 70
     1
102
RTVSPost2010Prop31
280
     0
102
RTVSPost2010PropOp31
 70
     1
102
RTVSPost2010Prop32
280
     0
102
RTVSPost2010PropOp32
 70
     1
102
RTVSPost2010Prop33
280
     0
102
RTVSPost2010PropOp33
 70
     1
102
RTVSPost2010Prop34
280
     0
102
RTVSPost2010PropOp34
 70
     1
102
RTVSPost2010Prop35
280
     0
102
RTVSPost2010PropOp35
 70
     1
102
RTVSPost2010Prop36
280
     0
102
RTVSPost2010PropOp36
 70
     1
102
RTVSPost2010Prop37
 90
       50
102
RTVSPost2010PropOp37
 70
     1
102
RTVSPost2010Prop38
140
0.0
102
RTVSPost2010PropOp38
 70
     1
102
RTVSPost2010Prop39
140
1.0
102
RTVSPost2010PropOp39
 70
     1
102
RTVSPost2010Prop40
 90
        0
102
RTVSPost2010PropOp40
 70
     1
102
RTVSPost2010Prop41ColorIndex
 90
       18
102
RTVSPost2010Prop41ColorRGB
 90
        0
102
RTVSPost2010PropOp41
 70
     1
102
RTVSPost2010Prop42
 90
       50
102
RTVSPost2010PropOp42
 70
     1
102
RTVSPost2010Prop43
 90
        3
102
RTVSPost2010PropOp43
 70
     1
102
RTVSPost2010Prop44ColorIndex
 90
        5
102
RTVSPost2010Prop44ColorRGB
 90
      255
102
RTVSPost2010PropOp44
 70
     1
102
RTVSPost2010Prop45
280
     0
102
RTVSPost2010PropOp45
 70
     1
102
RTVSPost2010Prop46
 90
       50
102
RTVSPost2010PropOp46
 70
     1
102
RTVSPost2010Prop47
 90
       50
102
RTVSPost2010PropOp47
 70
     1
102
RTVSPost2010Prop48
 90
       50
102
RTVSPost2010PropOp48
 70
     1
102
RTVSPost2010Prop49
280
     0
102
RTVSPost2010PropOp49
 70
     1
102
RTVSPost2010Prop50
 90
       50
102
RTVSPost2010PropOp50
 70
     1
102
RTVSPost2010Prop51ColorIndex
 90
      256
102
RTVSPost2010Prop51ColorRGB
 90
-16777216
102
RTVSPost2010PropOp51
 70
     0
102
RTVSPost2010Prop52
140
1.0
102
RTVSPost2010PropOp52
 70
     0
102
RTVSPost2010Prop53
 90
        2
102
RTVSPost2010PropOp53
 70
     1
102
RTVSPost2010Prop54
  1
strokes_ogs.tif
102
RTVSPost2010PropOp54
 70
     1
102
RTVSPost2010Prop55
280
     0
102
RTVSPost2010PropOp55
 70
     1
102
RTVSPost2010Prop56
140
1.0
102
RTVSPost2010PropOp56
 70
     1
102
RTVSPost2010Prop57
140
1.0
102
RTVSPost2010PropOp57
 70
     1
  0
XRECORD
  5
134
102
{ACAD_REACTORS
330
133
102
}
330
133
100
AcDbXrecord
280
     1
102
RTVSPropertyOp0
 70
     1
102
RTVSPropertyOp1
 70
     1
102
RTVSPropertyOp2
 70
     1
102
RTVSPropertyOp3
 70
     1
102
RTVSPropertyOp4
 70
     1
102
RTVSPropertyOp5
 70
     1
102
RTVSPropertyOp6
 70
     1
102
RTVSPropertyOp7
 70
     1
102
RTVSPropertyOp8
 70
     1
102
RTVSPropertyOp9
 70
     1
102
RTVSPropertyOp10
 70
     1
102
RTVSPropertyOp11
 70
     1
102
RTVSPropertyOp12
 70
     1
102
RTVSPropertyOp13
 70
     1
102
RTVSPropertyOp14
 70
     1
102
RTVSPropertyOp15
 70
     1
102
RTVSPropertyOp16
 70
     1
102
RTVSPropertyOp17
 70
     1
102
RTVSPropertyOp18
 70
     1
102
RTVSPropertyOp19
 70
     1
102
RTVSPropertyOp20
 70
     1
102
RTVSPropertyOp21
 70
     1
102
RTVSPropertyOp22
 70
     1
102
RTVSPropertyOp23
 70
     1
102
RTVSPropertyOp24
 70
     1
102
RTVSPropertyOp25
 70
     1
102
RTVSPropertyOp26
 70
     1
102
RTVSPropertyOp27
 70
     1
102
RTVSPropertyOp28
 70
     1
102
RTVSPropertyOp29
 70
     1
102
RTVSPropertyOp30
 70
     1
102
RTVSPropertyOp31
 70
     1
102
RTVSPropertyOp32
 70
     1
102
RTVSPropertyOp33
 70
     1
102
RTVSPropertyOp34
 70
     1
102
RTVSPropertyOp35
 70
     1
102
RTVSPropertyOp36
 70
     1
102
RTVSPropertyOp37
 70
     1
102
RTVSPropertyOp38
 70
     1
102
RTVSPropertyOp39
 70
     1
102
RTVSPropertyOp40
 70
     1
102
RTVSPropertyOp41
 70
     1
102
RTVSPropertyOp42
 70
     1
102
RTVSPropertyOp43
 70
     1
102
RTVSPropertyOp44
 70
     1
102
RTVSPropertyOp45
 70
     1
102
RTVSPropertyOp46
 70
     1
102
RTVSPropertyOp47
 70
     1
102
RTVSPropertyOp48
 70
     1
102
RTVSPropertyOp49
 70
     1
102
RTVSPropertyOp50
 70
     1
102
RTVSPropertyOp51
 70
     0
102
RTVSPropertyOp52
 70
     0
102
RTVSPropertyOp53
 70
     1
102
RTVSPropertyOp54
 70
     1
102
RTVSPropertyOp55
 70
     1
102
RTVSPropertyOp56
 70
     1
102
RTVSPropertyOp57
 70
     1
102
RTVSPost2010Prop28
280
     0
102
RTVSPost2010PropOp28
 70
     1
102
RTVSPost2010Prop29
280
     1
102
RTVSPost2010PropOp29
 70
     1
102
RTVSPost2010Prop30
280
     1
102
RTVSPost2010PropOp30
 70
     1
102
RTVSPost2010Prop31
280
     0
102
RTVSPost2010PropOp31
 70
     1
102
RTVSPost2010Prop32
280
     0
102
RTVSPost2010PropOp32
 70
     1
102
RTVSPost2010Prop33
280
     0
102
RTVSPost2010PropOp33
 70
     1
102
RTVSPost2010Prop34
280
     0
102
RTVSPost2010PropOp34
 70
     1
102
RTVSPost2010Prop35
280
     0
102
RTVSPost2010PropOp35
 70
     1
102
RTVSPost2010Prop36
280
     0
102
RTVSPost2010PropOp36
 70
     1
102
RTVSPost2010Prop37
 90
       50
102
RTVSPost2010PropOp37
 70
     1
102
RTVSPost2010Prop38
140
0.0
102
RTVSPost2010PropOp38
 70
     1
102
RTVSPost2010Prop39
140
1.0
102
RTVSPost2010PropOp39
 70
     1
102
RTVSPost2010Prop40
 90
        0
102
RTVSPost2010PropOp40
 70
     1
102
RTVSPost2010Prop41ColorIndex
 90
       18
102
RTVSPost2010Prop41ColorRGB
 90
        0
102
RTVSPost2010PropOp41
 70
     1
102
RTVSPost2010Prop42
 90
       50
102
RTVSPost2010PropOp42
 70
     1
102
RTVSPost2010Prop43
 90
        3
102
RTVSPost2010PropOp43
 70
     1
102
RTVSPost2010Prop44ColorIndex
 90
        5
102
RTVSPost2010Prop44ColorRGB
 90
      255
102
RTVSPost2010PropOp44
 70
     1
102
RTVSPost2010Prop45
280
     0
102
RTVSPost2010PropOp45
 70
     1
102
RTVSPost2010Prop46
 90
       50
102
RTVSPost2010PropOp46
 70
     1
102
RTVSPost2010Prop47
 90
       50
102
RTVSPost2010PropOp47
 70
     1
102
RTVSPost2010Prop48
 90
       50
102
RTVSPost2010PropOp48
 70
     1
102
RTVSPost2010Prop49
280
     0
102
RTVSPost2010PropOp49
 70
     1
102
RTVSPost2010Prop50
 90
       50
102
RTVSPost2010PropOp50
 70
     1
102
RTVSPost2010Prop51ColorIndex
 90
      256
102
RTVSPost2010Prop51ColorRGB
 90
-16777216
102
RTVSPost2010PropOp51
 70
     0
102
RTVSPost2010Prop52
140
1.0
102
RTVSPost2010PropOp52
 70
     0
102
RTVSPost2010Prop53
 90
        2
102
RTVSPost2010PropOp53
 70
     1
102
RTVSPost2010Prop54
  1
strokes_ogs.tif
102
RTVSPost2010PropOp54
 70
     1
102
RTVSPost2010Prop55
280
     0
102
RTVSPost2010PropOp55
 70
     1
102
RTVSPost2010Prop56
140
1.0
102
RTVSPost2010PropOp56
 70
     1
102
RTVSPost2010Prop57
140
1.0
102
RTVSPost2010PropOp57
 70
     1
  0
XRECORD
  5
144
102
{ACAD_REACTORS
330
143
102
}
330
143
100
AcDbXrecord
280
     1
102
RTVSPropertyOp0
 70
     0
102
RTVSPropertyOp1
 70
     0
102
RTVSPropertyOp2
 70
     0
102
RTVSPropertyOp3
 70
     0
102
RTVSPropertyOp4
 70
     0
102
RTVSPropertyOp5
 70
     0
102
RTVSPropertyOp6
 70
     0
102
RTVSPropertyOp7
 70
     0
102
RTVSPropertyOp8
 70
     0
102
RTVSPropertyOp9
 70
     0
102
RTVSPropertyOp10
 70
     0
102
RTVSPropertyOp11
 70
     0
102
RTVSPropertyOp12
 70
     0
102
RTVSPropertyOp13
 70
     0
102
RTVSPropertyOp14
 70
     2
102
RTVSPropertyOp15
 70
     0
102
RTVSPropertyOp16
 70
     0
102
RTVSPropertyOp17
 70
     0
102
RTVSPropertyOp18
 70
     0
102
RTVSPropertyOp19
 70
     0
102
RTVSPropertyOp20
 70
     0
102
RTVSPropertyOp21
 70
     0
102
RTVSPropertyOp22
 70
     0
102
RTVSPropertyOp23
 70
     0
102
RTVSPropertyOp24
 70
     0
102
RTVSPropertyOp25
 70
     0
102
RTVSPropertyOp26
 70
     0
102
RTVSPropertyOp27
 70
     0
102
RTVSPropertyOp28
 70
     0
102
RTVSPropertyOp29
 70
     0
102
RTVSPropertyOp30
 70
     0
102
RTVSPropertyOp31
 70
     0
102
RTVSPropertyOp32
 70
     0
102
RTVSPropertyOp33
 70
     0
102
RTVSPropertyOp34
 70
     0
102
RTVSPropertyOp35
 70
     0
102
RTVSPropertyOp36
 70
     0
102
RTVSPropertyOp37
 70
     0
102
RTVSPropertyOp38
 70
     0
102
RTVSPropertyOp39
 70
     0
102
RTVSPropertyOp40
 70
     0
102
RTVSPropertyOp41
 70
     0
102
RTVSPropertyOp42
 70
     0
102
RTVSPropertyOp43
 70
     0
102
RTVSPropertyOp44
 70
     0
102
RTVSPropertyOp45
 70
     0
102
RTVSPropertyOp46
 70
     0
102
RTVSPropertyOp47
 70
     0
102
RTVSPropertyOp48
 70
     0
102
RTVSPropertyOp49
 70
     0
102
RTVSPropertyOp50
 70
     0
102
RTVSPropertyOp51
 70
     0
102
RTVSPropertyOp52
 70
     0
102
RTVSPropertyOp53
 70
     0
102
RTVSPropertyOp54
 70
     0
102
RTVSPropertyOp55
 70
     0
102
RTVSPropertyOp56
 70
     0
102
RTVSPropertyOp57
 70
     0
102
RTVSPost2010Prop28
280
     0
102
RTVSPost2010PropOp28
 70
     0
102
RTVSPost2010Prop29
280
     1
102
RTVSPost2010PropOp29
 70
     0
102
RTVSPost2010Prop30
280
     1
102
RTVSPost2010PropOp30
 70
     0
102
RTVSPost2010Prop31
280
     0
102
RTVSPost2010PropOp31
 70
     0
102
RTVSPost2010Prop32
280
     0
102
RTVSPost2010PropOp32
 70
     0
102
RTVSPost2010Prop33
280
     0
102
RTVSPost2010PropOp33
 70
     0
102
RTVSPost2010Prop34
280
     0
102
RTVSPost2010PropOp34
 70
     0
102
RTVSPost2010Prop35
280
     0
102
RTVSPost2010PropOp35
 70
     0
102
RTVSPost2010Prop36
280
     0
102
RTVSPost2010PropOp36
 70
     0
102
RTVSPost2010Prop37
 90
       50
102
RTVSPost2010PropOp37
 70
     0
102
RTVSPost2010Prop38
140
0.0
102
RTVSPost2010PropOp38
 70
     0
102
RTVSPost2010Prop39
140
1.0
102
RTVSPost2010PropOp39
 70
     0
102
RTVSPost2010Prop40
 90
        0
102
RTVSPost2010PropOp40
 70
     0
102
RTVSPost2010Prop41ColorIndex
 90
       18
102
RTVSPost2010Prop41ColorRGB
 90
        0
102
RTVSPost2010PropOp41
 70
     0
102
RTVSPost2010Prop42
 90
       50
102
RTVSPost2010PropOp42
 70
     0
102
RTVSPost2010Prop43
 90
        3
102
RTVSPost2010PropOp43
 70
     0
102
RTVSPost2010Prop44ColorIndex
 90
        5
102
RTVSPost2010Prop44ColorRGB
 90
      255
102
RTVSPost2010PropOp44
 70
     0
102
RTVSPost2010Prop45
280
     0
102
RTVSPost2010PropOp45
 70
     0
102
RTVSPost2010Prop46
 90
       50
102
RTVSPost2010PropOp46
 70
     0
102
RTVSPost2010Prop47
 90
       50
102
RTVSPost2010PropOp47
 70
     0
102
RTVSPost2010Prop48
 90
       50
102
RTVSPost2010PropOp48
 70
     0
102
RTVSPost2010Prop49
280
     0
102
RTVSPost2010PropOp49
 70
     0
102
RTVSPost2010Prop50
 90
       50
102
RTVSPost2010PropOp50
 70
     0
102
RTVSPost2010Prop51ColorIndex
 90
      256
102
RTVSPost2010Prop51ColorRGB
 90
-16777216
102
RTVSPost2010PropOp51
 70
     0
102
RTVSPost2010Prop52
140
1.0
102
RTVSPost2010PropOp52
 70
     0
102
RTVSPost2010Prop53
 90
        2
102
RTVSPost2010PropOp53
 70
     0
102
RTVSPost2010Prop54
  1
strokes_ogs.tif
102
RTVSPost2010PropOp54
 70
     0
102
RTVSPost2010Prop55
280
     0
102
RTVSPost2010PropOp55
 70
     0
102
RTVSPost2010Prop56
140
1.0
102
RTVSPost2010PropOp56
 70
     0
102
RTVSPost2010Prop57
140
1.0
102
RTVSPost2010PropOp57
 70
     0
  0
XRECORD
  5
13C
102
{ACAD_REACTORS
330
13B
102
}
330
13B
100
AcDbXrecord
280
     1
102
RTVSPropertyOp0
 70
     1
102
RTVSPropertyOp1
 70
     1
102
RTVSPropertyOp2
 70
     1
102
RTVSPropertyOp3
 70
     1
102
RTVSPropertyOp4
 70
     1
102
RTVSPropertyOp5
 70
     1
102
RTVSPropertyOp6
 70
     1
102
RTVSPropertyOp7
 70
     1
102
RTVSPropertyOp8
 70
     1
102
RTVSPropertyOp9
 70
     1
102
RTVSPropertyOp10
 70
     1
102
RTVSPropertyOp11
 70
     1
102
RTVSPropertyOp12
 70
     1
102
RTVSPropertyOp13
 70
     1
102
RTVSPropertyOp14
 70
     1
102
RTVSPropertyOp15
 70
     1
102
RTVSPropertyOp16
 70
     1
102
RTVSPropertyOp17
 70
     1
102
RTVSPropertyOp18
 70
     1
102
RTVSPropertyOp19
 70
     1
102
RTVSPropertyOp20
 70
     1
102
RTVSPropertyOp21
 70
     1
102
RTVSPropertyOp22
 70
     1
102
RTVSPropertyOp23
 70
     1
102
RTVSPropertyOp24
 70
     1
102
RTVSPropertyOp25
 70
     1
102
RTVSPropertyOp26
 70
     1
102
RTVSPropertyOp27
 70
     1
102
RTVSPropertyOp28
 70
     1
102
RTVSPropertyOp29
 70
     1
102
RTVSPropertyOp30
 70
     1
102
RTVSPropertyOp31
 70
     1
102
RTVSPropertyOp32
 70
     1
102
RTVSPropertyOp33
 70
     1
102
RTVSPropertyOp34
 70
     1
102
RTVSPropertyOp35
 70
     1
102
RTVSPropertyOp36
 70
     1
102
RTVSPropertyOp37
 70
     1
102
RTVSPropertyOp38
 70
     1
102
RTVSPropertyOp39
 70
     1
102
RTVSPropertyOp40
 70
     1
102
RTVSPropertyOp41
 70
     1
102
RTVSPropertyOp42
 70
     1
102
RTVSPropertyOp43
 70
     1
102
RTVSPropertyOp44
 70
     1
102
RTVSPropertyOp45
 70
     1
102
RTVSPropertyOp46
 70
     1
102
RTVSPropertyOp47
 70
     1
102
RTVSPropertyOp48
 70
     1
102
RTVSPropertyOp49
 70
     1
102
RTVSPropertyOp50
 70
     1
102
RTVSPropertyOp51
 70
     0
102
RTVSPropertyOp52
 70
     0
102
RTVSPropertyOp53
 70
     1
102
RTVSPropertyOp54
 70
     1
102
RTVSPropertyOp55
 70
     1
102
RTVSPropertyOp56
 70
     1
102
RTVSPropertyOp57
 70
     1
102
RTVSPost2010Prop28
280
     0
102
RTVSPost2010PropOp28
 70
     1
102
RTVSPost2010Prop29
280
     1
102
RTVSPost2010PropOp29
 70
     1
102
RTVSPost2010Prop30
280
     1
102
RTVSPost2010PropOp30
 70
     1
102
RTVSPost2010Prop31
280
     0
102
RTVSPost2010PropOp31
 70
     1
102
RTVSPost2010Prop32
280
     0
102
RTVSPost2010PropOp32
 70
     1
102
RTVSPost2010Prop33
280
     0
102
RTVSPost2010PropOp33
 70
     1
102
RTVSPost2010Prop34
280
     0
102
RTVSPost2010PropOp34
 70
     1
102
RTVSPost2010Prop35
280
     0
102
RTVSPost2010PropOp35
 70
     1
102
RTVSPost2010Prop36
280
     0
102
RTVSPost2010PropOp36
 70
     1
102
RTVSPost2010Prop37
 90
       50
102
RTVSPost2010PropOp37
 70
     1
102
RTVSPost2010Prop38
140
0.0
102
RTVSPost2010PropOp38
 70
     1
102
RTVSPost2010Prop39
140
1.0
102
RTVSPost2010PropOp39
 70
     1
102
RTVSPost2010Prop40
 90
        0
102
RTVSPost2010PropOp40
 70
     1
102
RTVSPost2010Prop41ColorIndex
 90
       18
102
RTVSPost2010Prop41ColorRGB
 90
        0
102
RTVSPost2010PropOp41
 70
     1
102
RTVSPost2010Prop42
 90
       50
102
RTVSPost2010PropOp42
 70
     1
102
RTVSPost2010Prop43
 90
        3
102
RTVSPost2010PropOp43
 70
     1
102
RTVSPost2010Prop44ColorIndex
 90
        5
102
RTVSPost2010Prop44ColorRGB
 90
      255
102
RTVSPost2010PropOp44
 70
     1
102
RTVSPost2010Prop45
280
     0
102
RTVSPost2010PropOp45
 70
     1
102
RTVSPost2010Prop46
 90
       50
102
RTVSPost2010PropOp46
 70
     1
102
RTVSPost2010Prop47
 90
       50
102
RTVSPost2010PropOp47
 70
     1
102
RTVSPost2010Prop48
 90
       50
102
RTVSPost2010PropOp48
 70
     1
102
RTVSPost2010Prop49
280
     0
102
RTVSPost2010PropOp49
 70
     1
102
RTVSPost2010Prop50
 90
       50
102
RTVSPost2010PropOp50
 70
     1
102
RTVSPost2010Prop51ColorIndex
 90
      256
102
RTVSPost2010Prop51ColorRGB
 90
-16777216
102
RTVSPost2010PropOp51
 70
     0
102
RTVSPost2010Prop52
140
1.0
102
RTVSPost2010PropOp52
 70
     0
102
RTVSPost2010Prop53
 90
        2
102
RTVSPost2010PropOp53
 70
     1
102
RTVSPost2010Prop54
  1
strokes_ogs.tif
102
RTVSPost2010PropOp54
 70
     1
102
RTVSPost2010Prop55
280
     0
102
RTVSPost2010PropOp55
 70
     1
102
RTVSPost2010Prop56
140
1.0
102
RTVSPost2010PropOp56
 70
     1
102
RTVSPost2010Prop57
140
1.0
102
RTVSPost2010PropOp57
 70
     1
  0
XRECORD
  5
120
102
{ACAD_REACTORS
330
11F
102
}
330
11F
100
AcDbXrecord
280
     1
102
RTVSPropertyOp0
 70
     1
102
RTVSPropertyOp1
 70
     1
102
RTVSPropertyOp2
 70
     1
102
RTVSPropertyOp3
 70
     1
102
RTVSPropertyOp4
 70
     1
102
RTVSPropertyOp5
 70
     1
102
RTVSPropertyOp6
 70
     1
102
RTVSPropertyOp7
 70
     1
102
RTVSPropertyOp8
 70
     1
102
RTVSPropertyOp9
 70
     1
102
RTVSPropertyOp10
 70
     1
102
RTVSPropertyOp11
 70
     1
102
RTVSPropertyOp12
 70
     1
102
RTVSPropertyOp13
 70
     1
102
RTVSPropertyOp14
 70
     1
102
RTVSPropertyOp15
 70
     1
102
RTVSPropertyOp16
 70
     1
102
RTVSPropertyOp17
 70
     1
102
RTVSPropertyOp18
 70
     1
102
RTVSPropertyOp19
 70
     1
102
RTVSPropertyOp20
 70
     1
102
RTVSPropertyOp21
 70
     1
102
RTVSPropertyOp22
 70
     1
102
RTVSPropertyOp23
 70
     1
102
RTVSPropertyOp24
 70
     1
102
RTVSPropertyOp25
 70
     1
102
RTVSPropertyOp26
 70
     1
102
RTVSPropertyOp27
 70
     1
102
RTVSPropertyOp28
 70
     1
102
RTVSPropertyOp29
 70
     1
102
RTVSPropertyOp30
 70
     1
102
RTVSPropertyOp31
 70
     1
102
RTVSPropertyOp32
 70
     1
102
RTVSPropertyOp33
 70
     1
102
RTVSPropertyOp34
 70
     1
102
RTVSPropertyOp35
 70
     1
102
RTVSPropertyOp36
 70
     1
102
RTVSPropertyOp37
 70
     1
102
RTVSPropertyOp38
 70
     1
102
RTVSPropertyOp39
 70
     1
102
RTVSPropertyOp40
 70
     1
102
RTVSPropertyOp41
 70
     1
102
RTVSPropertyOp42
 70
     1
102
RTVSPropertyOp43
 70
     1
102
RTVSPropertyOp44
 70
     1
102
RTVSPropertyOp45
 70
     1
102
RTVSPropertyOp46
 70
     1
102
RTVSPropertyOp47
 70
     1
102
RTVSPropertyOp48
 70
     1
102
RTVSPropertyOp49
 70
     1
102
RTVSPropertyOp50
 70
     1
102
RTVSPropertyOp51
 70
     0
102
RTVSPropertyOp52
 70
     0
102
RTVSPropertyOp53
 70
     1
102
RTVSPropertyOp54
 70
     1
102
RTVSPropertyOp55
 70
     1
102
RTVSPropertyOp56
 70
     1
102
RTVSPropertyOp57
 70
     1
102
RTVSPost2010Prop28
280
     0
102
RTVSPost2010PropOp28
 70
     1
102
RTVSPost2010Prop29
280
     1
102
RTVSPost2010PropOp29
 70
     1
102
RTVSPost2010Prop30
280
     1
102
RTVSPost2010PropOp30
 70
     1
102
RTVSPost2010Prop31
280
     0
102
RTVSPost2010PropOp31
 70
     1
102
RTVSPost2010Prop32
280
     0
102
RTVSPost2010PropOp32
 70
     1
102
RTVSPost2010Prop33
280
     0
102
RTVSPost2010PropOp33
 70
     1
102
RTVSPost2010Prop34
280
     0
102
RTVSPost2010PropOp34
 70
     1
102
RTVSPost2010Prop35
280
     0
102
RTVSPost2010PropOp35
 70
     1
102
RTVSPost2010Prop36
280
     0
102
RTVSPost2010PropOp36
 70
     1
102
RTVSPost2010Prop37
 90
       50
102
RTVSPost2010PropOp37
 70
     1
102
RTVSPost2010Prop38
140
0.0
102
RTVSPost2010PropOp38
 70
     1
102
RTVSPost2010Prop39
140
1.0
102
RTVSPost2010PropOp39
 70
     1
102
RTVSPost2010Prop40
 90
        0
102
RTVSPost2010PropOp40
 70
     1
102
RTVSPost2010Prop41ColorIndex
 90
       18
102
RTVSPost2010Prop41ColorRGB
 90
        0
102
RTVSPost2010PropOp41
 70
     1
102
RTVSPost2010Prop42
 90
       50
102
RTVSPost2010PropOp42
 70
     1
102
RTVSPost2010Prop43
 90
        3
102
RTVSPost2010PropOp43
 70
     1
102
RTVSPost2010Prop44ColorIndex
 90
        5
102
RTVSPost2010Prop44ColorRGB
 90
      255
102
RTVSPost2010PropOp44
 70
     1
102
RTVSPost2010Prop45
280
     0
102
RTVSPost2010PropOp45
 70
     1
102
RTVSPost2010Prop46
 90
       50
102
RTVSPost2010PropOp46
 70
     1
102
RTVSPost2010Prop47
 90
       50
102
RTVSPost2010PropOp47
 70
     1
102
RTVSPost2010Prop48
 90
       50
102
RTVSPost2010PropOp48
 70
     1
102
RTVSPost2010Prop49
280
     0
102
RTVSPost2010PropOp49
 70
     1
102
RTVSPost2010Prop50
 90
       50
102
RTVSPost2010PropOp50
 70
     1
102
RTVSPost2010Prop51ColorIndex
 90
      256
102
RTVSPost2010Prop51ColorRGB
 90
-16777216
102
RTVSPost2010PropOp51
 70
     0
102
RTVSPost2010Prop52
140
1.0
102
RTVSPost2010PropOp52
 70
     0
102
RTVSPost2010Prop53
 90
        2
102
RTVSPost2010PropOp53
 70
     1
102
RTVSPost2010Prop54
  1
strokes_ogs.tif
102
RTVSPost2010PropOp54
 70
     1
102
RTVSPost2010Prop55
280
     0
102
RTVSPost2010PropOp55
 70
     1
102
RTVSPost2010Prop56
140
1.0
102
RTVSPost2010PropOp56
 70
     1
102
RTVSPost2010Prop57
140
1.0
102
RTVSPost2010PropOp57
 70
     1
  0
XRECORD
  5
122
102
{ACAD_REACTORS
330
121
102
}
330
121
100
AcDbXrecord
280
     1
102
RTVSPropertyOp0
 70
     1
102
RTVSPropertyOp1
 70
     1
102
RTVSPropertyOp2
 70
     1
102
RTVSPropertyOp3
 70
     1
102
RTVSPropertyOp4
 70
     1
102
RTVSPropertyOp5
 70
     1
102
RTVSPropertyOp6
 70
     1
102
RTVSPropertyOp7
 70
     1
102
RTVSPropertyOp8
 70
     1
102
RTVSPropertyOp9
 70
     1
102
RTVSPropertyOp10
 70
     1
102
RTVSPropertyOp11
 70
     1
102
RTVSPropertyOp12
 70
     1
102
RTVSPropertyOp13
 70
     1
102
RTVSPropertyOp14
 70
     1
102
RTVSPropertyOp15
 70
     1
102
RTVSPropertyOp16
 70
     1
102
RTVSPropertyOp17
 70
     1
102
RTVSPropertyOp18
 70
     1
102
RTVSPropertyOp19
 70
     1
102
RTVSPropertyOp20
 70
     1
102
RTVSPropertyOp21
 70
     1
102
RTVSPropertyOp22
 70
     1
102
RTVSPropertyOp23
 70
     1
102
RTVSPropertyOp24
 70
     1
102
RTVSPropertyOp25
 70
     1
102
RTVSPropertyOp26
 70
     1
102
RTVSPropertyOp27
 70
     1
102
RTVSPropertyOp28
 70
     1
102
RTVSPropertyOp29
 70
     1
102
RTVSPropertyOp30
 70
     1
102
RTVSPropertyOp31
 70
     1
102
RTVSPropertyOp32
 70
     1
102
RTVSPropertyOp33
 70
     1
102
RTVSPropertyOp34
 70
     1
102
RTVSPropertyOp35
 70
     1
102
RTVSPropertyOp36
 70
     1
102
RTVSPropertyOp37
 70
     1
102
RTVSPropertyOp38
 70
     1
102
RTVSPropertyOp39
 70
     1
102
RTVSPropertyOp40
 70
     1
102
RTVSPropertyOp41
 70
     1
102
RTVSPropertyOp42
 70
     1
102
RTVSPropertyOp43
 70
     1
102
RTVSPropertyOp44
 70
     1
102
RTVSPropertyOp45
 70
     1
102
RTVSPropertyOp46
 70
     1
102
RTVSPropertyOp47
 70
     1
102
RTVSPropertyOp48
 70
     1
102
RTVSPropertyOp49
 70
     1
102
RTVSPropertyOp50
 70
     1
102
RTVSPropertyOp51
 70
     0
102
RTVSPropertyOp52
 70
     0
102
RTVSPropertyOp53
 70
     1
102
RTVSPropertyOp54
 70
     1
102
RTVSPropertyOp55
 70
     1
102
RTVSPropertyOp56
 70
     1
102
RTVSPropertyOp57
 70
     1
102
RTVSPost2010Prop28
280
     0
102
RTVSPost2010PropOp28
 70
     1
102
RTVSPost2010Prop29
280
     1
102
RTVSPost2010PropOp29
 70
     1
102
RTVSPost2010Prop30
280
     1
102
RTVSPost2010PropOp30
 70
     1
102
RTVSPost2010Prop31
280
     0
102
RTVSPost2010PropOp31
 70
     1
102
RTVSPost2010Prop32
280
     0
102
RTVSPost2010PropOp32
 70
     1
102
RTVSPost2010Prop33
280
     0
102
RTVSPost2010PropOp33
 70
     1
102
RTVSPost2010Prop34
280
     0
102
RTVSPost2010PropOp34
 70
     1
102
RTVSPost2010Prop35
280
     0
102
RTVSPost2010PropOp35
 70
     1
102
RTVSPost2010Prop36
280
     0
102
RTVSPost2010PropOp36
 70
     1
102
RTVSPost2010Prop37
 90
       50
102
RTVSPost2010PropOp37
 70
     1
102
RTVSPost2010Prop38
140
0.0
102
RTVSPost2010PropOp38
 70
     1
102
RTVSPost2010Prop39
140
1.0
102
RTVSPost2010PropOp39
 70
     1
102
RTVSPost2010Prop40
 90
        0
102
RTVSPost2010PropOp40
 70
     1
102
RTVSPost2010Prop41ColorIndex
 90
       18
102
RTVSPost2010Prop41ColorRGB
 90
        0
102
RTVSPost2010PropOp41
 70
     1
102
RTVSPost2010Prop42
 90
       50
102
RTVSPost2010PropOp42
 70
     1
102
RTVSPost2010Prop43
 90
        3
102
RTVSPost2010PropOp43
 70
     1
102
RTVSPost2010Prop44ColorIndex
 90
        5
102
RTVSPost2010Prop44ColorRGB
 90
      255
102
RTVSPost2010PropOp44
 70
     1
102
RTVSPost2010Prop45
280
     0
102
RTVSPost2010PropOp45
 70
     1
102
RTVSPost2010Prop46
 90
       50
102
RTVSPost2010PropOp46
 70
     1
102
RTVSPost2010Prop47
 90
       50
102
RTVSPost2010PropOp47
 70
     1
102
RTVSPost2010Prop48
 90
       50
102
RTVSPost2010PropOp48
 70
     1
102
RTVSPost2010Prop49
280
     0
102
RTVSPost2010PropOp49
 70
     1
102
RTVSPost2010Prop50
 90
       50
102
RTVSPost2010PropOp50
 70
     1
102
RTVSPost2010Prop51ColorIndex
 90
      256
102
RTVSPost2010Prop51ColorRGB
 90
-16777216
102
RTVSPost2010PropOp51
 70
     0
102
RTVSPost2010Prop52
140
1.0
102
RTVSPost2010PropOp52
 70
     0
102
RTVSPost2010Prop53
 90
        2
102
RTVSPost2010PropOp53
 70
     1
102
RTVSPost2010Prop54
  1
strokes_ogs.tif
102
RTVSPost2010PropOp54
 70
     1
102
RTVSPost2010Prop55
280
     0
102
RTVSPost2010PropOp55
 70
     1
102
RTVSPost2010Prop56
140
1.0
102
RTVSPost2010PropOp56
 70
     1
102
RTVSPost2010Prop57
140
1.0
102
RTVSPost2010PropOp57
 70
     1
  0
XRECORD
  5
124
102
{ACAD_REACTORS
330
123
102
}
330
123
100
AcDbXrecord
280
     1
102
RTVSPropertyOp0
 70
     1
102
RTVSPropertyOp1
 70
     1
102
RTVSPropertyOp2
 70
     1
102
RTVSPropertyOp3
 70
     1
102
RTVSPropertyOp4
 70
     1
102
RTVSPropertyOp5
 70
     1
102
RTVSPropertyOp6
 70
     1
102
RTVSPropertyOp7
 70
     1
102
RTVSPropertyOp8
 70
     1
102
RTVSPropertyOp9
 70
     1
102
RTVSPropertyOp10
 70
     1
102
RTVSPropertyOp11
 70
     1
102
RTVSPropertyOp12
 70
     1
102
RTVSPropertyOp13
 70
     1
102
RTVSPropertyOp14
 70
     1
102
RTVSPropertyOp15
 70
     1
102
RTVSPropertyOp16
 70
     1
102
RTVSPropertyOp17
 70
     1
102
RTVSPropertyOp18
 70
     1
102
RTVSPropertyOp19
 70
     1
102
RTVSPropertyOp20
 70
     1
102
RTVSPropertyOp21
 70
     1
102
RTVSPropertyOp22
 70
     1
102
RTVSPropertyOp23
 70
     1
102
RTVSPropertyOp24
 70
     1
102
RTVSPropertyOp25
 70
     1
102
RTVSPropertyOp26
 70
     1
102
RTVSPropertyOp27
 70
     1
102
RTVSPropertyOp28
 70
     1
102
RTVSPropertyOp29
 70
     1
102
RTVSPropertyOp30
 70
     1
102
RTVSPropertyOp31
 70
     1
102
RTVSPropertyOp32
 70
     1
102
RTVSPropertyOp33
 70
     1
102
RTVSPropertyOp34
 70
     1
102
RTVSPropertyOp35
 70
     1
102
RTVSPropertyOp36
 70
     1
102
RTVSPropertyOp37
 70
     1
102
RTVSPropertyOp38
 70
     1
102
RTVSPropertyOp39
 70
     1
102
RTVSPropertyOp40
 70
     1
102
RTVSPropertyOp41
 70
     1
102
RTVSPropertyOp42
 70
     1
102
RTVSPropertyOp43
 70
     1
102
RTVSPropertyOp44
 70
     1
102
RTVSPropertyOp45
 70
     1
102
RTVSPropertyOp46
 70
     1
102
RTVSPropertyOp47
 70
     1
102
RTVSPropertyOp48
 70
     1
102
RTVSPropertyOp49
 70
     1
102
RTVSPropertyOp50
 70
     1
102
RTVSPropertyOp51
 70
     0
102
RTVSPropertyOp52
 70
     0
102
RTVSPropertyOp53
 70
     1
102
RTVSPropertyOp54
 70
     1
102
RTVSPropertyOp55
 70
     1
102
RTVSPropertyOp56
 70
     1
102
RTVSPropertyOp57
 70
     1
102
RTVSPost2010Prop28
280
     0
102
RTVSPost2010PropOp28
 70
     1
102
RTVSPost2010Prop29
280
     1
102
RTVSPost2010PropOp29
 70
     1
102
RTVSPost2010Prop30
280
     1
102
RTVSPost2010PropOp30
 70
     1
102
RTVSPost2010Prop31
280
     0
102
RTVSPost2010PropOp31
 70
     1
102
RTVSPost2010Prop32
280
     0
102
RTVSPost2010PropOp32
 70
     1
102
RTVSPost2010Prop33
280
     0
102
RTVSPost2010PropOp33
 70
     1
102
RTVSPost2010Prop34
280
     0
102
RTVSPost2010PropOp34
 70
     1
102
RTVSPost2010Prop35
280
     0
102
RTVSPost2010PropOp35
 70
     1
102
RTVSPost2010Prop36
280
     0
102
RTVSPost2010PropOp36
 70
     1
102
RTVSPost2010Prop37
 90
       50
102
RTVSPost2010PropOp37
 70
     1
102
RTVSPost2010Prop38
140
0.0
102
RTVSPost2010PropOp38
 70
     1
102
RTVSPost2010Prop39
140
1.0
102
RTVSPost2010PropOp39
 70
     1
102
RTVSPost2010Prop40
 90
        0
102
RTVSPost2010PropOp40
 70
     1
102
RTVSPost2010Prop41ColorIndex
 90
       18
102
RTVSPost2010Prop41ColorRGB
 90
        0
102
RTVSPost2010PropOp41
 70
     1
102
RTVSPost2010Prop42
 90
       50
102
RTVSPost2010PropOp42
 70
     1
102
RTVSPost2010Prop43
 90
        3
102
RTVSPost2010PropOp43
 70
     1
102
RTVSPost2010Prop44ColorIndex
 90
        5
102
RTVSPost2010Prop44ColorRGB
 90
      255
102
RTVSPost2010PropOp44
 70
     1
102
RTVSPost2010Prop45
280
     0
102
RTVSPost2010PropOp45
 70
     1
102
RTVSPost2010Prop46
 90
       50
102
RTVSPost2010PropOp46
 70
     1
102
RTVSPost2010Prop47
 90
       50
102
RTVSPost2010PropOp47
 70
     1
102
RTVSPost2010Prop48
 90
       50
102
RTVSPost2010PropOp48
 70
     1
102
RTVSPost2010Prop49
280
     0
102
RTVSPost2010PropOp49
 70
     1
102
RTVSPost2010Prop50
 90
       50
102
RTVSPost2010PropOp50
 70
     1
102
RTVSPost2010Prop51ColorIndex
 90
      256
102
RTVSPost2010Prop51ColorRGB
 90
-16777216
102
RTVSPost2010PropOp51
 70
     0
102
RTVSPost2010Prop52
140
1.0
102
RTVSPost2010PropOp52
 70
     0
102
RTVSPost2010Prop53
 90
        2
102
RTVSPost2010PropOp53
 70
     1
102
RTVSPost2010Prop54
  1
strokes_ogs.tif
102
RTVSPost2010PropOp54
 70
     1
102
RTVSPost2010Prop55
280
     0
102
RTVSPost2010PropOp55
 70
     1
102
RTVSPost2010Prop56
140
1.0
102
RTVSPost2010PropOp56
 70
     1
102
RTVSPost2010Prop57
140
1.0
102
RTVSPost2010PropOp57
 70
     1
  0
XRECORD
  5
126
102
{ACAD_REACTORS
330
125
102
}
330
125
100
AcDbXrecord
280
     1
102
RTVSPropertyOp0
 70
     1
102
RTVSPropertyOp1
 70
     1
102
RTVSPropertyOp2
 70
     1
102
RTVSPropertyOp3
 70
     1
102
RTVSPropertyOp4
 70
     1
102
RTVSPropertyOp5
 70
     1
102
RTVSPropertyOp6
 70
     1
102
RTVSPropertyOp7
 70
     1
102
RTVSPropertyOp8
 70
     1
102
RTVSPropertyOp9
 70
     1
102
RTVSPropertyOp10
 70
     1
102
RTVSPropertyOp11
 70
     1
102
RTVSPropertyOp12
 70
     1
102
RTVSPropertyOp13
 70
     1
102
RTVSPropertyOp14
 70
     1
102
RTVSPropertyOp15
 70
     1
102
RTVSPropertyOp16
 70
     1
102
RTVSPropertyOp17
 70
     1
102
RTVSPropertyOp18
 70
     1
102
RTVSPropertyOp19
 70
     1
102
RTVSPropertyOp20
 70
     1
102
RTVSPropertyOp21
 70
     1
102
RTVSPropertyOp22
 70
     1
102
RTVSPropertyOp23
 70
     1
102
RTVSPropertyOp24
 70
     1
102
RTVSPropertyOp25
 70
     1
102
RTVSPropertyOp26
 70
     1
102
RTVSPropertyOp27
 70
     1
102
RTVSPropertyOp28
 70
     1
102
RTVSPropertyOp29
 70
     1
102
RTVSPropertyOp30
 70
     1
102
RTVSPropertyOp31
 70
     1
102
RTVSPropertyOp32
 70
     1
102
RTVSPropertyOp33
 70
     1
102
RTVSPropertyOp34
 70
     1
102
RTVSPropertyOp35
 70
     1
102
RTVSPropertyOp36
 70
     1
102
RTVSPropertyOp37
 70
     1
102
RTVSPropertyOp38
 70
     1
102
RTVSPropertyOp39
 70
     1
102
RTVSPropertyOp40
 70
     1
102
RTVSPropertyOp41
 70
     1
102
RTVSPropertyOp42
 70
     1
102
RTVSPropertyOp43
 70
     1
102
RTVSPropertyOp44
 70
     1
102
RTVSPropertyOp45
 70
     1
102
RTVSPropertyOp46
 70
     1
102
RTVSPropertyOp47
 70
     1
102
RTVSPropertyOp48
 70
     1
102
RTVSPropertyOp49
 70
     1
102
RTVSPropertyOp50
 70
     1
102
RTVSPropertyOp51
 70
     0
102
RTVSPropertyOp52
 70
     0
102
RTVSPropertyOp53
 70
     1
102
RTVSPropertyOp54
 70
     1
102
RTVSPropertyOp55
 70
     1
102
RTVSPropertyOp56
 70
     1
102
RTVSPropertyOp57
 70
     1
102
RTVSPost2010Prop28
280
     0
102
RTVSPost2010PropOp28
 70
     1
102
RTVSPost2010Prop29
280
     1
102
RTVSPost2010PropOp29
 70
     1
102
RTVSPost2010Prop30
280
     1
102
RTVSPost2010PropOp30
 70
     1
102
RTVSPost2010Prop31
280
     0
102
RTVSPost2010PropOp31
 70
     1
102
RTVSPost2010Prop32
280
     0
102
RTVSPost2010PropOp32
 70
     1
102
RTVSPost2010Prop33
280
     0
102
RTVSPost2010PropOp33
 70
     1
102
RTVSPost2010Prop34
280
     0
102
RTVSPost2010PropOp34
 70
     1
102
RTVSPost2010Prop35
280
     0
102
RTVSPost2010PropOp35
 70
     1
102
RTVSPost2010Prop36
280
     0
102
RTVSPost2010PropOp36
 70
     1
102
RTVSPost2010Prop37
 90
       50
102
RTVSPost2010PropOp37
 70
     1
102
RTVSPost2010Prop38
140
0.0
102
RTVSPost2010PropOp38
 70
     1
102
RTVSPost2010Prop39
140
1.0
102
RTVSPost2010PropOp39
 70
     1
102
RTVSPost2010Prop40
 90
        0
102
RTVSPost2010PropOp40
 70
     1
102
RTVSPost2010Prop41ColorIndex
 90
       18
102
RTVSPost2010Prop41ColorRGB
 90
        0
102
RTVSPost2010PropOp41
 70
     1
102
RTVSPost2010Prop42
 90
       50
102
RTVSPost2010PropOp42
 70
     1
102
RTVSPost2010Prop43
 90
        3
102
RTVSPost2010PropOp43
 70
     1
102
RTVSPost2010Prop44ColorIndex
 90
        5
102
RTVSPost2010Prop44ColorRGB
 90
      255
102
RTVSPost2010PropOp44
 70
     1
102
RTVSPost2010Prop45
280
     0
102
RTVSPost2010PropOp45
 70
     1
102
RTVSPost2010Prop46
 90
       50
102
RTVSPost2010PropOp46
 70
     1
102
RTVSPost2010Prop47
 90
       50
102
RTVSPost2010PropOp47
 70
     1
102
RTVSPost2010Prop48
 90
       50
102
RTVSPost2010PropOp48
 70
     1
102
RTVSPost2010Prop49
280
     0
102
RTVSPost2010PropOp49
 70
     1
102
RTVSPost2010Prop50
 90
       50
102
RTVSPost2010PropOp50
 70
     1
102
RTVSPost2010Prop51ColorIndex
 90
      256
102
RTVSPost2010Prop51ColorRGB
 90
-16777216
102
RTVSPost2010PropOp51
 70
     0
102
RTVSPost2010Prop52
140
1.0
102
RTVSPost2010PropOp52
 70
     0
102
RTVSPost2010Prop53
 90
        2
102
RTVSPost2010PropOp53
 70
     1
102
RTVSPost2010Prop54
  1
strokes_ogs.tif
102
RTVSPost2010PropOp54
 70
     1
102
RTVSPost2010Prop55
280
     0
102
RTVSPost2010PropOp55
 70
     1
102
RTVSPost2010Prop56
140
1.0
102
RTVSPost2010PropOp56
 70
     1
102
RTVSPost2010Prop57
140
1.0
102
RTVSPost2010PropOp57
 70
     1
  0
XRECORD
  5
12C
102
{ACAD_REACTORS
330
12B
102
}
330
12B
100
AcDbXrecord
280
     1
102
RTVSPropertyOp0
 70
     1
102
RTVSPropertyOp1
 70
     1
102
RTVSPropertyOp2
 70
     1
102
RTVSPropertyOp3
 70
     1
102
RTVSPropertyOp4
 70
     1
102
RTVSPropertyOp5
 70
     1
102
RTVSPropertyOp6
 70
     1
102
RTVSPropertyOp7
 70
     1
102
RTVSPropertyOp8
 70
     1
102
RTVSPropertyOp9
 70
     1
102
RTVSPropertyOp10
 70
     1
102
RTVSPropertyOp11
 70
     1
102
RTVSPropertyOp12
 70
     1
102
RTVSPropertyOp13
 70
     1
102
RTVSPropertyOp14
 70
     1
102
RTVSPropertyOp15
 70
     1
102
RTVSPropertyOp16
 70
     1
102
RTVSPropertyOp17
 70
     1
102
RTVSPropertyOp18
 70
     1
102
RTVSPropertyOp19
 70
     1
102
RTVSPropertyOp20
 70
     1
102
RTVSPropertyOp21
 70
     1
102
RTVSPropertyOp22
 70
     1
102
RTVSPropertyOp23
 70
     1
102
RTVSPropertyOp24
 70
     1
102
RTVSPropertyOp25
 70
     1
102
RTVSPropertyOp26
 70
     1
102
RTVSPropertyOp27
 70
     1
102
RTVSPropertyOp28
 70
     1
102
RTVSPropertyOp29
 70
     1
102
RTVSPropertyOp30
 70
     1
102
RTVSPropertyOp31
 70
     1
102
RTVSPropertyOp32
 70
     1
102
RTVSPropertyOp33
 70
     1
102
RTVSPropertyOp34
 70
     1
102
RTVSPropertyOp35
 70
     1
102
RTVSPropertyOp36
 70
     1
102
RTVSPropertyOp37
 70
     1
102
RTVSPropertyOp38
 70
     1
102
RTVSPropertyOp39
 70
     1
102
RTVSPropertyOp40
 70
     1
102
RTVSPropertyOp41
 70
     1
102
RTVSPropertyOp42
 70
     1
102
RTVSPropertyOp43
 70
     1
102
RTVSPropertyOp44
 70
     1
102
RTVSPropertyOp45
 70
     1
102
RTVSPropertyOp46
 70
     1
102
RTVSPropertyOp47
 70
     1
102
RTVSPropertyOp48
 70
     1
102
RTVSPropertyOp49
 70
     1
102
RTVSPropertyOp50
 70
     1
102
RTVSPropertyOp51
 70
     0
102
RTVSPropertyOp52
 70
     0
102
RTVSPropertyOp53
 70
     1
102
RTVSPropertyOp54
 70
     1
102
RTVSPropertyOp55
 70
     1
102
RTVSPropertyOp56
 70
     1
102
RTVSPropertyOp57
 70
     1
102
RTVSPost2010Prop28
280
     0
102
RTVSPost2010PropOp28
 70
     1
102
RTVSPost2010Prop29
280
     1
102
RTVSPost2010PropOp29
 70
     1
102
RTVSPost2010Prop30
280
     1
102
RTVSPost2010PropOp30
 70
     1
102
RTVSPost2010Prop31
280
     0
102
RTVSPost2010PropOp31
 70
     1
102
RTVSPost2010Prop32
280
     0
102
RTVSPost2010PropOp32
 70
     1
102
RTVSPost2010Prop33
280
     0
102
RTVSPost2010PropOp33
 70
     1
102
RTVSPost2010Prop34
280
     0
102
RTVSPost2010PropOp34
 70
     1
102
RTVSPost2010Prop35
280
     0
102
RTVSPost2010PropOp35
 70
     1
102
RTVSPost2010Prop36
280
     0
102
RTVSPost2010PropOp36
 70
     1
102
RTVSPost2010Prop37
 90
       50
102
RTVSPost2010PropOp37
 70
     1
102
RTVSPost2010Prop38
140
0.0
102
RTVSPost2010PropOp38
 70
     1
102
RTVSPost2010Prop39
140
1.0
102
RTVSPost2010PropOp39
 70
     1
102
RTVSPost2010Prop40
 90
        0
102
RTVSPost2010PropOp40
 70
     1
102
RTVSPost2010Prop41ColorIndex
 90
       18
102
RTVSPost2010Prop41ColorRGB
 90
        0
102
RTVSPost2010PropOp41
 70
     1
102
RTVSPost2010Prop42
 90
       50
102
RTVSPost2010PropOp42
 70
     1
102
RTVSPost2010Prop43
 90
        3
102
RTVSPost2010PropOp43
 70
     1
102
RTVSPost2010Prop44ColorIndex
 90
        5
102
RTVSPost2010Prop44ColorRGB
 90
      255
102
RTVSPost2010PropOp44
 70
     1
102
RTVSPost2010Prop45
280
     0
102
RTVSPost2010PropOp45
 70
     1
102
RTVSPost2010Prop46
 90
       50
102
RTVSPost2010PropOp46
 70
     1
102
RTVSPost2010Prop47
 90
       50
102
RTVSPost2010PropOp47
 70
     1
102
RTVSPost2010Prop48
 90
       50
102
RTVSPost2010PropOp48
 70
     1
102
RTVSPost2010Prop49
280
     0
102
RTVSPost2010PropOp49
 70
     1
102
RTVSPost2010Prop50
 90
       50
102
RTVSPost2010PropOp50
 70
     1
102
RTVSPost2010Prop51ColorIndex
 90
      256
102
RTVSPost2010Prop51ColorRGB
 90
-16777216
102
RTVSPost2010PropOp51
 70
     0
102
RTVSPost2010Prop52
140
1.0
102
RTVSPost2010PropOp52
 70
     0
102
RTVSPost2010Prop53
 90
        2
102
RTVSPost2010PropOp53
 70
     1
102
RTVSPost2010Prop54
  1
strokes_ogs.tif
102
RTVSPost2010PropOp54
 70
     1
102
RTVSPost2010Prop55
280
     0
102
RTVSPost2010PropOp55
 70
     1
102
RTVSPost2010Prop56
140
1.0
102
RTVSPost2010PropOp56
 70
     1
102
RTVSPost2010Prop57
140
1.0
102
RTVSPost2010PropOp57
 70
     1
  0
XRECORD
  5
140
102
{ACAD_REACTORS
330
13F
102
}
330
13F
100
AcDbXrecord
280
     1
102
RTVSPropertyOp0
 70
     0
102
RTVSPropertyOp1
 70
     0
102
RTVSPropertyOp2
 70
     0
102
RTVSPropertyOp3
 70
     0
102
RTVSPropertyOp4
 70
     0
102
RTVSPropertyOp5
 70
     0
102
RTVSPropertyOp6
 70
     0
102
RTVSPropertyOp7
 70
     0
102
RTVSPropertyOp8
 70
     0
102
RTVSPropertyOp9
 70
     0
102
RTVSPropertyOp10
 70
     0
102
RTVSPropertyOp11
 70
     0
102
RTVSPropertyOp12
 70
     0
102
RTVSPropertyOp13
 70
     0
102
RTVSPropertyOp14
 70
     2
102
RTVSPropertyOp15
 70
     0
102
RTVSPropertyOp16
 70
     0
102
RTVSPropertyOp17
 70
     0
102
RTVSPropertyOp18
 70
     0
102
RTVSPropertyOp19
 70
     0
102
RTVSPropertyOp20
 70
     0
102
RTVSPropertyOp21
 70
     0
102
RTVSPropertyOp22
 70
     0
102
RTVSPropertyOp23
 70
     0
102
RTVSPropertyOp24
 70
     0
102
RTVSPropertyOp25
 70
     0
102
RTVSPropertyOp26
 70
     0
102
RTVSPropertyOp27
 70
     0
102
RTVSPropertyOp28
 70
     0
102
RTVSPropertyOp29
 70
     0
102
RTVSPropertyOp30
 70
     0
102
RTVSPropertyOp31
 70
     0
102
RTVSPropertyOp32
 70
     0
102
RTVSPropertyOp33
 70
     0
102
RTVSPropertyOp34
 70
     0
102
RTVSPropertyOp35
 70
     0
102
RTVSPropertyOp36
 70
     0
102
RTVSPropertyOp37
 70
     0
102
RTVSPropertyOp38
 70
     0
102
RTVSPropertyOp39
 70
     0
102
RTVSPropertyOp40
 70
     0
102
RTVSPropertyOp41
 70
     0
102
RTVSPropertyOp42
 70
     0
102
RTVSPropertyOp43
 70
     0
102
RTVSPropertyOp44
 70
     0
102
RTVSPropertyOp45
 70
     0
102
RTVSPropertyOp46
 70
     0
102
RTVSPropertyOp47
 70
     0
102
RTVSPropertyOp48
 70
     0
102
RTVSPropertyOp49
 70
     0
102
RTVSPropertyOp50
 70
     0
102
RTVSPropertyOp51
 70
     0
102
RTVSPropertyOp52
 70
     0
102
RTVSPropertyOp53
 70
     0
102
RTVSPropertyOp54
 70
     0
102
RTVSPropertyOp55
 70
     0
102
RTVSPropertyOp56
 70
     0
102
RTVSPropertyOp57
 70
     0
102
RTVSPost2010Prop28
280
     0
102
RTVSPost2010PropOp28
 70
     0
102
RTVSPost2010Prop29
280
     1
102
RTVSPost2010PropOp29
 70
     0
102
RTVSPost2010Prop30
280
     1
102
RTVSPost2010PropOp30
 70
     0
102
RTVSPost2010Prop31
280
     0
102
RTVSPost2010PropOp31
 70
     0
102
RTVSPost2010Prop32
280
     0
102
RTVSPost2010PropOp32
 70
     0
102
RTVSPost2010Prop33
280
     0
102
RTVSPost2010PropOp33
 70
     0
102
RTVSPost2010Prop34
280
     0
102
RTVSPost2010PropOp34
 70
     0
102
RTVSPost2010Prop35
280
     0
102
RTVSPost2010PropOp35
 70
     0
102
RTVSPost2010Prop36
280
     0
102
RTVSPost2010PropOp36
 70
     0
102
RTVSPost2010Prop37
 90
       50
102
RTVSPost2010PropOp37
 70
     0
102
RTVSPost2010Prop38
140
0.0
102
RTVSPost2010PropOp38
 70
     0
102
RTVSPost2010Prop39
140
1.0
102
RTVSPost2010PropOp39
 70
     0
102
RTVSPost2010Prop40
 90
        0
102
RTVSPost2010PropOp40
 70
     0
102
RTVSPost2010Prop41ColorIndex
 90
       18
102
RTVSPost2010Prop41ColorRGB
 90
        0
102
RTVSPost2010PropOp41
 70
     0
102
RTVSPost2010Prop42
 90
       50
102
RTVSPost2010PropOp42
 70
     0
102
RTVSPost2010Prop43
 90
        3
102
RTVSPost2010PropOp43
 70
     0
102
RTVSPost2010Prop44ColorIndex
 90
        5
102
RTVSPost2010Prop44ColorRGB
 90
      255
102
RTVSPost2010PropOp44
 70
     0
102
RTVSPost2010Prop45
280
     0
102
RTVSPost2010PropOp45
 70
     0
102
RTVSPost2010Prop46
 90
       50
102
RTVSPost2010PropOp46
 70
     0
102
RTVSPost2010Prop47
 90
       50
102
RTVSPost2010PropOp47
 70
     0
102
RTVSPost2010Prop48
 90
       50
102
RTVSPost2010PropOp48
 70
     0
102
RTVSPost2010Prop49
280
     0
102
RTVSPost2010PropOp49
 70
     0
102
RTVSPost2010Prop50
 90
       50
102
RTVSPost2010PropOp50
 70
     0
102
RTVSPost2010Prop51ColorIndex
 90
      256
102
RTVSPost2010Prop51ColorRGB
 90
-16777216
102
RTVSPost2010PropOp51
 70
     0
102
RTVSPost2010Prop52
140
1.0
102
RTVSPost2010PropOp52
 70
     0
102
RTVSPost2010Prop53
 90
        2
102
RTVSPost2010PropOp53
 70
     0
102
RTVSPost2010Prop54
  1
strokes_ogs.tif
102
RTVSPost2010PropOp54
 70
     0
102
RTVSPost2010Prop55
280
     0
102
RTVSPost2010PropOp55
 70
     0
102
RTVSPost2010Prop56
140
1.0
102
RTVSPost2010PropOp56
 70
     0
102
RTVSPost2010Prop57
140
1.0
102
RTVSPost2010PropOp57
 70
     0
  0
XRECORD
  5
13A
102
{ACAD_REACTORS
330
139
102
}
330
139
100
AcDbXrecord
280
     1
102
RTVSPropertyOp0
 70
     1
102
RTVSPropertyOp1
 70
     1
102
RTVSPropertyOp2
 70
     1
102
RTVSPropertyOp3
 70
     1
102
RTVSPropertyOp4
 70
     1
102
RTVSPropertyOp5
 70
     1
102
RTVSPropertyOp6
 70
     1
102
RTVSPropertyOp7
 70
     1
102
RTVSPropertyOp8
 70
     1
102
RTVSPropertyOp9
 70
     1
102
RTVSPropertyOp10
 70
     1
102
RTVSPropertyOp11
 70
     1
102
RTVSPropertyOp12
 70
     1
102
RTVSPropertyOp13
 70
     1
102
RTVSPropertyOp14
 70
     1
102
RTVSPropertyOp15
 70
     1
102
RTVSPropertyOp16
 70
     1
102
RTVSPropertyOp17
 70
     1
102
RTVSPropertyOp18
 70
     1
102
RTVSPropertyOp19
 70
     1
102
RTVSPropertyOp20
 70
     1
102
RTVSPropertyOp21
 70
     1
102
RTVSPropertyOp22
 70
     1
102
RTVSPropertyOp23
 70
     1
102
RTVSPropertyOp24
 70
     1
102
RTVSPropertyOp25
 70
     1
102
RTVSPropertyOp26
 70
     1
102
RTVSPropertyOp27
 70
     1
102
RTVSPropertyOp28
 70
     1
102
RTVSPropertyOp29
 70
     1
102
RTVSPropertyOp30
 70
     1
102
RTVSPropertyOp31
 70
     1
102
RTVSPropertyOp32
 70
     1
102
RTVSPropertyOp33
 70
     1
102
RTVSPropertyOp34
 70
     1
102
RTVSPropertyOp35
 70
     1
102
RTVSPropertyOp36
 70
     1
102
RTVSPropertyOp37
 70
     1
102
RTVSPropertyOp38
 70
     1
102
RTVSPropertyOp39
 70
     1
102
RTVSPropertyOp40
 70
     1
102
RTVSPropertyOp41
 70
     1
102
RTVSPropertyOp42
 70
     1
102
RTVSPropertyOp43
 70
     1
102
RTVSPropertyOp44
 70
     1
102
RTVSPropertyOp45
 70
     1
102
RTVSPropertyOp46
 70
     1
102
RTVSPropertyOp47
 70
     1
102
RTVSPropertyOp48
 70
     1
102
RTVSPropertyOp49
 70
     1
102
RTVSPropertyOp50
 70
     1
102
RTVSPropertyOp51
 70
     0
102
RTVSPropertyOp52
 70
     0
102
RTVSPropertyOp53
 70
     1
102
RTVSPropertyOp54
 70
     1
102
RTVSPropertyOp55
 70
     1
102
RTVSPropertyOp56
 70
     1
102
RTVSPropertyOp57
 70
     1
102
RTVSPost2010Prop28
280
     0
102
RTVSPost2010PropOp28
 70
     1
102
RTVSPost2010Prop29
280
     1
102
RTVSPost2010PropOp29
 70
     1
102
RTVSPost2010Prop30
280
     1
102
RTVSPost2010PropOp30
 70
     1
102
RTVSPost2010Prop31
280
     0
102
RTVSPost2010PropOp31
 70
     1
102
RTVSPost2010Prop32
280
     0
102
RTVSPost2010PropOp32
 70
     1
102
RTVSPost2010Prop33
280
     0
102
RTVSPost2010PropOp33
 70
     1
102
RTVSPost2010Prop34
280
     0
102
RTVSPost2010PropOp34
 70
     1
102
RTVSPost2010Prop35
280
     0
102
RTVSPost2010PropOp35
 70
     1
102
RTVSPost2010Prop36
280
     0
102
RTVSPost2010PropOp36
 70
     1
102
RTVSPost2010Prop37
 90
       50
102
RTVSPost2010PropOp37
 70
     1
102
RTVSPost2010Prop38
140
0.0
102
RTVSPost2010PropOp38
 70
     1
102
RTVSPost2010Prop39
140
1.0
102
RTVSPost2010PropOp39
 70
     1
102
RTVSPost2010Prop40
 90
        0
102
RTVSPost2010PropOp40
 70
     1
102
RTVSPost2010Prop41ColorIndex
 90
       18
102
RTVSPost2010Prop41ColorRGB
 90
        0
102
RTVSPost2010PropOp41
 70
     1
102
RTVSPost2010Prop42
 90
       50
102
RTVSPost2010PropOp42
 70
     1
102
RTVSPost2010Prop43
 90
        3
102
RTVSPost2010PropOp43
 70
     1
102
RTVSPost2010Prop44ColorIndex
 90
        5
102
RTVSPost2010Prop44ColorRGB
 90
      255
102
RTVSPost2010PropOp44
 70
     1
102
RTVSPost2010Prop45
280
     0
102
RTVSPost2010PropOp45
 70
     1
102
RTVSPost2010Prop46
 90
       50
102
RTVSPost2010PropOp46
 70
     1
102
RTVSPost2010Prop47
 90
       50
102
RTVSPost2010PropOp47
 70
     1
102
RTVSPost2010Prop48
 90
       50
102
RTVSPost2010PropOp48
 70
     1
102
RTVSPost2010Prop49
280
     0
102
RTVSPost2010PropOp49
 70
     1
102
RTVSPost2010Prop50
 90
       50
102
RTVSPost2010PropOp50
 70
     1
102
RTVSPost2010Prop51ColorIndex
 90
      256
102
RTVSPost2010Prop51ColorRGB
 90
-16777216
102
RTVSPost2010PropOp51
 70
     0
102
RTVSPost2010Prop52
140
1.0
102
RTVSPost2010PropOp52
 70
     0
102
RTVSPost2010Prop53
 90
        2
102
RTVSPost2010PropOp53
 70
     1
102
RTVSPost2010Prop54
  1
strokes_ogs.tif
102
RTVSPost2010PropOp54
 70
     1
102
RTVSPost2010Prop55
280
     0
102
RTVSPost2010PropOp55
 70
     1
102
RTVSPost2010Prop56
140
1.0
102
RTVSPost2010PropOp56
 70
     1
102
RTVSPost2010Prop57
140
1.0
102
RTVSPost2010PropOp57
 70
     1
  0
XRECORD
  5
142
102
{ACAD_REACTORS
330
141
102
}
330
141
100
AcDbXrecord
280
     1
102
RTVSPropertyOp0
 70
     0
102
RTVSPropertyOp1
 70
     0
102
RTVSPropertyOp2
 70
     0
102
RTVSPropertyOp3
 70
     0
102
RTVSPropertyOp4
 70
     0
102
RTVSPropertyOp5
 70
     0
102
RTVSPropertyOp6
 70
     0
102
RTVSPropertyOp7
 70
     0
102
RTVSPropertyOp8
 70
     0
102
RTVSPropertyOp9
 70
     0
102
RTVSPropertyOp10
 70
     0
102
RTVSPropertyOp11
 70
     0
102
RTVSPropertyOp12
 70
     0
102
RTVSPropertyOp13
 70
     0
102
RTVSPropertyOp14
 70
     2
102
RTVSPropertyOp15
 70
     0
102
RTVSPropertyOp16
 70
     0
102
RTVSPropertyOp17
 70
     0
102
RTVSPropertyOp18
 70
     0
102
RTVSPropertyOp19
 70
     0
102
RTVSPropertyOp20
 70
     0
102
RTVSPropertyOp21
 70
     0
102
RTVSPropertyOp22
 70
     0
102
RTVSPropertyOp23
 70
     0
102
RTVSPropertyOp24
 70
     0
102
RTVSPropertyOp25
 70
     0
102
RTVSPropertyOp26
 70
     0
102
RTVSPropertyOp27
 70
     0
102
RTVSPropertyOp28
 70
     0
102
RTVSPropertyOp29
 70
     0
102
RTVSPropertyOp30
 70
     0
102
RTVSPropertyOp31
 70
     0
102
RTVSPropertyOp32
 70
     0
102
RTVSPropertyOp33
 70
     0
102
RTVSPropertyOp34
 70
     0
102
RTVSPropertyOp35
 70
     0
102
RTVSPropertyOp36
 70
     0
102
RTVSPropertyOp37
 70
     0
102
RTVSPropertyOp38
 70
     0
102
RTVSPropertyOp39
 70
     0
102
RTVSPropertyOp40
 70
     0
102
RTVSPropertyOp41
 70
     0
102
RTVSPropertyOp42
 70
     0
102
RTVSPropertyOp43
 70
     0
102
RTVSPropertyOp44
 70
     0
102
RTVSPropertyOp45
 70
     0
102
RTVSPropertyOp46
 70
     0
102
RTVSPropertyOp47
 70
     0
102
RTVSPropertyOp48
 70
     0
102
RTVSPropertyOp49
 70
     0
102
RTVSPropertyOp50
 70
     0
102
RTVSPropertyOp51
 70
     0
102
RTVSPropertyOp52
 70
     0
102
RTVSPropertyOp53
 70
     0
102
RTVSPropertyOp54
 70
     0
102
RTVSPropertyOp55
 70
     0
102
RTVSPropertyOp56
 70
     0
102
RTVSPropertyOp57
 70
     0
102
RTVSPost2010Prop28
280
     0
102
RTVSPost2010PropOp28
 70
     0
102
RTVSPost2010Prop29
280
     1
102
RTVSPost2010PropOp29
 70
     0
102
RTVSPost2010Prop30
280
     1
102
RTVSPost2010PropOp30
 70
     0
102
RTVSPost2010Prop31
280
     0
102
RTVSPost2010PropOp31
 70
     0
102
RTVSPost2010Prop32
280
     0
102
RTVSPost2010PropOp32
 70
     0
102
RTVSPost2010Prop33
280
     0
102
RTVSPost2010PropOp33
 70
     0
102
RTVSPost2010Prop34
280
     0
102
RTVSPost2010PropOp34
 70
     0
102
RTVSPost2010Prop35
280
     0
102
RTVSPost2010PropOp35
 70
     0
102
RTVSPost2010Prop36
280
     0
102
RTVSPost2010PropOp36
 70
     0
102
RTVSPost2010Prop37
 90
       50
102
RTVSPost2010PropOp37
 70
     0
102
RTVSPost2010Prop38
140
0.0
102
RTVSPost2010PropOp38
 70
     0
102
RTVSPost2010Prop39
140
1.0
102
RTVSPost2010PropOp39
 70
     0
102
RTVSPost2010Prop40
 90
        0
102
RTVSPost2010PropOp40
 70
     0
102
RTVSPost2010Prop41ColorIndex
 90
       18
102
RTVSPost2010Prop41ColorRGB
 90
        0
102
RTVSPost2010PropOp41
 70
     0
102
RTVSPost2010Prop42
 90
       50
102
RTVSPost2010PropOp42
 70
     0
102
RTVSPost2010Prop43
 90
        3
102
RTVSPost2010PropOp43
 70
     0
102
RTVSPost2010Prop44ColorIndex
 90
        5
102
RTVSPost2010Prop44ColorRGB
 90
      255
102
RTVSPost2010PropOp44
 70
     0
102
RTVSPost2010Prop45
280
     0
102
RTVSPost2010PropOp45
 70
     0
102
RTVSPost2010Prop46
 90
       50
102
RTVSPost2010PropOp46
 70
     0
102
RTVSPost2010Prop47
 90
       50
102
RTVSPost2010PropOp47
 70
     0
102
RTVSPost2010Prop48
 90
       50
102
RTVSPost2010PropOp48
 70
     0
102
RTVSPost2010Prop49
280
     0
102
RTVSPost2010PropOp49
 70
     0
102
RTVSPost2010Prop50
 90
       50
102
RTVSPost2010PropOp50
 70
     0
102
RTVSPost2010Prop51ColorIndex
 90
      256
102
RTVSPost2010Prop51ColorRGB
 90
-16777216
102
RTVSPost2010PropOp51
 70
     0
102
RTVSPost2010Prop52
140
1.0
102
RTVSPost2010PropOp52
 70
     0
102
RTVSPost2010Prop53
 90
        2
102
RTVSPost2010PropOp53
 70
     0
102
RTVSPost2010Prop54
  1
strokes_ogs.tif
102
RTVSPost2010PropOp54
 70
     0
102
RTVSPost2010Prop55
280
     0
102
RTVSPost2010PropOp55
 70
     0
102
RTVSPost2010Prop56
140
1.0
102
RTVSPost2010PropOp56
 70
     0
102
RTVSPost2010Prop57
140
1.0
102
RTVSPost2010PropOp57
 70
     0
  0
XRECORD
  5
130
102
{ACAD_REACTORS
330
12F
102
}
330
12F
100
AcDbXrecord
280
     1
102
RTVSPropertyOp0
 70
     1
102
RTVSPropertyOp1
 70
     1
102
RTVSPropertyOp2
 70
     1
102
RTVSPropertyOp3
 70
     1
102
RTVSPropertyOp4
 70
     1
102
RTVSPropertyOp5
 70
     1
102
RTVSPropertyOp6
 70
     1
102
RTVSPropertyOp7
 70
     1
102
RTVSPropertyOp8
 70
     1
102
RTVSPropertyOp9
 70
     1
102
RTVSPropertyOp10
 70
     1
102
RTVSPropertyOp11
 70
     1
102
RTVSPropertyOp12
 70
     1
102
RTVSPropertyOp13
 70
     1
102
RTVSPropertyOp14
 70
     1
102
RTVSPropertyOp15
 70
     1
102
RTVSPropertyOp16
 70
     1
102
RTVSPropertyOp17
 70
     1
102
RTVSPropertyOp18
 70
     1
102
RTVSPropertyOp19
 70
     1
102
RTVSPropertyOp20
 70
     1
102
RTVSPropertyOp21
 70
     1
102
RTVSPropertyOp22
 70
     1
102
RTVSPropertyOp23
 70
     1
102
RTVSPropertyOp24
 70
     1
102
RTVSPropertyOp25
 70
     1
102
RTVSPropertyOp26
 70
     1
102
RTVSPropertyOp27
 70
     1
102
RTVSPropertyOp28
 70
     1
102
RTVSPropertyOp29
 70
     1
102
RTVSPropertyOp30
 70
     1
102
RTVSPropertyOp31
 70
     1
102
RTVSPropertyOp32
 70
     1
102
RTVSPropertyOp33
 70
     1
102
RTVSPropertyOp34
 70
     1
102
RTVSPropertyOp35
 70
     1
102
RTVSPropertyOp36
 70
     1
102
RTVSPropertyOp37
 70
     1
102
RTVSPropertyOp38
 70
     1
102
RTVSPropertyOp39
 70
     1
102
RTVSPropertyOp40
 70
     1
102
RTVSPropertyOp41
 70
     1
102
RTVSPropertyOp42
 70
     1
102
RTVSPropertyOp43
 70
     1
102
RTVSPropertyOp44
 70
     1
102
RTVSPropertyOp45
 70
     1
102
RTVSPropertyOp46
 70
     1
102
RTVSPropertyOp47
 70
     1
102
RTVSPropertyOp48
 70
     1
102
RTVSPropertyOp49
 70
     1
102
RTVSPropertyOp50
 70
     1
102
RTVSPropertyOp51
 70
     0
102
RTVSPropertyOp52
 70
     0
102
RTVSPropertyOp53
 70
     1
102
RTVSPropertyOp54
 70
     1
102
RTVSPropertyOp55
 70
     1
102
RTVSPropertyOp56
 70
     1
102
RTVSPropertyOp57
 70
     1
102
RTVSPost2010Prop28
280
     0
102
RTVSPost2010PropOp28
 70
     1
102
RTVSPost2010Prop29
280
     1
102
RTVSPost2010PropOp29
 70
     1
102
RTVSPost2010Prop30
280
     1
102
RTVSPost2010PropOp30
 70
     1
102
RTVSPost2010Prop31
280
     0
102
RTVSPost2010PropOp31
 70
     1
102
RTVSPost2010Prop32
280
     0
102
RTVSPost2010PropOp32
 70
     1
102
RTVSPost2010Prop33
280
     0
102
RTVSPost2010PropOp33
 70
     1
102
RTVSPost2010Prop34
280
     0
102
RTVSPost2010PropOp34
 70
     1
102
RTVSPost2010Prop35
280
     0
102
RTVSPost2010PropOp35
 70
     1
102
RTVSPost2010Prop36
280
     0
102
RTVSPost2010PropOp36
 70
     1
102
RTVSPost2010Prop37
 90
       50
102
RTVSPost2010PropOp37
 70
     1
102
RTVSPost2010Prop38
140
0.0
102
RTVSPost2010PropOp38
 70
     1
102
RTVSPost2010Prop39
140
1.0
102
RTVSPost2010PropOp39
 70
     1
102
RTVSPost2010Prop40
 90
        0
102
RTVSPost2010PropOp40
 70
     1
102
RTVSPost2010Prop41ColorIndex
 90
       18
102
RTVSPost2010Prop41ColorRGB
 90
        0
102
RTVSPost2010PropOp41
 70
     1
102
RTVSPost2010Prop42
 90
       50
102
RTVSPost2010PropOp42
 70
     1
102
RTVSPost2010Prop43
 90
        3
102
RTVSPost2010PropOp43
 70
     1
102
RTVSPost2010Prop44ColorIndex
 90
        5
102
RTVSPost2010Prop44ColorRGB
 90
      255
102
RTVSPost2010PropOp44
 70
     1
102
RTVSPost2010Prop45
280
     0
102
RTVSPost2010PropOp45
 70
     1
102
RTVSPost2010Prop46
 90
       50
102
RTVSPost2010PropOp46
 70
     1
102
RTVSPost2010Prop47
 90
       50
102
RTVSPost2010PropOp47
 70
     1
102
RTVSPost2010Prop48
 90
       50
102
RTVSPost2010PropOp48
 70
     1
102
RTVSPost2010Prop49
280
     0
102
RTVSPost2010PropOp49
 70
     1
102
RTVSPost2010Prop50
 90
       50
102
RTVSPost2010PropOp50
 70
     1
102
RTVSPost2010Prop51ColorIndex
 90
      256
102
RTVSPost2010Prop51ColorRGB
 90
-16777216
102
RTVSPost2010PropOp51
 70
     0
102
RTVSPost2010Prop52
140
1.0
102
RTVSPost2010PropOp52
 70
     0
102
RTVSPost2010Prop53
 90
        2
102
RTVSPost2010PropOp53
 70
     1
102
RTVSPost2010Prop54
  1
strokes_ogs.tif
102
RTVSPost2010PropOp54
 70
     1
102
RTVSPost2010Prop55
280
     0
102
RTVSPost2010PropOp55
 70
     1
102
RTVSPost2010Prop56
140
1.0
102
RTVSPost2010PropOp56
 70
     1
102
RTVSPost2010Prop57
140
1.0
102
RTVSPost2010PropOp57
 70
     1
  0
XRECORD
  5
14E
102
{ACAD_REACTORS
330
14D
102
}
330
14D
100
AcDbXrecord
280
     1
102
RTVSPropertyOp0
 70
     1
102
RTVSPropertyOp1
 70
     1
102
RTVSPropertyOp2
 70
     1
102
RTVSPropertyOp3
 70
     1
102
RTVSPropertyOp4
 70
     1
102
RTVSPropertyOp5
 70
     1
102
RTVSPropertyOp6
 70
     1
102
RTVSPropertyOp7
 70
     1
102
RTVSPropertyOp8
 70
     1
102
RTVSPropertyOp9
 70
     1
102
RTVSPropertyOp10
 70
     1
102
RTVSPropertyOp11
 70
     1
102
RTVSPropertyOp12
 70
     1
102
RTVSPropertyOp13
 70
     1
102
RTVSPropertyOp14
 70
     1
102
RTVSPropertyOp15
 70
     1
102
RTVSPropertyOp16
 70
     1
102
RTVSPropertyOp17
 70
     1
102
RTVSPropertyOp18
 70
     1
102
RTVSPropertyOp19
 70
     1
102
RTVSPropertyOp20
 70
     1
102
RTVSPropertyOp21
 70
     1
102
RTVSPropertyOp22
 70
     1
102
RTVSPropertyOp23
 70
     1
102
RTVSPropertyOp24
 70
     1
102
RTVSPropertyOp25
 70
     1
102
RTVSPropertyOp26
 70
     1
102
RTVSPropertyOp27
 70
     1
102
RTVSPropertyOp28
 70
     1
102
RTVSPropertyOp29
 70
     1
102
RTVSPropertyOp30
 70
     1
102
RTVSPropertyOp31
 70
     1
102
RTVSPropertyOp32
 70
     1
102
RTVSPropertyOp33
 70
     1
102
RTVSPropertyOp34
 70
     1
102
RTVSPropertyOp35
 70
     1
102
RTVSPropertyOp36
 70
     1
102
RTVSPropertyOp37
 70
     1
102
RTVSPropertyOp38
 70
     1
102
RTVSPropertyOp39
 70
     1
102
RTVSPropertyOp40
 70
     1
102
RTVSPropertyOp41
 70
     1
102
RTVSPropertyOp42
 70
     1
102
RTVSPropertyOp43
 70
     1
102
RTVSPropertyOp44
 70
     1
102
RTVSPropertyOp45
 70
     1
102
RTVSPropertyOp46
 70
     1
102
RTVSPropertyOp47
 70
     1
102
RTVSPropertyOp48
 70
     1
102
RTVSPropertyOp49
 70
     1
102
RTVSPropertyOp50
 70
     1
102
RTVSPropertyOp51
 70
     0
102
RTVSPropertyOp52
 70
     0
102
RTVSPropertyOp53
 70
     1
102
RTVSPropertyOp54
 70
     1
102
RTVSPropertyOp55
 70
     1
102
RTVSPropertyOp56
 70
     1
102
RTVSPropertyOp57
 70
     1
102
RTVSPost2010Prop28
280
     0
102
RTVSPost2010PropOp28
 70
     1
102
RTVSPost2010Prop29
280
     1
102
RTVSPost2010PropOp29
 70
     1
102
RTVSPost2010Prop30
280
     1
102
RTVSPost2010PropOp30
 70
     1
102
RTVSPost2010Prop31
280
     0
102
RTVSPost2010PropOp31
 70
     1
102
RTVSPost2010Prop32
280
     0
102
RTVSPost2010PropOp32
 70
     1
102
RTVSPost2010Prop33
280
     0
102
RTVSPost2010PropOp33
 70
     1
102
RTVSPost2010Prop34
280
     0
102
RTVSPost2010PropOp34
 70
     1
102
RTVSPost2010Prop35
280
     0
102
RTVSPost2010PropOp35
 70
     1
102
RTVSPost2010Prop36
280
     0
102
RTVSPost2010PropOp36
 70
     1
102
RTVSPost2010Prop37
 90
       50
102
RTVSPost2010PropOp37
 70
     1
102
RTVSPost2010Prop38
140
0.0
102
RTVSPost2010PropOp38
 70
     1
102
RTVSPost2010Prop39
140
1.0
102
RTVSPost2010PropOp39
 70
     1
102
RTVSPost2010Prop40
 90
        0
102
RTVSPost2010PropOp40
 70
     1
102
RTVSPost2010Prop41ColorIndex
 90
       18
102
RTVSPost2010Prop41ColorRGB
 90
        0
102
RTVSPost2010PropOp41
 70
     1
102
RTVSPost2010Prop42
 90
       50
102
RTVSPost2010PropOp42
 70
     1
102
RTVSPost2010Prop43
 90
        3
102
RTVSPost2010PropOp43
 70
     1
102
RTVSPost2010Prop44ColorIndex
 90
        5
102
RTVSPost2010Prop44ColorRGB
 90
      255
102
RTVSPost2010PropOp44
 70
     1
102
RTVSPost2010Prop45
280
     0
102
RTVSPost2010PropOp45
 70
     1
102
RTVSPost2010Prop46
 90
       50
102
RTVSPost2010PropOp46
 70
     1
102
RTVSPost2010Prop47
 90
       50
102
RTVSPost2010PropOp47
 70
     1
102
RTVSPost2010Prop48
 90
       50
102
RTVSPost2010PropOp48
 70
     1
102
RTVSPost2010Prop49
280
     0
102
RTVSPost2010PropOp49
 70
     1
102
RTVSPost2010Prop50
 90
       50
102
RTVSPost2010PropOp50
 70
     1
102
RTVSPost2010Prop51ColorIndex
 90
      256
102
RTVSPost2010Prop51ColorRGB
 90
-16777216
102
RTVSPost2010PropOp51
 70
     0
102
RTVSPost2010Prop52
140
1.0
102
RTVSPost2010PropOp52
 70
     0
102
RTVSPost2010Prop53
 90
        2
102
RTVSPost2010PropOp53
 70
     1
102
RTVSPost2010Prop54
  1
strokes_ogs.tif
102
RTVSPost2010PropOp54
 70
     1
102
RTVSPost2010Prop55
280
     0
102
RTVSPost2010PropOp55
 70
     1
102
RTVSPost2010Prop56
140
1.0
102
RTVSPost2010PropOp56
 70
     1
102
RTVSPost2010Prop57
140
1.0
102
RTVSPost2010PropOp57
 70
     1
  0
XRECORD
  5
14C
102
{ACAD_REACTORS
330
14B
102
}
330
14B
100
AcDbXrecord
280
     1
102
RTVSPropertyOp0
 70
     1
102
RTVSPropertyOp1
 70
     1
102
RTVSPropertyOp2
 70
     1
102
RTVSPropertyOp3
 70
     1
102
RTVSPropertyOp4
 70
     1
102
RTVSPropertyOp5
 70
     1
102
RTVSPropertyOp6
 70
     1
102
RTVSPropertyOp7
 70
     1
102
RTVSPropertyOp8
 70
     1
102
RTVSPropertyOp9
 70
     1
102
RTVSPropertyOp10
 70
     1
102
RTVSPropertyOp11
 70
     1
102
RTVSPropertyOp12
 70
     1
102
RTVSPropertyOp13
 70
     1
102
RTVSPropertyOp14
 70
     1
102
RTVSPropertyOp15
 70
     1
102
RTVSPropertyOp16
 70
     1
102
RTVSPropertyOp17
 70
     1
102
RTVSPropertyOp18
 70
     1
102
RTVSPropertyOp19
 70
     1
102
RTVSPropertyOp20
 70
     1
102
RTVSPropertyOp21
 70
     1
102
RTVSPropertyOp22
 70
     1
102
RTVSPropertyOp23
 70
     1
102
RTVSPropertyOp24
 70
     1
102
RTVSPropertyOp25
 70
     1
102
RTVSPropertyOp26
 70
     1
102
RTVSPropertyOp27
 70
     1
102
RTVSPropertyOp28
 70
     1
102
RTVSPropertyOp29
 70
     1
102
RTVSPropertyOp30
 70
     1
102
RTVSPropertyOp31
 70
     1
102
RTVSPropertyOp32
 70
     1
102
RTVSPropertyOp33
 70
     1
102
RTVSPropertyOp34
 70
     1
102
RTVSPropertyOp35
 70
     1
102
RTVSPropertyOp36
 70
     1
102
RTVSPropertyOp37
 70
     1
102
RTVSPropertyOp38
 70
     1
102
RTVSPropertyOp39
 70
     1
102
RTVSPropertyOp40
 70
     1
102
RTVSPropertyOp41
 70
     1
102
RTVSPropertyOp42
 70
     1
102
RTVSPropertyOp43
 70
     1
102
RTVSPropertyOp44
 70
     1
102
RTVSPropertyOp45
 70
     1
102
RTVSPropertyOp46
 70
     1
102
RTVSPropertyOp47
 70
     1
102
RTVSPropertyOp48
 70
     1
102
RTVSPropertyOp49
 70
     1
102
RTVSPropertyOp50
 70
     1
102
RTVSPropertyOp51
 70
     0
102
RTVSPropertyOp52
 70
     0
102
RTVSPropertyOp53
 70
     1
102
RTVSPropertyOp54
 70
     1
102
RTVSPropertyOp55
 70
     1
102
RTVSPropertyOp56
 70
     1
102
RTVSPropertyOp57
 70
     1
102
RTVSPost2010Prop28
280
     0
102
RTVSPost2010PropOp28
 70
     1
102
RTVSPost2010Prop29
280
     1
102
RTVSPost2010PropOp29
 70
     1
102
RTVSPost2010Prop30
280
     1
102
RTVSPost2010PropOp30
 70
     1
102
RTVSPost2010Prop31
280
     0
102
RTVSPost2010PropOp31
 70
     1
102
RTVSPost2010Prop32
280
     0
102
RTVSPost2010PropOp32
 70
     1
102
RTVSPost2010Prop33
280
     0
102
RTVSPost2010PropOp33
 70
     1
102
RTVSPost2010Prop34
280
     0
102
RTVSPost2010PropOp34
 70
     1
102
RTVSPost2010Prop35
280
     0
102
RTVSPost2010PropOp35
 70
     1
102
RTVSPost2010Prop36
280
     0
102
RTVSPost2010PropOp36
 70
     1
102
RTVSPost2010Prop37
 90
       50
102
RTVSPost2010PropOp37
 70
     1
102
RTVSPost2010Prop38
140
0.0
102
RTVSPost2010PropOp38
 70
     1
102
RTVSPost2010Prop39
140
1.0
102
RTVSPost2010PropOp39
 70
     1
102
RTVSPost2010Prop40
 90
        0
102
RTVSPost2010PropOp40
 70
     1
102
RTVSPost2010Prop41ColorIndex
 90
       18
102
RTVSPost2010Prop41ColorRGB
 90
        0
102
RTVSPost2010PropOp41
 70
     1
102
RTVSPost2010Prop42
 90
       50
102
RTVSPost2010PropOp42
 70
     1
102
RTVSPost2010Prop43
 90
        3
102
RTVSPost2010PropOp43
 70
     1
102
RTVSPost2010Prop44ColorIndex
 90
        5
102
RTVSPost2010Prop44ColorRGB
 90
      255
102
RTVSPost2010PropOp44
 70
     1
102
RTVSPost2010Prop45
280
     0
102
RTVSPost2010PropOp45
 70
     1
102
RTVSPost2010Prop46
 90
       50
102
RTVSPost2010PropOp46
 70
     1
102
RTVSPost2010Prop47
 90
       50
102
RTVSPost2010PropOp47
 70
     1
102
RTVSPost2010Prop48
 90
       50
102
RTVSPost2010PropOp48
 70
     1
102
RTVSPost2010Prop49
280
     0
102
RTVSPost2010PropOp49
 70
     1
102
RTVSPost2010Prop50
 90
       50
102
RTVSPost2010PropOp50
 70
     1
102
RTVSPost2010Prop51ColorIndex
 90
      256
102
RTVSPost2010Prop51ColorRGB
 90
-16777216
102
RTVSPost2010PropOp51
 70
     0
102
RTVSPost2010Prop52
140
1.0
102
RTVSPost2010PropOp52
 70
     0
102
RTVSPost2010Prop53
 90
        2
102
RTVSPost2010PropOp53
 70
     1
102
RTVSPost2010Prop54
  1
strokes_ogs.tif
102
RTVSPost2010PropOp54
 70
     1
102
RTVSPost2010Prop55
280
     0
102
RTVSPost2010PropOp55
 70
     1
102
RTVSPost2010Prop56
140
1.0
102
RTVSPost2010PropOp56
 70
     1
102
RTVSPost2010Prop57
140
1.0
102
RTVSPost2010PropOp57
 70
     1
  0
XRECORD
  5
146
102
{ACAD_REACTORS
330
145
102
}
330
145
100
AcDbXrecord
280
     1
102
RTVSPropertyOp0
 70
     1
102
RTVSPropertyOp1
 70
     1
102
RTVSPropertyOp2
 70
     1
102
RTVSPropertyOp3
 70
     1
102
RTVSPropertyOp4
 70
     1
102
RTVSPropertyOp5
 70
     1
102
RTVSPropertyOp6
 70
     1
102
RTVSPropertyOp7
 70
     1
102
RTVSPropertyOp8
 70
     1
102
RTVSPropertyOp9
 70
     1
102
RTVSPropertyOp10
 70
     1
102
RTVSPropertyOp11
 70
     1
102
RTVSPropertyOp12
 70
     1
102
RTVSPropertyOp13
 70
     1
102
RTVSPropertyOp14
 70
     1
102
RTVSPropertyOp15
 70
     1
102
RTVSPropertyOp16
 70
     1
102
RTVSPropertyOp17
 70
     1
102
RTVSPropertyOp18
 70
     1
102
RTVSPropertyOp19
 70
     1
102
RTVSPropertyOp20
 70
     1
102
RTVSPropertyOp21
 70
     1
102
RTVSPropertyOp22
 70
     1
102
RTVSPropertyOp23
 70
     1
102
RTVSPropertyOp24
 70
     1
102
RTVSPropertyOp25
 70
     1
102
RTVSPropertyOp26
 70
     1
102
RTVSPropertyOp27
 70
     1
102
RTVSPropertyOp28
 70
     1
102
RTVSPropertyOp29
 70
     1
102
RTVSPropertyOp30
 70
     1
102
RTVSPropertyOp31
 70
     1
102
RTVSPropertyOp32
 70
     1
102
RTVSPropertyOp33
 70
     1
102
RTVSPropertyOp34
 70
     1
102
RTVSPropertyOp35
 70
     1
102
RTVSPropertyOp36
 70
     1
102
RTVSPropertyOp37
 70
     1
102
RTVSPropertyOp38
 70
     1
102
RTVSPropertyOp39
 70
     1
102
RTVSPropertyOp40
 70
     1
102
RTVSPropertyOp41
 70
     1
102
RTVSPropertyOp42
 70
     1
102
RTVSPropertyOp43
 70
     1
102
RTVSPropertyOp44
 70
     1
102
RTVSPropertyOp45
 70
     1
102
RTVSPropertyOp46
 70
     1
102
RTVSPropertyOp47
 70
     1
102
RTVSPropertyOp48
 70
     1
102
RTVSPropertyOp49
 70
     1
102
RTVSPropertyOp50
 70
     1
102
RTVSPropertyOp51
 70
     0
102
RTVSPropertyOp52
 70
     0
102
RTVSPropertyOp53
 70
     1
102
RTVSPropertyOp54
 70
     1
102
RTVSPropertyOp55
 70
     1
102
RTVSPropertyOp56
 70
     1
102
RTVSPropertyOp57
 70
     1
102
RTVSPost2010Prop28
280
     0
102
RTVSPost2010PropOp28
 70
     1
102
RTVSPost2010Prop29
280
     1
102
RTVSPost2010PropOp29
 70
     1
102
RTVSPost2010Prop30
280
     1
102
RTVSPost2010PropOp30
 70
     1
102
RTVSPost2010Prop31
280
     0
102
RTVSPost2010PropOp31
 70
     1
102
RTVSPost2010Prop32
280
     0
102
RTVSPost2010PropOp32
 70
     1
102
RTVSPost2010Prop33
280
     0
102
RTVSPost2010PropOp33
 70
     1
102
RTVSPost2010Prop34
280
     0
102
RTVSPost2010PropOp34
 70
     1
102
RTVSPost2010Prop35
280
     0
102
RTVSPost2010PropOp35
 70
     1
102
RTVSPost2010Prop36
280
     0
102
RTVSPost2010PropOp36
 70
     1
102
RTVSPost2010Prop37
 90
       50
102
RTVSPost2010PropOp37
 70
     1
102
RTVSPost2010Prop38
140
0.0
102
RTVSPost2010PropOp38
 70
     1
102
RTVSPost2010Prop39
140
1.0
102
RTVSPost2010PropOp39
 70
     1
102
RTVSPost2010Prop40
 90
        0
102
RTVSPost2010PropOp40
 70
     1
102
RTVSPost2010Prop41ColorIndex
 90
       18
102
RTVSPost2010Prop41ColorRGB
 90
        0
102
RTVSPost2010PropOp41
 70
     1
102
RTVSPost2010Prop42
 90
       50
102
RTVSPost2010PropOp42
 70
     1
102
RTVSPost2010Prop43
 90
        3
102
RTVSPost2010PropOp43
 70
     1
102
RTVSPost2010Prop44ColorIndex
 90
        5
102
RTVSPost2010Prop44ColorRGB
 90
      255
102
RTVSPost2010PropOp44
 70
     1
102
RTVSPost2010Prop45
280
     0
102
RTVSPost2010PropOp45
 70
     1
102
RTVSPost2010Prop46
 90
       50
102
RTVSPost2010PropOp46
 70
     1
102
RTVSPost2010Prop47
 90
       50
102
RTVSPost2010PropOp47
 70
     1
102
RTVSPost2010Prop48
 90
       50
102
RTVSPost2010PropOp48
 70
     1
102
RTVSPost2010Prop49
280
     0
102
RTVSPost2010PropOp49
 70
     1
102
RTVSPost2010Prop50
 90
       50
102
RTVSPost2010PropOp50
 70
     1
102
RTVSPost2010Prop51ColorIndex
 90
      256
102
RTVSPost2010Prop51ColorRGB
 90
-16777216
102
RTVSPost2010PropOp51
 70
     0
102
RTVSPost2010Prop52
140
1.0
102
RTVSPost2010PropOp52
 70
     0
102
RTVSPost2010Prop53
 90
        2
102
RTVSPost2010PropOp53
 70
     1
102
RTVSPost2010Prop54
  1
strokes_ogs.tif
102
RTVSPost2010PropOp54
 70
     1
102
RTVSPost2010Prop55
280
     0
102
RTVSPost2010PropOp55
 70
     1
102
RTVSPost2010Prop56
140
1.0
102
RTVSPost2010PropOp56
 70
     1
102
RTVSPost2010Prop57
140
1.0
102
RTVSPost2010PropOp57
 70
     1
  0
XRECORD
  5
148
102
{ACAD_REACTORS
330
147
102
}
330
147
100
AcDbXrecord
280
     1
102
RTVSPropertyOp0
 70
     1
102
RTVSPropertyOp1
 70
     1
102
RTVSPropertyOp2
 70
     1
102
RTVSPropertyOp3
 70
     1
102
RTVSPropertyOp4
 70
     1
102
RTVSPropertyOp5
 70
     1
102
RTVSPropertyOp6
 70
     1
102
RTVSPropertyOp7
 70
     1
102
RTVSPropertyOp8
 70
     1
102
RTVSPropertyOp9
 70
     1
102
RTVSPropertyOp10
 70
     1
102
RTVSPropertyOp11
 70
     1
102
RTVSPropertyOp12
 70
     1
102
RTVSPropertyOp13
 70
     1
102
RTVSPropertyOp14
 70
     1
102
RTVSPropertyOp15
 70
     1
102
RTVSPropertyOp16
 70
     1
102
RTVSPropertyOp17
 70
     1
102
RTVSPropertyOp18
 70
     1
102
RTVSPropertyOp19
 70
     1
102
RTVSPropertyOp20
 70
     1
102
RTVSPropertyOp21
 70
     1
102
RTVSPropertyOp22
 70
     1
102
RTVSPropertyOp23
 70
     1
102
RTVSPropertyOp24
 70
     1
102
RTVSPropertyOp25
 70
     1
102
RTVSPropertyOp26
 70
     1
102
RTVSPropertyOp27
 70
     1
102
RTVSPropertyOp28
 70
     1
102
RTVSPropertyOp29
 70
     1
102
RTVSPropertyOp30
 70
     1
102
RTVSPropertyOp31
 70
     1
102
RTVSPropertyOp32
 70
     1
102
RTVSPropertyOp33
 70
     1
102
RTVSPropertyOp34
 70
     1
102
RTVSPropertyOp35
 70
     1
102
RTVSPropertyOp36
 70
     1
102
RTVSPropertyOp37
 70
     1
102
RTVSPropertyOp38
 70
     1
102
RTVSPropertyOp39
 70
     1
102
RTVSPropertyOp40
 70
     1
102
RTVSPropertyOp41
 70
     1
102
RTVSPropertyOp42
 70
     1
102
RTVSPropertyOp43
 70
     1
102
RTVSPropertyOp44
 70
     1
102
RTVSPropertyOp45
 70
     1
102
RTVSPropertyOp46
 70
     1
102
RTVSPropertyOp47
 70
     1
102
RTVSPropertyOp48
 70
     1
102
RTVSPropertyOp49
 70
     1
102
RTVSPropertyOp50
 70
     1
102
RTVSPropertyOp51
 70
     0
102
RTVSPropertyOp52
 70
     0
102
RTVSPropertyOp53
 70
     1
102
RTVSPropertyOp54
 70
     1
102
RTVSPropertyOp55
 70
     1
102
RTVSPropertyOp56
 70
     1
102
RTVSPropertyOp57
 70
     1
102
RTVSPost2010Prop28
280
     0
102
RTVSPost2010PropOp28
 70
     1
102
RTVSPost2010Prop29
280
     1
102
RTVSPost2010PropOp29
 70
     1
102
RTVSPost2010Prop30
280
     1
102
RTVSPost2010PropOp30
 70
     1
102
RTVSPost2010Prop31
280
     0
102
RTVSPost2010PropOp31
 70
     1
102
RTVSPost2010Prop32
280
     0
102
RTVSPost2010PropOp32
 70
     1
102
RTVSPost2010Prop33
280
     0
102
RTVSPost2010PropOp33
 70
     1
102
RTVSPost2010Prop34
280
     0
102
RTVSPost2010PropOp34
 70
     1
102
RTVSPost2010Prop35
280
     0
102
RTVSPost2010PropOp35
 70
     1
102
RTVSPost2010Prop36
280
     0
102
RTVSPost2010PropOp36
 70
     1
102
RTVSPost2010Prop37
 90
       50
102
RTVSPost2010PropOp37
 70
     1
102
RTVSPost2010Prop38
140
0.0
102
RTVSPost2010PropOp38
 70
     1
102
RTVSPost2010Prop39
140
1.0
102
RTVSPost2010PropOp39
 70
     1
102
RTVSPost2010Prop40
 90
        0
102
RTVSPost2010PropOp40
 70
     1
102
RTVSPost2010Prop41ColorIndex
 90
       18
102
RTVSPost2010Prop41ColorRGB
 90
        0
102
RTVSPost2010PropOp41
 70
     1
102
RTVSPost2010Prop42
 90
       50
102
RTVSPost2010PropOp42
 70
     1
102
RTVSPost2010Prop43
 90
        3
102
RTVSPost2010PropOp43
 70
     1
102
RTVSPost2010Prop44ColorIndex
 90
        5
102
RTVSPost2010Prop44ColorRGB
 90
      255
102
RTVSPost2010PropOp44
 70
     1
102
RTVSPost2010Prop45
280
     0
102
RTVSPost2010PropOp45
 70
     1
102
RTVSPost2010Prop46
 90
       50
102
RTVSPost2010PropOp46
 70
     1
102
RTVSPost2010Prop47
 90
       50
102
RTVSPost2010PropOp47
 70
     1
102
RTVSPost2010Prop48
 90
       50
102
RTVSPost2010PropOp48
 70
     1
102
RTVSPost2010Prop49
280
     0
102
RTVSPost2010PropOp49
 70
     1
102
RTVSPost2010Prop50
 90
       50
102
RTVSPost2010PropOp50
 70
     1
102
RTVSPost2010Prop51ColorIndex
 90
      256
102
RTVSPost2010Prop51ColorRGB
 90
-16777216
102
RTVSPost2010PropOp51
 70
     0
102
RTVSPost2010Prop52
140
1.0
102
RTVSPost2010PropOp52
 70
     0
102
RTVSPost2010Prop53
 90
        2
102
RTVSPost2010PropOp53
 70
     1
102
RTVSPost2010Prop54
  1
strokes_ogs.tif
102
RTVSPost2010PropOp54
 70
     1
102
RTVSPost2010Prop55
280
     0
102
RTVSPost2010PropOp55
 70
     1
102
RTVSPost2010Prop56
140
1.0
102
RTVSPost2010PropOp56
 70
     1
102
RTVSPost2010Prop57
140
1.0
102
RTVSPost2010PropOp57
 70
     1
  0
XRECORD
  5
138
102
{ACAD_REACTORS
330
137
102
}
330
137
100
AcDbXrecord
280
     1
102
RTVSPropertyOp0
 70
     1
102
RTVSPropertyOp1
 70
     1
102
RTVSPropertyOp2
 70
     1
102
RTVSPropertyOp3
 70
     1
102
RTVSPropertyOp4
 70
     1
102
RTVSPropertyOp5
 70
     1
102
RTVSPropertyOp6
 70
     1
102
RTVSPropertyOp7
 70
     1
102
RTVSPropertyOp8
 70
     1
102
RTVSPropertyOp9
 70
     1
102
RTVSPropertyOp10
 70
     1
102
RTVSPropertyOp11
 70
     1
102
RTVSPropertyOp12
 70
     1
102
RTVSPropertyOp13
 70
     1
102
RTVSPropertyOp14
 70
     1
102
RTVSPropertyOp15
 70
     1
102
RTVSPropertyOp16
 70
     1
102
RTVSPropertyOp17
 70
     1
102
RTVSPropertyOp18
 70
     1
102
RTVSPropertyOp19
 70
     1
102
RTVSPropertyOp20
 70
     1
102
RTVSPropertyOp21
 70
     1
102
RTVSPropertyOp22
 70
     1
102
RTVSPropertyOp23
 70
     1
102
RTVSPropertyOp24
 70
     1
102
RTVSPropertyOp25
 70
     1
102
RTVSPropertyOp26
 70
     1
102
RTVSPropertyOp27
 70
     1
102
RTVSPropertyOp28
 70
     1
102
RTVSPropertyOp29
 70
     1
102
RTVSPropertyOp30
 70
     1
102
RTVSPropertyOp31
 70
     1
102
RTVSPropertyOp32
 70
     1
102
RTVSPropertyOp33
 70
     1
102
RTVSPropertyOp34
 70
     1
102
RTVSPropertyOp35
 70
     1
102
RTVSPropertyOp36
 70
     1
102
RTVSPropertyOp37
 70
     1
102
RTVSPropertyOp38
 70
     1
102
RTVSPropertyOp39
 70
     1
102
RTVSPropertyOp40
 70
     1
102
RTVSPropertyOp41
 70
     1
102
RTVSPropertyOp42
 70
     1
102
RTVSPropertyOp43
 70
     1
102
RTVSPropertyOp44
 70
     1
102
RTVSPropertyOp45
 70
     1
102
RTVSPropertyOp46
 70
     1
102
RTVSPropertyOp47
 70
     1
102
RTVSPropertyOp48
 70
     1
102
RTVSPropertyOp49
 70
     1
102
RTVSPropertyOp50
 70
     1
102
RTVSPropertyOp51
 70
     0
102
RTVSPropertyOp52
 70
     0
102
RTVSPropertyOp53
 70
     1
102
RTVSPropertyOp54
 70
     1
102
RTVSPropertyOp55
 70
     1
102
RTVSPropertyOp56
 70
     1
102
RTVSPropertyOp57
 70
     1
102
RTVSPost2010Prop28
280
     0
102
RTVSPost2010PropOp28
 70
     1
102
RTVSPost2010Prop29
280
     1
102
RTVSPost2010PropOp29
 70
     1
102
RTVSPost2010Prop30
280
     1
102
RTVSPost2010PropOp30
 70
     1
102
RTVSPost2010Prop31
280
     0
102
RTVSPost2010PropOp31
 70
     1
102
RTVSPost2010Prop32
280
     0
102
RTVSPost2010PropOp32
 70
     1
102
RTVSPost2010Prop33
280
     0
102
RTVSPost2010PropOp33
 70
     1
102
RTVSPost2010Prop34
280
     0
102
RTVSPost2010PropOp34
 70
     1
102
RTVSPost2010Prop35
280
     0
102
RTVSPost2010PropOp35
 70
     1
102
RTVSPost2010Prop36
280
     0
102
RTVSPost2010PropOp36
 70
     1
102
RTVSPost2010Prop37
 90
       50
102
RTVSPost2010PropOp37
 70
     1
102
RTVSPost2010Prop38
140
0.0
102
RTVSPost2010PropOp38
 70
     1
102
RTVSPost2010Prop39
140
1.0
102
RTVSPost2010PropOp39
 70
     1
102
RTVSPost2010Prop40
 90
        0
102
RTVSPost2010PropOp40
 70
     1
102
RTVSPost2010Prop41ColorIndex
 90
       18
102
RTVSPost2010Prop41ColorRGB
 90
        0
102
RTVSPost2010PropOp41
 70
     1
102
RTVSPost2010Prop42
 90
       50
102
RTVSPost2010PropOp42
 70
     1
102
RTVSPost2010Prop43
 90
        3
102
RTVSPost2010PropOp43
 70
     1
102
RTVSPost2010Prop44ColorIndex
 90
        5
102
RTVSPost2010Prop44ColorRGB
 90
      255
102
RTVSPost2010PropOp44
 70
     1
102
RTVSPost2010Prop45
280
     0
102
RTVSPost2010PropOp45
 70
     1
102
RTVSPost2010Prop46
 90
       50
102
RTVSPost2010PropOp46
 70
     1
102
RTVSPost2010Prop47
 90
       50
102
RTVSPost2010PropOp47
 70
     1
102
RTVSPost2010Prop48
 90
       50
102
RTVSPost2010PropOp48
 70
     1
102
RTVSPost2010Prop49
280
     0
102
RTVSPost2010PropOp49
 70
     1
102
RTVSPost2010Prop50
 90
       50
102
RTVSPost2010PropOp50
 70
     1
102
RTVSPost2010Prop51ColorIndex
 90
      256
102
RTVSPost2010Prop51ColorRGB
 90
-16777216
102
RTVSPost2010PropOp51
 70
     0
102
RTVSPost2010Prop52
140
1.0
102
RTVSPost2010PropOp52
 70
     0
102
RTVSPost2010Prop53
 90
        2
102
RTVSPost2010PropOp53
 70
     1
102
RTVSPost2010Prop54
  1
strokes_ogs.tif
102
RTVSPost2010PropOp54
 70
     1
102
RTVSPost2010Prop55
280
     0
102
RTVSPost2010PropOp55
 70
     1
102
RTVSPost2010Prop56
140
1.0
102
RTVSPost2010PropOp56
 70
     1
102
RTVSPost2010Prop57
140
1.0
102
RTVSPost2010PropOp57
 70
     1
  0
XRECORD
  5
12A
102
{ACAD_REACTORS
330
129
102
}
330
129
100
AcDbXrecord
280
     1
102
RTVSPropertyOp0
 70
     1
102
RTVSPropertyOp1
 70
     1
102
RTVSPropertyOp2
 70
     1
102
RTVSPropertyOp3
 70
     1
102
RTVSPropertyOp4
 70
     1
102
RTVSPropertyOp5
 70
     1
102
RTVSPropertyOp6
 70
     1
102
RTVSPropertyOp7
 70
     1
102
RTVSPropertyOp8
 70
     1
102
RTVSPropertyOp9
 70
     1
102
RTVSPropertyOp10
 70
     1
102
RTVSPropertyOp11
 70
     1
102
RTVSPropertyOp12
 70
     1
102
RTVSPropertyOp13
 70
     1
102
RTVSPropertyOp14
 70
     1
102
RTVSPropertyOp15
 70
     1
102
RTVSPropertyOp16
 70
     1
102
RTVSPropertyOp17
 70
     1
102
RTVSPropertyOp18
 70
     1
102
RTVSPropertyOp19
 70
     1
102
RTVSPropertyOp20
 70
     1
102
RTVSPropertyOp21
 70
     1
102
RTVSPropertyOp22
 70
     1
102
RTVSPropertyOp23
 70
     1
102
RTVSPropertyOp24
 70
     1
102
RTVSPropertyOp25
 70
     1
102
RTVSPropertyOp26
 70
     1
102
RTVSPropertyOp27
 70
     1
102
RTVSPropertyOp28
 70
     1
102
RTVSPropertyOp29
 70
     1
102
RTVSPropertyOp30
 70
     1
102
RTVSPropertyOp31
 70
     1
102
RTVSPropertyOp32
 70
     1
102
RTVSPropertyOp33
 70
     1
102
RTVSPropertyOp34
 70
     1
102
RTVSPropertyOp35
 70
     1
102
RTVSPropertyOp36
 70
     1
102
RTVSPropertyOp37
 70
     1
102
RTVSPropertyOp38
 70
     1
102
RTVSPropertyOp39
 70
     1
102
RTVSPropertyOp40
 70
     1
102
RTVSPropertyOp41
 70
     1
102
RTVSPropertyOp42
 70
     1
102
RTVSPropertyOp43
 70
     1
102
RTVSPropertyOp44
 70
     1
102
RTVSPropertyOp45
 70
     1
102
RTVSPropertyOp46
 70
     1
102
RTVSPropertyOp47
 70
     1
102
RTVSPropertyOp48
 70
     1
102
RTVSPropertyOp49
 70
     1
102
RTVSPropertyOp50
 70
     1
102
RTVSPropertyOp51
 70
     0
102
RTVSPropertyOp52
 70
     0
102
RTVSPropertyOp53
 70
     1
102
RTVSPropertyOp54
 70
     1
102
RTVSPropertyOp55
 70
     1
102
RTVSPropertyOp56
 70
     1
102
RTVSPropertyOp57
 70
     1
102
RTVSPost2010Prop28
280
     0
102
RTVSPost2010PropOp28
 70
     1
102
RTVSPost2010Prop29
280
     1
102
RTVSPost2010PropOp29
 70
     1
102
RTVSPost2010Prop30
280
     1
102
RTVSPost2010PropOp30
 70
     1
102
RTVSPost2010Prop31
280
     0
102
RTVSPost2010PropOp31
 70
     1
102
RTVSPost2010Prop32
280
     0
102
RTVSPost2010PropOp32
 70
     1
102
RTVSPost2010Prop33
280
     0
102
RTVSPost2010PropOp33
 70
     1
102
RTVSPost2010Prop34
280
     0
102
RTVSPost2010PropOp34
 70
     1
102
RTVSPost2010Prop35
280
     0
102
RTVSPost2010PropOp35
 70
     1
102
RTVSPost2010Prop36
280
     0
102
RTVSPost2010PropOp36
 70
     1
102
RTVSPost2010Prop37
 90
       50
102
RTVSPost2010PropOp37
 70
     1
102
RTVSPost2010Prop38
140
0.0
102
RTVSPost2010PropOp38
 70
     1
102
RTVSPost2010Prop39
140
1.0
102
RTVSPost2010PropOp39
 70
     1
102
RTVSPost2010Prop40
 90
        0
102
RTVSPost2010PropOp40
 70
     1
102
RTVSPost2010Prop41ColorIndex
 90
       18
102
RTVSPost2010Prop41ColorRGB
 90
        0
102
RTVSPost2010PropOp41
 70
     1
102
RTVSPost2010Prop42
 90
       50
102
RTVSPost2010PropOp42
 70
     1
102
RTVSPost2010Prop43
 90
        3
102
RTVSPost2010PropOp43
 70
     1
102
RTVSPost2010Prop44ColorIndex
 90
        5
102
RTVSPost2010Prop44ColorRGB
 90
      255
102
RTVSPost2010PropOp44
 70
     1
102
RTVSPost2010Prop45
280
     0
102
RTVSPost2010PropOp45
 70
     1
102
RTVSPost2010Prop46
 90
       50
102
RTVSPost2010PropOp46
 70
     1
102
RTVSPost2010Prop47
 90
       50
102
RTVSPost2010PropOp47
 70
     1
102
RTVSPost2010Prop48
 90
       50
102
RTVSPost2010PropOp48
 70
     1
102
RTVSPost2010Prop49
280
     0
102
RTVSPost2010PropOp49
 70
     1
102
RTVSPost2010Prop50
 90
       50
102
RTVSPost2010PropOp50
 70
     1
102
RTVSPost2010Prop51ColorIndex
 90
      256
102
RTVSPost2010Prop51ColorRGB
 90
-16777216
102
RTVSPost2010PropOp51
 70
     0
102
RTVSPost2010Prop52
140
1.0
102
RTVSPost2010PropOp52
 70
     0
102
RTVSPost2010Prop53
 90
        2
102
RTVSPost2010PropOp53
 70
     1
102
RTVSPost2010Prop54
  1
strokes_ogs.tif
102
RTVSPost2010PropOp54
 70
     1
102
RTVSPost2010Prop55
280
     0
102
RTVSPost2010PropOp55
 70
     1
102
RTVSPost2010Prop56
140
1.0
102
RTVSPost2010PropOp56
 70
     1
102
RTVSPost2010Prop57
140
1.0
102
RTVSPost2010PropOp57
 70
     1
  0
XRECORD
  5
14A
102
{ACAD_REACTORS
330
149
102
}
330
149
100
AcDbXrecord
280
     1
102
RTVSPropertyOp0
 70
     1
102
RTVSPropertyOp1
 70
     1
102
RTVSPropertyOp2
 70
     1
102
RTVSPropertyOp3
 70
     1
102
RTVSPropertyOp4
 70
     1
102
RTVSPropertyOp5
 70
     1
102
RTVSPropertyOp6
 70
     1
102
RTVSPropertyOp7
 70
     1
102
RTVSPropertyOp8
 70
     1
102
RTVSPropertyOp9
 70
     1
102
RTVSPropertyOp10
 70
     1
102
RTVSPropertyOp11
 70
     1
102
RTVSPropertyOp12
 70
     1
102
RTVSPropertyOp13
 70
     1
102
RTVSPropertyOp14
 70
     1
102
RTVSPropertyOp15
 70
     1
102
RTVSPropertyOp16
 70
     1
102
RTVSPropertyOp17
 70
     1
102
RTVSPropertyOp18
 70
     1
102
RTVSPropertyOp19
 70
     1
102
RTVSPropertyOp20
 70
     1
102
RTVSPropertyOp21
 70
     1
102
RTVSPropertyOp22
 70
     1
102
RTVSPropertyOp23
 70
     1
102
RTVSPropertyOp24
 70
     1
102
RTVSPropertyOp25
 70
     1
102
RTVSPropertyOp26
 70
     1
102
RTVSPropertyOp27
 70
     1
102
RTVSPropertyOp28
 70
     1
102
RTVSPropertyOp29
 70
     1
102
RTVSPropertyOp30
 70
     1
102
RTVSPropertyOp31
 70
     1
102
RTVSPropertyOp32
 70
     1
102
RTVSPropertyOp33
 70
     1
102
RTVSPropertyOp34
 70
     1
102
RTVSPropertyOp35
 70
     1
102
RTVSPropertyOp36
 70
     1
102
RTVSPropertyOp37
 70
     1
102
RTVSPropertyOp38
 70
     1
102
RTVSPropertyOp39
 70
     1
102
RTVSPropertyOp40
 70
     1
102
RTVSPropertyOp41
 70
     1
102
RTVSPropertyOp42
 70
     1
102
RTVSPropertyOp43
 70
     1
102
RTVSPropertyOp44
 70
     1
102
RTVSPropertyOp45
 70
     1
102
RTVSPropertyOp46
 70
     1
102
RTVSPropertyOp47
 70
     1
102
RTVSPropertyOp48
 70
     1
102
RTVSPropertyOp49
 70
     1
102
RTVSPropertyOp50
 70
     1
102
RTVSPropertyOp51
 70
     0
102
RTVSPropertyOp52
 70
     0
102
RTVSPropertyOp53
 70
     1
102
RTVSPropertyOp54
 70
     1
102
RTVSPropertyOp55
 70
     1
102
RTVSPropertyOp56
 70
     1
102
RTVSPropertyOp57
 70
     1
102
RTVSPost2010Prop28
280
     0
102
RTVSPost2010PropOp28
 70
     1
102
RTVSPost2010Prop29
280
     1
102
RTVSPost2010PropOp29
 70
     1
102
RTVSPost2010Prop30
280
     1
102
RTVSPost2010PropOp30
 70
     1
102
RTVSPost2010Prop31
280
     0
102
RTVSPost2010PropOp31
 70
     1
102
RTVSPost2010Prop32
280
     0
102
RTVSPost2010PropOp32
 70
     1
102
RTVSPost2010Prop33
280
     0
102
RTVSPost2010PropOp33
 70
     1
102
RTVSPost2010Prop34
280
     0
102
RTVSPost2010PropOp34
 70
     1
102
RTVSPost2010Prop35
280
     0
102
RTVSPost2010PropOp35
 70
     1
102
RTVSPost2010Prop36
280
     0
102
RTVSPost2010PropOp36
 70
     1
102
RTVSPost2010Prop37
 90
       50
102
RTVSPost2010PropOp37
 70
     1
102
RTVSPost2010Prop38
140
0.0
102
RTVSPost2010PropOp38
 70
     1
102
RTVSPost2010Prop39
140
1.0
102
RTVSPost2010PropOp39
 70
     1
102
RTVSPost2010Prop40
 90
        0
102
RTVSPost2010PropOp40
 70
     1
102
RTVSPost2010Prop41ColorIndex
 90
       18
102
RTVSPost2010Prop41ColorRGB
 90
        0
102
RTVSPost2010PropOp41
 70
     1
102
RTVSPost2010Prop42
 90
       50
102
RTVSPost2010PropOp42
 70
     1
102
RTVSPost2010Prop43
 90
        3
102
RTVSPost2010PropOp43
 70
     1
102
RTVSPost2010Prop44ColorIndex
 90
        5
102
RTVSPost2010Prop44ColorRGB
 90
      255
102
RTVSPost2010PropOp44
 70
     1
102
RTVSPost2010Prop45
280
     0
102
RTVSPost2010PropOp45
 70
     1
102
RTVSPost2010Prop46
 90
       50
102
RTVSPost2010PropOp46
 70
     1
102
RTVSPost2010Prop47
 90
       50
102
RTVSPost2010PropOp47
 70
     1
102
RTVSPost2010Prop48
 90
       50
102
RTVSPost2010PropOp48
 70
     1
102
RTVSPost2010Prop49
280
     0
102
RTVSPost2010PropOp49
 70
     1
102
RTVSPost2010Prop50
 90
       50
102
RTVSPost2010PropOp50
 70
     1
102
RTVSPost2010Prop51ColorIndex
 90
      256
102
RTVSPost2010Prop51ColorRGB
 90
-16777216
102
RTVSPost2010PropOp51
 70
     0
102
RTVSPost2010Prop52
140
1.0
102
RTVSPost2010PropOp52
 70
     0
102
RTVSPost2010Prop53
 90
        2
102
RTVSPost2010PropOp53
 70
     1
102
RTVSPost2010Prop54
  1
strokes_ogs.tif
102
RTVSPost2010PropOp54
 70
     1
102
RTVSPost2010Prop55
280
     0
102
RTVSPost2010PropOp55
 70
     1
102
RTVSPost2010Prop56
140
1.0
102
RTVSPost2010PropOp56
 70
     1
102
RTVSPost2010Prop57
140
1.0
102
RTVSPost2010PropOp57
 70
     1
  0
ENDSEC
  0
EOF
