  0
SECTION
  2
HEADER
  9
$ACADVER
  1
AC1014
  9
$ACADMAINTVER
 70
     0
  9
$DWGCODEPAGE
  3
ANSI_1252
  9
$INSBASE
 10
0.0
 20
0.0
 30
0.0
  9
$EXTMIN
 10
0.0
 20
0.0
 30
0.0
  9
$EXTMAX
 10
40.0
 20
50.0
 30
0.0
  9
$LIMMIN
 10
0.0
 20
0.0
  9
$LIMMAX
 10
12.0
 20
9.0
  9
$ORTHOMODE
 70
     1
  9
$REGENMODE
 70
     1
  9
$FILLMODE
 70
     1
  9
$QTEXTMODE
 70
     0
  9
$MIRRTEXT
 70
     1
  9
$DRAGMODE
 70
     2
  9
$LTSCALE
 40
1.0
  9
$OSMODE
 70
     0
  9
$ATTMODE
 70
     1
  9
$TEXTSIZE
 40
1.0
  9
$TRACEWID
 40
0.05
  9
$TEXTSTYLE
  7
ROMANS
  9
$CLAYER
  8
TEXT
  9
$CELTYPE
  6
BYLAYER
  9
$CECOLOR
 62
   256
  9
$CELTSCALE
 40
1.0
  9
$DELOBJ
 70
     1
  9
$DISPSILH
 70
     0
  9
$DIMSCALE
 40
1.0
  9
$DIMASZ
 40
0.18
  9
$DIMEXO
 40
0.0625
  9
$DIMDLI
 40
0.38
  9
$DIMRND
 40
0.0
  9
$DIMDLE
 40
0.0
  9
$DIMEXE
 40
0.18
  9
$DIMTP
 40
0.0
  9
$DIMTM
 40
0.0
  9
$DIMTXT
 40
0.18
  9
$DIMCEN
 40
0.09
  9
$DIMTSZ
 40
0.0
  9
$DIMTOL
 70
     0
  9
$DIMLIM
 70
     0
  9
$DIMTIH
 70
     1
  9
$DIMTOH
 70
     1
  9
$DIMSE1
 70
     0
  9
$DIMSE2
 70
     0
  9
$DIMTAD
 70
     0
  9
$DIMZIN
 70
     0
  9
$DIMBLK
  1

  9
$DIMASO
 70
     1
  9
$DIMSHO
 70
     1
  9
$DIMPOST
  1

  9
$DIMAPOST
  1

  9
$DIMALT
 70
     0
  9
$DIMALTD
 70
     2
  9
$DIMALTF
 40
25.4
  9
$DIMLFAC
 40
1.0
  9
$DIMTOFL
 70
     0
  9
$DIMTVP
 40
0.0
  9
$DIMTIX
 70
     0
  9
$DIMSOXD
 70
     0
  9
$DIMSAH
 70
     0
  9
$DIMBLK1
  1

  9
$DIMBLK2
  1

  9
$DIMSTYLE
  2
STANDARD
  9
$DIMCLRD
 70
     0
  9
$DIMCLRE
 70
     0
  9
$DIMCLRT
 70
     0
  9
$DIMTFAC
 40
1.0
  9
$DIMGAP
 40
0.09
  9
$DIMJUST
 70
     0
  9
$DIMSD1
 70
     0
  9
$DIMSD2
 70
     0
  9
$DIMTOLJ
 70
     1
  9
$DIMTZIN
 70
     0
  9
$DIMALTZ
 70
     0
  9
$DIMALTTZ
 70
     0
  9
$DIMFIT
 70
     5
  9
$DIMUPT
 70
     0
  9
$DIMUNIT
 70
     2
  9
$DIMDEC
 70
     4
  9
$DIMTDEC
 70
     4
  9
$DIMALTU
 70
     2
  9
$DIMALTTD
 70
     2
  9
$DIMTXSTY
  7
ROMANS
  9
$DIMAUNIT
 70
     0
  9
$LUNITS
 70
     2
  9
$LUPREC
 70
     4
  9
$SKETCHINC
 40
0.1
  9
$FILLETRAD
 40
0.0
  9
$AUNITS
 70
     0
  9
$AUPREC
 70
     0
  9
$MENU
  1
acad
  9
$ELEVATION
 40
0.0
  9
$PELEVATION
 40
0.0
  9
$THICKNESS
 40
0.0
  9
$LIMCHECK
 70
     0
  9
$BLIPMODE
 70
     1
  9
$CHAMFERA
 40
0.0
  9
$CHAMFERB
 40
0.0
  9
$CHAMFERC
 40
0.0
  9
$CHAMFERD
 40
0.0
  9
$SKPOLY
 70
     0
  9
$TDCREATE
 40
2450310.162624536
  9
$TDUPDATE
 40
2451483.785304479
  9
$TDINDWG
 40
0.0348413889
  9
$TDUSRTIMER
 40
0.0348413889
  9
$USRTIMER
 70
     1
  9
$ANGBASE
 50
0.0
  9
$ANGDIR
 70
     0
  9
$PDMODE
 70
     0
  9
$PDSIZE
 40
0.0
  9
$PLINEWID
 40
0.0
  9
$COORDS
 70
     1
  9
$SPLFRAME
 70
     0
  9
$SPLINETYPE
 70
     6
  9
$SPLINESEGS
 70
     8
  9
$ATTDIA
 70
     0
  9
$ATTREQ
 70
     1
  9
$HANDLING
 70
     1
  9
$HANDSEED
  5
361
  9
$SURFTAB1
 70
     6
  9
$SURFTAB2
 70
     6
  9
$SURFTYPE
 70
     6
  9
$SURFU
 70
     6
  9
$SURFV
 70
     6
  9
$UCSNAME
  2

  9
$UCSORG
 10
0.0
 20
0.0
 30
0.0
  9
$UCSXDIR
 10
1.0
 20
0.0
 30
0.0
  9
$UCSYDIR
 10
0.0
 20
1.0
 30
0.0
  9
$PUCSNAME
  2

  9
$PUCSORG
 10
0.0
 20
0.0
 30
0.0
  9
$PUCSXDIR
 10
1.0
 20
0.0
 30
0.0
  9
$PUCSYDIR
 10
0.0
 20
1.0
 30
0.0
  9
$USERI1
 70
     0
  9
$USERI2
 70
     0
  9
$USERI3
 70
     0
  9
$USERI4
 70
     0
  9
$USERI5
 70
     0
  9
$USERR1
 40
0.0
  9
$USERR2
 40
0.0
  9
$USERR3
 40
0.0
  9
$USERR4
 40
0.0
  9
$USERR5
 40
0.0
  9
$WORLDVIEW
 70
     1
  9
$SHADEDGE
 70
     3
  9
$SHADEDIF
 70
    70
  9
$TILEMODE
 70
     1
  9
$MAXACTVP
 70
    16
  9
$PINSBASE
 10
0.0
 20
0.0
 30
0.0
  9
$PLIMCHECK
 70
     0
  9
$PEXTMIN
 10
1.000000E+20
 20
1.000000E+20
 30
1.000000E+20
  9
$PEXTMAX
 10
-1.000000E+20
 20
-1.000000E+20
 30
-1.000000E+20
  9
$PLIMMIN
 10
0.0
 20
0.0
  9
$PLIMMAX
 10
12.0
 20
9.0
  9
$UNITMODE
 70
     0
  9
$VISRETAIN
 70
     0
  9
$PLINEGEN
 70
     0
  9
$PSLTSCALE
 70
     1
  9
$TREEDEPTH
 70
  3020
  9
$PICKSTYLE
 70
     1
  9
$CMLSTYLE
  2
STANDARD
  9
$CMLJUST
 70
     0
  9
$CMLSCALE
 40
1.0
  9
$PROXYGRAPHICS
 70
     1
  9
$MEASUREMENT
 70
     0
  0
ENDSEC
  0
SECTION
  2
CLASSES
  0
CLASS
  1
DICTIONARYVAR
  2
AcDbDictionaryVar
  3
"AutoCAD"
 90
        0
280
     0
281
     0
  0
CLASS
  1
LWPOLYLINE
  2
AcDbPolyline
  3
"AutoCAD"
 90
        0
280
     0
281
     1
  0
ENDSEC
  0
SECTION
  2
TABLES
  0
TABLE
  2
VPORT
  5
8
100
AcDbSymbolTable
 70
     1
  0
VPORT
  5
35C
100
AcDbSymbolTableRecord
100
AcDbViewportTableRecord
  2
*ACTIVE
 70
     0
 10
0.0
 20
0.0
 11
1.0
 21
1.0
 12
20.00013
 22
24.998927
 13
0.0
 23
0.0
 14
0.1
 24
0.1
 15
0.0
 25
0.0
 16
0.0
 26
0.0
 36
1.0
 17
0.0
 27
0.0
 37
0.0
 40
50.725229
 41
1.689157
 42
50.0
 43
0.0
 44
0.0
 50
0.0
 51
0.0
 71
     0
 72
   100
 73
     1
 74
     0
 75
     1
 76
     0
 77
     0
 78
     0
  0
ENDTAB
  0
TABLE
  2
LTYPE
  5
5
100
AcDbSymbolTable
 70
     1
  0
LTYPE
  5
11
100
AcDbSymbolTableRecord
100
AcDbLinetypeTableRecord
  2
BYBLOCK
 70
     0
  3

 72
    65
 73
     0
 40
0.0
  0
LTYPE
  5
12
100
AcDbSymbolTableRecord
100
AcDbLinetypeTableRecord
  2
BYLAYER
 70
     0
  3

 72
    65
 73
     0
 40
0.0
  0
LTYPE
  5
13
100
AcDbSymbolTableRecord
100
AcDbLinetypeTableRecord
  2
CONTINUOUS
 70
     0
  3
Solid line
 72
    65
 73
     0
 40
0.0
  0
ENDTAB
  0
TABLE
  2
LAYER
  5
2
100
AcDbSymbolTable
 70
     9
  0
LAYER
  5
E
100
AcDbSymbolTableRecord
100
AcDbLayerTableRecord
  2
0
 70
     0
 62
     7
  6
CONTINUOUS
  0
LAYER
  5
1F
100
AcDbSymbolTableRecord
100
AcDbLayerTableRecord
  2
TEXT
 70
     0
 62
     3
  6
CONTINUOUS
  0
LAYER
  5
19D
100
AcDbSymbolTableRecord
100
AcDbLayerTableRecord
  2
PRUEBAS
 70
     0
 62
     6
  6
CONTINUOUS
  0
LAYER
  5
19E
100
AcDbSymbolTableRecord
100
AcDbLayerTableRecord
  2
BORDER
 70
     0
 62
     7
  6
CONTINUOUS
  0
LAYER
  5
19F
100
AcDbSymbolTableRecord
100
AcDbLayerTableRecord
  2
CIRCULO
 70
     0
 62
     2
  6
CONTINUOUS
  0
LAYER
  5
1A0
100
AcDbSymbolTableRecord
100
AcDbLayerTableRecord
  2
TOPO
 70
     0
 62
     1
  6
CONTINUOUS
  0
LAYER
  5
1A1
100
AcDbSymbolTableRecord
100
AcDbLayerTableRecord
  2
GOAL
 70
     0
 62
     5
  6
CONTINUOUS
  0
LAYER
  5
33B
100
AcDbSymbolTableRecord
100
AcDbLayerTableRecord
  2
SCALE
 70
     0
 62
     1
  6
CONTINUOUS
  0
LAYER
  5
33C
100
AcDbSymbolTableRecord
100
AcDbLayerTableRecord
  2
1
 70
     0
 62
     4
  6
CONTINUOUS
  0
ENDTAB
  0
TABLE
  2
STYLE
  5
3
100
AcDbSymbolTable
 70
     3
  0
STYLE
  5
F
100
AcDbSymbolTableRecord
100
AcDbTextStyleTableRecord
  2
STANDARD
 70
     0
 40
0.0
 41
1.0
 50
0.0
 71
     0
 42
0.4
  3
txt
  4

  0
STYLE
  5
1C
100
AcDbSymbolTableRecord
100
AcDbTextStyleTableRecord
  2
ROMANS
 70
     0
 40
0.0
 41
1.0
 50
0.0
 71
     0
 42
1.0
  3
TXT.shx
  4

  0
STYLE
  5
33D
100
AcDbSymbolTableRecord
100
AcDbTextStyleTableRecord
  2
COMPLEX
 70
     0
 40
0.0
 41
1.0
 50
0.0
 71
     0
 42
0.2
  3
complex
  4

  0
ENDTAB
  0
TABLE
  2
VIEW
  5
6
100
AcDbSymbolTable
 70
     0
  0
ENDTAB
  0
TABLE
  2
UCS
  5
7
100
AcDbSymbolTable
 70
     0
  0
ENDTAB
  0
TABLE
  2
APPID
  5
9
100
AcDbSymbolTable
 70
     1
  0
APPID
  5
10
100
AcDbSymbolTableRecord
100
AcDbRegAppTableRecord
  2
ACAD
 70
     0
  0
ENDTAB
  0
TABLE
  2
DIMSTYLE
  5
A
100
AcDbSymbolTable
 70
     1
  0
DIMSTYLE
105
19B
100
AcDbSymbolTableRecord
100
AcDbDimStyleTableRecord
  2
STANDARD
 70
     0
  3

  4

  5

  6

  7

 40
1.0
 41
0.18
 42
0.0625
 43
0.38
 44
0.18
 45
0.0
 46
0.0
 47
0.0
 48
0.0
140
0.18
141
0.09
142
0.0
143
25.4
144
1.0
145
0.0
146
1.0
147
0.09
 71
     0
 72
     0
 73
     1
 74
     1
 75
     0
 76
     0
 77
     0
 78
     0
170
     0
171
     2
172
     0
173
     0
174
     0
175
     0
176
     0
177
     0
178
     0
270
     2
271
     4
272
     4
273
     2
274
     2
340
F
275
     0
280
     0
281
     0
282
     0
283
     1
284
     0
285
     0
286
     0
287
     3
288
     0
  0
ENDTAB
  0
TABLE
  2
BLOCK_RECORD
  5
1
100
AcDbSymbolTable
 70
     4
  0
BLOCK_RECORD
  5
17
100
AcDbSymbolTableRecord
100
AcDbBlockTableRecord
  2
*MODEL_SPACE
  0
BLOCK_RECORD
  5
14
100
AcDbSymbolTableRecord
100
AcDbBlockTableRecord
  2
*PAPER_SPACE
  0
BLOCK_RECORD
  5
1A3
100
AcDbSymbolTableRecord
100
AcDbBlockTableRecord
  2
NORTH
  0
BLOCK_RECORD
  5
1B1
100
AcDbSymbolTableRecord
100
AcDbBlockTableRecord
  2
*X1
  0
BLOCK_RECORD
  5
277
100
AcDbSymbolTableRecord
100
AcDbBlockTableRecord
  2
*X2
  0
BLOCK_RECORD
  5
33E
100
AcDbSymbolTableRecord
100
AcDbBlockTableRecord
  2
ARROW2
  0
ENDTAB
  0
ENDSEC
  0
SECTION
  2
BLOCKS
  0
BLOCK
  5
22
100
AcDbEntity
  8
0
100
AcDbBlockBegin
  2
*MODEL_SPACE
 70
     0
 10
0.0
 20
0.0
 30
0.0
  3
*MODEL_SPACE
  1

  0
ENDBLK
  5
23
100
AcDbEntity
  8
0
100
AcDbBlockEnd
  0
BLOCK
  5
20
100
AcDbEntity
 67
     1
  8
0
100
AcDbBlockBegin
  2
*PAPER_SPACE
 70
     0
 10
0.0
 20
0.0
 30
0.0
  3
*PAPER_SPACE
  1

  0
ENDBLK
  5
21
100
AcDbEntity
 67
     1
  8
0
100
AcDbBlockEnd
  0
BLOCK
  5
1AF
100
AcDbEntity
  8
SCALE
100
AcDbBlockBegin
  2
NORTH
 70
     0
 10
4.06493
 20
3.914164
 30
0.0
  3
NORTH
  1

  0
LWPOLYLINE
  5
1A4
100
AcDbEntity
  8
0
100
AcDbPolyline
 90
        3
 70
     1
 43
0.02
 10
4.039889
 20
7.004616
 10
4.045827
 20
8.666969
 10
3.860767
 20
6.772057
  0
LWPOLYLINE
  5
1A5
100
AcDbEntity
  8
0
100
AcDbPolyline
 90
        4
 70
     1
 43
0.02
 10
4.04059
 20
5.553613
 10
3.971111
 20
5.501484
 10
3.897088
 20
3.973176
 10
4.041333
 20
4.167657
  0
LWPOLYLINE
  5
1A6
100
AcDbEntity
  8
0
100
AcDbPolyline
 90
        2
 70
     0
 43
0.027
 10
3.612048
 20
6.325251
 10
3.80422
 20
6.324038
  0
LWPOLYLINE
  5
1A7
100
AcDbEntity
  8
0
100
AcDbPolyline
 90
        2
 70
     0
 43
0.027
 10
4.25752
 20
6.324691
 10
4.454631
 20
6.325628
  0
LWPOLYLINE
  5
1A8
100
AcDbEntity
  8
0
100
AcDbPolyline
 90
        2
 70
     0
 43
0.027
 10
4.044025
 20
7.009533
 10
4.044025
 20
6.564647
  0
LWPOLYLINE
  5
1A9
100
AcDbEntity
  8
0
100
AcDbPolyline
 90
        3
 70
     1
 43
0.02
 10
4.048161
 20
7.004616
 10
4.042223
 20
8.666969
 10
4.227284
 20
6.772057
  0
LWPOLYLINE
  5
1AA
100
AcDbEntity
  8
0
100
AcDbPolyline
 90
        2
 70
     0
 43
0.027
 10
4.037736
 20
5.549355
 10
4.037736
 20
6.014101
  0
LWPOLYLINE
  5
1AB
100
AcDbEntity
  8
0
100
AcDbPolyline
 90
        4
 70
     1
 43
0.02
 10
4.034881
 20
5.553613
 10
4.10436
 20
5.501484
 10
4.178384
 20
3.973176
 10
4.034139
 20
4.167657
  0
LWPOLYLINE
  5
1AC
100
AcDbEntity
  8
0
100
AcDbPolyline
 90
        4
 70
     0
 43
0.02
 10
3.919788
 20
6.166399
 10
3.919788
 20
6.496763
 10
4.144378
 20
6.20193
 10
4.144378
 20
6.522845
  0
INSERT
  5
1AD
100
AcDbEntity
  8
0
100
AcDbBlockReference
  2
*X1
 10
0.0
 20
0.0
 30
0.0
  0
INSERT
  5
1AE
100
AcDbEntity
  8
0
100
AcDbBlockReference
  2
*X2
 10
0.0
 20
0.0
 30
0.0
  0
ENDBLK
  5
1B0
100
AcDbEntity
  8
SCALE
100
AcDbBlockEnd
  0
BLOCK
  5
275
100
AcDbEntity
  8
1
100
AcDbBlockBegin
  2
*X1
 70
     1
 10
0.0
 20
0.0
 30
0.0
  3
*X1
  1

  0
LINE
  5
1B2
100
AcDbEntity
  8
0
100
AcDbLine
 10
4.034418
 20
4.688492
 30
0.0
 11
4.138687
 21
4.792761
 31
0.0
  0
LINE
  5
1B3
100
AcDbEntity
  8
0
100
AcDbLine
 10
4.034423
 20
4.697335
 30
0.0
 11
4.138279
 21
4.801191
 31
0.0
  0
LINE
  5
1B4
100
AcDbEntity
  8
0
100
AcDbLine
 10
4.034427
 20
4.706179
 30
0.0
 11
4.13787
 21
4.809622
 31
0.0
  0
LINE
  5
1B5
100
AcDbEntity
  8
0
100
AcDbLine
 10
4.034432
 20
4.715022
 30
0.0
 11
4.137462
 21
4.818052
 31
0.0
  0
LINE
  5
1B6
100
AcDbEntity
  8
0
100
AcDbLine
 10
4.034437
 20
4.723866
 30
0.0
 11
4.137054
 21
4.826483
 31
0.0
  0
LINE
  5
1B7
100
AcDbEntity
  8
0
100
AcDbLine
 10
4.034442
 20
4.73271
 30
0.0
 11
4.136645
 21
4.834913
 31
0.0
  0
LINE
  5
1B8
100
AcDbEntity
  8
0
100
AcDbLine
 10
4.034446
 20
4.741553
 30
0.0
 11
4.136237
 21
4.843344
 31
0.0
  0
LINE
  5
1B9
100
AcDbEntity
  8
0
100
AcDbLine
 10
4.034451
 20
4.750397
 30
0.0
 11
4.135829
 21
4.851774
 31
0.0
  0
LINE
  5
1BA
100
AcDbEntity
  8
0
100
AcDbLine
 10
4.034456
 20
4.75924
 30
0.0
 11
4.13542
 21
4.860205
 31
0.0
  0
LINE
  5
1BB
100
AcDbEntity
  8
0
100
AcDbLine
 10
4.034461
 20
4.768084
 30
0.0
 11
4.135012
 21
4.868635
 31
0.0
  0
LINE
  5
1BC
100
AcDbEntity
  8
0
100
AcDbLine
 10
4.034465
 20
4.776927
 30
0.0
 11
4.134604
 21
4.877066
 31
0.0
  0
LINE
  5
1BD
100
AcDbEntity
  8
0
100
AcDbLine
 10
4.03447
 20
4.785771
 30
0.0
 11
4.134196
 21
4.885496
 31
0.0
  0
LINE
  5
1BE
100
AcDbEntity
  8
0
100
AcDbLine
 10
4.034475
 20
4.794615
 30
0.0
 11
4.133787
 21
4.893927
 31
0.0
  0
LINE
  5
1BF
100
AcDbEntity
  8
0
100
AcDbLine
 10
4.03448
 20
4.803458
 30
0.0
 11
4.133379
 21
4.902357
 31
0.0
  0
LINE
  5
1C0
100
AcDbEntity
  8
0
100
AcDbLine
 10
4.034484
 20
4.812302
 30
0.0
 11
4.132971
 21
4.910788
 31
0.0
  0
LINE
  5
1C1
100
AcDbEntity
  8
0
100
AcDbLine
 10
4.034489
 20
4.821145
 30
0.0
 11
4.132562
 21
4.919218
 31
0.0
  0
LINE
  5
1C2
100
AcDbEntity
  8
0
100
AcDbLine
 10
4.034494
 20
4.829989
 30
0.0
 11
4.132154
 21
4.927649
 31
0.0
  0
LINE
  5
1C3
100
AcDbEntity
  8
0
100
AcDbLine
 10
4.034498
 20
4.838832
 30
0.0
 11
4.131746
 21
4.936079
 31
0.0
  0
LINE
  5
1C4
100
AcDbEntity
  8
0
100
AcDbLine
 10
4.034503
 20
4.847676
 30
0.0
 11
4.131337
 21
4.94451
 31
0.0
  0
LINE
  5
1C5
100
AcDbEntity
  8
0
100
AcDbLine
 10
4.034508
 20
4.85652
 30
0.0
 11
4.130929
 21
4.952941
 31
0.0
  0
LINE
  5
1C6
100
AcDbEntity
  8
0
100
AcDbLine
 10
4.034513
 20
4.865363
 30
0.0
 11
4.130521
 21
4.961371
 31
0.0
  0
LINE
  5
1C7
100
AcDbEntity
  8
0
100
AcDbLine
 10
4.034517
 20
4.874207
 30
0.0
 11
4.130112
 21
4.969802
 31
0.0
  0
LINE
  5
1C8
100
AcDbEntity
  8
0
100
AcDbLine
 10
4.034522
 20
4.88305
 30
0.0
 11
4.129704
 21
4.978232
 31
0.0
  0
LINE
  5
1C9
100
AcDbEntity
  8
0
100
AcDbLine
 10
4.034527
 20
4.891894
 30
0.0
 11
4.129296
 21
4.986663
 31
0.0
  0
LINE
  5
1CA
100
AcDbEntity
  8
0
100
AcDbLine
 10
4.034532
 20
4.900737
 30
0.0
 11
4.128887
 21
4.995093
 31
0.0
  0
LINE
  5
1CB
100
AcDbEntity
  8
0
100
AcDbLine
 10
4.034536
 20
4.909581
 30
0.0
 11
4.128479
 21
5.003524
 31
0.0
  0
LINE
  5
1CC
100
AcDbEntity
  8
0
100
AcDbLine
 10
4.034541
 20
4.918425
 30
0.0
 11
4.128071
 21
5.011954
 31
0.0
  0
LINE
  5
1CD
100
AcDbEntity
  8
0
100
AcDbLine
 10
4.034546
 20
4.927268
 30
0.0
 11
4.127662
 21
5.020385
 31
0.0
  0
LINE
  5
1CE
100
AcDbEntity
  8
0
100
AcDbLine
 10
4.034551
 20
4.936112
 30
0.0
 11
4.127254
 21
5.028815
 31
0.0
  0
LINE
  5
1CF
100
AcDbEntity
  8
0
100
AcDbLine
 10
4.034555
 20
4.944955
 30
0.0
 11
4.126846
 21
5.037246
 31
0.0
  0
LINE
  5
1D0
100
AcDbEntity
  8
0
100
AcDbLine
 10
4.03456
 20
4.953799
 30
0.0
 11
4.126437
 21
5.045676
 31
0.0
  0
LINE
  5
1D1
100
AcDbEntity
  8
0
100
AcDbLine
 10
4.034565
 20
4.962642
 30
0.0
 11
4.126029
 21
5.054107
 31
0.0
  0
LINE
  5
1D2
100
AcDbEntity
  8
0
100
AcDbLine
 10
4.03457
 20
4.971486
 30
0.0
 11
4.125621
 21
5.062537
 31
0.0
  0
LINE
  5
1D3
100
AcDbEntity
  8
0
100
AcDbLine
 10
4.034574
 20
4.98033
 30
0.0
 11
4.125212
 21
5.070968
 31
0.0
  0
LINE
  5
1D4
100
AcDbEntity
  8
0
100
AcDbLine
 10
4.034579
 20
4.989173
 30
0.0
 11
4.124804
 21
5.079398
 31
0.0
  0
LINE
  5
1D5
100
AcDbEntity
  8
0
100
AcDbLine
 10
4.034584
 20
4.998017
 30
0.0
 11
4.124396
 21
5.087829
 31
0.0
  0
LINE
  5
1D6
100
AcDbEntity
  8
0
100
AcDbLine
 10
4.034588
 20
5.00686
 30
0.0
 11
4.123987
 21
5.096259
 31
0.0
  0
LINE
  5
1D7
100
AcDbEntity
  8
0
100
AcDbLine
 10
4.034593
 20
5.015704
 30
0.0
 11
4.123579
 21
5.10469
 31
0.0
  0
LINE
  5
1D8
100
AcDbEntity
  8
0
100
AcDbLine
 10
4.034598
 20
5.024547
 30
0.0
 11
4.123171
 21
5.11312
 31
0.0
  0
LINE
  5
1D9
100
AcDbEntity
  8
0
100
AcDbLine
 10
4.034603
 20
5.033391
 30
0.0
 11
4.122762
 21
5.121551
 31
0.0
  0
LINE
  5
1DA
100
AcDbEntity
  8
0
100
AcDbLine
 10
4.034607
 20
5.042235
 30
0.0
 11
4.122354
 21
5.129981
 31
0.0
  0
LINE
  5
1DB
100
AcDbEntity
  8
0
100
AcDbLine
 10
4.034612
 20
5.051078
 30
0.0
 11
4.121946
 21
5.138412
 31
0.0
  0
LINE
  5
1DC
100
AcDbEntity
  8
0
100
AcDbLine
 10
4.034617
 20
5.059922
 30
0.0
 11
4.121537
 21
5.146842
 31
0.0
  0
LINE
  5
1DD
100
AcDbEntity
  8
0
100
AcDbLine
 10
4.034622
 20
5.068765
 30
0.0
 11
4.121129
 21
5.155273
 31
0.0
  0
LINE
  5
1DE
100
AcDbEntity
  8
0
100
AcDbLine
 10
4.034626
 20
5.077609
 30
0.0
 11
4.120721
 21
5.163703
 31
0.0
  0
LINE
  5
1DF
100
AcDbEntity
  8
0
100
AcDbLine
 10
4.034631
 20
5.086452
 30
0.0
 11
4.120312
 21
5.172134
 31
0.0
  0
LINE
  5
1E0
100
AcDbEntity
  8
0
100
AcDbLine
 10
4.034636
 20
5.095296
 30
0.0
 11
4.119904
 21
5.180564
 31
0.0
  0
LINE
  5
1E1
100
AcDbEntity
  8
0
100
AcDbLine
 10
4.034641
 20
5.10414
 30
0.0
 11
4.119496
 21
5.188995
 31
0.0
  0
LINE
  5
1E2
100
AcDbEntity
  8
0
100
AcDbLine
 10
4.034645
 20
5.112983
 30
0.0
 11
4.119087
 21
5.197425
 31
0.0
  0
LINE
  5
1E3
100
AcDbEntity
  8
0
100
AcDbLine
 10
4.03465
 20
5.121827
 30
0.0
 11
4.118679
 21
5.205856
 31
0.0
  0
LINE
  5
1E4
100
AcDbEntity
  8
0
100
AcDbLine
 10
4.034655
 20
5.13067
 30
0.0
 11
4.118271
 21
5.214286
 31
0.0
  0
LINE
  5
1E5
100
AcDbEntity
  8
0
100
AcDbLine
 10
4.03466
 20
5.139514
 30
0.0
 11
4.117862
 21
5.222717
 31
0.0
  0
LINE
  5
1E6
100
AcDbEntity
  8
0
100
AcDbLine
 10
4.034664
 20
5.148357
 30
0.0
 11
4.117454
 21
5.231147
 31
0.0
  0
LINE
  5
1E7
100
AcDbEntity
  8
0
100
AcDbLine
 10
4.034669
 20
5.157201
 30
0.0
 11
4.117046
 21
5.239578
 31
0.0
  0
LINE
  5
1E8
100
AcDbEntity
  8
0
100
AcDbLine
 10
4.034674
 20
5.166045
 30
0.0
 11
4.116637
 21
5.248008
 31
0.0
  0
LINE
  5
1E9
100
AcDbEntity
  8
0
100
AcDbLine
 10
4.034678
 20
5.174888
 30
0.0
 11
4.116229
 21
5.256439
 31
0.0
  0
LINE
  5
1EA
100
AcDbEntity
  8
0
100
AcDbLine
 10
4.034683
 20
5.183732
 30
0.0
 11
4.115821
 21
5.264869
 31
0.0
  0
LINE
  5
1EB
100
AcDbEntity
  8
0
100
AcDbLine
 10
4.034688
 20
5.192575
 30
0.0
 11
4.115412
 21
5.2733
 31
0.0
  0
LINE
  5
1EC
100
AcDbEntity
  8
0
100
AcDbLine
 10
4.034693
 20
5.201419
 30
0.0
 11
4.115004
 21
5.28173
 31
0.0
  0
LINE
  5
1ED
100
AcDbEntity
  8
0
100
AcDbLine
 10
4.034697
 20
5.210262
 30
0.0
 11
4.114596
 21
5.290161
 31
0.0
  0
LINE
  5
1EE
100
AcDbEntity
  8
0
100
AcDbLine
 10
4.034702
 20
5.219106
 30
0.0
 11
4.114187
 21
5.298591
 31
0.0
  0
LINE
  5
1EF
100
AcDbEntity
  8
0
100
AcDbLine
 10
4.034707
 20
5.22795
 30
0.0
 11
4.113779
 21
5.307022
 31
0.0
  0
LINE
  5
1F0
100
AcDbEntity
  8
0
100
AcDbLine
 10
4.034712
 20
5.236793
 30
0.0
 11
4.113371
 21
5.315452
 31
0.0
  0
LINE
  5
1F1
100
AcDbEntity
  8
0
100
AcDbLine
 10
4.034716
 20
5.245637
 30
0.0
 11
4.112962
 21
5.323883
 31
0.0
  0
LINE
  5
1F2
100
AcDbEntity
  8
0
100
AcDbLine
 10
4.034721
 20
5.25448
 30
0.0
 11
4.112554
 21
5.332313
 31
0.0
  0
LINE
  5
1F3
100
AcDbEntity
  8
0
100
AcDbLine
 10
4.034726
 20
5.263324
 30
0.0
 11
4.112146
 21
5.340744
 31
0.0
  0
LINE
  5
1F4
100
AcDbEntity
  8
0
100
AcDbLine
 10
4.034731
 20
5.272167
 30
0.0
 11
4.111737
 21
5.349174
 31
0.0
  0
LINE
  5
1F5
100
AcDbEntity
  8
0
100
AcDbLine
 10
4.034735
 20
5.281011
 30
0.0
 11
4.111329
 21
5.357605
 31
0.0
  0
LINE
  5
1F6
100
AcDbEntity
  8
0
100
AcDbLine
 10
4.03474
 20
5.289855
 30
0.0
 11
4.110921
 21
5.366035
 31
0.0
  0
LINE
  5
1F7
100
AcDbEntity
  8
0
100
AcDbLine
 10
4.034745
 20
5.298698
 30
0.0
 11
4.110512
 21
5.374466
 31
0.0
  0
LINE
  5
1F8
100
AcDbEntity
  8
0
100
AcDbLine
 10
4.034749
 20
5.307542
 30
0.0
 11
4.110104
 21
5.382896
 31
0.0
  0
LINE
  5
1F9
100
AcDbEntity
  8
0
100
AcDbLine
 10
4.034754
 20
5.316385
 30
0.0
 11
4.109696
 21
5.391327
 31
0.0
  0
LINE
  5
1FA
100
AcDbEntity
  8
0
100
AcDbLine
 10
4.034759
 20
5.325229
 30
0.0
 11
4.109287
 21
5.399757
 31
0.0
  0
LINE
  5
1FB
100
AcDbEntity
  8
0
100
AcDbLine
 10
4.034764
 20
5.334072
 30
0.0
 11
4.108879
 21
5.408188
 31
0.0
  0
LINE
  5
1FC
100
AcDbEntity
  8
0
100
AcDbLine
 10
4.034768
 20
5.342916
 30
0.0
 11
4.108471
 21
5.416618
 31
0.0
  0
LINE
  5
1FD
100
AcDbEntity
  8
0
100
AcDbLine
 10
4.034773
 20
5.35176
 30
0.0
 11
4.108062
 21
5.425049
 31
0.0
  0
LINE
  5
1FE
100
AcDbEntity
  8
0
100
AcDbLine
 10
4.034778
 20
5.360603
 30
0.0
 11
4.107654
 21
5.433479
 31
0.0
  0
LINE
  5
1FF
100
AcDbEntity
  8
0
100
AcDbLine
 10
4.034783
 20
5.369447
 30
0.0
 11
4.107246
 21
5.44191
 31
0.0
  0
LINE
  5
200
100
AcDbEntity
  8
0
100
AcDbLine
 10
4.034787
 20
5.37829
 30
0.0
 11
4.106837
 21
5.45034
 31
0.0
  0
LINE
  5
201
100
AcDbEntity
  8
0
100
AcDbLine
 10
4.034792
 20
5.387134
 30
0.0
 11
4.106429
 21
5.458771
 31
0.0
  0
LINE
  5
202
100
AcDbEntity
  8
0
100
AcDbLine
 10
4.034797
 20
5.395977
 30
0.0
 11
4.106021
 21
5.467201
 31
0.0
  0
LINE
  5
203
100
AcDbEntity
  8
0
100
AcDbLine
 10
4.034802
 20
5.404821
 30
0.0
 11
4.105612
 21
5.475632
 31
0.0
  0
LINE
  5
204
100
AcDbEntity
  8
0
100
AcDbLine
 10
4.034806
 20
5.413665
 30
0.0
 11
4.105204
 21
5.484062
 31
0.0
  0
LINE
  5
205
100
AcDbEntity
  8
0
100
AcDbLine
 10
4.034811
 20
5.422508
 30
0.0
 11
4.104796
 21
5.492493
 31
0.0
  0
LINE
  5
206
100
AcDbEntity
  8
0
100
AcDbLine
 10
4.034816
 20
5.431352
 30
0.0
 11
4.104387
 21
5.500923
 31
0.0
  0
LINE
  5
207
100
AcDbEntity
  8
0
100
AcDbLine
 10
4.034821
 20
5.440195
 30
0.0
 11
4.099646
 21
5.505021
 31
0.0
  0
LINE
  5
208
100
AcDbEntity
  8
0
100
AcDbLine
 10
4.034825
 20
5.449039
 30
0.0
 11
4.094596
 21
5.50881
 31
0.0
  0
LINE
  5
209
100
AcDbEntity
  8
0
100
AcDbLine
 10
4.03483
 20
5.457882
 30
0.0
 11
4.089546
 21
5.512599
 31
0.0
  0
LINE
  5
20A
100
AcDbEntity
  8
0
100
AcDbLine
 10
4.034835
 20
5.466726
 30
0.0
 11
4.084496
 21
5.516388
 31
0.0
  0
LINE
  5
20B
100
AcDbEntity
  8
0
100
AcDbLine
 10
4.034839
 20
5.47557
 30
0.0
 11
4.079446
 21
5.520177
 31
0.0
  0
LINE
  5
20C
100
AcDbEntity
  8
0
100
AcDbLine
 10
4.034844
 20
5.484413
 30
0.0
 11
4.074397
 21
5.523965
 31
0.0
  0
LINE
  5
20D
100
AcDbEntity
  8
0
100
AcDbLine
 10
4.034849
 20
5.493257
 30
0.0
 11
4.069347
 21
5.527754
 31
0.0
  0
LINE
  5
20E
100
AcDbEntity
  8
0
100
AcDbLine
 10
4.034854
 20
5.5021
 30
0.0
 11
4.064297
 21
5.531543
 31
0.0
  0
LINE
  5
20F
100
AcDbEntity
  8
0
100
AcDbLine
 10
4.034858
 20
5.510944
 30
0.0
 11
4.059247
 21
5.535332
 31
0.0
  0
LINE
  5
210
100
AcDbEntity
  8
0
100
AcDbLine
 10
4.034863
 20
5.519787
 30
0.0
 11
4.054197
 21
5.539121
 31
0.0
  0
LINE
  5
211
100
AcDbEntity
  8
0
100
AcDbLine
 10
4.034868
 20
5.528631
 30
0.0
 11
4.049147
 21
5.54291
 31
0.0
  0
LINE
  5
212
100
AcDbEntity
  8
0
100
AcDbLine
 10
4.034873
 20
5.537475
 30
0.0
 11
4.044097
 21
5.546699
 31
0.0
  0
LINE
  5
213
100
AcDbEntity
  8
0
100
AcDbLine
 10
4.034877
 20
5.546318
 30
0.0
 11
4.039047
 21
5.550488
 31
0.0
  0
LINE
  5
214
100
AcDbEntity
  8
0
100
AcDbLine
 10
4.034413
 20
4.679648
 30
0.0
 11
4.139095
 21
4.78433
 31
0.0
  0
LINE
  5
215
100
AcDbEntity
  8
0
100
AcDbLine
 10
4.034408
 20
4.670805
 30
0.0
 11
4.139504
 21
4.7759
 31
0.0
  0
LINE
  5
216
100
AcDbEntity
  8
0
100
AcDbLine
 10
4.034404
 20
4.661961
 30
0.0
 11
4.139912
 21
4.767469
 31
0.0
  0
LINE
  5
217
100
AcDbEntity
  8
0
100
AcDbLine
 10
4.034399
 20
4.653117
 30
0.0
 11
4.14032
 21
4.759039
 31
0.0
  0
LINE
  5
218
100
AcDbEntity
  8
0
100
AcDbLine
 10
4.034394
 20
4.644274
 30
0.0
 11
4.140729
 21
4.750608
 31
0.0
  0
LINE
  5
219
100
AcDbEntity
  8
0
100
AcDbLine
 10
4.03439
 20
4.63543
 30
0.0
 11
4.141137
 21
4.742178
 31
0.0
  0
LINE
  5
21A
100
AcDbEntity
  8
0
100
AcDbLine
 10
4.034385
 20
4.626587
 30
0.0
 11
4.141545
 21
4.733747
 31
0.0
  0
LINE
  5
21B
100
AcDbEntity
  8
0
100
AcDbLine
 10
4.03438
 20
4.617743
 30
0.0
 11
4.141954
 21
4.725317
 31
0.0
  0
LINE
  5
21C
100
AcDbEntity
  8
0
100
AcDbLine
 10
4.034375
 20
4.6089
 30
0.0
 11
4.142362
 21
4.716886
 31
0.0
  0
LINE
  5
21D
100
AcDbEntity
  8
0
100
AcDbLine
 10
4.034371
 20
4.600056
 30
0.0
 11
4.14277
 21
4.708456
 31
0.0
  0
LINE
  5
21E
100
AcDbEntity
  8
0
100
AcDbLine
 10
4.034366
 20
4.591212
 30
0.0
 11
4.143179
 21
4.700025
 31
0.0
  0
LINE
  5
21F
100
AcDbEntity
  8
0
100
AcDbLine
 10
4.034361
 20
4.582369
 30
0.0
 11
4.143587
 21
4.691595
 31
0.0
  0
LINE
  5
220
100
AcDbEntity
  8
0
100
AcDbLine
 10
4.034356
 20
4.573525
 30
0.0
 11
4.143995
 21
4.683164
 31
0.0
  0
LINE
  5
221
100
AcDbEntity
  8
0
100
AcDbLine
 10
4.034352
 20
4.564682
 30
0.0
 11
4.144404
 21
4.674734
 31
0.0
  0
LINE
  5
222
100
AcDbEntity
  8
0
100
AcDbLine
 10
4.034347
 20
4.555838
 30
0.0
 11
4.144812
 21
4.666303
 31
0.0
  0
LINE
  5
223
100
AcDbEntity
  8
0
100
AcDbLine
 10
4.034342
 20
4.546995
 30
0.0
 11
4.14522
 21
4.657873
 31
0.0
  0
LINE
  5
224
100
AcDbEntity
  8
0
100
AcDbLine
 10
4.034337
 20
4.538151
 30
0.0
 11
4.145629
 21
4.649442
 31
0.0
  0
LINE
  5
225
100
AcDbEntity
  8
0
100
AcDbLine
 10
4.034333
 20
4.529307
 30
0.0
 11
4.146037
 21
4.641012
 31
0.0
  0
LINE
  5
226
100
AcDbEntity
  8
0
100
AcDbLine
 10
4.034328
 20
4.520464
 30
0.0
 11
4.146445
 21
4.632581
 31
0.0
  0
LINE
  5
227
100
AcDbEntity
  8
0
100
AcDbLine
 10
4.034323
 20
4.51162
 30
0.0
 11
4.146854
 21
4.624151
 31
0.0
  0
LINE
  5
228
100
AcDbEntity
  8
0
100
AcDbLine
 10
4.034318
 20
4.502777
 30
0.0
 11
4.147262
 21
4.61572
 31
0.0
  0
LINE
  5
229
100
AcDbEntity
  8
0
100
AcDbLine
 10
4.034314
 20
4.493933
 30
0.0
 11
4.14767
 21
4.60729
 31
0.0
  0
LINE
  5
22A
100
AcDbEntity
  8
0
100
AcDbLine
 10
4.034309
 20
4.48509
 30
0.0
 11
4.148079
 21
4.598859
 31
0.0
  0
LINE
  5
22B
100
AcDbEntity
  8
0
100
AcDbLine
 10
4.034304
 20
4.476246
 30
0.0
 11
4.148487
 21
4.590429
 31
0.0
  0
LINE
  5
22C
100
AcDbEntity
  8
0
100
AcDbLine
 10
4.0343
 20
4.467402
 30
0.0
 11
4.148895
 21
4.581998
 31
0.0
  0
LINE
  5
22D
100
AcDbEntity
  8
0
100
AcDbLine
 10
4.034295
 20
4.458559
 30
0.0
 11
4.149304
 21
4.573568
 31
0.0
  0
LINE
  5
22E
100
AcDbEntity
  8
0
100
AcDbLine
 10
4.03429
 20
4.449715
 30
0.0
 11
4.149712
 21
4.565137
 31
0.0
  0
LINE
  5
22F
100
AcDbEntity
  8
0
100
AcDbLine
 10
4.034285
 20
4.440872
 30
0.0
 11
4.15012
 21
4.556707
 31
0.0
  0
LINE
  5
230
100
AcDbEntity
  8
0
100
AcDbLine
 10
4.034281
 20
4.432028
 30
0.0
 11
4.150529
 21
4.548276
 31
0.0
  0
LINE
  5
231
100
AcDbEntity
  8
0
100
AcDbLine
 10
4.034276
 20
4.423185
 30
0.0
 11
4.150937
 21
4.539846
 31
0.0
  0
LINE
  5
232
100
AcDbEntity
  8
0
100
AcDbLine
 10
4.034271
 20
4.414341
 30
0.0
 11
4.151345
 21
4.531415
 31
0.0
  0
LINE
  5
233
100
AcDbEntity
  8
0
100
AcDbLine
 10
4.034266
 20
4.405497
 30
0.0
 11
4.151754
 21
4.522985
 31
0.0
  0
LINE
  5
234
100
AcDbEntity
  8
0
100
AcDbLine
 10
4.034262
 20
4.396654
 30
0.0
 11
4.152162
 21
4.514554
 31
0.0
  0
LINE
  5
235
100
AcDbEntity
  8
0
100
AcDbLine
 10
4.034257
 20
4.38781
 30
0.0
 11
4.15257
 21
4.506124
 31
0.0
  0
LINE
  5
236
100
AcDbEntity
  8
0
100
AcDbLine
 10
4.034252
 20
4.378967
 30
0.0
 11
4.152979
 21
4.497693
 31
0.0
  0
LINE
  5
237
100
AcDbEntity
  8
0
100
AcDbLine
 10
4.034247
 20
4.370123
 30
0.0
 11
4.153387
 21
4.489263
 31
0.0
  0
LINE
  5
238
100
AcDbEntity
  8
0
100
AcDbLine
 10
4.034243
 20
4.36128
 30
0.0
 11
4.153795
 21
4.480832
 31
0.0
  0
LINE
  5
239
100
AcDbEntity
  8
0
100
AcDbLine
 10
4.034238
 20
4.352436
 30
0.0
 11
4.154204
 21
4.472402
 31
0.0
  0
LINE
  5
23A
100
AcDbEntity
  8
0
100
AcDbLine
 10
4.034233
 20
4.343592
 30
0.0
 11
4.154612
 21
4.463971
 31
0.0
  0
LINE
  5
23B
100
AcDbEntity
  8
0
100
AcDbLine
 10
4.034229
 20
4.334749
 30
0.0
 11
4.15502
 21
4.455541
 31
0.0
  0
LINE
  5
23C
100
AcDbEntity
  8
0
100
AcDbLine
 10
4.034224
 20
4.325905
 30
0.0
 11
4.155429
 21
4.44711
 31
0.0
  0
LINE
  5
23D
100
AcDbEntity
  8
0
100
AcDbLine
 10
4.034219
 20
4.317062
 30
0.0
 11
4.155837
 21
4.43868
 31
0.0
  0
LINE
  5
23E
100
AcDbEntity
  8
0
100
AcDbLine
 10
4.034214
 20
4.308218
 30
0.0
 11
4.156245
 21
4.430249
 31
0.0
  0
LINE
  5
23F
100
AcDbEntity
  8
0
100
AcDbLine
 10
4.03421
 20
4.299375
 30
0.0
 11
4.156654
 21
4.421819
 31
0.0
  0
LINE
  5
240
100
AcDbEntity
  8
0
100
AcDbLine
 10
4.034205
 20
4.290531
 30
0.0
 11
4.157062
 21
4.413388
 31
0.0
  0
LINE
  5
241
100
AcDbEntity
  8
0
100
AcDbLine
 10
4.0342
 20
4.281687
 30
0.0
 11
4.15747
 21
4.404958
 31
0.0
  0
LINE
  5
242
100
AcDbEntity
  8
0
100
AcDbLine
 10
4.034195
 20
4.272844
 30
0.0
 11
4.157879
 21
4.396527
 31
0.0
  0
LINE
  5
243
100
AcDbEntity
  8
0
100
AcDbLine
 10
4.034191
 20
4.264
 30
0.0
 11
4.158287
 21
4.388097
 31
0.0
  0
LINE
  5
244
100
AcDbEntity
  8
0
100
AcDbLine
 10
4.034186
 20
4.255157
 30
0.0
 11
4.158695
 21
4.379666
 31
0.0
  0
LINE
  5
245
100
AcDbEntity
  8
0
100
AcDbLine
 10
4.034181
 20
4.246313
 30
0.0
 11
4.159104
 21
4.371236
 31
0.0
  0
LINE
  5
246
100
AcDbEntity
  8
0
100
AcDbLine
 10
4.034176
 20
4.23747
 30
0.0
 11
4.159512
 21
4.362805
 31
0.0
  0
LINE
  5
247
100
AcDbEntity
  8
0
100
AcDbLine
 10
4.034172
 20
4.228626
 30
0.0
 11
4.15992
 21
4.354375
 31
0.0
  0
LINE
  5
248
100
AcDbEntity
  8
0
100
AcDbLine
 10
4.034167
 20
4.219782
 30
0.0
 11
4.160329
 21
4.345944
 31
0.0
  0
LINE
  5
249
100
AcDbEntity
  8
0
100
AcDbLine
 10
4.034162
 20
4.210939
 30
0.0
 11
4.160737
 21
4.337514
 31
0.0
  0
LINE
  5
24A
100
AcDbEntity
  8
0
100
AcDbLine
 10
4.034157
 20
4.202095
 30
0.0
 11
4.161145
 21
4.329083
 31
0.0
  0
LINE
  5
24B
100
AcDbEntity
  8
0
100
AcDbLine
 10
4.034153
 20
4.193252
 30
0.0
 11
4.161554
 21
4.320653
 31
0.0
  0
LINE
  5
24C
100
AcDbEntity
  8
0
100
AcDbLine
 10
4.034148
 20
4.184408
 30
0.0
 11
4.161962
 21
4.312222
 31
0.0
  0
LINE
  5
24D
100
AcDbEntity
  8
0
100
AcDbLine
 10
4.034143
 20
4.175565
 30
0.0
 11
4.16237
 21
4.303792
 31
0.0
  0
LINE
  5
24E
100
AcDbEntity
  8
0
100
AcDbLine
 10
4.034538
 20
4.16712
 30
0.0
 11
4.162779
 21
4.295361
 31
0.0
  0
LINE
  5
24F
100
AcDbEntity
  8
0
100
AcDbLine
 10
4.038301
 20
4.162045
 30
0.0
 11
4.163187
 21
4.286931
 31
0.0
  0
LINE
  5
250
100
AcDbEntity
  8
0
100
AcDbLine
 10
4.042065
 20
4.15697
 30
0.0
 11
4.163595
 21
4.2785
 31
0.0
  0
LINE
  5
251
100
AcDbEntity
  8
0
100
AcDbLine
 10
4.045829
 20
4.151895
 30
0.0
 11
4.164004
 21
4.27007
 31
0.0
  0
LINE
  5
252
100
AcDbEntity
  8
0
100
AcDbLine
 10
4.049593
 20
4.146821
 30
0.0
 11
4.164412
 21
4.261639
 31
0.0
  0
LINE
  5
253
100
AcDbEntity
  8
0
100
AcDbLine
 10
4.053357
 20
4.141746
 30
0.0
 11
4.16482
 21
4.253209
 31
0.0
  0
LINE
  5
254
100
AcDbEntity
  8
0
100
AcDbLine
 10
4.057121
 20
4.136671
 30
0.0
 11
4.165229
 21
4.244778
 31
0.0
  0
LINE
  5
255
100
AcDbEntity
  8
0
100
AcDbLine
 10
4.060885
 20
4.131596
 30
0.0
 11
4.165637
 21
4.236348
 31
0.0
  0
LINE
  5
256
100
AcDbEntity
  8
0
100
AcDbLine
 10
4.064649
 20
4.126521
 30
0.0
 11
4.166045
 21
4.227917
 31
0.0
  0
LINE
  5
257
100
AcDbEntity
  8
0
100
AcDbLine
 10
4.068413
 20
4.121446
 30
0.0
 11
4.166454
 21
4.219487
 31
0.0
  0
LINE
  5
258
100
AcDbEntity
  8
0
100
AcDbLine
 10
4.072177
 20
4.116371
 30
0.0
 11
4.166862
 21
4.211056
 31
0.0
  0
LINE
  5
259
100
AcDbEntity
  8
0
100
AcDbLine
 10
4.075941
 20
4.111296
 30
0.0
 11
4.16727
 21
4.202626
 31
0.0
  0
LINE
  5
25A
100
AcDbEntity
  8
0
100
AcDbLine
 10
4.079705
 20
4.106222
 30
0.0
 11
4.167679
 21
4.194195
 31
0.0
  0
LINE
  5
25B
100
AcDbEntity
  8
0
100
AcDbLine
 10
4.083469
 20
4.101147
 30
0.0
 11
4.168087
 21
4.185765
 31
0.0
  0
LINE
  5
25C
100
AcDbEntity
  8
0
100
AcDbLine
 10
4.087233
 20
4.096072
 30
0.0
 11
4.168495
 21
4.177334
 31
0.0
  0
LINE
  5
25D
100
AcDbEntity
  8
0
100
AcDbLine
 10
4.090997
 20
4.090997
 30
0.0
 11
4.168903
 21
4.168903
 31
0.0
  0
LINE
  5
25E
100
AcDbEntity
  8
0
100
AcDbLine
 10
4.094761
 20
4.085922
 30
0.0
 11
4.169312
 21
4.160473
 31
0.0
  0
LINE
  5
25F
100
AcDbEntity
  8
0
100
AcDbLine
 10
4.098525
 20
4.080847
 30
0.0
 11
4.16972
 21
4.152042
 31
0.0
  0
LINE
  5
260
100
AcDbEntity
  8
0
100
AcDbLine
 10
4.102289
 20
4.075772
 30
0.0
 11
4.170128
 21
4.143612
 31
0.0
  0
LINE
  5
261
100
AcDbEntity
  8
0
100
AcDbLine
 10
4.106053
 20
4.070698
 30
0.0
 11
4.170537
 21
4.135181
 31
0.0
  0
LINE
  5
262
100
AcDbEntity
  8
0
100
AcDbLine
 10
4.109817
 20
4.065623
 30
0.0
 11
4.170945
 21
4.126751
 31
0.0
  0
LINE
  5
263
100
AcDbEntity
  8
0
100
AcDbLine
 10
4.113581
 20
4.060548
 30
0.0
 11
4.171353
 21
4.11832
 31
0.0
  0
LINE
  5
264
100
AcDbEntity
  8
0
100
AcDbLine
 10
4.117345
 20
4.055473
 30
0.0
 11
4.171762
 21
4.10989
 31
0.0
  0
LINE
  5
265
100
AcDbEntity
  8
0
100
AcDbLine
 10
4.121109
 20
4.050398
 30
0.0
 11
4.17217
 21
4.101459
 31
0.0
  0
LINE
  5
266
100
AcDbEntity
  8
0
100
AcDbLine
 10
4.124873
 20
4.045323
 30
0.0
 11
4.172578
 21
4.093029
 31
0.0
  0
LINE
  5
267
100
AcDbEntity
  8
0
100
AcDbLine
 10
4.128637
 20
4.040248
 30
0.0
 11
4.172987
 21
4.084598
 31
0.0
  0
LINE
  5
268
100
AcDbEntity
  8
0
100
AcDbLine
 10
4.132401
 20
4.035173
 30
0.0
 11
4.173395
 21
4.076168
 31
0.0
  0
LINE
  5
269
100
AcDbEntity
  8
0
100
AcDbLine
 10
4.136165
 20
4.030099
 30
0.0
 11
4.173803
 21
4.067737
 31
0.0
  0
LINE
  5
26A
100
AcDbEntity
  8
0
100
AcDbLine
 10
4.139929
 20
4.025024
 30
0.0
 11
4.174212
 21
4.059307
 31
0.0
  0
LINE
  5
26B
100
AcDbEntity
  8
0
100
AcDbLine
 10
4.143693
 20
4.019949
 30
0.0
 11
4.17462
 21
4.050876
 31
0.0
  0
LINE
  5
26C
100
AcDbEntity
  8
0
100
AcDbLine
 10
4.147456
 20
4.014874
 30
0.0
 11
4.175028
 21
4.042446
 31
0.0
  0
LINE
  5
26D
100
AcDbEntity
  8
0
100
AcDbLine
 10
4.15122
 20
4.009799
 30
0.0
 11
4.175437
 21
4.034015
 31
0.0
  0
LINE
  5
26E
100
AcDbEntity
  8
0
100
AcDbLine
 10
4.154984
 20
4.004724
 30
0.0
 11
4.175845
 21
4.025585
 31
0.0
  0
LINE
  5
26F
100
AcDbEntity
  8
0
100
AcDbLine
 10
4.158748
 20
3.999649
 30
0.0
 11
4.176253
 21
4.017154
 31
0.0
  0
LINE
  5
270
100
AcDbEntity
  8
0
100
AcDbLine
 10
4.162512
 20
3.994574
 30
0.0
 11
4.176662
 21
4.008724
 31
0.0
  0
LINE
  5
271
100
AcDbEntity
  8
0
100
AcDbLine
 10
4.166276
 20
3.9895
 30
0.0
 11
4.17707
 21
4.000293
 31
0.0
  0
LINE
  5
272
100
AcDbEntity
  8
0
100
AcDbLine
 10
4.17004
 20
3.984425
 30
0.0
 11
4.177478
 21
3.991863
 31
0.0
  0
LINE
  5
273
100
AcDbEntity
  8
0
100
AcDbLine
 10
4.173804
 20
3.97935
 30
0.0
 11
4.177887
 21
3.983432
 31
0.0
  0
LINE
  5
274
100
AcDbEntity
  8
0
100
AcDbLine
 10
4.177568
 20
3.974275
 30
0.0
 11
4.178295
 21
3.975002
 31
0.0
  0
ENDBLK
  5
276
100
AcDbEntity
  8
1
100
AcDbBlockEnd
  0
BLOCK
  5
339
100
AcDbEntity
  8
1
100
AcDbBlockBegin
  2
*X2
 70
     1
 10
0.0
 20
0.0
 30
0.0
  3
*X2
  1

  0
LINE
  5
278
100
AcDbEntity
  8
0
100
AcDbLine
 10
3.953203
 20
7.718546
 30
0.0
 11
4.042759
 21
7.808103
 31
0.0
  0
LINE
  5
279
100
AcDbEntity
  8
0
100
AcDbLine
 10
3.954159
 20
7.728342
 30
0.0
 11
4.042791
 21
7.816973
 31
0.0
  0
LINE
  5
27A
100
AcDbEntity
  8
0
100
AcDbLine
 10
3.955116
 20
7.738137
 30
0.0
 11
4.042823
 21
7.825844
 31
0.0
  0
LINE
  5
27B
100
AcDbEntity
  8
0
100
AcDbLine
 10
3.956072
 20
7.747933
 30
0.0
 11
4.042854
 21
7.834714
 31
0.0
  0
LINE
  5
27C
100
AcDbEntity
  8
0
100
AcDbLine
 10
3.957029
 20
7.757728
 30
0.0
 11
4.042886
 21
7.843585
 31
0.0
  0
LINE
  5
27D
100
AcDbEntity
  8
0
100
AcDbLine
 10
3.957986
 20
7.767524
 30
0.0
 11
4.042918
 21
7.852455
 31
0.0
  0
LINE
  5
27E
100
AcDbEntity
  8
0
100
AcDbLine
 10
3.958942
 20
7.777319
 30
0.0
 11
4.042949
 21
7.861326
 31
0.0
  0
LINE
  5
27F
100
AcDbEntity
  8
0
100
AcDbLine
 10
3.959899
 20
7.787115
 30
0.0
 11
4.042981
 21
7.870196
 31
0.0
  0
LINE
  5
280
100
AcDbEntity
  8
0
100
AcDbLine
 10
3.960856
 20
7.79691
 30
0.0
 11
4.043013
 21
7.879067
 31
0.0
  0
LINE
  5
281
100
AcDbEntity
  8
0
100
AcDbLine
 10
3.961812
 20
7.806705
 30
0.0
 11
4.043044
 21
7.887938
 31
0.0
  0
LINE
  5
282
100
AcDbEntity
  8
0
100
AcDbLine
 10
3.962769
 20
7.816501
 30
0.0
 11
4.043076
 21
7.896808
 31
0.0
  0
LINE
  5
283
100
AcDbEntity
  8
0
100
AcDbLine
 10
3.963726
 20
7.826296
 30
0.0
 11
4.043108
 21
7.905679
 31
0.0
  0
LINE
  5
284
100
AcDbEntity
  8
0
100
AcDbLine
 10
3.964682
 20
7.836092
 30
0.0
 11
4.043139
 21
7.914549
 31
0.0
  0
LINE
  5
285
100
AcDbEntity
  8
0
100
AcDbLine
 10
3.965639
 20
7.845887
 30
0.0
 11
4.043171
 21
7.92342
 31
0.0
  0
LINE
  5
286
100
AcDbEntity
  8
0
100
AcDbLine
 10
3.966596
 20
7.855683
 30
0.0
 11
4.043203
 21
7.93229
 31
0.0
  0
LINE
  5
287
100
AcDbEntity
  8
0
100
AcDbLine
 10
3.967552
 20
7.865478
 30
0.0
 11
4.043235
 21
7.941161
 31
0.0
  0
LINE
  5
288
100
AcDbEntity
  8
0
100
AcDbLine
 10
3.968509
 20
7.875274
 30
0.0
 11
4.043266
 21
7.950031
 31
0.0
  0
LINE
  5
289
100
AcDbEntity
  8
0
100
AcDbLine
 10
3.969466
 20
7.885069
 30
0.0
 11
4.043298
 21
7.958902
 31
0.0
  0
LINE
  5
28A
100
AcDbEntity
  8
0
100
AcDbLine
 10
3.970422
 20
7.894865
 30
0.0
 11
4.04333
 21
7.967772
 31
0.0
  0
LINE
  5
28B
100
AcDbEntity
  8
0
100
AcDbLine
 10
3.971379
 20
7.90466
 30
0.0
 11
4.043361
 21
7.976643
 31
0.0
  0
LINE
  5
28C
100
AcDbEntity
  8
0
100
AcDbLine
 10
3.972335
 20
7.914456
 30
0.0
 11
4.043393
 21
7.985513
 31
0.0
  0
LINE
  5
28D
100
AcDbEntity
  8
0
100
AcDbLine
 10
3.973292
 20
7.924251
 30
0.0
 11
4.043425
 21
7.994384
 31
0.0
  0
LINE
  5
28E
100
AcDbEntity
  8
0
100
AcDbLine
 10
3.974249
 20
7.934047
 30
0.0
 11
4.043456
 21
8.003254
 31
0.0
  0
LINE
  5
28F
100
AcDbEntity
  8
0
100
AcDbLine
 10
3.975205
 20
7.943842
 30
0.0
 11
4.043488
 21
8.012125
 31
0.0
  0
LINE
  5
290
100
AcDbEntity
  8
0
100
AcDbLine
 10
3.976162
 20
7.953638
 30
0.0
 11
4.04352
 21
8.020995
 31
0.0
  0
LINE
  5
291
100
AcDbEntity
  8
0
100
AcDbLine
 10
3.977119
 20
7.963433
 30
0.0
 11
4.043551
 21
8.029866
 31
0.0
  0
LINE
  5
292
100
AcDbEntity
  8
0
100
AcDbLine
 10
3.978075
 20
7.973229
 30
0.0
 11
4.043583
 21
8.038736
 31
0.0
  0
LINE
  5
293
100
AcDbEntity
  8
0
100
AcDbLine
 10
3.979032
 20
7.983024
 30
0.0
 11
4.043615
 21
8.047607
 31
0.0
  0
LINE
  5
294
100
AcDbEntity
  8
0
100
AcDbLine
 10
3.979989
 20
7.99282
 30
0.0
 11
4.043646
 21
8.056477
 31
0.0
  0
LINE
  5
295
100
AcDbEntity
  8
0
100
AcDbLine
 10
3.980945
 20
8.002615
 30
0.0
 11
4.043678
 21
8.065348
 31
0.0
  0
LINE
  5
296
100
AcDbEntity
  8
0
100
AcDbLine
 10
3.981902
 20
8.012411
 30
0.0
 11
4.04371
 21
8.074218
 31
0.0
  0
LINE
  5
297
100
AcDbEntity
  8
0
100
AcDbLine
 10
3.982859
 20
8.022206
 30
0.0
 11
4.043742
 21
8.083089
 31
0.0
  0
LINE
  5
298
100
AcDbEntity
  8
0
100
AcDbLine
 10
3.983815
 20
8.032001
 30
0.0
 11
4.043773
 21
8.09196
 31
0.0
  0
LINE
  5
299
100
AcDbEntity
  8
0
100
AcDbLine
 10
3.984772
 20
8.041797
 30
0.0
 11
4.043805
 21
8.10083
 31
0.0
  0
LINE
  5
29A
100
AcDbEntity
  8
0
100
AcDbLine
 10
3.985728
 20
8.051592
 30
0.0
 11
4.043837
 21
8.109701
 31
0.0
  0
LINE
  5
29B
100
AcDbEntity
  8
0
100
AcDbLine
 10
3.986685
 20
8.061388
 30
0.0
 11
4.043868
 21
8.118571
 31
0.0
  0
LINE
  5
29C
100
AcDbEntity
  8
0
100
AcDbLine
 10
3.987642
 20
8.071183
 30
0.0
 11
4.0439
 21
8.127442
 31
0.0
  0
LINE
  5
29D
100
AcDbEntity
  8
0
100
AcDbLine
 10
3.988598
 20
8.080979
 30
0.0
 11
4.043932
 21
8.136312
 31
0.0
  0
LINE
  5
29E
100
AcDbEntity
  8
0
100
AcDbLine
 10
3.989555
 20
8.090774
 30
0.0
 11
4.043963
 21
8.145183
 31
0.0
  0
LINE
  5
29F
100
AcDbEntity
  8
0
100
AcDbLine
 10
3.990512
 20
8.10057
 30
0.0
 11
4.043995
 21
8.154053
 31
0.0
  0
LINE
  5
2A0
100
AcDbEntity
  8
0
100
AcDbLine
 10
3.991468
 20
8.110365
 30
0.0
 11
4.044027
 21
8.162924
 31
0.0
  0
LINE
  5
2A1
100
AcDbEntity
  8
0
100
AcDbLine
 10
3.992425
 20
8.120161
 30
0.0
 11
4.044058
 21
8.171794
 31
0.0
  0
LINE
  5
2A2
100
AcDbEntity
  8
0
100
AcDbLine
 10
3.993382
 20
8.129956
 30
0.0
 11
4.04409
 21
8.180665
 31
0.0
  0
LINE
  5
2A3
100
AcDbEntity
  8
0
100
AcDbLine
 10
3.994338
 20
8.139752
 30
0.0
 11
4.044122
 21
8.189535
 31
0.0
  0
LINE
  5
2A4
100
AcDbEntity
  8
0
100
AcDbLine
 10
3.995295
 20
8.149547
 30
0.0
 11
4.044153
 21
8.198406
 31
0.0
  0
LINE
  5
2A5
100
AcDbEntity
  8
0
100
AcDbLine
 10
3.996252
 20
8.159343
 30
0.0
 11
4.044185
 21
8.207276
 31
0.0
  0
LINE
  5
2A6
100
AcDbEntity
  8
0
100
AcDbLine
 10
3.997208
 20
8.169138
 30
0.0
 11
4.044217
 21
8.216147
 31
0.0
  0
LINE
  5
2A7
100
AcDbEntity
  8
0
100
AcDbLine
 10
3.998165
 20
8.178934
 30
0.0
 11
4.044248
 21
8.225017
 31
0.0
  0
LINE
  5
2A8
100
AcDbEntity
  8
0
100
AcDbLine
 10
3.999121
 20
8.188729
 30
0.0
 11
4.04428
 21
8.233888
 31
0.0
  0
LINE
  5
2A9
100
AcDbEntity
  8
0
100
AcDbLine
 10
4.000078
 20
8.198525
 30
0.0
 11
4.044312
 21
8.242758
 31
0.0
  0
LINE
  5
2AA
100
AcDbEntity
  8
0
100
AcDbLine
 10
4.001035
 20
8.20832
 30
0.0
 11
4.044344
 21
8.251629
 31
0.0
  0
LINE
  5
2AB
100
AcDbEntity
  8
0
100
AcDbLine
 10
4.001991
 20
8.218116
 30
0.0
 11
4.044375
 21
8.260499
 31
0.0
  0
LINE
  5
2AC
100
AcDbEntity
  8
0
100
AcDbLine
 10
4.002948
 20
8.227911
 30
0.0
 11
4.044407
 21
8.26937
 31
0.0
  0
LINE
  5
2AD
100
AcDbEntity
  8
0
100
AcDbLine
 10
4.003905
 20
8.237707
 30
0.0
 11
4.044439
 21
8.27824
 31
0.0
  0
LINE
  5
2AE
100
AcDbEntity
  8
0
100
AcDbLine
 10
4.004861
 20
8.247502
 30
0.0
 11
4.04447
 21
8.287111
 31
0.0
  0
LINE
  5
2AF
100
AcDbEntity
  8
0
100
AcDbLine
 10
4.005818
 20
8.257297
 30
0.0
 11
4.044502
 21
8.295982
 31
0.0
  0
LINE
  5
2B0
100
AcDbEntity
  8
0
100
AcDbLine
 10
4.006775
 20
8.267093
 30
0.0
 11
4.044534
 21
8.304852
 31
0.0
  0
LINE
  5
2B1
100
AcDbEntity
  8
0
100
AcDbLine
 10
4.007731
 20
8.276888
 30
0.0
 11
4.044565
 21
8.313723
 31
0.0
  0
LINE
  5
2B2
100
AcDbEntity
  8
0
100
AcDbLine
 10
4.008688
 20
8.286684
 30
0.0
 11
4.044597
 21
8.322593
 31
0.0
  0
LINE
  5
2B3
100
AcDbEntity
  8
0
100
AcDbLine
 10
4.009645
 20
8.296479
 30
0.0
 11
4.044629
 21
8.331464
 31
0.0
  0
LINE
  5
2B4
100
AcDbEntity
  8
0
100
AcDbLine
 10
4.010601
 20
8.306275
 30
0.0
 11
4.04466
 21
8.340334
 31
0.0
  0
LINE
  5
2B5
100
AcDbEntity
  8
0
100
AcDbLine
 10
4.011558
 20
8.31607
 30
0.0
 11
4.044692
 21
8.349205
 31
0.0
  0
LINE
  5
2B6
100
AcDbEntity
  8
0
100
AcDbLine
 10
4.012514
 20
8.325866
 30
0.0
 11
4.044724
 21
8.358075
 31
0.0
  0
LINE
  5
2B7
100
AcDbEntity
  8
0
100
AcDbLine
 10
4.013471
 20
8.335661
 30
0.0
 11
4.044755
 21
8.366946
 31
0.0
  0
LINE
  5
2B8
100
AcDbEntity
  8
0
100
AcDbLine
 10
4.014428
 20
8.345457
 30
0.0
 11
4.044787
 21
8.375816
 31
0.0
  0
LINE
  5
2B9
100
AcDbEntity
  8
0
100
AcDbLine
 10
4.015384
 20
8.355252
 30
0.0
 11
4.044819
 21
8.384687
 31
0.0
  0
LINE
  5
2BA
100
AcDbEntity
  8
0
100
AcDbLine
 10
4.016341
 20
8.365048
 30
0.0
 11
4.044851
 21
8.393557
 31
0.0
  0
LINE
  5
2BB
100
AcDbEntity
  8
0
100
AcDbLine
 10
4.017298
 20
8.374843
 30
0.0
 11
4.044882
 21
8.402428
 31
0.0
  0
LINE
  5
2BC
100
AcDbEntity
  8
0
100
AcDbLine
 10
4.018254
 20
8.384639
 30
0.0
 11
4.044914
 21
8.411298
 31
0.0
  0
LINE
  5
2BD
100
AcDbEntity
  8
0
100
AcDbLine
 10
4.019211
 20
8.394434
 30
0.0
 11
4.044946
 21
8.420169
 31
0.0
  0
LINE
  5
2BE
100
AcDbEntity
  8
0
100
AcDbLine
 10
4.020168
 20
8.40423
 30
0.0
 11
4.044977
 21
8.429039
 31
0.0
  0
LINE
  5
2BF
100
AcDbEntity
  8
0
100
AcDbLine
 10
4.021124
 20
8.414025
 30
0.0
 11
4.045009
 21
8.43791
 31
0.0
  0
LINE
  5
2C0
100
AcDbEntity
  8
0
100
AcDbLine
 10
4.022081
 20
8.423821
 30
0.0
 11
4.045041
 21
8.44678
 31
0.0
  0
LINE
  5
2C1
100
AcDbEntity
  8
0
100
AcDbLine
 10
4.023038
 20
8.433616
 30
0.0
 11
4.045072
 21
8.455651
 31
0.0
  0
LINE
  5
2C2
100
AcDbEntity
  8
0
100
AcDbLine
 10
4.023994
 20
8.443412
 30
0.0
 11
4.045104
 21
8.464521
 31
0.0
  0
LINE
  5
2C3
100
AcDbEntity
  8
0
100
AcDbLine
 10
4.024951
 20
8.453207
 30
0.0
 11
4.045136
 21
8.473392
 31
0.0
  0
LINE
  5
2C4
100
AcDbEntity
  8
0
100
AcDbLine
 10
4.025907
 20
8.463003
 30
0.0
 11
4.045167
 21
8.482262
 31
0.0
  0
LINE
  5
2C5
100
AcDbEntity
  8
0
100
AcDbLine
 10
4.026864
 20
8.472798
 30
0.0
 11
4.045199
 21
8.491133
 31
0.0
  0
LINE
  5
2C6
100
AcDbEntity
  8
0
100
AcDbLine
 10
4.027821
 20
8.482593
 30
0.0
 11
4.045231
 21
8.500003
 31
0.0
  0
LINE
  5
2C7
100
AcDbEntity
  8
0
100
AcDbLine
 10
4.028777
 20
8.492389
 30
0.0
 11
4.045262
 21
8.508874
 31
0.0
  0
LINE
  5
2C8
100
AcDbEntity
  8
0
100
AcDbLine
 10
4.029734
 20
8.502184
 30
0.0
 11
4.045294
 21
8.517745
 31
0.0
  0
LINE
  5
2C9
100
AcDbEntity
  8
0
100
AcDbLine
 10
4.030691
 20
8.51198
 30
0.0
 11
4.045326
 21
8.526615
 31
0.0
  0
LINE
  5
2CA
100
AcDbEntity
  8
0
100
AcDbLine
 10
4.031647
 20
8.521775
 30
0.0
 11
4.045358
 21
8.535486
 31
0.0
  0
LINE
  5
2CB
100
AcDbEntity
  8
0
100
AcDbLine
 10
4.032604
 20
8.531571
 30
0.0
 11
4.045389
 21
8.544356
 31
0.0
  0
LINE
  5
2CC
100
AcDbEntity
  8
0
100
AcDbLine
 10
4.033561
 20
8.541366
 30
0.0
 11
4.045421
 21
8.553227
 31
0.0
  0
LINE
  5
2CD
100
AcDbEntity
  8
0
100
AcDbLine
 10
4.034517
 20
8.551162
 30
0.0
 11
4.045453
 21
8.562097
 31
0.0
  0
LINE
  5
2CE
100
AcDbEntity
  8
0
100
AcDbLine
 10
4.035474
 20
8.560957
 30
0.0
 11
4.045484
 21
8.570968
 31
0.0
  0
LINE
  5
2CF
100
AcDbEntity
  8
0
100
AcDbLine
 10
4.036431
 20
8.570753
 30
0.0
 11
4.045516
 21
8.579838
 31
0.0
  0
LINE
  5
2D0
100
AcDbEntity
  8
0
100
AcDbLine
 10
4.037387
 20
8.580548
 30
0.0
 11
4.045548
 21
8.588709
 31
0.0
  0
LINE
  5
2D1
100
AcDbEntity
  8
0
100
AcDbLine
 10
4.038344
 20
8.590344
 30
0.0
 11
4.045579
 21
8.597579
 31
0.0
  0
LINE
  5
2D2
100
AcDbEntity
  8
0
100
AcDbLine
 10
4.0393
 20
8.600139
 30
0.0
 11
4.045611
 21
8.60645
 31
0.0
  0
LINE
  5
2D3
100
AcDbEntity
  8
0
100
AcDbLine
 10
4.040257
 20
8.609935
 30
0.0
 11
4.045643
 21
8.61532
 31
0.0
  0
LINE
  5
2D4
100
AcDbEntity
  8
0
100
AcDbLine
 10
4.041214
 20
8.61973
 30
0.0
 11
4.045674
 21
8.624191
 31
0.0
  0
LINE
  5
2D5
100
AcDbEntity
  8
0
100
AcDbLine
 10
4.04217
 20
8.629526
 30
0.0
 11
4.045706
 21
8.633061
 31
0.0
  0
LINE
  5
2D6
100
AcDbEntity
  8
0
100
AcDbLine
 10
4.043127
 20
8.639321
 30
0.0
 11
4.045738
 21
8.641932
 31
0.0
  0
LINE
  5
2D7
100
AcDbEntity
  8
0
100
AcDbLine
 10
4.044084
 20
8.649117
 30
0.0
 11
4.045769
 21
8.650802
 31
0.0
  0
LINE
  5
2D8
100
AcDbEntity
  8
0
100
AcDbLine
 10
4.04504
 20
8.658912
 30
0.0
 11
4.045801
 21
8.659673
 31
0.0
  0
LINE
  5
2D9
100
AcDbEntity
  8
0
100
AcDbLine
 10
3.952246
 20
7.708751
 30
0.0
 11
4.042728
 21
7.799232
 31
0.0
  0
LINE
  5
2DA
100
AcDbEntity
  8
0
100
AcDbLine
 10
3.951289
 20
7.698955
 30
0.0
 11
4.042696
 21
7.790362
 31
0.0
  0
LINE
  5
2DB
100
AcDbEntity
  8
0
100
AcDbLine
 10
3.950333
 20
7.68916
 30
0.0
 11
4.042664
 21
7.781491
 31
0.0
  0
LINE
  5
2DC
100
AcDbEntity
  8
0
100
AcDbLine
 10
3.949376
 20
7.679364
 30
0.0
 11
4.042632
 21
7.772621
 31
0.0
  0
LINE
  5
2DD
100
AcDbEntity
  8
0
100
AcDbLine
 10
3.948419
 20
7.669569
 30
0.0
 11
4.042601
 21
7.76375
 31
0.0
  0
LINE
  5
2DE
100
AcDbEntity
  8
0
100
AcDbLine
 10
3.947463
 20
7.659773
 30
0.0
 11
4.042569
 21
7.75488
 31
0.0
  0
LINE
  5
2DF
100
AcDbEntity
  8
0
100
AcDbLine
 10
3.946506
 20
7.649978
 30
0.0
 11
4.042537
 21
7.746009
 31
0.0
  0
LINE
  5
2E0
100
AcDbEntity
  8
0
100
AcDbLine
 10
3.945549
 20
7.640182
 30
0.0
 11
4.042506
 21
7.737139
 31
0.0
  0
LINE
  5
2E1
100
AcDbEntity
  8
0
100
AcDbLine
 10
3.944593
 20
7.630387
 30
0.0
 11
4.042474
 21
7.728268
 31
0.0
  0
LINE
  5
2E2
100
AcDbEntity
  8
0
100
AcDbLine
 10
3.943636
 20
7.620591
 30
0.0
 11
4.042442
 21
7.719398
 31
0.0
  0
LINE
  5
2E3
100
AcDbEntity
  8
0
100
AcDbLine
 10
3.942679
 20
7.610796
 30
0.0
 11
4.042411
 21
7.710527
 31
0.0
  0
LINE
  5
2E4
100
AcDbEntity
  8
0
100
AcDbLine
 10
3.941723
 20
7.601
 30
0.0
 11
4.042379
 21
7.701657
 31
0.0
  0
LINE
  5
2E5
100
AcDbEntity
  8
0
100
AcDbLine
 10
3.940766
 20
7.591205
 30
0.0
 11
4.042347
 21
7.692786
 31
0.0
  0
LINE
  5
2E6
100
AcDbEntity
  8
0
100
AcDbLine
 10
3.93981
 20
7.581409
 30
0.0
 11
4.042316
 21
7.683916
 31
0.0
  0
LINE
  5
2E7
100
AcDbEntity
  8
0
100
AcDbLine
 10
3.938853
 20
7.571614
 30
0.0
 11
4.042284
 21
7.675045
 31
0.0
  0
LINE
  5
2E8
100
AcDbEntity
  8
0
100
AcDbLine
 10
3.937896
 20
7.561819
 30
0.0
 11
4.042252
 21
7.666175
 31
0.0
  0
LINE
  5
2E9
100
AcDbEntity
  8
0
100
AcDbLine
 10
3.93694
 20
7.552023
 30
0.0
 11
4.042221
 21
7.657304
 31
0.0
  0
LINE
  5
2EA
100
AcDbEntity
  8
0
100
AcDbLine
 10
3.935983
 20
7.542228
 30
0.0
 11
4.042189
 21
7.648433
 31
0.0
  0
LINE
  5
2EB
100
AcDbEntity
  8
0
100
AcDbLine
 10
3.935026
 20
7.532432
 30
0.0
 11
4.042157
 21
7.639563
 31
0.0
  0
LINE
  5
2EC
100
AcDbEntity
  8
0
100
AcDbLine
 10
3.93407
 20
7.522637
 30
0.0
 11
4.042126
 21
7.630692
 31
0.0
  0
LINE
  5
2ED
100
AcDbEntity
  8
0
100
AcDbLine
 10
3.933113
 20
7.512841
 30
0.0
 11
4.042094
 21
7.621822
 31
0.0
  0
LINE
  5
2EE
100
AcDbEntity
  8
0
100
AcDbLine
 10
3.932156
 20
7.503046
 30
0.0
 11
4.042062
 21
7.612951
 31
0.0
  0
LINE
  5
2EF
100
AcDbEntity
  8
0
100
AcDbLine
 10
3.9312
 20
7.49325
 30
0.0
 11
4.04203
 21
7.604081
 31
0.0
  0
LINE
  5
2F0
100
AcDbEntity
  8
0
100
AcDbLine
 10
3.930243
 20
7.483455
 30
0.0
 11
4.041999
 21
7.59521
 31
0.0
  0
LINE
  5
2F1
100
AcDbEntity
  8
0
100
AcDbLine
 10
3.929286
 20
7.473659
 30
0.0
 11
4.041967
 21
7.58634
 31
0.0
  0
LINE
  5
2F2
100
AcDbEntity
  8
0
100
AcDbLine
 10
3.92833
 20
7.463864
 30
0.0
 11
4.041935
 21
7.577469
 31
0.0
  0
LINE
  5
2F3
100
AcDbEntity
  8
0
100
AcDbLine
 10
3.927373
 20
7.454068
 30
0.0
 11
4.041904
 21
7.568599
 31
0.0
  0
LINE
  5
2F4
100
AcDbEntity
  8
0
100
AcDbLine
 10
3.926417
 20
7.444273
 30
0.0
 11
4.041872
 21
7.559728
 31
0.0
  0
LINE
  5
2F5
100
AcDbEntity
  8
0
100
AcDbLine
 10
3.92546
 20
7.434477
 30
0.0
 11
4.04184
 21
7.550858
 31
0.0
  0
LINE
  5
2F6
100
AcDbEntity
  8
0
100
AcDbLine
 10
3.924503
 20
7.424682
 30
0.0
 11
4.041809
 21
7.541987
 31
0.0
  0
LINE
  5
2F7
100
AcDbEntity
  8
0
100
AcDbLine
 10
3.923547
 20
7.414886
 30
0.0
 11
4.041777
 21
7.533117
 31
0.0
  0
LINE
  5
2F8
100
AcDbEntity
  8
0
100
AcDbLine
 10
3.92259
 20
7.405091
 30
0.0
 11
4.041745
 21
7.524246
 31
0.0
  0
LINE
  5
2F9
100
AcDbEntity
  8
0
100
AcDbLine
 10
3.921633
 20
7.395295
 30
0.0
 11
4.041714
 21
7.515376
 31
0.0
  0
LINE
  5
2FA
100
AcDbEntity
  8
0
100
AcDbLine
 10
3.920677
 20
7.3855
 30
0.0
 11
4.041682
 21
7.506505
 31
0.0
  0
LINE
  5
2FB
100
AcDbEntity
  8
0
100
AcDbLine
 10
3.91972
 20
7.375704
 30
0.0
 11
4.04165
 21
7.497635
 31
0.0
  0
LINE
  5
2FC
100
AcDbEntity
  8
0
100
AcDbLine
 10
3.918763
 20
7.365909
 30
0.0
 11
4.041619
 21
7.488764
 31
0.0
  0
LINE
  5
2FD
100
AcDbEntity
  8
0
100
AcDbLine
 10
3.917807
 20
7.356113
 30
0.0
 11
4.041587
 21
7.479894
 31
0.0
  0
LINE
  5
2FE
100
AcDbEntity
  8
0
100
AcDbLine
 10
3.91685
 20
7.346318
 30
0.0
 11
4.041555
 21
7.471023
 31
0.0
  0
LINE
  5
2FF
100
AcDbEntity
  8
0
100
AcDbLine
 10
3.915893
 20
7.336523
 30
0.0
 11
4.041523
 21
7.462153
 31
0.0
  0
LINE
  5
300
100
AcDbEntity
  8
0
100
AcDbLine
 10
3.914937
 20
7.326727
 30
0.0
 11
4.041492
 21
7.453282
 31
0.0
  0
LINE
  5
301
100
AcDbEntity
  8
0
100
AcDbLine
 10
3.91398
 20
7.316932
 30
0.0
 11
4.04146
 21
7.444411
 31
0.0
  0
LINE
  5
302
100
AcDbEntity
  8
0
100
AcDbLine
 10
3.913024
 20
7.307136
 30
0.0
 11
4.041428
 21
7.435541
 31
0.0
  0
LINE
  5
303
100
AcDbEntity
  8
0
100
AcDbLine
 10
3.912067
 20
7.297341
 30
0.0
 11
4.041397
 21
7.42667
 31
0.0
  0
LINE
  5
304
100
AcDbEntity
  8
0
100
AcDbLine
 10
3.91111
 20
7.287545
 30
0.0
 11
4.041365
 21
7.4178
 31
0.0
  0
LINE
  5
305
100
AcDbEntity
  8
0
100
AcDbLine
 10
3.910154
 20
7.27775
 30
0.0
 11
4.041333
 21
7.408929
 31
0.0
  0
LINE
  5
306
100
AcDbEntity
  8
0
100
AcDbLine
 10
3.909197
 20
7.267954
 30
0.0
 11
4.041302
 21
7.400059
 31
0.0
  0
LINE
  5
307
100
AcDbEntity
  8
0
100
AcDbLine
 10
3.90824
 20
7.258159
 30
0.0
 11
4.04127
 21
7.391188
 31
0.0
  0
LINE
  5
308
100
AcDbEntity
  8
0
100
AcDbLine
 10
3.907284
 20
7.248363
 30
0.0
 11
4.041238
 21
7.382318
 31
0.0
  0
LINE
  5
309
100
AcDbEntity
  8
0
100
AcDbLine
 10
3.906327
 20
7.238568
 30
0.0
 11
4.041207
 21
7.373447
 31
0.0
  0
LINE
  5
30A
100
AcDbEntity
  8
0
100
AcDbLine
 10
3.90537
 20
7.228772
 30
0.0
 11
4.041175
 21
7.364577
 31
0.0
  0
LINE
  5
30B
100
AcDbEntity
  8
0
100
AcDbLine
 10
3.904414
 20
7.218977
 30
0.0
 11
4.041143
 21
7.355706
 31
0.0
  0
LINE
  5
30C
100
AcDbEntity
  8
0
100
AcDbLine
 10
3.903457
 20
7.209181
 30
0.0
 11
4.041112
 21
7.346836
 31
0.0
  0
LINE
  5
30D
100
AcDbEntity
  8
0
100
AcDbLine
 10
3.9025
 20
7.199386
 30
0.0
 11
4.04108
 21
7.337965
 31
0.0
  0
LINE
  5
30E
100
AcDbEntity
  8
0
100
AcDbLine
 10
3.901544
 20
7.18959
 30
0.0
 11
4.041048
 21
7.329095
 31
0.0
  0
LINE
  5
30F
100
AcDbEntity
  8
0
100
AcDbLine
 10
3.900587
 20
7.179795
 30
0.0
 11
4.041016
 21
7.320224
 31
0.0
  0
LINE
  5
310
100
AcDbEntity
  8
0
100
AcDbLine
 10
3.899631
 20
7.169999
 30
0.0
 11
4.040985
 21
7.311354
 31
0.0
  0
LINE
  5
311
100
AcDbEntity
  8
0
100
AcDbLine
 10
3.898674
 20
7.160204
 30
0.0
 11
4.040953
 21
7.302483
 31
0.0
  0
LINE
  5
312
100
AcDbEntity
  8
0
100
AcDbLine
 10
3.897717
 20
7.150408
 30
0.0
 11
4.040921
 21
7.293613
 31
0.0
  0
LINE
  5
313
100
AcDbEntity
  8
0
100
AcDbLine
 10
3.896761
 20
7.140613
 30
0.0
 11
4.04089
 21
7.284742
 31
0.0
  0
LINE
  5
314
100
AcDbEntity
  8
0
100
AcDbLine
 10
3.895804
 20
7.130817
 30
0.0
 11
4.040858
 21
7.275872
 31
0.0
  0
LINE
  5
315
100
AcDbEntity
  8
0
100
AcDbLine
 10
3.894847
 20
7.121022
 30
0.0
 11
4.040826
 21
7.267001
 31
0.0
  0
LINE
  5
316
100
AcDbEntity
  8
0
100
AcDbLine
 10
3.893891
 20
7.111227
 30
0.0
 11
4.040795
 21
7.258131
 31
0.0
  0
LINE
  5
317
100
AcDbEntity
  8
0
100
AcDbLine
 10
3.892934
 20
7.101431
 30
0.0
 11
4.040763
 21
7.24926
 31
0.0
  0
LINE
  5
318
100
AcDbEntity
  8
0
100
AcDbLine
 10
3.891977
 20
7.091636
 30
0.0
 11
4.040731
 21
7.24039
 31
0.0
  0
LINE
  5
319
100
AcDbEntity
  8
0
100
AcDbLine
 10
3.891021
 20
7.08184
 30
0.0
 11
4.0407
 21
7.231519
 31
0.0
  0
LINE
  5
31A
100
AcDbEntity
  8
0
100
AcDbLine
 10
3.890064
 20
7.072045
 30
0.0
 11
4.040668
 21
7.222648
 31
0.0
  0
LINE
  5
31B
100
AcDbEntity
  8
0
100
AcDbLine
 10
3.889107
 20
7.062249
 30
0.0
 11
4.040636
 21
7.213778
 31
0.0
  0
LINE
  5
31C
100
AcDbEntity
  8
0
100
AcDbLine
 10
3.888151
 20
7.052454
 30
0.0
 11
4.040605
 21
7.204907
 31
0.0
  0
LINE
  5
31D
100
AcDbEntity
  8
0
100
AcDbLine
 10
3.887194
 20
7.042658
 30
0.0
 11
4.040573
 21
7.196037
 31
0.0
  0
LINE
  5
31E
100
AcDbEntity
  8
0
100
AcDbLine
 10
3.886238
 20
7.032863
 30
0.0
 11
4.040541
 21
7.187166
 31
0.0
  0
LINE
  5
31F
100
AcDbEntity
  8
0
100
AcDbLine
 10
3.885281
 20
7.023067
 30
0.0
 11
4.04051
 21
7.178296
 31
0.0
  0
LINE
  5
320
100
AcDbEntity
  8
0
100
AcDbLine
 10
3.884324
 20
7.013272
 30
0.0
 11
4.040478
 21
7.169425
 31
0.0
  0
LINE
  5
321
100
AcDbEntity
  8
0
100
AcDbLine
 10
3.883368
 20
7.003476
 30
0.0
 11
4.040446
 21
7.160555
 31
0.0
  0
LINE
  5
322
100
AcDbEntity
  8
0
100
AcDbLine
 10
3.882411
 20
6.993681
 30
0.0
 11
4.040414
 21
7.151684
 31
0.0
  0
LINE
  5
323
100
AcDbEntity
  8
0
100
AcDbLine
 10
3.881454
 20
6.983885
 30
0.0
 11
4.040383
 21
7.142814
 31
0.0
  0
LINE
  5
324
100
AcDbEntity
  8
0
100
AcDbLine
 10
3.880498
 20
6.97409
 30
0.0
 11
4.040351
 21
7.133943
 31
0.0
  0
LINE
  5
325
100
AcDbEntity
  8
0
100
AcDbLine
 10
3.879541
 20
6.964294
 30
0.0
 11
4.040319
 21
7.125073
 31
0.0
  0
LINE
  5
326
100
AcDbEntity
  8
0
100
AcDbLine
 10
3.878584
 20
6.954499
 30
0.0
 11
4.040288
 21
7.116202
 31
0.0
  0
LINE
  5
327
100
AcDbEntity
  8
0
100
AcDbLine
 10
3.877628
 20
6.944703
 30
0.0
 11
4.040256
 21
7.107332
 31
0.0
  0
LINE
  5
328
100
AcDbEntity
  8
0
100
AcDbLine
 10
3.876671
 20
6.934908
 30
0.0
 11
4.040224
 21
7.098461
 31
0.0
  0
LINE
  5
329
100
AcDbEntity
  8
0
100
AcDbLine
 10
3.875714
 20
6.925112
 30
0.0
 11
4.040193
 21
7.089591
 31
0.0
  0
LINE
  5
32A
100
AcDbEntity
  8
0
100
AcDbLine
 10
3.874758
 20
6.915317
 30
0.0
 11
4.040161
 21
7.08072
 31
0.0
  0
LINE
  5
32B
100
AcDbEntity
  8
0
100
AcDbLine
 10
3.873801
 20
6.905521
 30
0.0
 11
4.040129
 21
7.07185
 31
0.0
  0
LINE
  5
32C
100
AcDbEntity
  8
0
100
AcDbLine
 10
3.872844
 20
6.895726
 30
0.0
 11
4.040098
 21
7.062979
 31
0.0
  0
LINE
  5
32D
100
AcDbEntity
  8
0
100
AcDbLine
 10
3.871888
 20
6.885931
 30
0.0
 11
4.040066
 21
7.054109
 31
0.0
  0
LINE
  5
32E
100
AcDbEntity
  8
0
100
AcDbLine
 10
3.870931
 20
6.876135
 30
0.0
 11
4.040034
 21
7.045238
 31
0.0
  0
LINE
  5
32F
100
AcDbEntity
  8
0
100
AcDbLine
 10
3.869975
 20
6.86634
 30
0.0
 11
4.040003
 21
7.036368
 31
0.0
  0
LINE
  5
330
100
AcDbEntity
  8
0
100
AcDbLine
 10
3.869018
 20
6.856544
 30
0.0
 11
4.039971
 21
7.027497
 31
0.0
  0
LINE
  5
331
100
AcDbEntity
  8
0
100
AcDbLine
 10
3.868061
 20
6.846749
 30
0.0
 11
4.039939
 21
7.018626
 31
0.0
  0
LINE
  5
332
100
AcDbEntity
  8
0
100
AcDbLine
 10
3.867105
 20
6.836953
 30
0.0
 11
4.039907
 21
7.009756
 31
0.0
  0
LINE
  5
333
100
AcDbEntity
  8
0
100
AcDbLine
 10
3.866148
 20
6.827158
 30
0.0
 11
4.027427
 21
6.988437
 31
0.0
  0
LINE
  5
334
100
AcDbEntity
  8
0
100
AcDbLine
 10
3.865191
 20
6.817362
 30
0.0
 11
3.997799
 21
6.94997
 31
0.0
  0
LINE
  5
335
100
AcDbEntity
  8
0
100
AcDbLine
 10
3.864235
 20
6.807567
 30
0.0
 11
3.968171
 21
6.911503
 31
0.0
  0
LINE
  5
336
100
AcDbEntity
  8
0
100
AcDbLine
 10
3.863278
 20
6.797771
 30
0.0
 11
3.938543
 21
6.873036
 31
0.0
  0
LINE
  5
337
100
AcDbEntity
  8
0
100
AcDbLine
 10
3.862321
 20
6.787976
 30
0.0
 11
3.908914
 21
6.834569
 31
0.0
  0
LINE
  5
338
100
AcDbEntity
  8
0
100
AcDbLine
 10
3.861365
 20
6.77818
 30
0.0
 11
3.879286
 21
6.796102
 31
0.0
  0
ENDBLK
  5
33A
100
AcDbEntity
  8
1
100
AcDbBlockEnd
  0
BLOCK
  5
346
100
AcDbEntity
  8
0
100
AcDbBlockBegin
  2
ARROW2
 70
     0
 10
0.0
 20
0.0
 30
0.0
  3
ARROW2
  1

  0
LWPOLYLINE
  5
33F
100
AcDbEntity
  8
SCALE
100
AcDbPolyline
 90
        4
 70
     0
 43
0.0
 10
4.747744
 20
20.684593
 10
6.75
 20
20.684593
 10
6.75
 20
20.747093
 10
4.747744
 20
20.747093
  0
TEXT
  5
340
100
AcDbEntity
  8
SCALE
100
AcDbText
 10
5.289824
 20
20.443504
 30
0.0
 40
0.125
  1
2 meters
  7
COMPLEX
 72
     1
 11
5.751134
 21
20.443504
 31
0.0
100
AcDbText
  0
INSERT
  5
341
100
AcDbEntity
  8
SCALE
100
AcDbBlockReference
  2
NORTH
 10
5.756901
 20
21.196338
 30
0.0
 41
0.33275
 42
0.33275
 43
0.33275
  0
SOLID
  5
342
100
AcDbEntity
  8
SCALE
100
AcDbTrace
 10
4.747744
 20
20.747093
 30
0.0
 11
4.997744
 21
20.747093
 31
0.0
 12
4.747744
 22
20.684593
 32
0.0
 13
4.997744
 23
20.684593
 33
0.0
  0
SOLID
  5
343
100
AcDbEntity
  8
SCALE
100
AcDbTrace
 10
5.247744
 20
20.747093
 30
0.0
 11
5.497744
 21
20.747093
 31
0.0
 12
5.247744
 22
20.684593
 32
0.0
 13
5.497744
 23
20.684593
 33
0.0
  0
SOLID
  5
344
100
AcDbEntity
  8
SCALE
100
AcDbTrace
 10
5.747744
 20
20.747093
 30
0.0
 11
5.997744
 21
20.747093
 31
0.0
 12
5.747744
 22
20.684593
 32
0.0
 13
5.997744
 23
20.684593
 33
0.0
  0
SOLID
  5
345
100
AcDbEntity
  8
SCALE
100
AcDbTrace
 10
6.247744
 20
20.747093
 30
0.0
 11
6.497744
 21
20.747093
 31
0.0
 12
6.247744
 22
20.684593
 32
0.0
 13
6.497744
 23
20.684593
 33
0.0
  0
ENDBLK
  5
347
100
AcDbEntity
  8
0
100
AcDbBlockEnd
  0
ENDSEC
  0
SECTION
  2
ENTITIES
  0
LWPOLYLINE
  5
26
100
AcDbEntity
  8
CIRCULO
100
AcDbPolyline
 90
        5
 70
     0
 43
0.0
 10
0.0
 20
17.851235
 10
4.904185
 20
23.377236
 10
9.147876
 20
27.64137
 10
11.602918
 20
30.11416
 10
12.723214
 20
32.684558
  0
LWPOLYLINE
  5
2D
100
AcDbEntity
  8
CIRCULO
100
AcDbPolyline
 90
        5
 70
     0
 43
0.0
 10
13.836968
 20
32.464675
 10
16.338784
 20
35.417848
 10
20.578278
 20
39.842324
 10
26.884633
 20
47.076272
 10
29.420909
 20
50.0
  0
LWPOLYLINE
  5
34
100
AcDbEntity
  8
TOPO
100
AcDbPolyline
 90
       22
 70
     0
 43
0.0
 10
17.75664
 20
0.0
 10
14.736574
 20
3.767727
 10
13.756689
 20
5.381332
 10
13.071495
 20
6.249623
 10
12.115298
 20
7.310837
 10
11.24311
 20
8.454257
 10
10.547011
 20
9.41172
 10
10.22036
 20
11.588178
 10
10.027471
 20
13.507896
 10
10.051121
 20
15.686488
 10
10.412555
 20
17.80798
 10
10.582283
 20
20.317453
 10
11.216712
 20
22.976242
 10
12.208409
 20
25.73208
 10
13.183199
 20
28.571218
 10
14.342915
 20
31.491465
 10
15.556515
 20
33.90649
 10
16.626679
 20
36.234018
 10
18.763994
 20
39.517678
 10
20.999325
 20
42.533114
 10
23.312463
 20
46.15327
 10
25.50875
 20
50.0
  0
LWPOLYLINE
  5
4E
100
AcDbEntity
  8
TOPO
100
AcDbPolyline
 90
       15
 70
     0
 43
0.0
 10
3.704431
 20
0.0
 10
3.65493
 20
5.099157
 10
3.881943
 20
8.51042
 10
3.888395
 20
8.557845
 10
4.006888
 20
11.26973
 10
4.697062
 20
14.141642
 10
5.623123
 20
17.9609
 10
6.773279
 20
21.641177
 10
8.453569
 20
24.935736
 10
10.565843
 20
28.647126
 10
12.130245
 20
32.204168
 10
14.175609
 20
35.767862
 10
17.879024
 20
41.124316
 10
20.954053
 20
45.472379
 10
23.236346
 20
50.0
  0
LWPOLYLINE
  5
60
100
AcDbEntity
  8
GOAL
100
AcDbPolyline
 90
        4
 70
     1
 43
0.0
 10
16.9
 20
2.3
 10
16.9
 20
2.9
 10
24.6
 20
2.9
 10
24.6
 20
2.3
  0
LWPOLYLINE
  5
66
100
AcDbEntity
  8
PRUEBAS
100
AcDbPolyline
 90
        4
 70
     1
 43
0.0
 10
12.5
 20
9.5
 10
12.5
 20
10.0
 10
13.0
 20
10.0
 10
13.0
 20
9.5
  0
LWPOLYLINE
  5
6C
100
AcDbEntity
  8
PRUEBAS
100
AcDbPolyline
 90
        4
 70
     1
 43
0.0
 10
17.5
 20
9.5
 10
17.5
 20
10.0
 10
18.0
 20
10.0
 10
18.0
 20
9.5
  0
LWPOLYLINE
  5
72
100
AcDbEntity
  8
PRUEBAS
100
AcDbPolyline
 90
        4
 70
     1
 43
0.0
 10
22.5
 20
9.5
 10
22.5
 20
10.0
 10
23.0
 20
10.0
 10
23.0
 20
9.5
  0
LWPOLYLINE
  5
78
100
AcDbEntity
  8
PRUEBAS
100
AcDbPolyline
 90
        4
 70
     1
 43
0.0
 10
27.5
 20
9.5
 10
27.5
 20
10.0
 10
28.0
 20
10.0
 10
28.0
 20
9.5
  0
LWPOLYLINE
  5
7E
100
AcDbEntity
  8
PRUEBAS
100
AcDbPolyline
 90
        4
 70
     1
 43
0.0
 10
32.5
 20
9.5
 10
32.5
 20
10.0
 10
33.0
 20
10.0
 10
33.0
 20
9.5
  0
LWPOLYLINE
  5
84
100
AcDbEntity
  8
PRUEBAS
100
AcDbPolyline
 90
        4
 70
     1
 43
0.0
 10
37.5
 20
9.5
 10
37.5
 20
10.0
 10
38.0
 20
10.0
 10
38.0
 20
9.5
  0
LWPOLYLINE
  5
8A
100
AcDbEntity
  8
PRUEBAS
100
AcDbPolyline
 90
        4
 70
     1
 43
0.0
 10
22.5
 20
4.5
 10
22.5
 20
5.0
 10
23.0
 20
5.0
 10
23.0
 20
4.5
  0
LWPOLYLINE
  5
90
100
AcDbEntity
  8
PRUEBAS
100
AcDbPolyline
 90
        4
 70
     1
 43
0.0
 10
12.5
 20
14.5
 10
12.5
 20
15.0
 10
13.0
 20
15.0
 10
13.0
 20
14.5
  0
LWPOLYLINE
  5
96
100
AcDbEntity
  8
PRUEBAS
100
AcDbPolyline
 90
        4
 70
     1
 43
0.0
 10
17.5
 20
14.5
 10
17.5
 20
15.0
 10
18.0
 20
15.0
 10
18.0
 20
14.5
  0
LWPOLYLINE
  5
9C
100
AcDbEntity
  8
PRUEBAS
100
AcDbPolyline
 90
        4
 70
     1
 43
0.0
 10
22.5
 20
14.5
 10
22.5
 20
15.0
 10
23.0
 20
15.0
 10
23.0
 20
14.5
  0
LWPOLYLINE
  5
A2
100
AcDbEntity
  8
PRUEBAS
100
AcDbPolyline
 90
        4
 70
     1
 43
0.0
 10
27.5
 20
14.5
 10
27.5
 20
15.0
 10
28.0
 20
15.0
 10
28.0
 20
14.5
  0
LWPOLYLINE
  5
A8
100
AcDbEntity
  8
PRUEBAS
100
AcDbPolyline
 90
        4
 70
     1
 43
0.0
 10
32.5
 20
14.5
 10
32.5
 20
15.0
 10
33.0
 20
15.0
 10
33.0
 20
14.5
  0
LWPOLYLINE
  5
AE
100
AcDbEntity
  8
PRUEBAS
100
AcDbPolyline
 90
        4
 70
     1
 43
0.0
 10
37.5
 20
14.5
 10
37.5
 20
15.0
 10
38.0
 20
15.0
 10
38.0
 20
14.5
  0
LWPOLYLINE
  5
B4
100
AcDbEntity
  8
PRUEBAS
100
AcDbPolyline
 90
        4
 70
     1
 43
0.0
 10
12.5
 20
19.5
 10
12.5
 20
20.0
 10
13.0
 20
20.0
 10
13.0
 20
19.5
  0
LWPOLYLINE
  5
BA
100
AcDbEntity
  8
PRUEBAS
100
AcDbPolyline
 90
        4
 70
     1
 43
0.0
 10
17.5
 20
19.5
 10
17.5
 20
20.0
 10
18.0
 20
20.0
 10
18.0
 20
19.5
  0
LWPOLYLINE
  5
C0
100
AcDbEntity
  8
PRUEBAS
100
AcDbPolyline
 90
        4
 70
     1
 43
0.0
 10
22.5
 20
19.5
 10
22.5
 20
20.0
 10
23.0
 20
20.0
 10
23.0
 20
19.5
  0
LWPOLYLINE
  5
C6
100
AcDbEntity
  8
PRUEBAS
100
AcDbPolyline
 90
        4
 70
     1
 43
0.0
 10
27.5
 20
19.5
 10
27.5
 20
20.0
 10
28.0
 20
20.0
 10
28.0
 20
19.5
  0
LWPOLYLINE
  5
CC
100
AcDbEntity
  8
PRUEBAS
100
AcDbPolyline
 90
        4
 70
     1
 43
0.0
 10
32.5
 20
19.5
 10
32.5
 20
20.0
 10
33.0
 20
20.0
 10
33.0
 20
19.5
  0
LWPOLYLINE
  5
D2
100
AcDbEntity
  8
PRUEBAS
100
AcDbPolyline
 90
        4
 70
     1
 43
0.0
 10
37.5
 20
19.5
 10
37.5
 20
20.0
 10
38.0
 20
20.0
 10
38.0
 20
19.5
  0
LWPOLYLINE
  5
D8
100
AcDbEntity
  8
PRUEBAS
100
AcDbPolyline
 90
        4
 70
     1
 43
0.0
 10
12.5
 20
24.5
 10
12.5
 20
25.0
 10
13.0
 20
25.0
 10
13.0
 20
24.5
  0
LWPOLYLINE
  5
DE
100
AcDbEntity
  8
PRUEBAS
100
AcDbPolyline
 90
        4
 70
     1
 43
0.0
 10
17.5
 20
24.5
 10
17.5
 20
25.0
 10
18.0
 20
25.0
 10
18.0
 20
24.5
  0
LWPOLYLINE
  5
E4
100
AcDbEntity
  8
PRUEBAS
100
AcDbPolyline
 90
        4
 70
     1
 43
0.0
 10
22.5
 20
24.5
 10
22.5
 20
25.0
 10
23.0
 20
25.0
 10
23.0
 20
24.5
  0
LWPOLYLINE
  5
EA
100
AcDbEntity
  8
PRUEBAS
100
AcDbPolyline
 90
        4
 70
     1
 43
0.0
 10
27.5
 20
24.5
 10
27.5
 20
25.0
 10
28.0
 20
25.0
 10
28.0
 20
24.5
  0
LWPOLYLINE
  5
F0
100
AcDbEntity
  8
PRUEBAS
100
AcDbPolyline
 90
        4
 70
     1
 43
0.0
 10
32.5
 20
24.5
 10
32.5
 20
25.0
 10
33.0
 20
25.0
 10
33.0
 20
24.5
  0
LWPOLYLINE
  5
F6
100
AcDbEntity
  8
PRUEBAS
100
AcDbPolyline
 90
        4
 70
     1
 43
0.0
 10
37.5
 20
24.5
 10
37.5
 20
25.0
 10
38.0
 20
25.0
 10
38.0
 20
24.5
  0
LWPOLYLINE
  5
FC
100
AcDbEntity
  8
PRUEBAS
100
AcDbPolyline
 90
        4
 70
     1
 43
0.0
 10
12.5
 20
29.5
 10
12.5
 20
30.0
 10
13.0
 20
30.0
 10
13.0
 20
29.5
  0
LWPOLYLINE
  5
102
100
AcDbEntity
  8
PRUEBAS
100
AcDbPolyline
 90
        4
 70
     1
 43
0.0
 10
17.5
 20
29.5
 10
17.5
 20
30.0
 10
18.0
 20
30.0
 10
18.0
 20
29.5
  0
LWPOLYLINE
  5
108
100
AcDbEntity
  8
PRUEBAS
100
AcDbPolyline
 90
        4
 70
     1
 43
0.0
 10
22.5
 20
29.5
 10
22.5
 20
30.0
 10
23.0
 20
30.0
 10
23.0
 20
29.5
  0
LWPOLYLINE
  5
10E
100
AcDbEntity
  8
PRUEBAS
100
AcDbPolyline
 90
        4
 70
     1
 43
0.0
 10
27.5
 20
29.5
 10
27.5
 20
30.0
 10
28.0
 20
30.0
 10
28.0
 20
29.5
  0
LWPOLYLINE
  5
114
100
AcDbEntity
  8
PRUEBAS
100
AcDbPolyline
 90
        4
 70
     1
 43
0.0
 10
32.5
 20
29.5
 10
32.5
 20
30.0
 10
33.0
 20
30.0
 10
33.0
 20
29.5
  0
LWPOLYLINE
  5
11A
100
AcDbEntity
  8
PRUEBAS
100
AcDbPolyline
 90
        4
 70
     1
 43
0.0
 10
37.5
 20
29.5
 10
37.5
 20
30.0
 10
38.0
 20
30.0
 10
38.0
 20
29.5
  0
LWPOLYLINE
  5
120
100
AcDbEntity
  8
PRUEBAS
100
AcDbPolyline
 90
        4
 70
     1
 43
0.0
 10
17.5
 20
34.5
 10
17.5
 20
35.0
 10
18.0
 20
35.0
 10
18.0
 20
34.5
  0
LWPOLYLINE
  5
126
100
AcDbEntity
  8
PRUEBAS
100
AcDbPolyline
 90
        4
 70
     1
 43
0.0
 10
22.5
 20
34.5
 10
22.5
 20
35.0
 10
23.0
 20
35.0
 10
23.0
 20
34.5
  0
LWPOLYLINE
  5
12C
100
AcDbEntity
  8
PRUEBAS
100
AcDbPolyline
 90
        4
 70
     1
 43
0.0
 10
27.5
 20
34.5
 10
27.5
 20
35.0
 10
28.0
 20
35.0
 10
28.0
 20
34.5
  0
LWPOLYLINE
  5
132
100
AcDbEntity
  8
PRUEBAS
100
AcDbPolyline
 90
        4
 70
     1
 43
0.0
 10
32.5
 20
34.5
 10
32.5
 20
35.0
 10
33.0
 20
35.0
 10
33.0
 20
34.5
  0
LWPOLYLINE
  5
138
100
AcDbEntity
  8
PRUEBAS
100
AcDbPolyline
 90
        4
 70
     1
 43
0.0
 10
37.5
 20
34.5
 10
37.5
 20
35.0
 10
38.0
 20
35.0
 10
38.0
 20
34.5
  0
LWPOLYLINE
  5
13E
100
AcDbEntity
  8
PRUEBAS
100
AcDbPolyline
 90
        4
 70
     1
 43
0.0
 10
22.5
 20
39.5
 10
22.5
 20
40.0
 10
23.0
 20
40.0
 10
23.0
 20
39.5
  0
LWPOLYLINE
  5
144
100
AcDbEntity
  8
PRUEBAS
100
AcDbPolyline
 90
        4
 70
     1
 43
0.0
 10
27.5
 20
39.5
 10
27.5
 20
40.0
 10
28.0
 20
40.0
 10
28.0
 20
39.5
  0
LWPOLYLINE
  5
14A
100
AcDbEntity
  8
PRUEBAS
100
AcDbPolyline
 90
        4
 70
     1
 43
0.0
 10
32.5
 20
39.5
 10
32.5
 20
40.0
 10
33.0
 20
40.0
 10
33.0
 20
39.5
  0
LWPOLYLINE
  5
150
100
AcDbEntity
  8
PRUEBAS
100
AcDbPolyline
 90
        4
 70
     1
 43
0.0
 10
37.5
 20
39.5
 10
37.5
 20
40.0
 10
38.0
 20
40.0
 10
38.0
 20
39.5
  0
LWPOLYLINE
  5
156
100
AcDbEntity
  8
PRUEBAS
100
AcDbPolyline
 90
        4
 70
     1
 43
0.0
 10
7.5
 20
14.5
 10
7.5
 20
15.0
 10
8.0
 20
15.0
 10
8.0
 20
14.5
  0
LWPOLYLINE
  5
15C
100
AcDbEntity
  8
PRUEBAS
100
AcDbPolyline
 90
        4
 70
     1
 43
0.0
 10
7.5
 20
19.5
 10
7.5
 20
20.0
 10
8.0
 20
20.0
 10
8.0
 20
19.5
  0
LWPOLYLINE
  5
162
100
AcDbEntity
  8
PRUEBAS
100
AcDbPolyline
 90
        4
 70
     1
 43
0.0
 10
7.5
 20
24.5
 10
7.5
 20
25.0
 10
8.0
 20
25.0
 10
8.0
 20
24.5
  0
LWPOLYLINE
  5
168
100
AcDbEntity
  8
PRUEBAS
100
AcDbPolyline
 90
        4
 70
     1
 43
0.0
 10
2.5
 20
14.5
 10
2.5
 20
15.0
 10
3.0
 20
15.0
 10
3.0
 20
14.5
  0
TEXT
  5
16E
100
AcDbEntity
  8
TEXT
100
AcDbText
 10
11.966667
 20
10.3
 30
0.0
 40
0.4
  1
QT130
  7
ROMANS
 72
     1
 11
12.8
 21
10.3
 31
0.0
100
AcDbText
  0
TEXT
  5
170
100
AcDbEntity
  8
TEXT
100
AcDbText
 10
17.0
 20
10.3
 30
0.0
 40
0.4
  1
QT131
  7
ROMANS
 72
     1
 11
17.8
 21
10.3
 31
0.0
100
AcDbText
  0
TEXT
  5
171
100
AcDbEntity
  8
TEXT
100
AcDbText
 10
21.966667
 20
10.3
 30
0.0
 40
0.4
  1
QT106
  7
ROMANS
 72
     1
 11
22.8
 21
10.3
 31
0.0
100
AcDbText
  0
TEXT
  5
172
100
AcDbEntity
  8
TEXT
100
AcDbText
 10
26.966667
 20
10.3
 30
0.0
 40
0.4
  1
QT107
  7
ROMANS
 72
     1
 11
27.8
 21
10.3
 31
0.0
100
AcDbText
  0
TEXT
  5
173
100
AcDbEntity
  8
TEXT
100
AcDbText
 10
31.933333
 20
10.3
 30
0.0
 40
0.4
  1
QT145
  7
ROMANS
 72
     1
 11
32.8
 21
10.3
 31
0.0
100
AcDbText
  0
TEXT
  5
174
100
AcDbEntity
  8
TEXT
100
AcDbText
 10
36.966667
 20
10.3
 30
0.0
 40
0.4
  1
QT108
  7
ROMANS
 72
     1
 11
37.8
 21
10.3
 31
0.0
100
AcDbText
  0
TEXT
  5
175
100
AcDbEntity
  8
TEXT
100
AcDbText
 10
12.066667
 20
15.3
 30
0.0
 40
0.4
  1
QT95
  7
ROMANS
 72
     1
 11
12.8
 21
15.3
 31
0.0
100
AcDbText
  0
TEXT
  5
176
100
AcDbEntity
  8
TEXT
100
AcDbText
 10
17.0
 20
15.3
 30
0.0
 40
0.4
  1
QT121
  7
ROMANS
 72
     1
 11
17.8
 21
15.3
 31
0.0
100
AcDbText
  0
TEXT
  5
177
100
AcDbEntity
  8
TEXT
100
AcDbText
 10
21.933333
 20
15.3
 30
0.0
 40
0.4
  1
QT122
  7
ROMANS
 72
     1
 11
22.8
 21
15.3
 31
0.0
100
AcDbText
  0
TEXT
  5
178
100
AcDbEntity
  8
TEXT
100
AcDbText
 10
26.933333
 20
15.3
 30
0.0
 40
0.4
  1
QT123
  7
ROMANS
 72
     1
 11
27.8
 21
15.3
 31
0.0
100
AcDbText
  0
TEXT
  5
179
100
AcDbEntity
  8
TEXT
100
AcDbText
 10
31.933333
 20
15.3
 30
0.0
 40
0.4
  1
QT124
  7
ROMANS
 72
     1
 11
32.8
 21
15.3
 31
0.0
100
AcDbText
  0
TEXT
  5
17A
100
AcDbEntity
  8
TEXT
100
AcDbText
 10
36.933333
 20
15.3
 30
0.0
 40
0.4
  1
QT139
  7
ROMANS
 72
     1
 11
37.8
 21
15.3
 31
0.0
100
AcDbText
  0
TEXT
  5
17B
100
AcDbEntity
  8
TEXT
100
AcDbText
 10
12.0
 20
20.3
 30
0.0
 40
0.4
  1
QT118
  7
ROMANS
 72
     1
 11
12.8
 21
20.3
 31
0.0
100
AcDbText
  0
TEXT
  5
17C
100
AcDbEntity
  8
TEXT
100
AcDbText
 10
17.0
 20
20.3
 30
0.0
 40
0.4
  1
QT117
  7
ROMANS
 72
     1
 11
17.8
 21
20.3
 31
0.0
100
AcDbText
  0
TEXT
  5
17D
100
AcDbEntity
  8
TEXT
100
AcDbText
 10
22.0
 20
20.3
 30
0.0
 40
0.4
  1
QT116
  7
ROMANS
 72
     1
 11
22.8
 21
20.3
 31
0.0
100
AcDbText
  0
TEXT
  5
17E
100
AcDbEntity
  8
TEXT
100
AcDbText
 10
27.0
 20
20.3
 30
0.0
 40
0.4
  1
QT115
  7
ROMANS
 72
     1
 11
27.8
 21
20.3
 31
0.0
100
AcDbText
  0
TEXT
  5
17F
100
AcDbEntity
  8
TEXT
100
AcDbText
 10
31.966667
 20
20.3
 30
0.0
 40
0.4
  1
QT150
  7
ROMANS
 72
     1
 11
32.8
 21
20.3
 31
0.0
100
AcDbText
  0
TEXT
  5
180
100
AcDbEntity
  8
TEXT
100
AcDbText
 10
36.966667
 20
20.3
 30
0.0
 40
0.4
  1
QT140
  7
ROMANS
 72
     1
 11
37.8
 21
20.3
 31
0.0
100
AcDbText
  0
TEXT
  5
181
100
AcDbEntity
  8
TEXT
100
AcDbText
 10
11.933333
 20
25.3
 30
0.0
 40
0.4
  1
QT126
  7
ROMANS
 72
     1
 11
12.8
 21
25.3
 31
0.0
100
AcDbText
  0
TEXT
  5
182
100
AcDbEntity
  8
TEXT
100
AcDbText
 10
16.933333
 20
25.3
 30
0.0
 40
0.4
  1
QT127
  7
ROMANS
 72
     1
 11
17.8
 21
25.3
 31
0.0
100
AcDbText
  0
TEXT
  5
183
100
AcDbEntity
  8
TEXT
100
AcDbText
 10
21.933333
 20
25.3
 30
0.0
 40
0.4
  1
QT128
  7
ROMANS
 72
     1
 11
22.8
 21
25.3
 31
0.0
100
AcDbText
  0
TEXT
  5
184
100
AcDbEntity
  8
TEXT
100
AcDbText
 10
26.933333
 20
25.3
 30
0.0
 40
0.4
  1
QT129
  7
ROMANS
 72
     1
 11
27.8
 21
25.3
 31
0.0
100
AcDbText
  0
TEXT
  5
185
100
AcDbEntity
  8
TEXT
100
AcDbText
 10
31.933333
 20
25.3
 30
0.0
 40
0.4
  1
QT133
  7
ROMANS
 72
     1
 11
32.8
 21
25.3
 31
0.0
100
AcDbText
  0
TEXT
  5
186
100
AcDbEntity
  8
TEXT
100
AcDbText
 10
36.933333
 20
25.3
 30
0.0
 40
0.4
  1
QT134
  7
ROMANS
 72
     1
 11
37.8
 21
25.3
 31
0.0
100
AcDbText
  0
TEXT
  5
187
100
AcDbEntity
  8
TEXT
100
AcDbText
 10
11.933333
 20
30.3
 30
0.0
 40
0.4
  1
QT144
  7
ROMANS
 72
     1
 11
12.8
 21
30.3
 31
0.0
100
AcDbText
  0
TEXT
  5
188
100
AcDbEntity
  8
TEXT
100
AcDbText
 10
16.933333
 20
30.3
 30
0.0
 40
0.4
  1
QT143
  7
ROMANS
 72
     1
 11
17.8
 21
30.3
 31
0.0
100
AcDbText
  0
TEXT
  5
189
100
AcDbEntity
  8
TEXT
100
AcDbText
 10
21.933333
 20
30.3
 30
0.0
 40
0.4
  1
QT142
  7
ROMANS
 72
     1
 11
22.8
 21
30.3
 31
0.0
100
AcDbText
  0
TEXT
  5
18A
100
AcDbEntity
  8
TEXT
100
AcDbText
 10
27.0
 20
30.3
 30
0.0
 40
0.4
  1
QT141
  7
ROMANS
 72
     1
 11
27.8
 21
30.3
 31
0.0
100
AcDbText
  0
TEXT
  5
18B
100
AcDbEntity
  8
TEXT
100
AcDbText
 10
31.966667
 20
30.3
 30
0.0
 40
0.4
  1
QT109
  7
ROMANS
 72
     1
 11
32.8
 21
30.3
 31
0.0
100
AcDbText
  0
TEXT
  5
18C
100
AcDbEntity
  8
TEXT
100
AcDbText
 10
37.0
 20
30.3
 30
0.0
 40
0.4
  1
QT151
  7
ROMANS
 72
     1
 11
37.8
 21
30.3
 31
0.0
100
AcDbText
  0
TEXT
  5
18D
100
AcDbEntity
  8
TEXT
100
AcDbText
 10
16.933333
 20
35.3
 30
0.0
 40
0.4
  1
QT153
  7
ROMANS
 72
     1
 11
17.8
 21
35.3
 31
0.0
100
AcDbText
  0
TEXT
  5
18E
100
AcDbEntity
  8
TEXT
100
AcDbText
 10
22.033333
 20
35.3
 30
0.0
 40
0.4
  1
QT110
  7
ROMANS
 72
     1
 11
22.8
 21
35.3
 31
0.0
100
AcDbText
  0
TEXT
  5
18F
100
AcDbEntity
  8
TEXT
100
AcDbText
 10
26.933333
 20
35.3
 30
0.0
 40
0.4
  1
QT152
  7
ROMANS
 72
     1
 11
27.8
 21
35.3
 31
0.0
100
AcDbText
  0
TEXT
  5
190
100
AcDbEntity
  8
TEXT
100
AcDbText
 10
31.933333
 20
35.3
 30
0.0
 40
0.4
  1
QT148
  7
ROMANS
 72
     1
 11
32.8
 21
35.3
 31
0.0
100
AcDbText
  0
TEXT
  5
191
100
AcDbEntity
  8
TEXT
100
AcDbText
 10
36.933333
 20
35.3
 30
0.0
 40
0.4
  1
QT149
  7
ROMANS
 72
     1
 11
37.8
 21
35.3
 31
0.0
100
AcDbText
  0
TEXT
  5
192
100
AcDbEntity
  8
TEXT
100
AcDbText
 10
21.933333
 20
40.3
 30
0.0
 40
0.4
  1
QT137
  7
ROMANS
 72
     1
 11
22.8
 21
40.3
 31
0.0
100
AcDbText
  0
TEXT
  5
193
100
AcDbEntity
  8
TEXT
100
AcDbText
 10
26.933333
 20
40.3
 30
0.0
 40
0.4
  1
QT147
  7
ROMANS
 72
     1
 11
27.8
 21
40.3
 31
0.0
100
AcDbText
  0
TEXT
  5
194
100
AcDbEntity
  8
TEXT
100
AcDbText
 10
31.933333
 20
40.3
 30
0.0
 40
0.4
  1
QT136
  7
ROMANS
 72
     1
 11
32.8
 21
40.3
 31
0.0
100
AcDbText
  0
TEXT
  5
195
100
AcDbEntity
  8
TEXT
100
AcDbText
 10
36.933333
 20
40.3
 30
0.0
 40
0.4
  1
QT135
  7
ROMANS
 72
     1
 11
37.8
 21
40.3
 31
0.0
100
AcDbText
  0
TEXT
  5
196
100
AcDbEntity
  8
TEXT
100
AcDbText
 10
21.933333
 20
5.3
 30
0.0
 40
0.4
  1
QT132
  7
ROMANS
 72
     1
 11
22.8
 21
5.3
 31
0.0
100
AcDbText
  0
TEXT
  5
197
100
AcDbEntity
  8
TEXT
100
AcDbText
 10
6.933333
 20
25.3
 30
0.0
 40
0.4
  1
QT125
  7
ROMANS
 72
     1
 11
7.8
 21
25.3
 31
0.0
100
AcDbText
  0
TEXT
  5
198
100
AcDbEntity
  8
TEXT
100
AcDbText
 10
7.0
 20
20.3
 30
0.0
 40
0.4
  1
QT119
  7
ROMANS
 72
     1
 11
7.8
 21
20.3
 31
0.0
100
AcDbText
  0
TEXT
  5
199
100
AcDbEntity
  8
TEXT
100
AcDbText
 10
6.966667
 20
15.3
 30
0.0
 40
0.4
  1
QT120
  7
ROMANS
 72
     1
 11
7.8
 21
15.3
 31
0.0
100
AcDbText
  0
TEXT
  5
19A
100
AcDbEntity
  8
TEXT
100
AcDbText
 10
1.966667
 20
15.3
 30
0.0
 40
0.4
  1
QT130
  7
ROMANS
 72
     1
 11
2.8
 21
15.3
 31
0.0
100
AcDbText
  0
LWPOLYLINE
  5
1A2
100
AcDbEntity
  8
BORDER
100
AcDbPolyline
 90
        4
 70
     1
 43
0.0
 10
0.0
 20
0.0
 10
0.0
 20
50.0
 10
40.0
 20
50.0
 10
40.0
 20
0.0
  0
LWPOLYLINE
  5
34A
100
AcDbEntity
  8
BORDER
100
AcDbPolyline
 90
        3
 70
     0
 43
0.0
 10
0.0
 20
38.5
 10
9.6
 20
38.5
 10
9.6
 20
50.0
  0
LWPOLYLINE
  5
34B
100
AcDbEntity
  8
SCALE
100
AcDbPolyline
 90
        4
 70
     0
 43
0.0
 10
0.890976
 20
40.438372
 10
8.9
 20
40.438372
 10
8.9
 20
40.688372
 10
0.890976
 20
40.688372
  0
TEXT
  5
34C
100
AcDbEntity
  8
SCALE
100
AcDbText
 10
3.059297
 20
39.474017
 30
0.0
 40
0.5
  1
8 meters
  7
COMPLEX
 72
     1
 11
4.904535
 21
39.474017
 31
0.0
100
AcDbText
  0
INSERT
  5
34D
100
AcDbEntity
  8
SCALE
100
AcDbBlockReference
  2
NORTH
 10
4.927604
 20
42.485351
 30
0.0
 41
1.331
 42
1.331
 43
1.331
  0
SOLID
  5
34E
100
AcDbEntity
  8
SCALE
100
AcDbTrace
 10
0.890976
 20
40.688372
 30
0.0
 11
1.890976
 21
40.688372
 31
0.0
 12
0.890976
 22
40.438372
 32
0.0
 13
1.890976
 23
40.438372
 33
0.0
  0
SOLID
  5
34F
100
AcDbEntity
  8
SCALE
100
AcDbTrace
 10
2.890976
 20
40.688372
 30
0.0
 11
3.890976
 21
40.688372
 31
0.0
 12
2.890976
 22
40.438372
 32
0.0
 13
3.890976
 23
40.438372
 33
0.0
  0
SOLID
  5
350
100
AcDbEntity
  8
SCALE
100
AcDbTrace
 10
4.890976
 20
40.688372
 30
0.0
 11
5.890976
 21
40.688372
 31
0.0
 12
4.890976
 22
40.438372
 32
0.0
 13
5.890976
 23
40.438372
 33
0.0
  0
SOLID
  5
351
100
AcDbEntity
  8
SCALE
100
AcDbTrace
 10
6.890976
 20
40.688372
 30
0.0
 11
7.890976
 21
40.688372
 31
0.0
 12
6.890976
 22
40.438372
 32
0.0
 13
7.890976
 23
40.438372
 33
0.0
  0
TEXT
  5
352
100
AcDbEntity
  8
TEXT
100
AcDbText
 10
25.104244
 20
43.702094
 30
0.0
 40
0.6
  1
Cerca
 50
52.52382
  7
ROMANS
100
AcDbText
  0
TEXT
  5
353
100
AcDbEntity
  8
TEXT
100
AcDbText
 10
13.0
 20
31.5
 30
0.0
 40
0.6
  1
Puerta
  7
ROMANS
100
AcDbText
  0
TEXT
  5
354
100
AcDbEntity
  8
TEXT
100
AcDbText
 10
25.7
 20
0.9
 30
0.0
 40
0.6
  1
Futbol Gol
  7
ROMANS
100
AcDbText
  0
MTEXT
  5
35B
100
AcDbEntity
  8
TEXT
100
AcDbMText
 10
30.3
 20
49.2
 30
0.0
 40
1.0
 41
8.8
 71
     1
 72
     5
  1
VP771-\PArea A
  7
ROMANS
  0
ENDSEC
  0
SECTION
  2
OBJECTS
  0
DICTIONARY
  5
C
100
AcDbDictionary
  3
ACAD_GROUP
350
D
  3
ACAD_MLINESTYLE
350
1A
  3
ACDBVARIABLEDICTIONARY
350
24
  0
DICTIONARY
  5
D
102
{ACAD_REACTORS
330
C
102
}
100
AcDbDictionary
  0
DICTIONARY
  5
1A
102
{ACAD_REACTORS
330
C
102
}
100
AcDbDictionary
  3
STANDARD
350
1B
  0
DICTIONARY
  5
24
102
{ACAD_REACTORS
330
C
102
}
100
AcDbDictionary
  3
DIMADEC
350
25
  0
MLINESTYLE
  5
1B
102
{ACAD_REACTORS
330
1A
102
}
100
AcDbMlineStyle
  2
STANDARD
 70
     0
  3

 62
   256
 51
90.0
 52
90.0
 71
     2
 49
0.5
 62
   256
  6
BYLAYER
 49
-0.5
 62
   256
  6
BYLAYER
  0
DICTIONARYVAR
  5
25
102
{ACAD_REACTORS
330
24
102
}
100
DictionaryVariables
280
     0
  1
0
  0
ENDSEC
  0
EOF
