  0
SECTION
  2
HEADER
  9
$ACADVER
  1
AC1014
  9
$ACADMAINTVER
 70
     0
  9
$DWGCODEPAGE
  3
ANSI_1252
  9
$INSBASE
 10
0.0
 20
0.0
 30
0.0
  9
$EXTMIN
 10
0.0
 20
0.0
 30
0.0
  9
$EXTMAX
 10
74.000135
 20
122.0
 30
0.0
  9
$LIMMIN
 10
0.0
 20
0.0
  9
$LIMMAX
 10
12.0
 20
9.0
  9
$ORTHOMODE
 70
     1
  9
$REGENMODE
 70
     1
  9
$FILLMODE
 70
     1
  9
$QTEXTMODE
 70
     0
  9
$MIRRTEXT
 70
     1
  9
$DRAGMODE
 70
     2
  9
$LTSCALE
 40
1.0
  9
$OSMODE
 70
     0
  9
$ATTMODE
 70
     1
  9
$TEXTSIZE
 40
1.0
  9
$TRACEWID
 40
0.05
  9
$TEXTSTYLE
  7
ROMANS
  9
$CLAYER
  8
TEXT
  9
$CELTYPE
  6
BYLAYER
  9
$CECOLOR
 62
   256
  9
$CELTSCALE
 40
1.0
  9
$DELOBJ
 70
     1
  9
$DISPSILH
 70
     0
  9
$DIMSCALE
 40
1.0
  9
$DIMASZ
 40
0.18
  9
$DIMEXO
 40
0.0625
  9
$DIMDLI
 40
0.38
  9
$DIMRND
 40
0.0
  9
$DIMDLE
 40
0.0
  9
$DIMEXE
 40
0.18
  9
$DIMTP
 40
0.0
  9
$DIMTM
 40
0.0
  9
$DIMTXT
 40
0.18
  9
$DIMCEN
 40
0.09
  9
$DIMTSZ
 40
0.0
  9
$DIMTOL
 70
     0
  9
$DIMLIM
 70
     0
  9
$DIMTIH
 70
     1
  9
$DIMTOH
 70
     1
  9
$DIMSE1
 70
     0
  9
$DIMSE2
 70
     0
  9
$DIMTAD
 70
     0
  9
$DIMZIN
 70
     0
  9
$DIMBLK
  1

  9
$DIMASO
 70
     1
  9
$DIMSHO
 70
     1
  9
$DIMPOST
  1

  9
$DIMAPOST
  1

  9
$DIMALT
 70
     0
  9
$DIMALTD
 70
     2
  9
$DIMALTF
 40
25.4
  9
$DIMLFAC
 40
1.0
  9
$DIMTOFL
 70
     0
  9
$DIMTVP
 40
0.0
  9
$DIMTIX
 70
     0
  9
$DIMSOXD
 70
     0
  9
$DIMSAH
 70
     0
  9
$DIMBLK1
  1

  9
$DIMBLK2
  1

  9
$DIMSTYLE
  2
STANDARD
  9
$DIMCLRD
 70
     0
  9
$DIMCLRE
 70
     0
  9
$DIMCLRT
 70
     0
  9
$DIMTFAC
 40
1.0
  9
$DIMGAP
 40
0.09
  9
$DIMJUST
 70
     0
  9
$DIMSD1
 70
     0
  9
$DIMSD2
 70
     0
  9
$DIMTOLJ
 70
     1
  9
$DIMTZIN
 70
     0
  9
$DIMALTZ
 70
     0
  9
$DIMALTTZ
 70
     0
  9
$DIMFIT
 70
     5
  9
$DIMUPT
 70
     0
  9
$DIMUNIT
 70
     2
  9
$DIMDEC
 70
     4
  9
$DIMTDEC
 70
     4
  9
$DIMALTU
 70
     2
  9
$DIMALTTD
 70
     2
  9
$DIMTXSTY
  7
ROMANS
  9
$DIMAUNIT
 70
     0
  9
$LUNITS
 70
     2
  9
$LUPREC
 70
     4
  9
$SKETCHINC
 40
0.1
  9
$FILLETRAD
 40
0.0
  9
$AUNITS
 70
     0
  9
$AUPREC
 70
     0
  9
$MENU
  1
acad
  9
$ELEVATION
 40
0.0
  9
$PELEVATION
 40
0.0
  9
$THICKNESS
 40
0.0
  9
$LIMCHECK
 70
     0
  9
$BLIPMODE
 70
     1
  9
$CHAMFERA
 40
0.0
  9
$CHAMFERB
 40
0.0
  9
$CHAMFERC
 40
0.0
  9
$CHAMFERD
 40
0.0
  9
$SKPOLY
 70
     0
  9
$TDCREATE
 40
2450282.989367014
  9
$TDUPDATE
 40
2451483.776328495
  9
$TDINDWG
 40
0.0108583218
  9
$TDUSRTIMER
 40
0.0108583218
  9
$USRTIMER
 70
     1
  9
$ANGBASE
 50
0.0
  9
$ANGDIR
 70
     0
  9
$PDMODE
 70
     0
  9
$PDSIZE
 40
0.0
  9
$PLINEWID
 40
0.0
  9
$COORDS
 70
     1
  9
$SPLFRAME
 70
     0
  9
$SPLINETYPE
 70
     6
  9
$SPLINESEGS
 70
     8
  9
$ATTDIA
 70
     0
  9
$ATTREQ
 70
     1
  9
$HANDLING
 70
     1
  9
$HANDSEED
  5
13AE
  9
$SURFTAB1
 70
     6
  9
$SURFTAB2
 70
     6
  9
$SURFTYPE
 70
     6
  9
$SURFU
 70
     6
  9
$SURFV
 70
     6
  9
$UCSNAME
  2

  9
$UCSORG
 10
0.0
 20
0.0
 30
0.0
  9
$UCSXDIR
 10
1.0
 20
0.0
 30
0.0
  9
$UCSYDIR
 10
0.0
 20
1.0
 30
0.0
  9
$PUCSNAME
  2

  9
$PUCSORG
 10
0.0
 20
0.0
 30
0.0
  9
$PUCSXDIR
 10
1.0
 20
0.0
 30
0.0
  9
$PUCSYDIR
 10
0.0
 20
1.0
 30
0.0
  9
$USERI1
 70
     0
  9
$USERI2
 70
     0
  9
$USERI3
 70
     0
  9
$USERI4
 70
     0
  9
$USERI5
 70
     0
  9
$USERR1
 40
0.0
  9
$USERR2
 40
0.0
  9
$USERR3
 40
0.0
  9
$USERR4
 40
0.0
  9
$USERR5
 40
0.0
  9
$WORLDVIEW
 70
     1
  9
$SHADEDGE
 70
     3
  9
$SHADEDIF
 70
    70
  9
$TILEMODE
 70
     1
  9
$MAXACTVP
 70
    16
  9
$PINSBASE
 10
0.0
 20
0.0
 30
0.0
  9
$PLIMCHECK
 70
     0
  9
$PEXTMIN
 10
1.000000E+20
 20
1.000000E+20
 30
1.000000E+20
  9
$PEXTMAX
 10
-1.000000E+20
 20
-1.000000E+20
 30
-1.000000E+20
  9
$PLIMMIN
 10
0.0
 20
0.0
  9
$PLIMMAX
 10
12.0
 20
9.0
  9
$UNITMODE
 70
     0
  9
$VISRETAIN
 70
     0
  9
$PLINEGEN
 70
     0
  9
$PSLTSCALE
 70
     1
  9
$TREEDEPTH
 70
  3020
  9
$PICKSTYLE
 70
     1
  9
$CMLSTYLE
  2
STANDARD
  9
$CMLJUST
 70
     0
  9
$CMLSCALE
 40
1.0
  9
$PROXYGRAPHICS
 70
     1
  9
$MEASUREMENT
 70
     0
  0
ENDSEC
  0
SECTION
  2
CLASSES
  0
CLASS
  1
DICTIONARYVAR
  2
AcDbDictionaryVar
  3
"AutoCAD"
 90
        0
280
     0
281
     0
  0
CLASS
  1
LWPOLYLINE
  2
AcDbPolyline
  3
"AutoCAD"
 90
        0
280
     0
281
     1
  0
ENDSEC
  0
SECTION
  2
TABLES
  0
TABLE
  2
VPORT
  5
8
100
AcDbSymbolTable
 70
     1
  0
VPORT
  5
13AA
100
AcDbSymbolTableRecord
100
AcDbViewportTableRecord
  2
*ACTIVE
 70
     0
 10
0.0
 20
0.0
 11
1.0
 21
1.0
 12
37.000068
 22
61.000001
 13
0.0
 23
0.0
 14
0.1
 24
0.1
 15
0.0
 25
0.0
 16
0.0
 26
0.0
 36
1.0
 17
0.0
 27
0.0
 37
0.0
 40
123.774723
 41
1.689157
 42
50.0
 43
0.0
 44
0.0
 50
0.0
 51
0.0
 71
     0
 72
   100
 73
     1
 74
     0
 75
     1
 76
     0
 77
     0
 78
     0
  0
ENDTAB
  0
TABLE
  2
LTYPE
  5
5
100
AcDbSymbolTable
 70
     1
  0
LTYPE
  5
11
100
AcDbSymbolTableRecord
100
AcDbLinetypeTableRecord
  2
BYBLOCK
 70
     0
  3

 72
    65
 73
     0
 40
0.0
  0
LTYPE
  5
12
100
AcDbSymbolTableRecord
100
AcDbLinetypeTableRecord
  2
BYLAYER
 70
     0
  3

 72
    65
 73
     0
 40
0.0
  0
LTYPE
  5
13
100
AcDbSymbolTableRecord
100
AcDbLinetypeTableRecord
  2
CONTINUOUS
 70
     0
  3
Solid line
 72
    65
 73
     0
 40
0.0
  0
ENDTAB
  0
TABLE
  2
LAYER
  5
2
100
AcDbSymbolTable
 70
    11
  0
LAYER
  5
E
100
AcDbSymbolTableRecord
100
AcDbLayerTableRecord
  2
0
 70
     0
 62
     7
  6
CONTINUOUS
  0
LAYER
  5
24
100
AcDbSymbolTableRecord
100
AcDbLayerTableRecord
  2
PRUEBAS
 70
     0
 62
     6
  6
CONTINUOUS
  0
LAYER
  5
25
100
AcDbSymbolTableRecord
100
AcDbLayerTableRecord
  2
TOPO
 70
     0
 62
     1
  6
CONTINUOUS
  0
LAYER
  5
26
100
AcDbSymbolTableRecord
100
AcDbLayerTableRecord
  2
CERCA
 70
     0
 62
     2
  6
CONTINUOUS
  0
LAYER
  5
27
100
AcDbSymbolTableRecord
100
AcDbLayerTableRecord
  2
CARRETERA
 70
     0
 62
     5
  6
CONTINUOUS
  0
LAYER
  5
28
100
AcDbSymbolTableRecord
100
AcDbLayerTableRecord
  2
TEXT
 70
     0
 62
     3
  6
CONTINUOUS
  0
LAYER
  5
29
100
AcDbSymbolTableRecord
100
AcDbLayerTableRecord
  2
BOUND
 70
     0
 62
     7
  6
CONTINUOUS
  0
LAYER
  5
2A
100
AcDbSymbolTableRecord
100
AcDbLayerTableRecord
  2
NARROW
 70
     0
 62
     1
  6
CONTINUOUS
  0
LAYER
  5
2B
100
AcDbSymbolTableRecord
100
AcDbLayerTableRecord
  2
LOTES
 70
     0
 62
     7
  6
CONTINUOUS
  0
LAYER
  5
2C
100
AcDbSymbolTableRecord
100
AcDbLayerTableRecord
  2
STRUCTURE
 70
     0
 62
     5
  6
CONTINUOUS
  0
LAYER
  5
2D
100
AcDbSymbolTableRecord
100
AcDbLayerTableRecord
  2
CASA
 70
     0
 62
     5
  6
CONTINUOUS
  0
ENDTAB
  0
TABLE
  2
STYLE
  5
3
100
AcDbSymbolTable
 70
     2
  0
STYLE
  5
F
100
AcDbSymbolTableRecord
100
AcDbTextStyleTableRecord
  2
STANDARD
 70
     0
 40
0.0
 41
1.0
 50
0.0
 71
     0
 42
0.2
  3
txt
  4

  0
STYLE
  5
21
100
AcDbSymbolTableRecord
100
AcDbTextStyleTableRecord
  2
ROMANS
 70
     0
 40
0.0
 41
1.0
 50
0.0
 71
     0
 42
1.0
  3
txt
  4

  0
ENDTAB
  0
TABLE
  2
VIEW
  5
6
100
AcDbSymbolTable
 70
     0
  0
ENDTAB
  0
TABLE
  2
UCS
  5
7
100
AcDbSymbolTable
 70
     0
  0
ENDTAB
  0
TABLE
  2
APPID
  5
9
100
AcDbSymbolTable
 70
     1
  0
APPID
  5
10
100
AcDbSymbolTableRecord
100
AcDbRegAppTableRecord
  2
ACAD
 70
     0
  0
ENDTAB
  0
TABLE
  2
DIMSTYLE
  5
A
100
AcDbSymbolTable
 70
     1
  0
DIMSTYLE
105
1397
100
AcDbSymbolTableRecord
100
AcDbDimStyleTableRecord
  2
STANDARD
 70
     0
  3

  4

  5

  6

  7

 40
1.0
 41
0.18
 42
0.0625
 43
0.38
 44
0.18
 45
0.0
 46
0.0
 47
0.0
 48
0.0
140
0.18
141
0.09
142
0.0
143
25.4
144
1.0
145
0.0
146
1.0
147
0.09
 71
     0
 72
     0
 73
     1
 74
     1
 75
     0
 76
     0
 77
     0
 78
     0
170
     0
171
     2
172
     0
173
     0
174
     0
175
     0
176
     0
177
     0
178
     0
270
     2
271
     4
272
     4
273
     2
274
     2
340
F
275
     0
280
     0
281
     0
282
     0
283
     1
284
     0
285
     0
286
     0
287
     3
288
     0
  0
ENDTAB
  0
TABLE
  2
BLOCK_RECORD
  5
1
100
AcDbSymbolTable
 70
     5
  0
BLOCK_RECORD
  5
17
100
AcDbSymbolTableRecord
100
AcDbBlockTableRecord
  2
*MODEL_SPACE
  0
BLOCK_RECORD
  5
14
100
AcDbSymbolTableRecord
100
AcDbBlockTableRecord
  2
*PAPER_SPACE
  0
BLOCK_RECORD
  5
1C
100
AcDbSymbolTableRecord
100
AcDbBlockTableRecord
  2
VP183B
  0
BLOCK_RECORD
  5
1D
100
AcDbSymbolTableRecord
100
AcDbBlockTableRecord
  2
VP183
  0
BLOCK_RECORD
  5
1E
100
AcDbSymbolTableRecord
100
AcDbBlockTableRecord
  2
VP183C
  0
BLOCK_RECORD
  5
1F
100
AcDbSymbolTableRecord
100
AcDbBlockTableRecord
  2
NARROW
  0
BLOCK_RECORD
  5
20
100
AcDbSymbolTableRecord
100
AcDbBlockTableRecord
  2
FENCE
  0
ENDTAB
  0
ENDSEC
  0
SECTION
  2
BLOCKS
  0
BLOCK
  5
30
100
AcDbEntity
  8
0
100
AcDbBlockBegin
  2
*MODEL_SPACE
 70
     0
 10
0.0
 20
0.0
 30
0.0
  3
*MODEL_SPACE
  1

  0
ENDBLK
  5
31
100
AcDbEntity
  8
0
100
AcDbBlockEnd
  0
BLOCK
  5
2E
100
AcDbEntity
 67
     1
  8
0
100
AcDbBlockBegin
  2
*PAPER_SPACE
 70
     0
 10
0.0
 20
0.0
 30
0.0
  3
*PAPER_SPACE
  1

  0
ENDBLK
  5
2F
100
AcDbEntity
 67
     1
  8
0
100
AcDbBlockEnd
  0
BLOCK
  5
34
100
AcDbEntity
  8
0
100
AcDbBlockBegin
  2
VP183B
 70
     0
 10
0.0
 20
0.0
 30
0.0
  3
VP183B
  1

  0
LWPOLYLINE
  5
35
100
AcDbEntity
  8
0
100
AcDbPolyline
 90
       25
 70
     0
 43
0.0
 10
18.001828
 20
14.860524
 10
17.769295
 20
14.594765
 10
17.45612
 20
14.198894
 10
17.186253
 20
13.494175
 10
16.936346
 20
12.581629
 10
16.805709
 20
11.810848
 10
16.875382
 20
10.656155
 10
17.10905
 20
9.696388
 10
17.299654
 20
9.107783
 10
17.746313
 20
8.728425
 10
17.967839
 20
8.457154
 10
18.118917
 20
8.38509
 10
18.272172
 20
8.111234
 10
18.015641
 20
7.780328
 10
17.827729
 20
7.541025
 10
17.582976
 20
7.186314
 10
17.491175
 20
6.480597
 10
17.449397
 20
5.664807
 10
17.311721
 20
4.612166
 10
17.223124
 20
3.209102
 10
17.15643
 20
2.093749
 10
17.310654
 20
1.309502
 10
17.533462
 20
0.607956
 10
17.810236
 20
0.045574
 10
17.954681
 20
-0.204494
  0
LWPOLYLINE
  5
50
100
AcDbEntity
  8
0
100
AcDbPolyline
 90
       23
 70
     0
 43
0.0
 10
13.039273
 20
25.386855
 10
12.414481
 20
24.992731
 10
11.706126
 20
24.480381
 10
10.72797
 20
24.037792
 10
9.628906
 20
23.035051
 10
8.215489
 20
22.093418
 10
7.027426
 20
21.100077
 10
5.726355
 20
20.048022
 10
4.258193
 20
18.768418
 10
2.746319
 20
16.937129
 10
1.755191
 20
15.456038
 10
1.393539
 20
13.291892
 10
1.334903
 20
11.2032
 10
1.350555
 20
9.137831
 10
1.195656
 20
7.476978
 10
1.145187
 20
5.957973
 10
1.764287
 20
4.141446
 10
1.975015
 20
3.386556
 10
2.742756
 20
2.391155
 10
3.645186
 20
1.6858
 10
5.235817
 20
0.893502
 10
6.562094
 20
0.046305
 10
7.663471
 20
-0.633458
  0
LWPOLYLINE
  5
69
100
AcDbEntity
  8
0
100
AcDbPolyline
 90
        4
 70
     1
 43
0.0
 10
2.5
 20
3.5
 10
3.5
 20
3.5
 10
3.5
 20
4.5
 10
2.5
 20
4.5
  0
LWPOLYLINE
  5
6F
100
AcDbEntity
  8
0
100
AcDbPolyline
 90
        4
 70
     1
 43
0.0
 10
7.5
 20
3.5
 10
8.5
 20
3.5
 10
8.5
 20
4.5
 10
7.5
 20
4.5
  0
LWPOLYLINE
  5
75
100
AcDbEntity
  8
0
100
AcDbPolyline
 90
        4
 70
     1
 43
0.0
 10
12.5
 20
3.5
 10
13.5
 20
3.5
 10
13.5
 20
4.5
 10
12.5
 20
4.5
  0
LWPOLYLINE
  5
7B
100
AcDbEntity
  8
0
100
AcDbPolyline
 90
        4
 70
     1
 43
0.0
 10
2.5
 20
8.5
 10
3.5
 20
8.5
 10
3.5
 20
9.5
 10
2.5
 20
9.5
  0
LWPOLYLINE
  5
81
100
AcDbEntity
  8
0
100
AcDbPolyline
 90
        4
 70
     1
 43
0.0
 10
7.5
 20
8.5
 10
8.5
 20
8.5
 10
8.5
 20
9.5
 10
7.5
 20
9.5
  0
LWPOLYLINE
  5
87
100
AcDbEntity
  8
0
100
AcDbPolyline
 90
        4
 70
     1
 43
0.0
 10
12.5
 20
8.5
 10
13.5
 20
8.5
 10
13.5
 20
9.5
 10
12.5
 20
9.5
  0
LWPOLYLINE
  5
8D
100
AcDbEntity
  8
0
100
AcDbPolyline
 90
        4
 70
     1
 43
0.0
 10
2.5
 20
13.5
 10
3.5
 20
13.5
 10
3.5
 20
14.5
 10
2.5
 20
14.5
  0
LWPOLYLINE
  5
93
100
AcDbEntity
  8
0
100
AcDbPolyline
 90
        4
 70
     1
 43
0.0
 10
7.5
 20
13.5
 10
8.5
 20
13.5
 10
8.5
 20
14.5
 10
7.5
 20
14.5
  0
LWPOLYLINE
  5
99
100
AcDbEntity
  8
0
100
AcDbPolyline
 90
        4
 70
     1
 43
0.0
 10
12.5
 20
14.5
 10
13.5
 20
14.5
 10
13.5
 20
13.5
 10
12.5
 20
13.5
  0
LWPOLYLINE
  5
9F
100
AcDbEntity
  8
0
100
AcDbPolyline
 90
        4
 70
     1
 43
0.0
 10
2.5
 20
19.5
 10
2.5
 20
18.5
 10
3.5
 20
18.5
 10
3.5
 20
19.5
  0
LWPOLYLINE
  5
A5
100
AcDbEntity
  8
0
100
AcDbPolyline
 90
        4
 70
     1
 43
0.0
 10
7.5
 20
19.5
 10
7.5
 20
18.5
 10
8.5
 20
18.5
 10
8.5
 20
19.5
  0
LWPOLYLINE
  5
AB
100
AcDbEntity
  8
0
100
AcDbPolyline
 90
        4
 70
     1
 43
0.0
 10
12.5
 20
18.5
 10
13.5
 20
18.5
 10
13.5
 20
19.5
 10
12.5
 20
19.5
  0
LWPOLYLINE
  5
B1
100
AcDbEntity
  8
0
100
AcDbPolyline
 90
        4
 70
     1
 43
0.0
 10
17.5
 20
19.5
 10
17.5
 20
18.5
 10
18.5
 20
18.5
 10
18.5
 20
19.5
  0
LWPOLYLINE
  5
B7
100
AcDbEntity
  8
0
100
AcDbPolyline
 90
        4
 70
     1
 43
0.0
 10
7.5
 20
24.5
 10
7.5
 20
23.5
 10
8.5
 20
23.5
 10
8.5
 20
24.5
  0
LWPOLYLINE
  5
BD
100
AcDbEntity
  8
0
100
AcDbPolyline
 90
        4
 70
     1
 43
0.0
 10
12.5
 20
24.5
 10
12.5
 20
23.5
 10
13.5
 20
23.5
 10
13.5
 20
24.5
  0
ENDBLK
  5
C3
100
AcDbEntity
  8
0
100
AcDbBlockEnd
  0
BLOCK
  5
C4
100
AcDbEntity
  8
0
100
AcDbBlockBegin
  2
VP183
 70
     0
 10
0.0
 20
0.0
 30
0.0
  3
VP183
  1

  0
LWPOLYLINE
  5
C5
100
AcDbEntity
  8
0
100
AcDbPolyline
 90
       22
 70
     0
 43
0.0
 10
18.218649
 20
22.599948
 10
17.721914
 20
22.398833
 10
17.130788
 20
22.068929
 10
16.723039
 20
21.860145
 10
16.389112
 20
21.626173
 10
15.920864
 20
21.189971
 10
15.656367
 20
20.684491
 10
15.409695
 20
20.012412
 10
15.337392
 20
19.28944
 10
15.356034
 20
18.668604
 10
15.329177
 20
17.995217
 10
15.444445
 20
17.295313
 10
15.482878
 20
16.451434
 10
15.633095
 20
15.712256
 10
15.811265
 20
14.874565
 10
16.023054
 20
14.089657
 10
16.395542
 20
12.986932
 10
16.862904
 20
11.873454
 10
17.337792
 20
10.848893
 10
17.67484
 20
10.091235
 10
17.947656
 20
9.563422
 10
18.129945
 20
9.123466
  0
LWPOLYLINE
  5
DD
100
AcDbEntity
  8
0
100
AcDbPolyline
 90
       16
 70
     0
 43
0.0
 10
18.040116
 20
22.083889
 10
17.771621
 20
22.020832
 10
17.478045
 20
21.884045
 10
17.03933
 20
21.604613
 10
16.533541
 20
21.062265
 10
16.246819
 20
20.643312
 10
16.01251
 20
19.83146
 10
15.910645
 20
18.449997
 10
15.974596
 20
17.371089
 10
16.266485
 20
16.079932
 10
16.612411
 20
14.820379
 10
16.925942
 20
13.410049
 10
17.23621
 20
12.649944
 10
17.570288
 20
11.892344
 10
17.920325
 20
11.196777
 10
18.16117
 20
10.541929
  0
LWPOLYLINE
  5
EF
100
AcDbEntity
  8
0
100
AcDbPolyline
 90
       49
 70
     0
 43
0.0
 10
18.095552
 20
22.860627
 10
17.694589
 20
22.699211
 10
17.472023
 20
22.546198
 10
16.934512
 20
22.224156
 10
16.523423
 20
21.994656
 10
15.969205
 20
21.735284
 10
15.561992
 20
21.389925
 10
15.309313
 20
21.047497
 10
14.917645
 20
20.574179
 10
14.546229
 20
20.237031
 10
13.830849
 20
19.936264
 10
13.185354
 20
19.889451
 10
12.685589
 20
19.851677
 10
12.345336
 20
19.92955
 10
11.791526
 20
20.026422
 10
11.15605
 20
20.041758
 10
10.740602
 20
20.067656
 10
10.208388
 20
19.876138
 10
9.8191
 20
19.536368
 10
9.547121
 20
19.11119
 10
9.434928
 20
18.650246
 10
9.417668
 20
18.015265
 10
9.498727
 20
17.396184
 10
9.716176
 20
16.928824
 10
9.95616
 20
16.558995
 10
10.384447
 20
16.420034
 10
10.880132
 20
16.395543
 10
11.366477
 20
16.513735
 10
11.674848
 20
16.647265
 10
12.064408
 20
16.835623
 10
12.407887
 20
16.938782
 10
12.902461
 20
16.851969
 10
13.188306
 20
16.721718
 10
13.715237
 20
16.450211
 10
14.273037
 20
16.077165
 10
14.668876
 20
15.78446
 10
14.941043
 20
15.553536
 10
15.223608
 20
15.239285
 10
15.386174
 20
14.692837
 10
15.569376
 20
13.970829
 10
15.822311
 20
13.327621
 10
16.138676
 20
12.576303
 10
16.124538
 20
12.116419
 10
16.447266
 20
11.388728
 10
16.661435
 20
10.737368
 10
17.17057
 20
9.967454
 10
17.594686
 20
9.427791
 10
17.939034
 20
9.079681
 10
18.20177
 20
8.653002
  0
LWPOLYLINE
  5
122
100
AcDbEntity
  8
0
100
AcDbPolyline
 90
        4
 70
     1
 43
0.0
 10
10.391333
 20
18.973041
 10
11.637287
 20
19.373326
 10
12.146315
 20
17.430751
 10
10.926394
 20
17.157616
  0
LWPOLYLINE
  5
128
100
AcDbEntity
  8
0
100
AcDbPolyline
 90
       58
 70
     0
 43
0.0
 10
8.838564
 20
25.193143
 10
8.816355
 20
24.947167
 10
8.704154
 20
24.652474
 10
8.718654
 20
24.132658
 10
8.90921
 20
23.823166
 10
9.143042
 20
23.441581
 10
9.230449
 20
23.178629
 10
9.317811
 20
22.746457
 10
9.299539
 20
22.221341
 10
9.145126
 20
21.891844
 10
8.897911
 20
21.52259
 10
8.660133
 20
21.182841
 10
8.201952
 20
20.978006
 10
7.809898
 20
20.816417
 10
7.510172
 20
20.667874
 10
6.882654
 20
20.629618
 10
6.236463
 20
20.710475
 10
5.843337
 20
20.822033
 10
5.224464
 20
20.768765
 10
4.685729
 20
20.544717
 10
4.14626
 20
20.112869
 10
3.713219
 20
19.818483
 10
3.314659
 20
19.291861
 10
3.153944
 20
18.775455
 10
3.148397
 20
18.297591
 10
3.233371
 20
17.898122
 10
3.401234
 20
17.482196
 10
3.742983
 20
17.154918
 10
4.149371
 20
16.954039
 10
4.544673
 20
16.797907
 10
4.94321
 20
16.656557
 10
5.318782
 20
16.560184
 10
5.558116
 20
16.487245
 10
5.675916
 20
16.096043
 10
5.663741
 20
15.579714
 10
5.56422
 20
15.163055
 10
5.469369
 20
14.675054
 10
5.416986
 20
14.402947
 10
5.473124
 20
13.719038
 10
5.559375
 20
13.224543
 10
5.664457
 20
12.619838
 10
5.759141
 20
12.098461
 10
5.839868
 20
11.794076
 10
5.796772
 20
11.376318
 10
5.59374
 20
10.819172
 10
5.309414
 20
10.201264
 10
5.074878
 20
9.710044
 10
4.616122
 20
9.306314
 10
4.246829
 20
8.921624
 10
3.877959
 20
8.560675
 10
3.238108
 20
7.997187
 10
2.657554
 20
7.260356
 10
2.185022
 20
6.583767
 10
1.75189
 20
5.950942
 10
1.439785
 20
5.107949
 10
1.341238
 20
4.245955
 10
1.08905
 20
3.597734
 10
0.917846
 20
2.826217
  0
LWPOLYLINE
  5
164
100
AcDbEntity
  8
0
100
AcDbPolyline
 90
       24
 70
     0
 43
0.0
 10
7.941229
 20
25.017637
 10
7.943148
 20
24.791973
 10
7.94184
 20
24.385277
 10
8.028983
 20
24.107486
 10
8.240062
 20
23.782751
 10
8.450771
 20
23.437242
 10
8.59248
 20
23.220732
 10
8.678936
 20
22.90436
 10
8.732776
 20
22.591592
 10
8.775902
 20
22.344345
 10
8.77204
 20
22.1277
 10
8.514321
 20
21.835839
 10
8.294355
 20
21.661994
 10
7.979946
 20
21.356392
 10
7.747624
 20
21.156068
 10
7.450391
 20
20.980758
 10
7.021107
 20
20.897081
 10
6.380637
 20
21.132203
 10
5.870889
 20
21.36775
 10
5.6308
 20
21.731644
 10
5.250226
 20
22.214054
 10
4.875961
 20
22.717122
 10
4.36208
 20
22.887437
 10
3.973193
 20
23.070162
  0
LWPOLYLINE
  5
17E
100
AcDbEntity
  8
0
100
AcDbPolyline
 90
        5
 70
     1
 43
0.0
 10
9.394869
 20
9.569562
 10
9.446449
 20
7.629953
 10
10.955978
 20
7.817295
 10
10.817685
 20
9.892186
 10
9.397892
 20
9.572472
  0
ENDBLK
  5
185
100
AcDbEntity
  8
0
100
AcDbBlockEnd
  0
BLOCK
  5
186
100
AcDbEntity
  8
0
100
AcDbBlockBegin
  2
VP183C
 70
     0
 10
0.0
 20
0.0
 30
0.0
  3
VP183C
  1

  0
LWPOLYLINE
  5
187
100
AcDbEntity
  8
0
100
AcDbPolyline
 90
        4
 70
     1
 43
0.0
 10
4.514423
 20
0.741766
 10
3.1874
 20
8.193043
 10
11.471942
 20
9.45703
 10
12.375331
 20
1.777797
  0
LWPOLYLINE
  5
18D
100
AcDbEntity
  8
0
100
AcDbPolyline
 90
       15
 70
     0
 43
0.0
 10
36.346376
 20
28.391722
 10
35.782627
 20
27.044253
 10
35.35163
 20
25.239218
 10
35.243412
 20
24.380338
 10
35.166769
 20
22.335396
 10
35.081536
 20
19.976278
 10
35.04475
 20
19.840194
 10
34.796508
 20
17.168097
 10
34.615297
 20
14.69707
 10
34.192917
 20
11.801015
 10
33.724723
 20
9.106904
 10
33.450623
 20
6.185986
 10
33.000736
 20
2.845463
 10
33.061044
 20
0.840964
 10
32.862166
 20
-1.612139
  0
LWPOLYLINE
  5
19E
100
AcDbEntity
  8
0
100
AcDbPolyline
 90
       10
 70
     0
 43
0.0
 10
37.99114
 20
21.993362
 10
37.617324
 20
19.221443
 10
36.962314
 20
16.208607
 10
36.582058
 20
13.377446
 10
36.165806
 20
9.799499
 10
36.09529
 20
7.072664
 10
36.093806
 20
4.784048
 10
35.927174
 20
2.633079
 10
35.896144
 20
0.362478
 10
35.621467
 20
-1.218462
  0
LWPOLYLINE
  5
1AA
100
AcDbEntity
  8
0
100
AcDbPolyline
 90
        4
 70
     1
 43
0.0
 10
3.5
 20
13.5
 10
3.5
 20
14.5
 10
4.5
 20
14.5
 10
4.5
 20
13.5
  0
LWPOLYLINE
  5
1B0
100
AcDbEntity
  8
0
100
AcDbPolyline
 90
        4
 70
     1
 43
0.0
 10
8.5
 20
13.5
 10
9.5
 20
13.5
 10
9.5
 20
14.5
 10
8.5
 20
14.5
  0
LWPOLYLINE
  5
1B6
100
AcDbEntity
  8
0
100
AcDbPolyline
 90
        4
 70
     1
 43
0.0
 10
13.5
 20
13.5
 10
14.5
 20
13.5
 10
14.5
 20
14.5
 10
13.5
 20
14.5
  0
LWPOLYLINE
  5
1BC
100
AcDbEntity
  8
0
100
AcDbPolyline
 90
        4
 70
     1
 43
0.0
 10
18.5
 20
13.5
 10
19.5
 20
13.5
 10
19.5
 20
14.5
 10
18.5
 20
14.5
  0
LWPOLYLINE
  5
1C2
100
AcDbEntity
  8
0
100
AcDbPolyline
 90
        4
 70
     1
 43
0.0
 10
23.5
 20
14.5
 10
23.5
 20
13.5
 10
24.5
 20
13.5
 10
24.5
 20
14.5
  0
LWPOLYLINE
  5
1C8
100
AcDbEntity
  8
0
100
AcDbPolyline
 90
        4
 70
     1
 43
0.0
 10
3.5
 20
18.5
 10
3.5
 20
19.5
 10
4.5
 20
19.5
 10
4.5
 20
18.5
  0
LWPOLYLINE
  5
1CE
100
AcDbEntity
  8
0
100
AcDbPolyline
 90
        4
 70
     1
 43
0.0
 10
8.5
 20
18.5
 10
9.5
 20
18.5
 10
9.5
 20
19.5
 10
8.5
 20
19.5
  0
LWPOLYLINE
  5
1D4
100
AcDbEntity
  8
0
100
AcDbPolyline
 90
        4
 70
     1
 43
0.0
 10
13.5
 20
18.5
 10
14.5
 20
18.5
 10
14.5
 20
19.5
 10
13.5
 20
19.5
  0
LWPOLYLINE
  5
1DA
100
AcDbEntity
  8
0
100
AcDbPolyline
 90
        4
 70
     1
 43
0.0
 10
18.5
 20
18.5
 10
19.5
 20
18.5
 10
19.5
 20
19.5
 10
18.5
 20
19.5
  0
LWPOLYLINE
  5
1E0
100
AcDbEntity
  8
0
100
AcDbPolyline
 90
        4
 70
     1
 43
0.0
 10
23.5
 20
19.5
 10
23.5
 20
18.5
 10
24.5
 20
18.5
 10
24.5
 20
19.5
  0
LWPOLYLINE
  5
1E6
100
AcDbEntity
  8
0
100
AcDbPolyline
 90
        4
 70
     1
 43
0.0
 10
3.5
 20
23.5
 10
3.5
 20
24.5
 10
4.5
 20
24.5
 10
4.5
 20
23.5
  0
LWPOLYLINE
  5
1EC
100
AcDbEntity
  8
0
100
AcDbPolyline
 90
        4
 70
     1
 43
0.0
 10
8.5
 20
23.5
 10
9.5
 20
23.5
 10
9.5
 20
24.5
 10
8.5
 20
24.5
  0
LWPOLYLINE
  5
1F2
100
AcDbEntity
  8
0
100
AcDbPolyline
 90
        4
 70
     1
 43
0.0
 10
13.5
 20
23.5
 10
14.5
 20
23.5
 10
14.5
 20
24.5
 10
13.5
 20
24.5
  0
LWPOLYLINE
  5
1F8
100
AcDbEntity
  8
0
100
AcDbPolyline
 90
        4
 70
     1
 43
0.0
 10
18.5
 20
23.5
 10
19.5
 20
23.5
 10
19.5
 20
24.5
 10
18.5
 20
24.5
  0
LWPOLYLINE
  5
1FE
100
AcDbEntity
  8
0
100
AcDbPolyline
 90
        4
 70
     1
 43
0.0
 10
23.5
 20
24.5
 10
23.5
 20
23.5
 10
24.5
 20
23.5
 10
24.5
 20
24.5
  0
LWPOLYLINE
  5
204
100
AcDbEntity
  8
0
100
AcDbPolyline
 90
        4
 70
     1
 43
0.0
 10
3.5
 20
28.5
 10
3.5
 20
29.5
 10
4.5
 20
29.5
 10
4.5
 20
28.5
  0
LWPOLYLINE
  5
20A
100
AcDbEntity
  8
0
100
AcDbPolyline
 90
        4
 70
     1
 43
0.0
 10
8.5
 20
28.5
 10
9.5
 20
28.5
 10
9.5
 20
29.5
 10
8.5
 20
29.5
  0
LWPOLYLINE
  5
210
100
AcDbEntity
  8
0
100
AcDbPolyline
 90
        4
 70
     1
 43
0.0
 10
13.5
 20
28.5
 10
14.5
 20
28.5
 10
14.5
 20
29.5
 10
13.5
 20
29.5
  0
LWPOLYLINE
  5
216
100
AcDbEntity
  8
0
100
AcDbPolyline
 90
        4
 70
     1
 43
0.0
 10
18.5
 20
28.5
 10
19.5
 20
28.5
 10
19.5
 20
29.5
 10
18.5
 20
29.5
  0
LWPOLYLINE
  5
21C
100
AcDbEntity
  8
0
100
AcDbPolyline
 90
        4
 70
     1
 43
0.0
 10
23.5
 20
29.5
 10
23.5
 20
28.5
 10
24.5
 20
28.5
 10
24.5
 20
29.5
  0
LWPOLYLINE
  5
222
100
AcDbEntity
  8
0
100
AcDbPolyline
 90
        4
 70
     1
 43
0.0
 10
3.5
 20
33.5
 10
3.5
 20
34.5
 10
4.5
 20
34.5
 10
4.5
 20
33.5
  0
LWPOLYLINE
  5
228
100
AcDbEntity
  8
0
100
AcDbPolyline
 90
        4
 70
     1
 43
0.0
 10
8.5
 20
33.5
 10
9.5
 20
33.5
 10
9.5
 20
34.5
 10
8.5
 20
34.5
  0
LWPOLYLINE
  5
22E
100
AcDbEntity
  8
0
100
AcDbPolyline
 90
        4
 70
     1
 43
0.0
 10
13.5
 20
33.5
 10
14.5
 20
33.5
 10
14.5
 20
34.5
 10
13.5
 20
34.5
  0
LWPOLYLINE
  5
234
100
AcDbEntity
  8
0
100
AcDbPolyline
 90
        4
 70
     1
 43
0.0
 10
18.5
 20
33.5
 10
19.5
 20
33.5
 10
19.5
 20
34.5
 10
18.5
 20
34.5
  0
LWPOLYLINE
  5
23A
100
AcDbEntity
  8
0
100
AcDbPolyline
 90
        4
 70
     1
 43
0.0
 10
23.5
 20
34.5
 10
23.5
 20
33.5
 10
24.5
 20
33.5
 10
24.5
 20
34.5
  0
ENDBLK
  5
240
100
AcDbEntity
  8
0
100
AcDbBlockEnd
  0
BLOCK
  5
241
100
AcDbEntity
  8
0
100
AcDbBlockBegin
  2
NARROW
 70
     0
 10
0.0
 20
0.0
 30
0.0
  3
NARROW
  1

  0
LINE
  5
242
100
AcDbEntity
  8
0
100
AcDbLine
 10
0.133528
 20
-4.692706
 30
0.0
 11
0.134255
 21
-4.691979
 31
0.0
  0
LINE
  5
243
100
AcDbEntity
  8
0
100
AcDbLine
 10
0.129764
 20
-4.687631
 30
0.0
 11
0.133847
 21
-4.683549
 31
0.0
  0
LINE
  5
244
100
AcDbEntity
  8
0
100
AcDbLine
 10
0.126
 20
-4.682556
 30
0.0
 11
0.133438
 21
-4.675118
 31
0.0
  0
LINE
  5
245
100
AcDbEntity
  8
0
100
AcDbLine
 10
0.122236
 20
-4.677481
 30
0.0
 11
0.13303
 21
-4.666688
 31
0.0
  0
LINE
  5
246
100
AcDbEntity
  8
0
100
AcDbLine
 10
0.118472
 20
-4.672407
 30
0.0
 11
0.132622
 21
-4.658257
 31
0.0
  0
LINE
  5
247
100
AcDbEntity
  8
0
100
AcDbLine
 10
0.114708
 20
-4.667332
 30
0.0
 11
0.132213
 21
-4.649827
 31
0.0
  0
LINE
  5
248
100
AcDbEntity
  8
0
100
AcDbLine
 10
0.110944
 20
-4.662257
 30
0.0
 11
0.131805
 21
-4.641396
 31
0.0
  0
LINE
  5
249
100
AcDbEntity
  8
0
100
AcDbLine
 10
0.10718
 20
-4.657182
 30
0.0
 11
0.131397
 21
-4.632966
 31
0.0
  0
LINE
  5
24A
100
AcDbEntity
  8
0
100
AcDbLine
 10
0.103416
 20
-4.652107
 30
0.0
 11
0.130988
 21
-4.624535
 31
0.0
  0
LINE
  5
24B
100
AcDbEntity
  8
0
100
AcDbLine
 10
0.099653
 20
-4.647032
 30
0.0
 11
0.13058
 21
-4.616105
 31
0.0
  0
LINE
  5
24C
100
AcDbEntity
  8
0
100
AcDbLine
 10
0.095889
 20
-4.641957
 30
0.0
 11
0.130172
 21
-4.607674
 31
0.0
  0
LINE
  5
24D
100
AcDbEntity
  8
0
100
AcDbLine
 10
0.092125
 20
-4.636882
 30
0.0
 11
0.129763
 21
-4.599244
 31
0.0
  0
LINE
  5
24E
100
AcDbEntity
  8
0
100
AcDbLine
 10
0.088361
 20
-4.631808
 30
0.0
 11
0.129355
 21
-4.590813
 31
0.0
  0
LINE
  5
24F
100
AcDbEntity
  8
0
100
AcDbLine
 10
0.084597
 20
-4.626733
 30
0.0
 11
0.128947
 21
-4.582383
 31
0.0
  0
LINE
  5
250
100
AcDbEntity
  8
0
100
AcDbLine
 10
0.080833
 20
-4.621658
 30
0.0
 11
0.128538
 21
-4.573952
 31
0.0
  0
LINE
  5
251
100
AcDbEntity
  8
0
100
AcDbLine
 10
0.077069
 20
-4.616583
 30
0.0
 11
0.12813
 21
-4.565522
 31
0.0
  0
LINE
  5
252
100
AcDbEntity
  8
0
100
AcDbLine
 10
0.073305
 20
-4.611508
 30
0.0
 11
0.127722
 21
-4.557091
 31
0.0
  0
LINE
  5
253
100
AcDbEntity
  8
0
100
AcDbLine
 10
0.069541
 20
-4.606433
 30
0.0
 11
0.127313
 21
-4.548661
 31
0.0
  0
LINE
  5
254
100
AcDbEntity
  8
0
100
AcDbLine
 10
0.065777
 20
-4.601358
 30
0.0
 11
0.126905
 21
-4.54023
 31
0.0
  0
LINE
  5
255
100
AcDbEntity
  8
0
100
AcDbLine
 10
0.062013
 20
-4.596283
 30
0.0
 11
0.126497
 21
-4.5318
 31
0.0
  0
LINE
  5
256
100
AcDbEntity
  8
0
100
AcDbLine
 10
0.058249
 20
-4.591209
 30
0.0
 11
0.126088
 21
-4.523369
 31
0.0
  0
LINE
  5
257
100
AcDbEntity
  8
0
100
AcDbLine
 10
0.054485
 20
-4.586134
 30
0.0
 11
0.12568
 21
-4.514939
 31
0.0
  0
LINE
  5
258
100
AcDbEntity
  8
0
100
AcDbLine
 10
0.050721
 20
-4.581059
 30
0.0
 11
0.125272
 21
-4.506508
 31
0.0
  0
LINE
  5
259
100
AcDbEntity
  8
0
100
AcDbLine
 10
0.046957
 20
-4.575984
 30
0.0
 11
0.124863
 21
-4.498078
 31
0.0
  0
LINE
  5
25A
100
AcDbEntity
  8
0
100
AcDbLine
 10
0.043193
 20
-4.570909
 30
0.0
 11
0.124455
 21
-4.489647
 31
0.0
  0
LINE
  5
25B
100
AcDbEntity
  8
0
100
AcDbLine
 10
0.039429
 20
-4.565834
 30
0.0
 11
0.124047
 21
-4.481216
 31
0.0
  0
LINE
  5
25C
100
AcDbEntity
  8
0
100
AcDbLine
 10
0.035665
 20
-4.560759
 30
0.0
 11
0.123639
 21
-4.472786
 31
0.0
  0
LINE
  5
25D
100
AcDbEntity
  8
0
100
AcDbLine
 10
0.031901
 20
-4.555685
 30
0.0
 11
0.12323
 21
-4.464355
 31
0.0
  0
LINE
  5
25E
100
AcDbEntity
  8
0
100
AcDbLine
 10
0.028137
 20
-4.55061
 30
0.0
 11
0.122822
 21
-4.455925
 31
0.0
  0
LINE
  5
25F
100
AcDbEntity
  8
0
100
AcDbLine
 10
0.024373
 20
-4.545535
 30
0.0
 11
0.122414
 21
-4.447494
 31
0.0
  0
LINE
  5
260
100
AcDbEntity
  8
0
100
AcDbLine
 10
0.020609
 20
-4.54046
 30
0.0
 11
0.122005
 21
-4.439064
 31
0.0
  0
LINE
  5
261
100
AcDbEntity
  8
0
100
AcDbLine
 10
0.016845
 20
-4.535385
 30
0.0
 11
0.121597
 21
-4.430633
 31
0.0
  0
LINE
  5
262
100
AcDbEntity
  8
0
100
AcDbLine
 10
0.013081
 20
-4.53031
 30
0.0
 11
0.121189
 21
-4.422203
 31
0.0
  0
LINE
  5
263
100
AcDbEntity
  8
0
100
AcDbLine
 10
0.009317
 20
-4.525235
 30
0.0
 11
0.12078
 21
-4.413772
 31
0.0
  0
LINE
  5
264
100
AcDbEntity
  8
0
100
AcDbLine
 10
0.005553
 20
-4.52016
 30
0.0
 11
0.120372
 21
-4.405342
 31
0.0
  0
LINE
  5
265
100
AcDbEntity
  8
0
100
AcDbLine
 10
0.001789
 20
-4.515086
 30
0.0
 11
0.119964
 21
-4.396911
 31
0.0
  0
LINE
  5
266
100
AcDbEntity
  8
0
100
AcDbLine
 10
-0.001975
 20
-4.510011
 30
0.0
 11
0.119555
 21
-4.388481
 31
0.0
  0
LINE
  5
267
100
AcDbEntity
  8
0
100
AcDbLine
 10
-0.005739
 20
-4.504936
 30
0.0
 11
0.119147
 21
-4.38005
 31
0.0
  0
LINE
  5
268
100
AcDbEntity
  8
0
100
AcDbLine
 10
-0.009502
 20
-4.499861
 30
0.0
 11
0.118739
 21
-4.37162
 31
0.0
  0
LINE
  5
269
100
AcDbEntity
  8
0
100
AcDbLine
 10
-0.009897
 20
-4.491416
 30
0.0
 11
0.11833
 21
-4.363189
 31
0.0
  0
LINE
  5
26A
100
AcDbEntity
  8
0
100
AcDbLine
 10
-0.009892
 20
-4.482573
 30
0.0
 11
0.117922
 21
-4.354759
 31
0.0
  0
LINE
  5
26B
100
AcDbEntity
  8
0
100
AcDbLine
 10
-0.009887
 20
-4.473729
 30
0.0
 11
0.117514
 21
-4.346328
 31
0.0
  0
LINE
  5
26C
100
AcDbEntity
  8
0
100
AcDbLine
 10
-0.009883
 20
-4.464886
 30
0.0
 11
0.117105
 21
-4.337898
 31
0.0
  0
LINE
  5
26D
100
AcDbEntity
  8
0
100
AcDbLine
 10
-0.009878
 20
-4.456042
 30
0.0
 11
0.116697
 21
-4.329467
 31
0.0
  0
LINE
  5
26E
100
AcDbEntity
  8
0
100
AcDbLine
 10
-0.009873
 20
-4.447199
 30
0.0
 11
0.116289
 21
-4.321037
 31
0.0
  0
LINE
  5
26F
100
AcDbEntity
  8
0
100
AcDbLine
 10
-0.009868
 20
-4.438355
 30
0.0
 11
0.11588
 21
-4.312606
 31
0.0
  0
LINE
  5
270
100
AcDbEntity
  8
0
100
AcDbLine
 10
-0.009864
 20
-4.429511
 30
0.0
 11
0.115472
 21
-4.304176
 31
0.0
  0
LINE
  5
271
100
AcDbEntity
  8
0
100
AcDbLine
 10
-0.009859
 20
-4.420668
 30
0.0
 11
0.115064
 21
-4.295745
 31
0.0
  0
LINE
  5
272
100
AcDbEntity
  8
0
100
AcDbLine
 10
-0.009854
 20
-4.411824
 30
0.0
 11
0.114655
 21
-4.287315
 31
0.0
  0
LINE
  5
273
100
AcDbEntity
  8
0
100
AcDbLine
 10
-0.009849
 20
-4.402981
 30
0.0
 11
0.114247
 21
-4.278884
 31
0.0
  0
LINE
  5
274
100
AcDbEntity
  8
0
100
AcDbLine
 10
-0.009845
 20
-4.394137
 30
0.0
 11
0.113839
 21
-4.270454
 31
0.0
  0
LINE
  5
275
100
AcDbEntity
  8
0
100
AcDbLine
 10
-0.00984
 20
-4.385294
 30
0.0
 11
0.11343
 21
-4.262023
 31
0.0
  0
LINE
  5
276
100
AcDbEntity
  8
0
100
AcDbLine
 10
-0.009835
 20
-4.37645
 30
0.0
 11
0.113022
 21
-4.253593
 31
0.0
  0
LINE
  5
277
100
AcDbEntity
  8
0
100
AcDbLine
 10
-0.00983
 20
-4.367606
 30
0.0
 11
0.112614
 21
-4.245162
 31
0.0
  0
LINE
  5
278
100
AcDbEntity
  8
0
100
AcDbLine
 10
-0.009826
 20
-4.358763
 30
0.0
 11
0.112205
 21
-4.236732
 31
0.0
  0
LINE
  5
279
100
AcDbEntity
  8
0
100
AcDbLine
 10
-0.009821
 20
-4.349919
 30
0.0
 11
0.111797
 21
-4.228301
 31
0.0
  0
LINE
  5
27A
100
AcDbEntity
  8
0
100
AcDbLine
 10
-0.009816
 20
-4.341076
 30
0.0
 11
0.111389
 21
-4.219871
 31
0.0
  0
LINE
  5
27B
100
AcDbEntity
  8
0
100
AcDbLine
 10
-0.009811
 20
-4.332232
 30
0.0
 11
0.11098
 21
-4.21144
 31
0.0
  0
LINE
  5
27C
100
AcDbEntity
  8
0
100
AcDbLine
 10
-0.009807
 20
-4.323389
 30
0.0
 11
0.110572
 21
-4.20301
 31
0.0
  0
LINE
  5
27D
100
AcDbEntity
  8
0
100
AcDbLine
 10
-0.009802
 20
-4.314545
 30
0.0
 11
0.110164
 21
-4.194579
 31
0.0
  0
LINE
  5
27E
100
AcDbEntity
  8
0
100
AcDbLine
 10
-0.009797
 20
-4.305701
 30
0.0
 11
0.109755
 21
-4.186149
 31
0.0
  0
LINE
  5
27F
100
AcDbEntity
  8
0
100
AcDbLine
 10
-0.009793
 20
-4.296858
 30
0.0
 11
0.109347
 21
-4.177718
 31
0.0
  0
LINE
  5
280
100
AcDbEntity
  8
0
100
AcDbLine
 10
-0.009788
 20
-4.288014
 30
0.0
 11
0.108939
 21
-4.169288
 31
0.0
  0
LINE
  5
281
100
AcDbEntity
  8
0
100
AcDbLine
 10
-0.009783
 20
-4.279171
 30
0.0
 11
0.10853
 21
-4.160857
 31
0.0
  0
LINE
  5
282
100
AcDbEntity
  8
0
100
AcDbLine
 10
-0.009778
 20
-4.270327
 30
0.0
 11
0.108122
 21
-4.152427
 31
0.0
  0
LINE
  5
283
100
AcDbEntity
  8
0
100
AcDbLine
 10
-0.009774
 20
-4.261484
 30
0.0
 11
0.107714
 21
-4.143996
 31
0.0
  0
LINE
  5
284
100
AcDbEntity
  8
0
100
AcDbLine
 10
-0.009769
 20
-4.25264
 30
0.0
 11
0.107305
 21
-4.135566
 31
0.0
  0
LINE
  5
285
100
AcDbEntity
  8
0
100
AcDbLine
 10
-0.009764
 20
-4.243796
 30
0.0
 11
0.106897
 21
-4.127135
 31
0.0
  0
LINE
  5
286
100
AcDbEntity
  8
0
100
AcDbLine
 10
-0.009759
 20
-4.234953
 30
0.0
 11
0.106489
 21
-4.118705
 31
0.0
  0
LINE
  5
287
100
AcDbEntity
  8
0
100
AcDbLine
 10
-0.009755
 20
-4.226109
 30
0.0
 11
0.10608
 21
-4.110274
 31
0.0
  0
LINE
  5
288
100
AcDbEntity
  8
0
100
AcDbLine
 10
-0.00975
 20
-4.217266
 30
0.0
 11
0.105672
 21
-4.101844
 31
0.0
  0
LINE
  5
289
100
AcDbEntity
  8
0
100
AcDbLine
 10
-0.009745
 20
-4.208422
 30
0.0
 11
0.105264
 21
-4.093413
 31
0.0
  0
LINE
  5
28A
100
AcDbEntity
  8
0
100
AcDbLine
 10
-0.00974
 20
-4.199579
 30
0.0
 11
0.104855
 21
-4.084983
 31
0.0
  0
LINE
  5
28B
100
AcDbEntity
  8
0
100
AcDbLine
 10
-0.009736
 20
-4.190735
 30
0.0
 11
0.104447
 21
-4.076552
 31
0.0
  0
LINE
  5
28C
100
AcDbEntity
  8
0
100
AcDbLine
 10
-0.009731
 20
-4.181891
 30
0.0
 11
0.104039
 21
-4.068122
 31
0.0
  0
LINE
  5
28D
100
AcDbEntity
  8
0
100
AcDbLine
 10
-0.009726
 20
-4.173048
 30
0.0
 11
0.10363
 21
-4.059691
 31
0.0
  0
LINE
  5
28E
100
AcDbEntity
  8
0
100
AcDbLine
 10
-0.009722
 20
-4.164204
 30
0.0
 11
0.103222
 21
-4.051261
 31
0.0
  0
LINE
  5
28F
100
AcDbEntity
  8
0
100
AcDbLine
 10
-0.009717
 20
-4.155361
 30
0.0
 11
0.102814
 21
-4.04283
 31
0.0
  0
LINE
  5
290
100
AcDbEntity
  8
0
100
AcDbLine
 10
-0.009712
 20
-4.146517
 30
0.0
 11
0.102405
 21
-4.0344
 31
0.0
  0
LINE
  5
291
100
AcDbEntity
  8
0
100
AcDbLine
 10
-0.009707
 20
-4.137674
 30
0.0
 11
0.101997
 21
-4.025969
 31
0.0
  0
LINE
  5
292
100
AcDbEntity
  8
0
100
AcDbLine
 10
-0.009703
 20
-4.12883
 30
0.0
 11
0.101589
 21
-4.017539
 31
0.0
  0
LINE
  5
293
100
AcDbEntity
  8
0
100
AcDbLine
 10
-0.009698
 20
-4.119986
 30
0.0
 11
0.10118
 21
-4.009108
 31
0.0
  0
LINE
  5
294
100
AcDbEntity
  8
0
100
AcDbLine
 10
-0.009693
 20
-4.111143
 30
0.0
 11
0.100772
 21
-4.000678
 31
0.0
  0
LINE
  5
295
100
AcDbEntity
  8
0
100
AcDbLine
 10
-0.009688
 20
-4.102299
 30
0.0
 11
0.100364
 21
-3.992247
 31
0.0
  0
LINE
  5
296
100
AcDbEntity
  8
0
100
AcDbLine
 10
-0.009684
 20
-4.093456
 30
0.0
 11
0.099955
 21
-3.983817
 31
0.0
  0
LINE
  5
297
100
AcDbEntity
  8
0
100
AcDbLine
 10
-0.009679
 20
-4.084612
 30
0.0
 11
0.099547
 21
-3.975386
 31
0.0
  0
LINE
  5
298
100
AcDbEntity
  8
0
100
AcDbLine
 10
-0.009674
 20
-4.075769
 30
0.0
 11
0.099139
 21
-3.966956
 31
0.0
  0
LINE
  5
299
100
AcDbEntity
  8
0
100
AcDbLine
 10
-0.009669
 20
-4.066925
 30
0.0
 11
0.09873
 21
-3.958525
 31
0.0
  0
LINE
  5
29A
100
AcDbEntity
  8
0
100
AcDbLine
 10
-0.009665
 20
-4.058081
 30
0.0
 11
0.098322
 21
-3.950095
 31
0.0
  0
LINE
  5
29B
100
AcDbEntity
  8
0
100
AcDbLine
 10
-0.00966
 20
-4.049238
 30
0.0
 11
0.097914
 21
-3.941664
 31
0.0
  0
LINE
  5
29C
100
AcDbEntity
  8
0
100
AcDbLine
 10
-0.009655
 20
-4.040394
 30
0.0
 11
0.097505
 21
-3.933234
 31
0.0
  0
LINE
  5
29D
100
AcDbEntity
  8
0
100
AcDbLine
 10
-0.00965
 20
-4.031551
 30
0.0
 11
0.097097
 21
-3.924803
 31
0.0
  0
LINE
  5
29E
100
AcDbEntity
  8
0
100
AcDbLine
 10
-0.009646
 20
-4.022707
 30
0.0
 11
0.096689
 21
-3.916373
 31
0.0
  0
LINE
  5
29F
100
AcDbEntity
  8
0
100
AcDbLine
 10
-0.009641
 20
-4.013864
 30
0.0
 11
0.09628
 21
-3.907942
 31
0.0
  0
LINE
  5
2A0
100
AcDbEntity
  8
0
100
AcDbLine
 10
-0.009636
 20
-4.00502
 30
0.0
 11
0.095872
 21
-3.899512
 31
0.0
  0
LINE
  5
2A1
100
AcDbEntity
  8
0
100
AcDbLine
 10
-0.009632
 20
-3.996176
 30
0.0
 11
0.095464
 21
-3.891081
 31
0.0
  0
LINE
  5
2A2
100
AcDbEntity
  8
0
100
AcDbLine
 10
-0.009627
 20
-3.987333
 30
0.0
 11
0.095055
 21
-3.882651
 31
0.0
  0
LINE
  5
2A3
100
AcDbEntity
  8
0
100
AcDbLine
 10
-0.009163
 20
-3.120663
 30
0.0
 11
-0.004993
 21
-3.116493
 31
0.0
  0
LINE
  5
2A4
100
AcDbEntity
  8
0
100
AcDbLine
 10
-0.009167
 20
-3.129506
 30
0.0
 11
0.000057
 21
-3.120282
 31
0.0
  0
LINE
  5
2A5
100
AcDbEntity
  8
0
100
AcDbLine
 10
-0.009172
 20
-3.13835
 30
0.0
 11
0.005107
 21
-3.124071
 31
0.0
  0
LINE
  5
2A6
100
AcDbEntity
  8
0
100
AcDbLine
 10
-0.009177
 20
-3.147194
 30
0.0
 11
0.010157
 21
-3.12786
 31
0.0
  0
LINE
  5
2A7
100
AcDbEntity
  8
0
100
AcDbLine
 10
-0.009182
 20
-3.156037
 30
0.0
 11
0.015207
 21
-3.131649
 31
0.0
  0
LINE
  5
2A8
100
AcDbEntity
  8
0
100
AcDbLine
 10
-0.009186
 20
-3.164881
 30
0.0
 11
0.020257
 21
-3.135438
 31
0.0
  0
LINE
  5
2A9
100
AcDbEntity
  8
0
100
AcDbLine
 10
-0.009191
 20
-3.173724
 30
0.0
 11
0.025307
 21
-3.139227
 31
0.0
  0
LINE
  5
2AA
100
AcDbEntity
  8
0
100
AcDbLine
 10
-0.009196
 20
-3.182568
 30
0.0
 11
0.030357
 21
-3.143016
 31
0.0
  0
LINE
  5
2AB
100
AcDbEntity
  8
0
100
AcDbLine
 10
-0.009201
 20
-3.191411
 30
0.0
 11
0.035406
 21
-3.146804
 31
0.0
  0
LINE
  5
2AC
100
AcDbEntity
  8
0
100
AcDbLine
 10
-0.009205
 20
-3.200255
 30
0.0
 11
0.040456
 21
-3.150593
 31
0.0
  0
LINE
  5
2AD
100
AcDbEntity
  8
0
100
AcDbLine
 10
-0.00921
 20
-3.209099
 30
0.0
 11
0.045506
 21
-3.154382
 31
0.0
  0
LINE
  5
2AE
100
AcDbEntity
  8
0
100
AcDbLine
 10
-0.009215
 20
-3.217942
 30
0.0
 11
0.050556
 21
-3.158171
 31
0.0
  0
LINE
  5
2AF
100
AcDbEntity
  8
0
100
AcDbLine
 10
-0.009219
 20
-3.226786
 30
0.0
 11
0.055606
 21
-3.16196
 31
0.0
  0
LINE
  5
2B0
100
AcDbEntity
  8
0
100
AcDbLine
 10
-0.009224
 20
-3.235629
 30
0.0
 11
0.060347
 21
-3.166058
 31
0.0
  0
LINE
  5
2B1
100
AcDbEntity
  8
0
100
AcDbLine
 10
-0.009229
 20
-3.244473
 30
0.0
 11
0.060756
 21
-3.174488
 31
0.0
  0
LINE
  5
2B2
100
AcDbEntity
  8
0
100
AcDbLine
 10
-0.009234
 20
-3.253316
 30
0.0
 11
0.061164
 21
-3.182919
 31
0.0
  0
LINE
  5
2B3
100
AcDbEntity
  8
0
100
AcDbLine
 10
-0.009238
 20
-3.26216
 30
0.0
 11
0.061572
 21
-3.191349
 31
0.0
  0
LINE
  5
2B4
100
AcDbEntity
  8
0
100
AcDbLine
 10
-0.009243
 20
-3.271004
 30
0.0
 11
0.061981
 21
-3.19978
 31
0.0
  0
LINE
  5
2B5
100
AcDbEntity
  8
0
100
AcDbLine
 10
-0.009248
 20
-3.279847
 30
0.0
 11
0.062389
 21
-3.20821
 31
0.0
  0
LINE
  5
2B6
100
AcDbEntity
  8
0
100
AcDbLine
 10
-0.009253
 20
-3.288691
 30
0.0
 11
0.062797
 21
-3.216641
 31
0.0
  0
LINE
  5
2B7
100
AcDbEntity
  8
0
100
AcDbLine
 10
-0.009257
 20
-3.297534
 30
0.0
 11
0.063206
 21
-3.225071
 31
0.0
  0
LINE
  5
2B8
100
AcDbEntity
  8
0
100
AcDbLine
 10
-0.009262
 20
-3.306378
 30
0.0
 11
0.063614
 21
-3.233502
 31
0.0
  0
LINE
  5
2B9
100
AcDbEntity
  8
0
100
AcDbLine
 10
-0.009267
 20
-3.315221
 30
0.0
 11
0.064022
 21
-3.241932
 31
0.0
  0
LINE
  5
2BA
100
AcDbEntity
  8
0
100
AcDbLine
 10
-0.009272
 20
-3.324065
 30
0.0
 11
0.064431
 21
-3.250363
 31
0.0
  0
LINE
  5
2BB
100
AcDbEntity
  8
0
100
AcDbLine
 10
-0.009276
 20
-3.332909
 30
0.0
 11
0.064839
 21
-3.258793
 31
0.0
  0
LINE
  5
2BC
100
AcDbEntity
  8
0
100
AcDbLine
 10
-0.009281
 20
-3.341752
 30
0.0
 11
0.065247
 21
-3.267224
 31
0.0
  0
LINE
  5
2BD
100
AcDbEntity
  8
0
100
AcDbLine
 10
-0.009286
 20
-3.350596
 30
0.0
 11
0.065656
 21
-3.275654
 31
0.0
  0
LINE
  5
2BE
100
AcDbEntity
  8
0
100
AcDbLine
 10
-0.009291
 20
-3.359439
 30
0.0
 11
0.066064
 21
-3.284085
 31
0.0
  0
LINE
  5
2BF
100
AcDbEntity
  8
0
100
AcDbLine
 10
-0.009295
 20
-3.368283
 30
0.0
 11
0.066472
 21
-3.292515
 31
0.0
  0
LINE
  5
2C0
100
AcDbEntity
  8
0
100
AcDbLine
 10
-0.0093
 20
-3.377126
 30
0.0
 11
0.066881
 21
-3.300946
 31
0.0
  0
LINE
  5
2C1
100
AcDbEntity
  8
0
100
AcDbLine
 10
-0.009305
 20
-3.38597
 30
0.0
 11
0.067289
 21
-3.309376
 31
0.0
  0
LINE
  5
2C2
100
AcDbEntity
  8
0
100
AcDbLine
 10
-0.009309
 20
-3.394814
 30
0.0
 11
0.067697
 21
-3.317807
 31
0.0
  0
LINE
  5
2C3
100
AcDbEntity
  8
0
100
AcDbLine
 10
-0.009314
 20
-3.403657
 30
0.0
 11
0.068106
 21
-3.326237
 31
0.0
  0
LINE
  5
2C4
100
AcDbEntity
  8
0
100
AcDbLine
 10
-0.009319
 20
-3.412501
 30
0.0
 11
0.068514
 21
-3.334668
 31
0.0
  0
LINE
  5
2C5
100
AcDbEntity
  8
0
100
AcDbLine
 10
-0.009324
 20
-3.421344
 30
0.0
 11
0.068922
 21
-3.343098
 31
0.0
  0
LINE
  5
2C6
100
AcDbEntity
  8
0
100
AcDbLine
 10
-0.009328
 20
-3.430188
 30
0.0
 11
0.069331
 21
-3.351529
 31
0.0
  0
LINE
  5
2C7
100
AcDbEntity
  8
0
100
AcDbLine
 10
-0.009333
 20
-3.439031
 30
0.0
 11
0.069739
 21
-3.359959
 31
0.0
  0
LINE
  5
2C8
100
AcDbEntity
  8
0
100
AcDbLine
 10
-0.009338
 20
-3.447875
 30
0.0
 11
0.070147
 21
-3.36839
 31
0.0
  0
LINE
  5
2C9
100
AcDbEntity
  8
0
100
AcDbLine
 10
-0.009343
 20
-3.456719
 30
0.0
 11
0.070556
 21
-3.37682
 31
0.0
  0
LINE
  5
2CA
100
AcDbEntity
  8
0
100
AcDbLine
 10
-0.009347
 20
-3.465562
 30
0.0
 11
0.070964
 21
-3.385251
 31
0.0
  0
LINE
  5
2CB
100
AcDbEntity
  8
0
100
AcDbLine
 10
-0.009352
 20
-3.474406
 30
0.0
 11
0.071372
 21
-3.393681
 31
0.0
  0
LINE
  5
2CC
100
AcDbEntity
  8
0
100
AcDbLine
 10
-0.009357
 20
-3.483249
 30
0.0
 11
0.071781
 21
-3.402112
 31
0.0
  0
LINE
  5
2CD
100
AcDbEntity
  8
0
100
AcDbLine
 10
-0.009362
 20
-3.492093
 30
0.0
 11
0.072189
 21
-3.410542
 31
0.0
  0
LINE
  5
2CE
100
AcDbEntity
  8
0
100
AcDbLine
 10
-0.009366
 20
-3.500936
 30
0.0
 11
0.072597
 21
-3.418973
 31
0.0
  0
LINE
  5
2CF
100
AcDbEntity
  8
0
100
AcDbLine
 10
-0.009371
 20
-3.50978
 30
0.0
 11
0.073006
 21
-3.427403
 31
0.0
  0
LINE
  5
2D0
100
AcDbEntity
  8
0
100
AcDbLine
 10
-0.009376
 20
-3.518624
 30
0.0
 11
0.073414
 21
-3.435834
 31
0.0
  0
LINE
  5
2D1
100
AcDbEntity
  8
0
100
AcDbLine
 10
-0.00938
 20
-3.527467
 30
0.0
 11
0.073822
 21
-3.444264
 31
0.0
  0
LINE
  5
2D2
100
AcDbEntity
  8
0
100
AcDbLine
 10
-0.009385
 20
-3.536311
 30
0.0
 11
0.074231
 21
-3.452695
 31
0.0
  0
LINE
  5
2D3
100
AcDbEntity
  8
0
100
AcDbLine
 10
-0.00939
 20
-3.545154
 30
0.0
 11
0.074639
 21
-3.461125
 31
0.0
  0
LINE
  5
2D4
100
AcDbEntity
  8
0
100
AcDbLine
 10
-0.009395
 20
-3.553998
 30
0.0
 11
0.075047
 21
-3.469556
 31
0.0
  0
LINE
  5
2D5
100
AcDbEntity
  8
0
100
AcDbLine
 10
-0.009399
 20
-3.562841
 30
0.0
 11
0.075456
 21
-3.477986
 31
0.0
  0
LINE
  5
2D6
100
AcDbEntity
  8
0
100
AcDbLine
 10
-0.009404
 20
-3.571685
 30
0.0
 11
0.075864
 21
-3.486417
 31
0.0
  0
LINE
  5
2D7
100
AcDbEntity
  8
0
100
AcDbLine
 10
-0.009409
 20
-3.580529
 30
0.0
 11
0.076272
 21
-3.494847
 31
0.0
  0
LINE
  5
2D8
100
AcDbEntity
  8
0
100
AcDbLine
 10
-0.009414
 20
-3.589372
 30
0.0
 11
0.076681
 21
-3.503278
 31
0.0
  0
LINE
  5
2D9
100
AcDbEntity
  8
0
100
AcDbLine
 10
-0.009418
 20
-3.598216
 30
0.0
 11
0.077089
 21
-3.511708
 31
0.0
  0
LINE
  5
2DA
100
AcDbEntity
  8
0
100
AcDbLine
 10
-0.009423
 20
-3.607059
 30
0.0
 11
0.077497
 21
-3.520139
 31
0.0
  0
LINE
  5
2DB
100
AcDbEntity
  8
0
100
AcDbLine
 10
-0.009428
 20
-3.615903
 30
0.0
 11
0.077906
 21
-3.528569
 31
0.0
  0
LINE
  5
2DC
100
AcDbEntity
  8
0
100
AcDbLine
 10
-0.009433
 20
-3.624746
 30
0.0
 11
0.078314
 21
-3.537
 31
0.0
  0
LINE
  5
2DD
100
AcDbEntity
  8
0
100
AcDbLine
 10
-0.009437
 20
-3.63359
 30
0.0
 11
0.078722
 21
-3.54543
 31
0.0
  0
LINE
  5
2DE
100
AcDbEntity
  8
0
100
AcDbLine
 10
-0.009442
 20
-3.642434
 30
0.0
 11
0.079131
 21
-3.553861
 31
0.0
  0
LINE
  5
2DF
100
AcDbEntity
  8
0
100
AcDbLine
 10
-0.009447
 20
-3.651277
 30
0.0
 11
0.079539
 21
-3.562291
 31
0.0
  0
LINE
  5
2E0
100
AcDbEntity
  8
0
100
AcDbLine
 10
-0.009452
 20
-3.660121
 30
0.0
 11
0.079947
 21
-3.570722
 31
0.0
  0
LINE
  5
2E1
100
AcDbEntity
  8
0
100
AcDbLine
 10
-0.009456
 20
-3.668964
 30
0.0
 11
0.080356
 21
-3.579152
 31
0.0
  0
LINE
  5
2E2
100
AcDbEntity
  8
0
100
AcDbLine
 10
-0.009461
 20
-3.677808
 30
0.0
 11
0.080764
 21
-3.587583
 31
0.0
  0
LINE
  5
2E3
100
AcDbEntity
  8
0
100
AcDbLine
 10
-0.009466
 20
-3.686651
 30
0.0
 11
0.081172
 21
-3.596013
 31
0.0
  0
LINE
  5
2E4
100
AcDbEntity
  8
0
100
AcDbLine
 10
-0.00947
 20
-3.695495
 30
0.0
 11
0.081581
 21
-3.604444
 31
0.0
  0
LINE
  5
2E5
100
AcDbEntity
  8
0
100
AcDbLine
 10
-0.009475
 20
-3.704339
 30
0.0
 11
0.081989
 21
-3.612874
 31
0.0
  0
LINE
  5
2E6
100
AcDbEntity
  8
0
100
AcDbLine
 10
-0.00948
 20
-3.713182
 30
0.0
 11
0.082397
 21
-3.621305
 31
0.0
  0
LINE
  5
2E7
100
AcDbEntity
  8
0
100
AcDbLine
 10
-0.009485
 20
-3.722026
 30
0.0
 11
0.082806
 21
-3.629735
 31
0.0
  0
LINE
  5
2E8
100
AcDbEntity
  8
0
100
AcDbLine
 10
-0.009489
 20
-3.730869
 30
0.0
 11
0.083214
 21
-3.638166
 31
0.0
  0
LINE
  5
2E9
100
AcDbEntity
  8
0
100
AcDbLine
 10
-0.009494
 20
-3.739713
 30
0.0
 11
0.083622
 21
-3.646596
 31
0.0
  0
LINE
  5
2EA
100
AcDbEntity
  8
0
100
AcDbLine
 10
-0.009499
 20
-3.748556
 30
0.0
 11
0.084031
 21
-3.655027
 31
0.0
  0
LINE
  5
2EB
100
AcDbEntity
  8
0
100
AcDbLine
 10
-0.009504
 20
-3.7574
 30
0.0
 11
0.084439
 21
-3.663457
 31
0.0
  0
LINE
  5
2EC
100
AcDbEntity
  8
0
100
AcDbLine
 10
-0.009508
 20
-3.766244
 30
0.0
 11
0.084847
 21
-3.671888
 31
0.0
  0
LINE
  5
2ED
100
AcDbEntity
  8
0
100
AcDbLine
 10
-0.009513
 20
-3.775087
 30
0.0
 11
0.085256
 21
-3.680318
 31
0.0
  0
LINE
  5
2EE
100
AcDbEntity
  8
0
100
AcDbLine
 10
-0.009518
 20
-3.783931
 30
0.0
 11
0.085664
 21
-3.688749
 31
0.0
  0
LINE
  5
2EF
100
AcDbEntity
  8
0
100
AcDbLine
 10
-0.009523
 20
-3.792774
 30
0.0
 11
0.086072
 21
-3.697179
 31
0.0
  0
LINE
  5
2F0
100
AcDbEntity
  8
0
100
AcDbLine
 10
-0.009527
 20
-3.801618
 30
0.0
 11
0.086481
 21
-3.70561
 31
0.0
  0
LINE
  5
2F1
100
AcDbEntity
  8
0
100
AcDbLine
 10
-0.009532
 20
-3.810461
 30
0.0
 11
0.086889
 21
-3.71404
 31
0.0
  0
LINE
  5
2F2
100
AcDbEntity
  8
0
100
AcDbLine
 10
-0.009537
 20
-3.819305
 30
0.0
 11
0.087297
 21
-3.722471
 31
0.0
  0
LINE
  5
2F3
100
AcDbEntity
  8
0
100
AcDbLine
 10
-0.009542
 20
-3.828149
 30
0.0
 11
0.087706
 21
-3.730902
 31
0.0
  0
LINE
  5
2F4
100
AcDbEntity
  8
0
100
AcDbLine
 10
-0.009546
 20
-3.836992
 30
0.0
 11
0.088114
 21
-3.739332
 31
0.0
  0
LINE
  5
2F5
100
AcDbEntity
  8
0
100
AcDbLine
 10
-0.009551
 20
-3.845836
 30
0.0
 11
0.088522
 21
-3.747763
 31
0.0
  0
LINE
  5
2F6
100
AcDbEntity
  8
0
100
AcDbLine
 10
-0.009556
 20
-3.854679
 30
0.0
 11
0.088931
 21
-3.756193
 31
0.0
  0
LINE
  5
2F7
100
AcDbEntity
  8
0
100
AcDbLine
 10
-0.00956
 20
-3.863523
 30
0.0
 11
0.089339
 21
-3.764624
 31
0.0
  0
LINE
  5
2F8
100
AcDbEntity
  8
0
100
AcDbLine
 10
-0.009565
 20
-3.872366
 30
0.0
 11
0.089747
 21
-3.773054
 31
0.0
  0
LINE
  5
2F9
100
AcDbEntity
  8
0
100
AcDbLine
 10
-0.00957
 20
-3.88121
 30
0.0
 11
0.090156
 21
-3.781485
 31
0.0
  0
LINE
  5
2FA
100
AcDbEntity
  8
0
100
AcDbLine
 10
-0.009575
 20
-3.890054
 30
0.0
 11
0.090564
 21
-3.789915
 31
0.0
  0
LINE
  5
2FB
100
AcDbEntity
  8
0
100
AcDbLine
 10
-0.009579
 20
-3.898897
 30
0.0
 11
0.090972
 21
-3.798346
 31
0.0
  0
LINE
  5
2FC
100
AcDbEntity
  8
0
100
AcDbLine
 10
-0.009584
 20
-3.907741
 30
0.0
 11
0.09138
 21
-3.806776
 31
0.0
  0
LINE
  5
2FD
100
AcDbEntity
  8
0
100
AcDbLine
 10
-0.009589
 20
-3.916584
 30
0.0
 11
0.091789
 21
-3.815207
 31
0.0
  0
LINE
  5
2FE
100
AcDbEntity
  8
0
100
AcDbLine
 10
-0.009594
 20
-3.925428
 30
0.0
 11
0.092197
 21
-3.823637
 31
0.0
  0
LINE
  5
2FF
100
AcDbEntity
  8
0
100
AcDbLine
 10
-0.009598
 20
-3.934271
 30
0.0
 11
0.092605
 21
-3.832068
 31
0.0
  0
LINE
  5
300
100
AcDbEntity
  8
0
100
AcDbLine
 10
-0.009603
 20
-3.943115
 30
0.0
 11
0.093014
 21
-3.840498
 31
0.0
  0
LINE
  5
301
100
AcDbEntity
  8
0
100
AcDbLine
 10
-0.009608
 20
-3.951959
 30
0.0
 11
0.093422
 21
-3.848929
 31
0.0
  0
LINE
  5
302
100
AcDbEntity
  8
0
100
AcDbLine
 10
-0.009613
 20
-3.960802
 30
0.0
 11
0.09383
 21
-3.857359
 31
0.0
  0
LINE
  5
303
100
AcDbEntity
  8
0
100
AcDbLine
 10
-0.009617
 20
-3.969646
 30
0.0
 11
0.094239
 21
-3.86579
 31
0.0
  0
LINE
  5
304
100
AcDbEntity
  8
0
100
AcDbLine
 10
-0.009622
 20
-3.978489
 30
0.0
 11
0.094647
 21
-3.87422
 31
0.0
  0
LINE
  5
305
100
AcDbEntity
  8
0
100
AcDbLine
 10
-0.182675
 20
-1.888801
 30
0.0
 11
-0.164754
 21
-1.870879
 31
0.0
  0
LINE
  5
306
100
AcDbEntity
  8
0
100
AcDbLine
 10
-0.181719
 20
-1.879005
 30
0.0
 11
-0.135126
 21
-1.832412
 31
0.0
  0
LINE
  5
307
100
AcDbEntity
  8
0
100
AcDbLine
 10
-0.180762
 20
-1.86921
 30
0.0
 11
-0.105497
 21
-1.793945
 31
0.0
  0
LINE
  5
308
100
AcDbEntity
  8
0
100
AcDbLine
 10
-0.179805
 20
-1.859414
 30
0.0
 11
-0.075869
 21
-1.755478
 31
0.0
  0
LINE
  5
309
100
AcDbEntity
  8
0
100
AcDbLine
 10
-0.178849
 20
-1.849619
 30
0.0
 11
-0.046241
 21
-1.717011
 31
0.0
  0
LINE
  5
30A
100
AcDbEntity
  8
0
100
AcDbLine
 10
-0.177892
 20
-1.839823
 30
0.0
 11
-0.016613
 21
-1.678544
 31
0.0
  0
LINE
  5
30B
100
AcDbEntity
  8
0
100
AcDbLine
 10
-0.176935
 20
-1.830028
 30
0.0
 11
-0.004133
 21
-1.657225
 31
0.0
  0
LINE
  5
30C
100
AcDbEntity
  8
0
100
AcDbLine
 10
-0.175979
 20
-1.820232
 30
0.0
 11
-0.004101
 21
-1.648355
 31
0.0
  0
LINE
  5
30D
100
AcDbEntity
  8
0
100
AcDbLine
 10
-0.175022
 20
-1.810437
 30
0.0
 11
-0.004069
 21
-1.639484
 31
0.0
  0
LINE
  5
30E
100
AcDbEntity
  8
0
100
AcDbLine
 10
-0.174065
 20
-1.800641
 30
0.0
 11
-0.004037
 21
-1.630613
 31
0.0
  0
LINE
  5
30F
100
AcDbEntity
  8
0
100
AcDbLine
 10
-0.173109
 20
-1.790846
 30
0.0
 11
-0.004006
 21
-1.621743
 31
0.0
  0
LINE
  5
310
100
AcDbEntity
  8
0
100
AcDbLine
 10
-0.172152
 20
-1.78105
 30
0.0
 11
-0.003974
 21
-1.612872
 31
0.0
  0
LINE
  5
311
100
AcDbEntity
  8
0
100
AcDbLine
 10
-0.171196
 20
-1.771255
 30
0.0
 11
-0.003942
 21
-1.604002
 31
0.0
  0
LINE
  5
312
100
AcDbEntity
  8
0
100
AcDbLine
 10
-0.170239
 20
-1.76146
 30
0.0
 11
-0.003911
 21
-1.595131
 31
0.0
  0
LINE
  5
313
100
AcDbEntity
  8
0
100
AcDbLine
 10
-0.169282
 20
-1.751664
 30
0.0
 11
-0.003879
 21
-1.586261
 31
0.0
  0
LINE
  5
314
100
AcDbEntity
  8
0
100
AcDbLine
 10
-0.168326
 20
-1.741869
 30
0.0
 11
-0.003847
 21
-1.57739
 31
0.0
  0
LINE
  5
315
100
AcDbEntity
  8
0
100
AcDbLine
 10
-0.167369
 20
-1.732073
 30
0.0
 11
-0.003816
 21
-1.56852
 31
0.0
  0
LINE
  5
316
100
AcDbEntity
  8
0
100
AcDbLine
 10
-0.166412
 20
-1.722278
 30
0.0
 11
-0.003784
 21
-1.559649
 31
0.0
  0
LINE
  5
317
100
AcDbEntity
  8
0
100
AcDbLine
 10
-0.165456
 20
-1.712482
 30
0.0
 11
-0.003752
 21
-1.550779
 31
0.0
  0
LINE
  5
318
100
AcDbEntity
  8
0
100
AcDbLine
 10
-0.164499
 20
-1.702687
 30
0.0
 11
-0.003721
 21
-1.541908
 31
0.0
  0
LINE
  5
319
100
AcDbEntity
  8
0
100
AcDbLine
 10
-0.163542
 20
-1.692891
 30
0.0
 11
-0.003689
 21
-1.533038
 31
0.0
  0
LINE
  5
31A
100
AcDbEntity
  8
0
100
AcDbLine
 10
-0.162586
 20
-1.683096
 30
0.0
 11
-0.003657
 21
-1.524167
 31
0.0
  0
LINE
  5
31B
100
AcDbEntity
  8
0
100
AcDbLine
 10
-0.161629
 20
-1.6733
 30
0.0
 11
-0.003626
 21
-1.515297
 31
0.0
  0
LINE
  5
31C
100
AcDbEntity
  8
0
100
AcDbLine
 10
-0.160672
 20
-1.663505
 30
0.0
 11
-0.003594
 21
-1.506426
 31
0.0
  0
LINE
  5
31D
100
AcDbEntity
  8
0
100
AcDbLine
 10
-0.159716
 20
-1.653709
 30
0.0
 11
-0.003562
 21
-1.497556
 31
0.0
  0
LINE
  5
31E
100
AcDbEntity
  8
0
100
AcDbLine
 10
-0.158759
 20
-1.643914
 30
0.0
 11
-0.00353
 21
-1.488685
 31
0.0
  0
LINE
  5
31F
100
AcDbEntity
  8
0
100
AcDbLine
 10
-0.157802
 20
-1.634118
 30
0.0
 11
-0.003499
 21
-1.479815
 31
0.0
  0
LINE
  5
320
100
AcDbEntity
  8
0
100
AcDbLine
 10
-0.156846
 20
-1.624323
 30
0.0
 11
-0.003467
 21
-1.470944
 31
0.0
  0
LINE
  5
321
100
AcDbEntity
  8
0
100
AcDbLine
 10
-0.155889
 20
-1.614527
 30
0.0
 11
-0.003435
 21
-1.462074
 31
0.0
  0
LINE
  5
322
100
AcDbEntity
  8
0
100
AcDbLine
 10
-0.154933
 20
-1.604732
 30
0.0
 11
-0.003404
 21
-1.453203
 31
0.0
  0
LINE
  5
323
100
AcDbEntity
  8
0
100
AcDbLine
 10
-0.153976
 20
-1.594936
 30
0.0
 11
-0.003372
 21
-1.444333
 31
0.0
  0
LINE
  5
324
100
AcDbEntity
  8
0
100
AcDbLine
 10
-0.153019
 20
-1.585141
 30
0.0
 11
-0.00334
 21
-1.435462
 31
0.0
  0
LINE
  5
325
100
AcDbEntity
  8
0
100
AcDbLine
 10
-0.152063
 20
-1.575345
 30
0.0
 11
-0.003309
 21
-1.426591
 31
0.0
  0
LINE
  5
326
100
AcDbEntity
  8
0
100
AcDbLine
 10
-0.151106
 20
-1.56555
 30
0.0
 11
-0.003277
 21
-1.417721
 31
0.0
  0
LINE
  5
327
100
AcDbEntity
  8
0
100
AcDbLine
 10
-0.150149
 20
-1.555754
 30
0.0
 11
-0.003245
 21
-1.40885
 31
0.0
  0
LINE
  5
328
100
AcDbEntity
  8
0
100
AcDbLine
 10
-0.149193
 20
-1.545959
 30
0.0
 11
-0.003214
 21
-1.39998
 31
0.0
  0
LINE
  5
329
100
AcDbEntity
  8
0
100
AcDbLine
 10
-0.148236
 20
-1.536164
 30
0.0
 11
-0.003182
 21
-1.391109
 31
0.0
  0
LINE
  5
32A
100
AcDbEntity
  8
0
100
AcDbLine
 10
-0.147279
 20
-1.526368
 30
0.0
 11
-0.00315
 21
-1.382239
 31
0.0
  0
LINE
  5
32B
100
AcDbEntity
  8
0
100
AcDbLine
 10
-0.146323
 20
-1.516573
 30
0.0
 11
-0.003119
 21
-1.373368
 31
0.0
  0
LINE
  5
32C
100
AcDbEntity
  8
0
100
AcDbLine
 10
-0.145366
 20
-1.506777
 30
0.0
 11
-0.003087
 21
-1.364498
 31
0.0
  0
LINE
  5
32D
100
AcDbEntity
  8
0
100
AcDbLine
 10
-0.144409
 20
-1.496982
 30
0.0
 11
-0.003055
 21
-1.355627
 31
0.0
  0
LINE
  5
32E
100
AcDbEntity
  8
0
100
AcDbLine
 10
-0.143453
 20
-1.487186
 30
0.0
 11
-0.003024
 21
-1.346757
 31
0.0
  0
LINE
  5
32F
100
AcDbEntity
  8
0
100
AcDbLine
 10
-0.142496
 20
-1.477391
 30
0.0
 11
-0.002992
 21
-1.337886
 31
0.0
  0
LINE
  5
330
100
AcDbEntity
  8
0
100
AcDbLine
 10
-0.14154
 20
-1.467595
 30
0.0
 11
-0.00296
 21
-1.329016
 31
0.0
  0
LINE
  5
331
100
AcDbEntity
  8
0
100
AcDbLine
 10
-0.140583
 20
-1.4578
 30
0.0
 11
-0.002928
 21
-1.320145
 31
0.0
  0
LINE
  5
332
100
AcDbEntity
  8
0
100
AcDbLine
 10
-0.139626
 20
-1.448004
 30
0.0
 11
-0.002897
 21
-1.311275
 31
0.0
  0
LINE
  5
333
100
AcDbEntity
  8
0
100
AcDbLine
 10
-0.13867
 20
-1.438209
 30
0.0
 11
-0.002865
 21
-1.302404
 31
0.0
  0
LINE
  5
334
100
AcDbEntity
  8
0
100
AcDbLine
 10
-0.137713
 20
-1.428413
 30
0.0
 11
-0.002833
 21
-1.293534
 31
0.0
  0
LINE
  5
335
100
AcDbEntity
  8
0
100
AcDbLine
 10
-0.136756
 20
-1.418618
 30
0.0
 11
-0.002802
 21
-1.284663
 31
0.0
  0
LINE
  5
336
100
AcDbEntity
  8
0
100
AcDbLine
 10
-0.1358
 20
-1.408822
 30
0.0
 11
-0.00277
 21
-1.275793
 31
0.0
  0
LINE
  5
337
100
AcDbEntity
  8
0
100
AcDbLine
 10
-0.134843
 20
-1.399027
 30
0.0
 11
-0.002738
 21
-1.266922
 31
0.0
  0
LINE
  5
338
100
AcDbEntity
  8
0
100
AcDbLine
 10
-0.133886
 20
-1.389231
 30
0.0
 11
-0.002707
 21
-1.258052
 31
0.0
  0
LINE
  5
339
100
AcDbEntity
  8
0
100
AcDbLine
 10
-0.13293
 20
-1.379436
 30
0.0
 11
-0.002675
 21
-1.249181
 31
0.0
  0
LINE
  5
33A
100
AcDbEntity
  8
0
100
AcDbLine
 10
-0.131973
 20
-1.36964
 30
0.0
 11
-0.002643
 21
-1.240311
 31
0.0
  0
LINE
  5
33B
100
AcDbEntity
  8
0
100
AcDbLine
 10
-0.131016
 20
-1.359845
 30
0.0
 11
-0.002612
 21
-1.23144
 31
0.0
  0
LINE
  5
33C
100
AcDbEntity
  8
0
100
AcDbLine
 10
-0.13006
 20
-1.350049
 30
0.0
 11
-0.00258
 21
-1.22257
 31
0.0
  0
LINE
  5
33D
100
AcDbEntity
  8
0
100
AcDbLine
 10
-0.129103
 20
-1.340254
 30
0.0
 11
-0.002548
 21
-1.213699
 31
0.0
  0
LINE
  5
33E
100
AcDbEntity
  8
0
100
AcDbLine
 10
-0.128147
 20
-1.330458
 30
0.0
 11
-0.002517
 21
-1.204828
 31
0.0
  0
LINE
  5
33F
100
AcDbEntity
  8
0
100
AcDbLine
 10
-0.12719
 20
-1.320663
 30
0.0
 11
-0.002485
 21
-1.195958
 31
0.0
  0
LINE
  5
340
100
AcDbEntity
  8
0
100
AcDbLine
 10
-0.126233
 20
-1.310868
 30
0.0
 11
-0.002453
 21
-1.187087
 31
0.0
  0
LINE
  5
341
100
AcDbEntity
  8
0
100
AcDbLine
 10
-0.125277
 20
-1.301072
 30
0.0
 11
-0.002421
 21
-1.178217
 31
0.0
  0
LINE
  5
342
100
AcDbEntity
  8
0
100
AcDbLine
 10
-0.12432
 20
-1.291277
 30
0.0
 11
-0.00239
 21
-1.169346
 31
0.0
  0
LINE
  5
343
100
AcDbEntity
  8
0
100
AcDbLine
 10
-0.123363
 20
-1.281481
 30
0.0
 11
-0.002358
 21
-1.160476
 31
0.0
  0
LINE
  5
344
100
AcDbEntity
  8
0
100
AcDbLine
 10
-0.122407
 20
-1.271686
 30
0.0
 11
-0.002326
 21
-1.151605
 31
0.0
  0
LINE
  5
345
100
AcDbEntity
  8
0
100
AcDbLine
 10
-0.12145
 20
-1.26189
 30
0.0
 11
-0.002295
 21
-1.142735
 31
0.0
  0
LINE
  5
346
100
AcDbEntity
  8
0
100
AcDbLine
 10
-0.120493
 20
-1.252095
 30
0.0
 11
-0.002263
 21
-1.133864
 31
0.0
  0
LINE
  5
347
100
AcDbEntity
  8
0
100
AcDbLine
 10
-0.119537
 20
-1.242299
 30
0.0
 11
-0.002231
 21
-1.124994
 31
0.0
  0
LINE
  5
348
100
AcDbEntity
  8
0
100
AcDbLine
 10
-0.11858
 20
-1.232504
 30
0.0
 11
-0.0022
 21
-1.116123
 31
0.0
  0
LINE
  5
349
100
AcDbEntity
  8
0
100
AcDbLine
 10
-0.117623
 20
-1.222708
 30
0.0
 11
-0.002168
 21
-1.107253
 31
0.0
  0
LINE
  5
34A
100
AcDbEntity
  8
0
100
AcDbLine
 10
-0.116667
 20
-1.212913
 30
0.0
 11
-0.002136
 21
-1.098382
 31
0.0
  0
LINE
  5
34B
100
AcDbEntity
  8
0
100
AcDbLine
 10
-0.11571
 20
-1.203117
 30
0.0
 11
-0.002105
 21
-1.089512
 31
0.0
  0
LINE
  5
34C
100
AcDbEntity
  8
0
100
AcDbLine
 10
-0.114754
 20
-1.193322
 30
0.0
 11
-0.002073
 21
-1.080641
 31
0.0
  0
LINE
  5
34D
100
AcDbEntity
  8
0
100
AcDbLine
 10
-0.113797
 20
-1.183526
 30
0.0
 11
-0.002041
 21
-1.071771
 31
0.0
  0
LINE
  5
34E
100
AcDbEntity
  8
0
100
AcDbLine
 10
-0.11284
 20
-1.173731
 30
0.0
 11
-0.00201
 21
-1.0629
 31
0.0
  0
LINE
  5
34F
100
AcDbEntity
  8
0
100
AcDbLine
 10
-0.111884
 20
-1.163935
 30
0.0
 11
-0.001978
 21
-1.05403
 31
0.0
  0
LINE
  5
350
100
AcDbEntity
  8
0
100
AcDbLine
 10
-0.110927
 20
-1.15414
 30
0.0
 11
-0.001946
 21
-1.045159
 31
0.0
  0
LINE
  5
351
100
AcDbEntity
  8
0
100
AcDbLine
 10
-0.10997
 20
-1.144344
 30
0.0
 11
-0.001914
 21
-1.036289
 31
0.0
  0
LINE
  5
352
100
AcDbEntity
  8
0
100
AcDbLine
 10
-0.109014
 20
-1.134549
 30
0.0
 11
-0.001883
 21
-1.027418
 31
0.0
  0
LINE
  5
353
100
AcDbEntity
  8
0
100
AcDbLine
 10
-0.108057
 20
-1.124753
 30
0.0
 11
-0.001851
 21
-1.018548
 31
0.0
  0
LINE
  5
354
100
AcDbEntity
  8
0
100
AcDbLine
 10
-0.1071
 20
-1.114958
 30
0.0
 11
-0.001819
 21
-1.009677
 31
0.0
  0
LINE
  5
355
100
AcDbEntity
  8
0
100
AcDbLine
 10
-0.106144
 20
-1.105162
 30
0.0
 11
-0.001788
 21
-1.000806
 31
0.0
  0
LINE
  5
356
100
AcDbEntity
  8
0
100
AcDbLine
 10
-0.105187
 20
-1.095367
 30
0.0
 11
-0.001756
 21
-0.991936
 31
0.0
  0
LINE
  5
357
100
AcDbEntity
  8
0
100
AcDbLine
 10
-0.10423
 20
-1.085572
 30
0.0
 11
-0.001724
 21
-0.983065
 31
0.0
  0
LINE
  5
358
100
AcDbEntity
  8
0
100
AcDbLine
 10
-0.103274
 20
-1.075776
 30
0.0
 11
-0.001693
 21
-0.974195
 31
0.0
  0
LINE
  5
359
100
AcDbEntity
  8
0
100
AcDbLine
 10
-0.102317
 20
-1.065981
 30
0.0
 11
-0.001661
 21
-0.965324
 31
0.0
  0
LINE
  5
35A
100
AcDbEntity
  8
0
100
AcDbLine
 10
-0.101361
 20
-1.056185
 30
0.0
 11
-0.001629
 21
-0.956454
 31
0.0
  0
LINE
  5
35B
100
AcDbEntity
  8
0
100
AcDbLine
 10
-0.100404
 20
-1.04639
 30
0.0
 11
-0.001598
 21
-0.947583
 31
0.0
  0
LINE
  5
35C
100
AcDbEntity
  8
0
100
AcDbLine
 10
-0.099447
 20
-1.036594
 30
0.0
 11
-0.001566
 21
-0.938713
 31
0.0
  0
LINE
  5
35D
100
AcDbEntity
  8
0
100
AcDbLine
 10
-0.098491
 20
-1.026799
 30
0.0
 11
-0.001534
 21
-0.929842
 31
0.0
  0
LINE
  5
35E
100
AcDbEntity
  8
0
100
AcDbLine
 10
-0.097534
 20
-1.017003
 30
0.0
 11
-0.001503
 21
-0.920972
 31
0.0
  0
LINE
  5
35F
100
AcDbEntity
  8
0
100
AcDbLine
 10
-0.096577
 20
-1.007208
 30
0.0
 11
-0.001471
 21
-0.912101
 31
0.0
  0
LINE
  5
360
100
AcDbEntity
  8
0
100
AcDbLine
 10
-0.095621
 20
-0.997412
 30
0.0
 11
-0.001439
 21
-0.903231
 31
0.0
  0
LINE
  5
361
100
AcDbEntity
  8
0
100
AcDbLine
 10
-0.094664
 20
-0.987617
 30
0.0
 11
-0.001408
 21
-0.89436
 31
0.0
  0
LINE
  5
362
100
AcDbEntity
  8
0
100
AcDbLine
 10
-0.093707
 20
-0.977821
 30
0.0
 11
-0.001376
 21
-0.88549
 31
0.0
  0
LINE
  5
363
100
AcDbEntity
  8
0
100
AcDbLine
 10
-0.092751
 20
-0.968026
 30
0.0
 11
-0.001344
 21
-0.876619
 31
0.0
  0
LINE
  5
364
100
AcDbEntity
  8
0
100
AcDbLine
 10
-0.091794
 20
-0.95823
 30
0.0
 11
-0.001312
 21
-0.867749
 31
0.0
  0
LINE
  5
365
100
AcDbEntity
  8
0
100
AcDbLine
 10
0.001
 20
-0.008069
 30
0.0
 11
0.001761
 21
-0.007308
 31
0.0
  0
LINE
  5
366
100
AcDbEntity
  8
0
100
AcDbLine
 10
0.000044
 20
-0.017864
 30
0.0
 11
0.001729
 21
-0.016179
 31
0.0
  0
LINE
  5
367
100
AcDbEntity
  8
0
100
AcDbLine
 10
-0.000913
 20
-0.02766
 30
0.0
 11
0.001698
 21
-0.025049
 31
0.0
  0
LINE
  5
368
100
AcDbEntity
  8
0
100
AcDbLine
 10
-0.00187
 20
-0.037455
 30
0.0
 11
0.001666
 21
-0.03392
 31
0.0
  0
LINE
  5
369
100
AcDbEntity
  8
0
100
AcDbLine
 10
-0.002826
 20
-0.047251
 30
0.0
 11
0.001634
 21
-0.04279
 31
0.0
  0
LINE
  5
36A
100
AcDbEntity
  8
0
100
AcDbLine
 10
-0.003783
 20
-0.057046
 30
0.0
 11
0.001603
 21
-0.051661
 31
0.0
  0
LINE
  5
36B
100
AcDbEntity
  8
0
100
AcDbLine
 10
-0.00474
 20
-0.066842
 30
0.0
 11
0.001571
 21
-0.060531
 31
0.0
  0
LINE
  5
36C
100
AcDbEntity
  8
0
100
AcDbLine
 10
-0.005696
 20
-0.076637
 30
0.0
 11
0.001539
 21
-0.069402
 31
0.0
  0
LINE
  5
36D
100
AcDbEntity
  8
0
100
AcDbLine
 10
-0.006653
 20
-0.086433
 30
0.0
 11
0.001508
 21
-0.078272
 31
0.0
  0
LINE
  5
36E
100
AcDbEntity
  8
0
100
AcDbLine
 10
-0.007609
 20
-0.096228
 30
0.0
 11
0.001476
 21
-0.087143
 31
0.0
  0
LINE
  5
36F
100
AcDbEntity
  8
0
100
AcDbLine
 10
-0.008566
 20
-0.106024
 30
0.0
 11
0.001444
 21
-0.096013
 31
0.0
  0
LINE
  5
370
100
AcDbEntity
  8
0
100
AcDbLine
 10
-0.009523
 20
-0.115819
 30
0.0
 11
0.001413
 21
-0.104884
 31
0.0
  0
LINE
  5
371
100
AcDbEntity
  8
0
100
AcDbLine
 10
-0.010479
 20
-0.125615
 30
0.0
 11
0.001381
 21
-0.113754
 31
0.0
  0
LINE
  5
372
100
AcDbEntity
  8
0
100
AcDbLine
 10
-0.011436
 20
-0.13541
 30
0.0
 11
0.001349
 21
-0.122625
 31
0.0
  0
LINE
  5
373
100
AcDbEntity
  8
0
100
AcDbLine
 10
-0.012393
 20
-0.145206
 30
0.0
 11
0.001318
 21
-0.131495
 31
0.0
  0
LINE
  5
374
100
AcDbEntity
  8
0
100
AcDbLine
 10
-0.013349
 20
-0.155001
 30
0.0
 11
0.001286
 21
-0.140366
 31
0.0
  0
LINE
  5
375
100
AcDbEntity
  8
0
100
AcDbLine
 10
-0.014306
 20
-0.164797
 30
0.0
 11
0.001254
 21
-0.149236
 31
0.0
  0
LINE
  5
376
100
AcDbEntity
  8
0
100
AcDbLine
 10
-0.015263
 20
-0.174592
 30
0.0
 11
0.001222
 21
-0.158107
 31
0.0
  0
LINE
  5
377
100
AcDbEntity
  8
0
100
AcDbLine
 10
-0.016219
 20
-0.184388
 30
0.0
 11
0.001191
 21
-0.166978
 31
0.0
  0
LINE
  5
378
100
AcDbEntity
  8
0
100
AcDbLine
 10
-0.017176
 20
-0.194183
 30
0.0
 11
0.001159
 21
-0.175848
 31
0.0
  0
LINE
  5
379
100
AcDbEntity
  8
0
100
AcDbLine
 10
-0.018133
 20
-0.203978
 30
0.0
 11
0.001127
 21
-0.184719
 31
0.0
  0
LINE
  5
37A
100
AcDbEntity
  8
0
100
AcDbLine
 10
-0.019089
 20
-0.213774
 30
0.0
 11
0.001096
 21
-0.193589
 31
0.0
  0
LINE
  5
37B
100
AcDbEntity
  8
0
100
AcDbLine
 10
-0.020046
 20
-0.223569
 30
0.0
 11
0.001064
 21
-0.20246
 31
0.0
  0
LINE
  5
37C
100
AcDbEntity
  8
0
100
AcDbLine
 10
-0.021002
 20
-0.233365
 30
0.0
 11
0.001032
 21
-0.21133
 31
0.0
  0
LINE
  5
37D
100
AcDbEntity
  8
0
100
AcDbLine
 10
-0.021959
 20
-0.24316
 30
0.0
 11
0.001001
 21
-0.220201
 31
0.0
  0
LINE
  5
37E
100
AcDbEntity
  8
0
100
AcDbLine
 10
-0.022916
 20
-0.252956
 30
0.0
 11
0.000969
 21
-0.229071
 31
0.0
  0
LINE
  5
37F
100
AcDbEntity
  8
0
100
AcDbLine
 10
-0.023872
 20
-0.262751
 30
0.0
 11
0.000937
 21
-0.237942
 31
0.0
  0
LINE
  5
380
100
AcDbEntity
  8
0
100
AcDbLine
 10
-0.024829
 20
-0.272547
 30
0.0
 11
0.000906
 21
-0.246812
 31
0.0
  0
LINE
  5
381
100
AcDbEntity
  8
0
100
AcDbLine
 10
-0.025786
 20
-0.282342
 30
0.0
 11
0.000874
 21
-0.255683
 31
0.0
  0
LINE
  5
382
100
AcDbEntity
  8
0
100
AcDbLine
 10
-0.026742
 20
-0.292138
 30
0.0
 11
0.000842
 21
-0.264553
 31
0.0
  0
LINE
  5
383
100
AcDbEntity
  8
0
100
AcDbLine
 10
-0.027699
 20
-0.301933
 30
0.0
 11
0.000811
 21
-0.273424
 31
0.0
  0
LINE
  5
384
100
AcDbEntity
  8
0
100
AcDbLine
 10
-0.028656
 20
-0.311729
 30
0.0
 11
0.000779
 21
-0.282294
 31
0.0
  0
LINE
  5
385
100
AcDbEntity
  8
0
100
AcDbLine
 10
-0.029612
 20
-0.321524
 30
0.0
 11
0.000747
 21
-0.291165
 31
0.0
  0
LINE
  5
386
100
AcDbEntity
  8
0
100
AcDbLine
 10
-0.030569
 20
-0.33132
 30
0.0
 11
0.000715
 21
-0.300035
 31
0.0
  0
LINE
  5
387
100
AcDbEntity
  8
0
100
AcDbLine
 10
-0.031526
 20
-0.341115
 30
0.0
 11
0.000684
 21
-0.308906
 31
0.0
  0
LINE
  5
388
100
AcDbEntity
  8
0
100
AcDbLine
 10
-0.032482
 20
-0.350911
 30
0.0
 11
0.000652
 21
-0.317776
 31
0.0
  0
LINE
  5
389
100
AcDbEntity
  8
0
100
AcDbLine
 10
-0.033439
 20
-0.360706
 30
0.0
 11
0.00062
 21
-0.326647
 31
0.0
  0
LINE
  5
38A
100
AcDbEntity
  8
0
100
AcDbLine
 10
-0.034395
 20
-0.370502
 30
0.0
 11
0.000589
 21
-0.335517
 31
0.0
  0
LINE
  5
38B
100
AcDbEntity
  8
0
100
AcDbLine
 10
-0.035352
 20
-0.380297
 30
0.0
 11
0.000557
 21
-0.344388
 31
0.0
  0
LINE
  5
38C
100
AcDbEntity
  8
0
100
AcDbLine
 10
-0.036309
 20
-0.390093
 30
0.0
 11
0.000525
 21
-0.353258
 31
0.0
  0
LINE
  5
38D
100
AcDbEntity
  8
0
100
AcDbLine
 10
-0.037265
 20
-0.399888
 30
0.0
 11
0.000494
 21
-0.362129
 31
0.0
  0
LINE
  5
38E
100
AcDbEntity
  8
0
100
AcDbLine
 10
-0.038222
 20
-0.409684
 30
0.0
 11
0.000462
 21
-0.370999
 31
0.0
  0
LINE
  5
38F
100
AcDbEntity
  8
0
100
AcDbLine
 10
-0.039179
 20
-0.419479
 30
0.0
 11
0.00043
 21
-0.37987
 31
0.0
  0
LINE
  5
390
100
AcDbEntity
  8
0
100
AcDbLine
 10
-0.040135
 20
-0.429274
 30
0.0
 11
0.000399
 21
-0.388741
 31
0.0
  0
LINE
  5
391
100
AcDbEntity
  8
0
100
AcDbLine
 10
-0.041092
 20
-0.43907
 30
0.0
 11
0.000367
 21
-0.397611
 31
0.0
  0
LINE
  5
392
100
AcDbEntity
  8
0
100
AcDbLine
 10
-0.042049
 20
-0.448865
 30
0.0
 11
0.000335
 21
-0.406482
 31
0.0
  0
LINE
  5
393
100
AcDbEntity
  8
0
100
AcDbLine
 10
-0.043005
 20
-0.458661
 30
0.0
 11
0.000304
 21
-0.415352
 31
0.0
  0
LINE
  5
394
100
AcDbEntity
  8
0
100
AcDbLine
 10
-0.043962
 20
-0.468456
 30
0.0
 11
0.000272
 21
-0.424223
 31
0.0
  0
LINE
  5
395
100
AcDbEntity
  8
0
100
AcDbLine
 10
-0.044919
 20
-0.478252
 30
0.0
 11
0.00024
 21
-0.433093
 31
0.0
  0
LINE
  5
396
100
AcDbEntity
  8
0
100
AcDbLine
 10
-0.045875
 20
-0.488047
 30
0.0
 11
0.000208
 21
-0.441964
 31
0.0
  0
LINE
  5
397
100
AcDbEntity
  8
0
100
AcDbLine
 10
-0.046832
 20
-0.497843
 30
0.0
 11
0.000177
 21
-0.450834
 31
0.0
  0
LINE
  5
398
100
AcDbEntity
  8
0
100
AcDbLine
 10
-0.047788
 20
-0.507638
 30
0.0
 11
0.000145
 21
-0.459705
 31
0.0
  0
LINE
  5
399
100
AcDbEntity
  8
0
100
AcDbLine
 10
-0.048745
 20
-0.517434
 30
0.0
 11
0.000113
 21
-0.468575
 31
0.0
  0
LINE
  5
39A
100
AcDbEntity
  8
0
100
AcDbLine
 10
-0.049702
 20
-0.527229
 30
0.0
 11
0.000082
 21
-0.477446
 31
0.0
  0
LINE
  5
39B
100
AcDbEntity
  8
0
100
AcDbLine
 10
-0.050658
 20
-0.537025
 30
0.0
 11
0.00005
 21
-0.486316
 31
0.0
  0
LINE
  5
39C
100
AcDbEntity
  8
0
100
AcDbLine
 10
-0.051615
 20
-0.54682
 30
0.0
 11
0.000018
 21
-0.495187
 31
0.0
  0
LINE
  5
39D
100
AcDbEntity
  8
0
100
AcDbLine
 10
-0.052572
 20
-0.556616
 30
0.0
 11
-0.000013
 21
-0.504057
 31
0.0
  0
LINE
  5
39E
100
AcDbEntity
  8
0
100
AcDbLine
 10
-0.053528
 20
-0.566411
 30
0.0
 11
-0.000045
 21
-0.512928
 31
0.0
  0
LINE
  5
39F
100
AcDbEntity
  8
0
100
AcDbLine
 10
-0.054485
 20
-0.576207
 30
0.0
 11
-0.000077
 21
-0.521798
 31
0.0
  0
LINE
  5
3A0
100
AcDbEntity
  8
0
100
AcDbLine
 10
-0.055442
 20
-0.586002
 30
0.0
 11
-0.000108
 21
-0.530669
 31
0.0
  0
LINE
  5
3A1
100
AcDbEntity
  8
0
100
AcDbLine
 10
-0.056398
 20
-0.595798
 30
0.0
 11
-0.00014
 21
-0.539539
 31
0.0
  0
LINE
  5
3A2
100
AcDbEntity
  8
0
100
AcDbLine
 10
-0.057355
 20
-0.605593
 30
0.0
 11
-0.000172
 21
-0.54841
 31
0.0
  0
LINE
  5
3A3
100
AcDbEntity
  8
0
100
AcDbLine
 10
-0.058312
 20
-0.615389
 30
0.0
 11
-0.000203
 21
-0.55728
 31
0.0
  0
LINE
  5
3A4
100
AcDbEntity
  8
0
100
AcDbLine
 10
-0.059268
 20
-0.625184
 30
0.0
 11
-0.000235
 21
-0.566151
 31
0.0
  0
LINE
  5
3A5
100
AcDbEntity
  8
0
100
AcDbLine
 10
-0.060225
 20
-0.63498
 30
0.0
 11
-0.000267
 21
-0.575021
 31
0.0
  0
LINE
  5
3A6
100
AcDbEntity
  8
0
100
AcDbLine
 10
-0.061181
 20
-0.644775
 30
0.0
 11
-0.000298
 21
-0.583892
 31
0.0
  0
LINE
  5
3A7
100
AcDbEntity
  8
0
100
AcDbLine
 10
-0.062138
 20
-0.65457
 30
0.0
 11
-0.00033
 21
-0.592763
 31
0.0
  0
LINE
  5
3A8
100
AcDbEntity
  8
0
100
AcDbLine
 10
-0.063095
 20
-0.664366
 30
0.0
 11
-0.000362
 21
-0.601633
 31
0.0
  0
LINE
  5
3A9
100
AcDbEntity
  8
0
100
AcDbLine
 10
-0.064051
 20
-0.674161
 30
0.0
 11
-0.000394
 21
-0.610504
 31
0.0
  0
LINE
  5
3AA
100
AcDbEntity
  8
0
100
AcDbLine
 10
-0.065008
 20
-0.683957
 30
0.0
 11
-0.000425
 21
-0.619374
 31
0.0
  0
LINE
  5
3AB
100
AcDbEntity
  8
0
100
AcDbLine
 10
-0.065965
 20
-0.693752
 30
0.0
 11
-0.000457
 21
-0.628245
 31
0.0
  0
LINE
  5
3AC
100
AcDbEntity
  8
0
100
AcDbLine
 10
-0.066921
 20
-0.703548
 30
0.0
 11
-0.000489
 21
-0.637115
 31
0.0
  0
LINE
  5
3AD
100
AcDbEntity
  8
0
100
AcDbLine
 10
-0.067878
 20
-0.713343
 30
0.0
 11
-0.00052
 21
-0.645986
 31
0.0
  0
LINE
  5
3AE
100
AcDbEntity
  8
0
100
AcDbLine
 10
-0.068835
 20
-0.723139
 30
0.0
 11
-0.000552
 21
-0.654856
 31
0.0
  0
LINE
  5
3AF
100
AcDbEntity
  8
0
100
AcDbLine
 10
-0.069791
 20
-0.732934
 30
0.0
 11
-0.000584
 21
-0.663727
 31
0.0
  0
LINE
  5
3B0
100
AcDbEntity
  8
0
100
AcDbLine
 10
-0.070748
 20
-0.74273
 30
0.0
 11
-0.000615
 21
-0.672597
 31
0.0
  0
LINE
  5
3B1
100
AcDbEntity
  8
0
100
AcDbLine
 10
-0.071705
 20
-0.752525
 30
0.0
 11
-0.000647
 21
-0.681468
 31
0.0
  0
LINE
  5
3B2
100
AcDbEntity
  8
0
100
AcDbLine
 10
-0.072661
 20
-0.762321
 30
0.0
 11
-0.000679
 21
-0.690338
 31
0.0
  0
LINE
  5
3B3
100
AcDbEntity
  8
0
100
AcDbLine
 10
-0.073618
 20
-0.772116
 30
0.0
 11
-0.00071
 21
-0.699209
 31
0.0
  0
LINE
  5
3B4
100
AcDbEntity
  8
0
100
AcDbLine
 10
-0.074574
 20
-0.781912
 30
0.0
 11
-0.000742
 21
-0.708079
 31
0.0
  0
LINE
  5
3B5
100
AcDbEntity
  8
0
100
AcDbLine
 10
-0.075531
 20
-0.791707
 30
0.0
 11
-0.000774
 21
-0.71695
 31
0.0
  0
LINE
  5
3B6
100
AcDbEntity
  8
0
100
AcDbLine
 10
-0.076488
 20
-0.801503
 30
0.0
 11
-0.000805
 21
-0.72582
 31
0.0
  0
LINE
  5
3B7
100
AcDbEntity
  8
0
100
AcDbLine
 10
-0.077444
 20
-0.811298
 30
0.0
 11
-0.000837
 21
-0.734691
 31
0.0
  0
LINE
  5
3B8
100
AcDbEntity
  8
0
100
AcDbLine
 10
-0.078401
 20
-0.821094
 30
0.0
 11
-0.000869
 21
-0.743561
 31
0.0
  0
LINE
  5
3B9
100
AcDbEntity
  8
0
100
AcDbLine
 10
-0.079358
 20
-0.830889
 30
0.0
 11
-0.000901
 21
-0.752432
 31
0.0
  0
LINE
  5
3BA
100
AcDbEntity
  8
0
100
AcDbLine
 10
-0.080314
 20
-0.840685
 30
0.0
 11
-0.000932
 21
-0.761302
 31
0.0
  0
LINE
  5
3BB
100
AcDbEntity
  8
0
100
AcDbLine
 10
-0.081271
 20
-0.85048
 30
0.0
 11
-0.000964
 21
-0.770173
 31
0.0
  0
LINE
  5
3BC
100
AcDbEntity
  8
0
100
AcDbLine
 10
-0.082228
 20
-0.860276
 30
0.0
 11
-0.000996
 21
-0.779043
 31
0.0
  0
LINE
  5
3BD
100
AcDbEntity
  8
0
100
AcDbLine
 10
-0.083184
 20
-0.870071
 30
0.0
 11
-0.001027
 21
-0.787914
 31
0.0
  0
LINE
  5
3BE
100
AcDbEntity
  8
0
100
AcDbLine
 10
-0.084141
 20
-0.879866
 30
0.0
 11
-0.001059
 21
-0.796785
 31
0.0
  0
LINE
  5
3BF
100
AcDbEntity
  8
0
100
AcDbLine
 10
-0.085098
 20
-0.889662
 30
0.0
 11
-0.001091
 21
-0.805655
 31
0.0
  0
LINE
  5
3C0
100
AcDbEntity
  8
0
100
AcDbLine
 10
-0.086054
 20
-0.899457
 30
0.0
 11
-0.001122
 21
-0.814526
 31
0.0
  0
LINE
  5
3C1
100
AcDbEntity
  8
0
100
AcDbLine
 10
-0.087011
 20
-0.909253
 30
0.0
 11
-0.001154
 21
-0.823396
 31
0.0
  0
LINE
  5
3C2
100
AcDbEntity
  8
0
100
AcDbLine
 10
-0.087968
 20
-0.919048
 30
0.0
 11
-0.001186
 21
-0.832267
 31
0.0
  0
LINE
  5
3C3
100
AcDbEntity
  8
0
100
AcDbLine
 10
-0.088924
 20
-0.928844
 30
0.0
 11
-0.001217
 21
-0.841137
 31
0.0
  0
LINE
  5
3C4
100
AcDbEntity
  8
0
100
AcDbLine
 10
-0.089881
 20
-0.938639
 30
0.0
 11
-0.001249
 21
-0.850008
 31
0.0
  0
LINE
  5
3C5
100
AcDbEntity
  8
0
100
AcDbLine
 10
-0.090837
 20
-0.948435
 30
0.0
 11
-0.001281
 21
-0.858878
 31
0.0
  0
LWPOLYLINE
  5
3C6
100
AcDbEntity
  8
0
100
AcDbPolyline
 90
        4
 70
     0
 43
0.02
 10
-0.124251
 20
-2.500583
 10
-0.124251
 20
-2.170218
 10
0.100338
 20
-2.465052
 10
0.100338
 20
-2.144137
  0
LWPOLYLINE
  5
3CC
100
AcDbEntity
  8
0
100
AcDbPolyline
 90
        4
 70
     1
 43
0.02
 10
-0.009158
 20
-3.113368
 10
0.060321
 20
-3.165497
 10
0.134344
 20
-4.693806
 10
-0.009901
 20
-4.499324
  0
LWPOLYLINE
  5
3D2
100
AcDbEntity
  8
0
100
AcDbPolyline
 90
        2
 70
     0
 43
0.027
 10
-0.006304
 20
-3.117627
 10
-0.006304
 20
-2.65288
  0
LWPOLYLINE
  5
3D6
100
AcDbEntity
  8
0
100
AcDbPolyline
 90
        3
 70
     1
 43
0.02
 10
0.004121
 20
-1.662365
 10
-0.001817
 20
-0.000013
 10
0.183244
 20
-1.894924
  0
LWPOLYLINE
  5
3DB
100
AcDbEntity
  8
0
100
AcDbPolyline
 90
        2
 70
     0
 43
0.027
 10
-0.000015
 20
-1.657448
 10
-0.000015
 20
-2.102334
  0
LWPOLYLINE
  5
3DF
100
AcDbEntity
  8
0
100
AcDbPolyline
 90
        2
 70
     0
 43
0.027
 10
0.213481
 20
-2.34229
 10
0.410592
 20
-2.341353
  0
LWPOLYLINE
  5
3E3
100
AcDbEntity
  8
0
100
AcDbPolyline
 90
        2
 70
     0
 43
0.027
 10
-0.431992
 20
-2.34173
 10
-0.23982
 20
-2.342943
  0
LWPOLYLINE
  5
3E7
100
AcDbEntity
  8
0
100
AcDbPolyline
 90
        4
 70
     1
 43
0.02
 10
-0.003449
 20
-3.113368
 10
-0.072928
 20
-3.165497
 10
-0.146952
 20
-4.693806
 10
-0.002707
 20
-4.499324
  0
LWPOLYLINE
  5
3ED
100
AcDbEntity
  8
0
100
AcDbPolyline
 90
        3
 70
     1
 43
0.02
 10
-0.004151
 20
-1.662365
 10
0.001787
 20
-0.000013
 10
-0.183273
 20
-1.894924
  0
ENDBLK
  5
3F2
100
AcDbEntity
  8
0
100
AcDbBlockEnd
  0
BLOCK
  5
3F3
100
AcDbEntity
  8
0
100
AcDbBlockBegin
  2
FENCE
 70
     0
 10
0.0
 20
0.0
 30
0.0
  3
FENCE
  1

  0
LWPOLYLINE
  5
3F4
100
AcDbEntity
  8
CERCA
100
AcDbPolyline
 90
        3
 70
     0
 43
0.0
 10
-0.299594
 20
-0.01892
 10
0.150406
 20
-0.01892
 10
0.300406
 20
-0.01892
  0
LWPOLYLINE
  5
3F9
100
AcDbEntity
  8
CERCA
100
AcDbPolyline
 90
        2
 70
     0
 43
0.0
 10
0.000406
 20
-0.31892
 10
0.000406
 20
0.28108
  0
ENDBLK
  5
3FD
100
AcDbEntity
  8
0
100
AcDbBlockEnd
  0
ENDSEC
  0
SECTION
  2
ENTITIES
  0
LWPOLYLINE
  5
3FE
100
AcDbEntity
  8
PRUEBAS
100
AcDbPolyline
 90
        4
 70
     1
 43
0.0
 10
35.5
 20
83.75
 10
36.5
 20
83.75
 10
36.5
 20
84.75
 10
35.5
 20
84.75
  0
LWPOLYLINE
  5
404
100
AcDbEntity
  8
PRUEBAS
100
AcDbPolyline
 90
        4
 70
     1
 43
0.0
 10
40.5
 20
83.75
 10
41.5
 20
83.75
 10
41.5
 20
84.75
 10
40.5
 20
84.75
  0
LWPOLYLINE
  5
40A
100
AcDbEntity
  8
PRUEBAS
100
AcDbPolyline
 90
        4
 70
     1
 43
0.0
 10
45.5
 20
83.75
 10
46.5
 20
83.75
 10
46.5
 20
84.75
 10
45.5
 20
84.75
  0
LWPOLYLINE
  5
410
100
AcDbEntity
  8
PRUEBAS
100
AcDbPolyline
 90
        4
 70
     1
 43
0.0
 10
35.5
 20
89.25
 10
36.5
 20
89.25
 10
36.5
 20
90.25
 10
35.5
 20
90.25
  0
LWPOLYLINE
  5
416
100
AcDbEntity
  8
PRUEBAS
100
AcDbPolyline
 90
        4
 70
     1
 43
0.0
 10
40.5
 20
89.25
 10
41.5
 20
89.25
 10
41.5
 20
90.25
 10
40.5
 20
90.25
  0
LWPOLYLINE
  5
41C
100
AcDbEntity
  8
PRUEBAS
100
AcDbPolyline
 90
        4
 70
     1
 43
0.0
 10
45.5
 20
89.25
 10
46.5
 20
89.25
 10
46.5
 20
90.25
 10
45.5
 20
90.25
  0
LWPOLYLINE
  5
422
100
AcDbEntity
  8
PRUEBAS
100
AcDbPolyline
 90
        4
 70
     1
 43
0.0
 10
35.5
 20
94.25
 10
36.5
 20
94.25
 10
36.5
 20
95.25
 10
35.5
 20
95.25
  0
LWPOLYLINE
  5
428
100
AcDbEntity
  8
PRUEBAS
100
AcDbPolyline
 90
        4
 70
     1
 43
0.0
 10
40.5
 20
94.25
 10
41.5
 20
94.25
 10
41.5
 20
95.25
 10
40.5
 20
95.25
  0
LWPOLYLINE
  5
42E
100
AcDbEntity
  8
PRUEBAS
100
AcDbPolyline
 90
        4
 70
     1
 43
0.0
 10
45.5
 20
94.25
 10
46.5
 20
94.25
 10
46.5
 20
95.25
 10
45.5
 20
95.25
  0
LWPOLYLINE
  5
434
100
AcDbEntity
  8
PRUEBAS
100
AcDbPolyline
 90
        4
 70
     1
 43
0.0
 10
35.5
 20
99.25
 10
36.5
 20
99.25
 10
36.5
 20
100.25
 10
35.5
 20
100.25
  0
LWPOLYLINE
  5
43A
100
AcDbEntity
  8
PRUEBAS
100
AcDbPolyline
 90
        4
 70
     1
 43
0.0
 10
40.5
 20
99.25
 10
41.5
 20
99.25
 10
41.5
 20
100.25
 10
40.5
 20
100.25
  0
LWPOLYLINE
  5
440
100
AcDbEntity
  8
PRUEBAS
100
AcDbPolyline
 90
        4
 70
     1
 43
0.0
 10
45.5
 20
99.25
 10
46.5
 20
99.25
 10
46.5
 20
100.25
 10
45.5
 20
100.25
  0
LWPOLYLINE
  5
446
100
AcDbEntity
  8
PRUEBAS
100
AcDbPolyline
 90
        4
 70
     1
 43
0.0
 10
40.5
 20
109.25
 10
41.5
 20
109.25
 10
41.5
 20
110.25
 10
40.5
 20
110.25
  0
LWPOLYLINE
  5
44C
100
AcDbEntity
  8
PRUEBAS
100
AcDbPolyline
 90
        4
 70
     1
 43
0.0
 10
36.5
 20
109.25
 10
36.5
 20
110.25
 10
35.5
 20
110.25
 10
35.5
 20
109.25
  0
LWPOLYLINE
  5
452
100
AcDbEntity
  8
PRUEBAS
100
AcDbPolyline
 90
        4
 70
     1
 43
0.0
 10
31.5
 20
110.25
 10
31.5
 20
109.25
 10
30.5
 20
109.25
 10
30.5
 20
110.25
  0
LWPOLYLINE
  5
458
100
AcDbEntity
  8
PRUEBAS
100
AcDbPolyline
 90
        4
 70
     1
 43
0.0
 10
26.5
 20
109.25
 10
26.5
 20
110.25
 10
25.5
 20
110.25
 10
25.5
 20
109.25
  0
LWPOLYLINE
  5
45E
100
AcDbEntity
  8
PRUEBAS
100
AcDbPolyline
 90
        4
 70
     1
 43
0.0
 10
41.5
 20
114.25
 10
41.5
 20
115.25
 10
40.5
 20
115.25
 10
40.5
 20
114.25
  0
LWPOLYLINE
  5
464
100
AcDbEntity
  8
PRUEBAS
100
AcDbPolyline
 90
        5
 70
     1
 43
0.0
 10
36.5
 20
115.25
 10
36.5
 20
114.75
 10
36.5
 20
114.25
 10
35.5
 20
114.25
 10
35.5
 20
115.25
  0
LWPOLYLINE
  5
46B
100
AcDbEntity
  8
PRUEBAS
100
AcDbPolyline
 90
        4
 70
     1
 43
0.0
 10
31.5
 20
115.25
 10
31.5
 20
114.25
 10
30.5
 20
114.25
 10
30.5
 20
115.25
  0
LWPOLYLINE
  5
471
100
AcDbEntity
  8
PRUEBAS
100
AcDbPolyline
 90
        4
 70
     1
 43
0.0
 10
25.5
 20
114.25
 10
26.5
 20
114.25
 10
26.5
 20
115.25
 10
25.5
 20
115.25
  0
LWPOLYLINE
  5
477
100
AcDbEntity
  8
PRUEBAS
100
AcDbPolyline
 90
        4
 70
     1
 43
0.0
 10
25.5
 20
119.25
 10
26.5
 20
119.25
 10
26.5
 20
120.25
 10
25.5
 20
120.25
  0
LWPOLYLINE
  5
47D
100
AcDbEntity
  8
PRUEBAS
100
AcDbPolyline
 90
        4
 70
     1
 43
0.0
 10
31.5
 20
120.25
 10
31.5
 20
119.25
 10
30.5
 20
119.25
 10
30.5
 20
120.25
  0
LWPOLYLINE
  5
483
100
AcDbEntity
  8
PRUEBAS
100
AcDbPolyline
 90
        5
 70
     1
 43
0.0
 10
36.5
 20
120.25
 10
36.5
 20
119.75
 10
36.5
 20
119.25
 10
35.5
 20
119.25
 10
35.5
 20
120.25
  0
LWPOLYLINE
  5
48A
100
AcDbEntity
  8
PRUEBAS
100
AcDbPolyline
 90
        4
 70
     1
 43
0.0
 10
41.5
 20
119.25
 10
41.5
 20
120.25
 10
40.5
 20
120.25
 10
40.5
 20
119.25
  0
LWPOLYLINE
  5
490
100
AcDbEntity
  8
CASA
100
AcDbPolyline
 90
        4
 70
     1
 43
0.0
 10
30.014423
 20
2.241766
 10
28.6874
 20
9.693043
 10
36.971942
 20
10.95703
 10
37.875331
 20
3.277797
  0
LWPOLYLINE
  5
496
100
AcDbEntity
  8
PRUEBAS
100
AcDbPolyline
 90
        4
 70
     1
 43
0.0
 10
29.0
 20
15.0
 10
29.0
 20
16.0
 10
30.0
 20
16.0
 10
30.0
 20
15.0
  0
LWPOLYLINE
  5
49C
100
AcDbEntity
  8
PRUEBAS
100
AcDbPolyline
 90
        4
 70
     1
 43
0.0
 10
34.0
 20
15.0
 10
35.0
 20
15.0
 10
35.0
 20
16.0
 10
34.0
 20
16.0
  0
LWPOLYLINE
  5
4A2
100
AcDbEntity
  8
PRUEBAS
100
AcDbPolyline
 90
        4
 70
     1
 43
0.0
 10
39.0
 20
15.0
 10
40.0
 20
15.0
 10
40.0
 20
16.0
 10
39.0
 20
16.0
  0
LWPOLYLINE
  5
4A8
100
AcDbEntity
  8
PRUEBAS
100
AcDbPolyline
 90
        4
 70
     1
 43
0.0
 10
44.0
 20
15.0
 10
45.0
 20
15.0
 10
45.0
 20
16.0
 10
44.0
 20
16.0
  0
LWPOLYLINE
  5
4AE
100
AcDbEntity
  8
PRUEBAS
100
AcDbPolyline
 90
        4
 70
     1
 43
0.0
 10
49.0
 20
16.0
 10
49.0
 20
15.0
 10
50.0
 20
15.0
 10
50.0
 20
16.0
  0
LWPOLYLINE
  5
4B4
100
AcDbEntity
  8
PRUEBAS
100
AcDbPolyline
 90
        4
 70
     1
 43
0.0
 10
29.0
 20
20.0
 10
29.0
 20
21.0
 10
30.0
 20
21.0
 10
30.0
 20
20.0
  0
LWPOLYLINE
  5
4BA
100
AcDbEntity
  8
PRUEBAS
100
AcDbPolyline
 90
        4
 70
     1
 43
0.0
 10
34.0
 20
20.0
 10
35.0
 20
20.0
 10
35.0
 20
21.0
 10
34.0
 20
21.0
  0
LWPOLYLINE
  5
4C0
100
AcDbEntity
  8
PRUEBAS
100
AcDbPolyline
 90
        4
 70
     1
 43
0.0
 10
39.0
 20
20.0
 10
40.0
 20
20.0
 10
40.0
 20
21.0
 10
39.0
 20
21.0
  0
LWPOLYLINE
  5
4C6
100
AcDbEntity
  8
PRUEBAS
100
AcDbPolyline
 90
        4
 70
     1
 43
0.0
 10
44.0
 20
20.0
 10
45.0
 20
20.0
 10
45.0
 20
21.0
 10
44.0
 20
21.0
  0
LWPOLYLINE
  5
4CC
100
AcDbEntity
  8
PRUEBAS
100
AcDbPolyline
 90
        4
 70
     1
 43
0.0
 10
49.0
 20
21.0
 10
49.0
 20
20.0
 10
50.0
 20
20.0
 10
50.0
 20
21.0
  0
LWPOLYLINE
  5
4D2
100
AcDbEntity
  8
PRUEBAS
100
AcDbPolyline
 90
        4
 70
     1
 43
0.0
 10
29.0
 20
25.0
 10
29.0
 20
26.0
 10
30.0
 20
26.0
 10
30.0
 20
25.0
  0
LWPOLYLINE
  5
4D8
100
AcDbEntity
  8
PRUEBAS
100
AcDbPolyline
 90
        4
 70
     1
 43
0.0
 10
34.0
 20
25.0
 10
35.0
 20
25.0
 10
35.0
 20
26.0
 10
34.0
 20
26.0
  0
LWPOLYLINE
  5
4DE
100
AcDbEntity
  8
PRUEBAS
100
AcDbPolyline
 90
        4
 70
     1
 43
0.0
 10
39.0
 20
25.0
 10
40.0
 20
25.0
 10
40.0
 20
26.0
 10
39.0
 20
26.0
  0
LWPOLYLINE
  5
4E4
100
AcDbEntity
  8
PRUEBAS
100
AcDbPolyline
 90
        4
 70
     1
 43
0.0
 10
44.0
 20
25.0
 10
45.0
 20
25.0
 10
45.0
 20
26.0
 10
44.0
 20
26.0
  0
LWPOLYLINE
  5
4EA
100
AcDbEntity
  8
PRUEBAS
100
AcDbPolyline
 90
        4
 70
     1
 43
0.0
 10
49.0
 20
26.0
 10
49.0
 20
25.0
 10
50.0
 20
25.0
 10
50.0
 20
26.0
  0
LWPOLYLINE
  5
4F0
100
AcDbEntity
  8
PRUEBAS
100
AcDbPolyline
 90
        4
 70
     1
 43
0.0
 10
29.0
 20
30.0
 10
29.0
 20
31.0
 10
30.0
 20
31.0
 10
30.0
 20
30.0
  0
LWPOLYLINE
  5
4F6
100
AcDbEntity
  8
PRUEBAS
100
AcDbPolyline
 90
        4
 70
     1
 43
0.0
 10
34.0
 20
30.0
 10
35.0
 20
30.0
 10
35.0
 20
31.0
 10
34.0
 20
31.0
  0
LWPOLYLINE
  5
4FC
100
AcDbEntity
  8
PRUEBAS
100
AcDbPolyline
 90
        4
 70
     1
 43
0.0
 10
39.0
 20
30.0
 10
40.0
 20
30.0
 10
40.0
 20
31.0
 10
39.0
 20
31.0
  0
LWPOLYLINE
  5
502
100
AcDbEntity
  8
PRUEBAS
100
AcDbPolyline
 90
        4
 70
     1
 43
0.0
 10
44.0
 20
30.0
 10
45.0
 20
30.0
 10
45.0
 20
31.0
 10
44.0
 20
31.0
  0
LWPOLYLINE
  5
508
100
AcDbEntity
  8
PRUEBAS
100
AcDbPolyline
 90
        4
 70
     1
 43
0.0
 10
49.0
 20
31.0
 10
49.0
 20
30.0
 10
50.0
 20
30.0
 10
50.0
 20
31.0
  0
LWPOLYLINE
  5
50E
100
AcDbEntity
  8
PRUEBAS
100
AcDbPolyline
 90
        4
 70
     1
 43
0.0
 10
29.0
 20
35.0
 10
29.0
 20
36.0
 10
30.0
 20
36.0
 10
30.0
 20
35.0
  0
LWPOLYLINE
  5
514
100
AcDbEntity
  8
PRUEBAS
100
AcDbPolyline
 90
        4
 70
     1
 43
0.0
 10
34.0
 20
35.0
 10
35.0
 20
35.0
 10
35.0
 20
36.0
 10
34.0
 20
36.0
  0
LWPOLYLINE
  5
51A
100
AcDbEntity
  8
PRUEBAS
100
AcDbPolyline
 90
        4
 70
     1
 43
0.0
 10
39.0
 20
35.0
 10
40.0
 20
35.0
 10
40.0
 20
36.0
 10
39.0
 20
36.0
  0
LWPOLYLINE
  5
520
100
AcDbEntity
  8
PRUEBAS
100
AcDbPolyline
 90
        4
 70
     1
 43
0.0
 10
44.0
 20
35.0
 10
45.0
 20
35.0
 10
45.0
 20
36.0
 10
44.0
 20
36.0
  0
LWPOLYLINE
  5
526
100
AcDbEntity
  8
PRUEBAS
100
AcDbPolyline
 90
        4
 70
     1
 43
0.0
 10
49.0
 20
36.0
 10
49.0
 20
35.0
 10
50.0
 20
35.0
 10
50.0
 20
36.0
  0
LWPOLYLINE
  5
52C
100
AcDbEntity
  8
PRUEBAS
100
AcDbPolyline
 90
        4
 70
     1
 43
0.0
 10
2.15
 20
43.85
 10
3.15
 20
43.85
 10
3.15
 20
44.85
 10
2.15
 20
44.85
  0
LWPOLYLINE
  5
532
100
AcDbEntity
  8
PRUEBAS
100
AcDbPolyline
 90
        4
 70
     1
 43
0.0
 10
7.15
 20
43.85
 10
8.15
 20
43.85
 10
8.15
 20
44.85
 10
7.15
 20
44.85
  0
LWPOLYLINE
  5
538
100
AcDbEntity
  8
PRUEBAS
100
AcDbPolyline
 90
        4
 70
     1
 43
0.0
 10
12.15
 20
43.85
 10
13.15
 20
43.85
 10
13.15
 20
44.85
 10
12.15
 20
44.85
  0
LWPOLYLINE
  5
53E
100
AcDbEntity
  8
PRUEBAS
100
AcDbPolyline
 90
        4
 70
     1
 43
0.0
 10
2.15
 20
48.85
 10
3.15
 20
48.85
 10
3.15
 20
49.85
 10
2.15
 20
49.85
  0
LWPOLYLINE
  5
544
100
AcDbEntity
  8
PRUEBAS
100
AcDbPolyline
 90
        4
 70
     1
 43
0.0
 10
7.15
 20
48.85
 10
8.15
 20
48.85
 10
8.15
 20
49.85
 10
7.15
 20
49.85
  0
LWPOLYLINE
  5
54A
100
AcDbEntity
  8
PRUEBAS
100
AcDbPolyline
 90
        4
 70
     1
 43
0.0
 10
12.15
 20
48.85
 10
13.15
 20
48.85
 10
13.15
 20
49.85
 10
12.15
 20
49.85
  0
LWPOLYLINE
  5
550
100
AcDbEntity
  8
PRUEBAS
100
AcDbPolyline
 90
        4
 70
     1
 43
0.0
 10
2.15
 20
53.85
 10
3.15
 20
53.85
 10
3.15
 20
54.85
 10
2.15
 20
54.85
  0
LWPOLYLINE
  5
556
100
AcDbEntity
  8
PRUEBAS
100
AcDbPolyline
 90
        4
 70
     1
 43
0.0
 10
7.15
 20
53.85
 10
8.15
 20
53.85
 10
8.15
 20
54.85
 10
7.15
 20
54.85
  0
LWPOLYLINE
  5
55C
100
AcDbEntity
  8
PRUEBAS
100
AcDbPolyline
 90
        4
 70
     1
 43
0.0
 10
12.15
 20
54.85
 10
13.15
 20
54.85
 10
13.15
 20
53.85
 10
12.15
 20
53.85
  0
LWPOLYLINE
  5
562
100
AcDbEntity
  8
PRUEBAS
100
AcDbPolyline
 90
        4
 70
     1
 43
0.0
 10
2.15
 20
59.85
 10
2.15
 20
58.85
 10
3.15
 20
58.85
 10
3.15
 20
59.85
  0
LWPOLYLINE
  5
568
100
AcDbEntity
  8
PRUEBAS
100
AcDbPolyline
 90
        4
 70
     1
 43
0.0
 10
7.15
 20
59.85
 10
7.15
 20
58.85
 10
8.15
 20
58.85
 10
8.15
 20
59.85
  0
LWPOLYLINE
  5
56E
100
AcDbEntity
  8
PRUEBAS
100
AcDbPolyline
 90
        4
 70
     1
 43
0.0
 10
12.15
 20
58.85
 10
13.15
 20
58.85
 10
13.15
 20
59.85
 10
12.15
 20
59.85
  0
LWPOLYLINE
  5
574
100
AcDbEntity
  8
PRUEBAS
100
AcDbPolyline
 90
        4
 70
     1
 43
0.0
 10
17.15
 20
59.85
 10
17.15
 20
58.85
 10
18.15
 20
58.85
 10
18.15
 20
59.85
  0
LWPOLYLINE
  5
57A
100
AcDbEntity
  8
PRUEBAS
100
AcDbPolyline
 90
        4
 70
     1
 43
0.0
 10
7.15
 20
64.85
 10
7.15
 20
63.85
 10
8.15
 20
63.85
 10
8.15
 20
64.85
  0
LWPOLYLINE
  5
580
100
AcDbEntity
  8
PRUEBAS
100
AcDbPolyline
 90
        4
 70
     1
 43
0.0
 10
12.15
 20
64.85
 10
12.15
 20
63.85
 10
13.15
 20
63.85
 10
13.15
 20
64.85
  0
LWPOLYLINE
  5
586
100
AcDbEntity
  8
0
100
AcDbPolyline
 90
        4
 70
     1
 43
0.0
 10
0.0
 20
0.0
 10
74.0
 20
0.0
 10
74.0
 20
122.0
 10
0.0
 20
122.0
  0
INSERT
  5
58C
100
AcDbEntity
  8
NARROW
100
AcDbBlockReference
  2
NARROW
 10
9.5
 20
19.75
 30
0.0
 41
2.0
 42
2.0
 43
2.0
  0
LWPOLYLINE
  5
58D
100
AcDbEntity
  8
CERCA
100
AcDbPolyline
 90
        2
 70
     0
 43
0.0
 10
73.700135
 20
114.893693
 10
73.700135
 20
115.493693
  0
LWPOLYLINE
  5
591
100
AcDbEntity
  8
CERCA
100
AcDbPolyline
 90
        3
 70
     0
 43
0.0
 10
73.400135
 20
115.193693
 10
73.850135
 20
115.193693
 10
74.000135
 20
115.193693
  0
INSERT
  5
596
100
AcDbEntity
  8
CERCA
100
AcDbBlockReference
  2
FENCE
 10
72.622564
 20
113.598246
 30
0.0
  0
INSERT
  5
597
100
AcDbEntity
  8
CERCA
100
AcDbBlockReference
  2
FENCE
 10
71.455636
 20
111.490601
 30
0.0
  0
INSERT
  5
598
100
AcDbEntity
  8
CERCA
100
AcDbBlockReference
  2
FENCE
 10
70.647762
 20
109.831391
 30
0.0
  0
INSERT
  5
599
100
AcDbEntity
  8
CERCA
100
AcDbBlockReference
  2
FENCE
 10
69.301307
 20
107.051092
 30
0.0
  0
INSERT
  5
59A
100
AcDbEntity
  8
CERCA
100
AcDbBlockReference
  2
FENCE
 10
68.089496
 20
104.808916
 30
0.0
  0
INSERT
  5
59B
100
AcDbEntity
  8
CERCA
100
AcDbBlockReference
  2
FENCE
 10
66.832804
 20
102.701271
 30
0.0
  0
INSERT
  5
59C
100
AcDbEntity
  8
CERCA
100
AcDbBlockReference
  2
FENCE
 10
65.62883
 20
100.29538
 30
0.0
  0
INSERT
  5
59D
100
AcDbEntity
  8
CERCA
100
AcDbBlockReference
  2
FENCE
 10
64.665651
 20
97.769195
 30
0.0
  0
INSERT
  5
59E
100
AcDbEntity
  8
CERCA
100
AcDbBlockReference
  2
FENCE
 10
63.591454
 20
94.626194
 30
0.0
 50
113.2163
  0
INSERT
  5
59F
100
AcDbEntity
  8
CERCA
100
AcDbBlockReference
  2
FENCE
 10
62.498499
 20
90.912407
 30
0.0
  0
INSERT
  5
5A0
100
AcDbEntity
  8
CERCA
100
AcDbBlockReference
  2
FENCE
 10
61.549636
 20
88.239215
 30
0.0
 50
99.47028
  0
INSERT
  5
5A1
100
AcDbEntity
  8
CERCA
100
AcDbBlockReference
  2
FENCE
 10
60.801256
 20
85.248873
 30
0.0
 50
21.784514
  0
INSERT
  5
5A2
100
AcDbEntity
  8
CERCA
100
AcDbBlockReference
  2
FENCE
 10
60.014155
 20
82.354086
 30
0.0
 50
36.846344
  0
INSERT
  5
5A3
100
AcDbEntity
  8
CERCA
100
AcDbBlockReference
  2
FENCE
 10
59.467265
 20
79.767224
 30
0.0
 50
49.374542
  0
INSERT
  5
5A4
100
AcDbEntity
  8
CERCA
100
AcDbBlockReference
  2
FENCE
 10
58.28459
 20
76.958242
 30
0.0
  0
INSERT
  5
5A5
100
AcDbEntity
  8
CERCA
100
AcDbBlockReference
  2
FENCE
 10
56.358232
 20
75.93138
 30
0.0
  0
INSERT
  5
5A6
100
AcDbEntity
  8
CERCA
100
AcDbBlockReference
  2
FENCE
 10
52.797872
 20
74.928601
 30
0.0
 50
306.893398
  0
INSERT
  5
5A7
100
AcDbEntity
  8
CERCA
100
AcDbBlockReference
  2
FENCE
 10
49.756684
 20
74.929222
 30
0.0
 50
305.334304
  0
INSERT
  5
5A8
100
AcDbEntity
  8
CERCA
100
AcDbBlockReference
  2
FENCE
 10
47.842849
 20
74.895517
 30
0.0
 50
303.71268
  0
INSERT
  5
5A9
100
AcDbEntity
  8
CERCA
100
AcDbBlockReference
  2
FENCE
 10
45.139493
 20
74.862977
 30
0.0
 50
60.233985
  0
INSERT
  5
5AA
100
AcDbEntity
  8
CERCA
100
AcDbBlockReference
  2
FENCE
 10
42.165757
 20
74.567311
 30
0.0
 50
174.555665
  0
INSERT
  5
5AB
100
AcDbEntity
  8
CERCA
100
AcDbBlockReference
  2
FENCE
 10
39.585069
 20
74.064727
 30
0.0
 50
56.287315
  0
INSERT
  5
5AC
100
AcDbEntity
  8
CERCA
100
AcDbBlockReference
  2
FENCE
 10
36.187309
 20
72.636357
 30
0.0
  0
INSERT
  5
5AD
100
AcDbEntity
  8
CERCA
100
AcDbBlockReference
  2
FENCE
 10
33.48273
 20
70.213032
 30
0.0
  0
INSERT
  5
5AE
100
AcDbEntity
  8
CERCA
100
AcDbBlockReference
  2
FENCE
 10
32.158359
 20
67.936153
 30
0.0
  0
INSERT
  5
5AF
100
AcDbEntity
  8
CERCA
100
AcDbBlockReference
  2
FENCE
 10
31.554744
 20
65.159355
 30
0.0
 50
39.265415
  0
INSERT
  5
5B0
100
AcDbEntity
  8
CERCA
100
AcDbBlockReference
  2
FENCE
 10
31.163889
 20
62.593072
 30
0.0
 50
39.265415
  0
INSERT
  5
5B1
100
AcDbEntity
  8
CERCA
100
AcDbBlockReference
  2
FENCE
 10
31.331398
 20
58.966802
 30
0.0
 50
39.265415
  0
INSERT
  5
5B2
100
AcDbEntity
  8
CERCA
100
AcDbBlockReference
  2
FENCE
 10
33.531636
 20
55.905037
 30
0.0
 50
84.240922
  0
INSERT
  5
5B3
100
AcDbEntity
  8
CERCA
100
AcDbBlockReference
  2
FENCE
 10
36.189171
 20
54.447912
 30
0.0
 50
39.265415
  0
INSERT
  5
5B4
100
AcDbEntity
  8
CERCA
100
AcDbBlockReference
  2
FENCE
 10
39.930214
 20
53.108982
 30
0.0
 50
39.265415
  0
INSERT
  5
5B5
100
AcDbEntity
  8
CERCA
100
AcDbBlockReference
  2
FENCE
 10
43.782931
 20
52.551095
 30
0.0
 50
39.265415
  0
INSERT
  5
5B6
100
AcDbEntity
  8
CERCA
100
AcDbBlockReference
  2
FENCE
 10
46.853936
 20
52.327939
 30
0.0
 50
39.265415
  0
INSERT
  5
5B7
100
AcDbEntity
  8
CERCA
100
AcDbBlockReference
  2
FENCE
 10
49.534086
 20
52.048995
 30
0.0
 50
39.265415
  0
INSERT
  5
5B8
100
AcDbEntity
  8
CERCA
100
AcDbBlockReference
  2
FENCE
 10
52.946389
 20
50.142471
 30
0.0
 50
84.240931
  0
INSERT
  5
5B9
100
AcDbEntity
  8
CERCA
100
AcDbBlockReference
  2
FENCE
 10
55.068175
 20
47.966709
 30
0.0
 50
84.240931
  0
INSERT
  5
5BA
100
AcDbEntity
  8
CERCA
100
AcDbBlockReference
  2
FENCE
 10
55.900124
 20
44.459238
 30
0.0
 50
49.046395
  0
INSERT
  5
5BB
100
AcDbEntity
  8
CERCA
100
AcDbBlockReference
  2
FENCE
 10
55.900124
 20
41.502433
 30
0.0
 50
49.046395
  0
INSERT
  5
5BC
100
AcDbEntity
  8
CERCA
100
AcDbBlockReference
  2
FENCE
 10
55.453432
 20
37.262487
 30
0.0
 50
49.046395
  0
INSERT
  5
5BD
100
AcDbEntity
  8
CERCA
100
AcDbBlockReference
  2
FENCE
 10
55.00674
 20
32.687808
 30
0.0
 50
49.046395
  0
INSERT
  5
5BE
100
AcDbEntity
  8
CERCA
100
AcDbBlockReference
  2
FENCE
 10
54.839231
 20
29.396271
 30
0.0
 50
49.046395
  0
INSERT
  5
5BF
100
AcDbEntity
  8
CERCA
100
AcDbBlockReference
  2
FENCE
 10
54.615885
 20
25.323691
 30
0.0
 50
49.046395
  0
INSERT
  5
5C0
100
AcDbEntity
  8
CERCA
100
AcDbBlockReference
  2
FENCE
 10
54.001684
 20
20.804801
 30
0.0
 50
49.046395
  0
INSERT
  5
5C1
100
AcDbEntity
  8
CERCA
100
AcDbBlockReference
  2
FENCE
 10
53.778338
 20
16.843799
 30
0.0
 50
49.046395
  0
INSERT
  5
5C2
100
AcDbEntity
  8
CERCA
100
AcDbBlockReference
  2
FENCE
 10
53.666665
 20
13.998572
 30
0.0
 50
49.046395
  0
INSERT
  5
5C3
100
AcDbEntity
  8
CERCA
100
AcDbBlockReference
  2
FENCE
 10
53.666665
 20
10.372302
 30
0.0
 50
49.046395
  0
INSERT
  5
5C4
100
AcDbEntity
  8
CERCA
100
AcDbBlockReference
  2
FENCE
 10
53.554992
 20
6.020778
 30
0.0
 50
49.046395
  0
INSERT
  5
5C5
100
AcDbEntity
  8
CERCA
100
AcDbBlockReference
  2
FENCE
 10
53.219973
 20
2.394508
 30
0.0
 50
49.046395
  0
LWPOLYLINE
  5
5C6
100
AcDbEntity
  8
CERCA
100
AcDbPolyline
 90
      352
 70
     0
 43
0.0
 10
74.0
 20
115.574302
 10
73.731445
 20
115.22526
 10
73.289917
 20
114.605957
 10
72.882813
 20
113.989583
 10
72.502075
 20
113.369303
 10
72.139648
 20
112.738281
 10
71.787476
 20
112.089681
 10
71.4375
 20
111.416667
 10
71.083537
 20
110.715495
 10
70.726888
 20
109.994792
 10
70.370728
 20
109.266276
 10
70.018229
 20
108.541667
 10
69.672567
 20
107.832682
 10
69.336914
 20
107.151042
 10
69.014445
 20
106.508464
 10
68.708333
 20
105.916667
 10
68.420898
 20
105.38387
 10
68.151042
 20
104.904297
 10
67.89681
 20
104.468669
 10
67.65625
 20
104.067708
 10
67.427409
 20
103.692139
 10
67.208333
 20
103.332682
 10
66.99707
 20
102.980062
 10
66.791667
 20
102.625
 10
66.590413
 20
102.259684
 10
66.392578
 20
101.882161
 10
66.197673
 20
101.491943
 10
66.005208
 20
101.088542
 10
65.814697
 20
100.671468
 10
65.625651
 20
100.240234
 10
65.437581
 20
99.794352
 10
65.25
 20
99.333333
 10
65.062826
 20
98.857747
 10
64.877604
 20
98.372396
 10
64.696289
 20
97.883138
 10
64.520833
 20
97.395833
 10
64.35319
 20
96.916341
 10
64.195313
 20
96.450521
 10
64.049154
 20
96.004232
 10
63.916667
 20
95.583333
 10
63.798828
 20
95.191569
 10
63.692708
 20
94.824219
 10
63.594401
 20
94.474447
 10
63.5
 20
94.135417
 10
63.405599
 20
93.800293
 10
63.307292
 20
93.46224
 10
63.201172
 20
93.114421
 10
63.083333
 20
92.75
 10
62.95109
 20
92.363932
 10
62.806641
 20
91.958333
 10
62.653402
 20
91.537109
 10
62.494792
 20
91.104167
 10
62.334229
 20
90.663411
 10
62.17513
 20
90.21875
 10
62.020915
 20
89.774089
 10
61.875
 20
89.333333
 10
61.73999
 20
88.899577
 10
61.615234
 20
88.472656
 10
61.499268
 20
88.051595
 10
61.390625
 20
87.635417
 10
61.287842
 20
87.223145
 10
61.189453
 20
86.813802
 10
61.093994
 20
86.406413
 10
61.0
 20
86.0
 10
60.90625
 20
85.594076
 10
60.8125
 20
85.190104
 10
60.71875
 20
84.790039
 10
60.625
 20
84.395833
 10
60.53125
 20
84.00944
 10
60.4375
 20
83.632813
 10
60.34375
 20
83.267904
 10
60.25
 20
82.916667
 10
60.156413
 20
82.580241
 10
60.063802
 20
82.25651
 10
59.973145
 20
81.942546
 10
59.885417
 20
81.635417
 10
59.801595
 20
81.332194
 10
59.722656
 20
81.029948
 10
59.649577
 20
80.725749
 10
59.583333
 20
80.416667
 10
59.52417
 20
80.10083
 10
59.469401
 20
79.780599
 10
59.415609
 20
79.459391
 10
59.359375
 20
79.140625
 10
59.297282
 20
78.827718
 10
59.225911
 20
78.524089
 10
59.141846
 20
78.233154
 10
59.041667
 20
77.958333
 10
58.921468
 20
77.701986
 10
58.775391
 20
77.46224
 10
58.597087
 20
77.236165
 10
58.380208
 20
77.020833
 10
58.118408
 20
76.813314
 10
57.805339
 20
76.610677
 10
57.434652
 20
76.409993
 10
57.0
 20
76.208333
 10
56.498779
 20
76.004069
 10
55.943359
 20
75.800781
 10
55.349854
 20
75.603353
 10
54.734375
 20
75.416667
 10
54.113037
 20
75.245605
 10
53.501953
 20
75.095052
 10
52.917236
 20
74.969889
 10
52.375
 20
74.875
 10
51.886882
 20
74.813558
 10
51.446615
 20
74.781901
 10
51.043457
 20
74.774658
 10
50.666667
 20
74.786458
 10
50.305501
 20
74.81193
 10
49.949219
 20
74.845703
 10
49.587077
 20
74.882406
 10
49.208333
 20
74.916667
 10
48.804281
 20
74.94401
 10
48.374349
 20
74.963542
 10
47.920003
 20
74.97526
 10
47.442708
 20
74.979167
 10
46.943929
 20
74.97526
 10
46.42513
 20
74.963542
 10
45.887777
 20
74.94401
 10
45.333333
 20
74.916667
 10
44.76359
 20
74.881348
 10
44.181641
 20
74.83724
 10
43.590902
 20
74.783366
 10
42.994792
 20
74.71875
 10
42.396729
 20
74.642415
 10
41.80013
 20
74.553385
 10
41.208415
 20
74.450684
 10
40.625
 20
74.333333
 10
40.052897
 20
74.200439
 10
39.49349
 20
74.051432
 10
38.947754
 20
73.885824
 10
38.416667
 20
73.703125
 10
37.901204
 20
73.502848
 10
37.402344
 20
73.284505
 10
36.921061
 20
73.047607
 10
36.458333
 20
72.791667
 10
36.015137
 20
72.516846
 10
35.592448
 20
72.225911
 10
35.191243
 20
71.922282
 10
34.8125
 20
71.609375
 10
34.457194
 20
71.290609
 10
34.126302
 20
70.969401
 10
33.820801
 20
70.64917
 10
33.541667
 20
70.333333
 10
33.289469
 20
70.024577
 10
33.063151
 20
69.722656
 10
32.861247
 20
69.426595
 10
32.682292
 20
69.135417
 10
32.524821
 20
68.848145
 10
32.38737
 20
68.563802
 10
32.268473
 20
68.281413
 10
32.166667
 20
68.0
 10
32.080241
 20
67.718262
 10
32.00651
 20
67.433594
 10
31.942546
 20
67.143066
 10
31.885417
 20
66.84375
 10
31.832194
 20
66.532715
 10
31.779948
 20
66.207031
 10
31.725749
 20
65.86377
 10
31.666667
 20
65.5
 10
31.600667
 20
65.114909
 10
31.529297
 20
64.716146
 10
31.454997
 20
64.313477
 10
31.380208
 20
63.916667
 10
31.307373
 20
63.535482
 10
31.238932
 20
63.179688
 10
31.177327
 20
62.859049
 10
31.125
 20
62.583333
 10
31.08374
 20
62.358724
 10
31.052734
 20
62.177083
 10
31.030518
 20
62.026693
 10
31.015625
 20
61.895833
 10
31.006592
 20
61.772786
 10
31.001953
 20
61.645833
 10
31.000244
 20
61.503255
 10
31.0
 20
61.333333
 10
31.000651
 20
61.127116
 10
31.005208
 20
60.886719
 10
31.017578
 20
60.617025
 10
31.041667
 20
60.322917
 10
31.08138
 20
60.009277
 10
31.140625
 20
59.68099
 10
31.223307
 20
59.342936
 10
31.333333
 20
59.0
 10
31.473389
 20
58.656657
 10
31.641276
 20
58.315755
 10
31.833577
 20
57.979736
 10
32.046875
 20
57.651042
 10
32.277751
 20
57.332113
 10
32.522786
 20
57.025391
 10
32.778564
 20
56.733317
 10
33.041667
 20
56.458333
 10
33.309733
 20
56.202067
 10
33.584635
 20
55.962891
 10
33.869303
 20
55.738363
 10
34.166667
 20
55.526042
 10
34.479655
 20
55.323486
 10
34.811198
 20
55.128255
 10
35.164225
 20
54.937907
 10
35.541667
 20
54.75
 10
35.94515
 20
54.562744
 10
36.371094
 20
54.376953
 10
36.814616
 20
54.194092
 10
37.270833
 20
54.015625
 10
37.734863
 20
53.843018
 10
38.201823
 20
53.677734
 10
38.666829
 20
53.52124
 10
39.125
 20
53.375
 10
39.573161
 20
53.240234
 10
40.014974
 20
53.117188
 10
40.455811
 20
53.005859
 10
40.901042
 20
52.90625
 10
41.356038
 20
52.818359
 10
41.826172
 20
52.742188
 10
42.316813
 20
52.677734
 10
42.833333
 20
52.625
 10
43.378662
 20
52.583577
 10
43.945964
 20
52.551432
 10
44.52596
 20
52.526123
 10
45.109375
 20
52.505208
 10
45.68693
 20
52.486247
 10
46.249349
 20
52.466797
 10
46.787354
 20
52.444417
 10
47.291667
 20
52.416667
 10
47.75529
 20
52.381429
 10
48.180339
 20
52.337891
 10
48.571208
 20
52.285563
 10
48.932292
 20
52.223958
 10
49.267985
 20
52.152588
 10
49.582682
 20
52.070964
 10
49.880778
 20
51.978597
 10
50.166667
 20
51.875
 10
50.444499
 20
51.759684
 10
50.717448
 20
51.632161
 10
50.988444
 20
51.491943
 10
51.260417
 20
51.338542
 10
51.536296
 20
51.171468
 10
51.81901
 20
50.990234
 10
52.111491
 20
50.794352
 10
52.416667
 20
50.583333
 10
52.735921
 20
50.356771
 10
53.064453
 20
50.114583
 10
53.395915
 20
49.856771
 10
53.723958
 20
49.583333
 10
54.042236
 20
49.294271
 10
54.344401
 20
48.989583
 10
54.624105
 20
48.669271
 10
54.875
 20
48.333333
 10
55.092285
 20
47.982015
 10
55.277344
 20
47.616536
 10
55.433105
 20
47.238363
 10
55.5625
 20
46.848958
 10
55.668457
 20
46.449788
 10
55.753906
 20
46.042318
 10
55.821777
 20
45.628011
 10
55.875
 20
45.208333
 10
55.916097
 20
44.784261
 10
55.945964
 20
44.354818
 10
55.965088
 20
43.918538
 10
55.973958
 20
43.473958
 10
55.973063
 20
43.019613
 10
55.962891
 20
42.554036
 10
55.943929
 20
42.075765
 10
55.916667
 20
41.583333
 10
55.881673
 20
41.07609
 10
55.839844
 20
40.556641
 10
55.792155
 20
40.028402
 10
55.739583
 20
39.494792
 10
55.683105
 20
38.959229
 10
55.623698
 20
38.42513
 10
55.562337
 20
37.895915
 10
55.5
 20
37.375
 10
55.437581
 20
36.864176
 10
55.375651
 20
36.358724
 10
55.314697
 20
35.852295
 10
55.255208
 20
35.338542
 10
55.197673
 20
34.811117
 10
55.142578
 20
34.263672
 10
55.090413
 20
33.68986
 10
55.041667
 20
33.083333
 10
54.996663
 20
32.44043
 10
54.955078
 20
31.768229
 10
54.916423
 20
31.076497
 10
54.880208
 20
30.375
 10
54.845947
 20
29.673503
 10
54.813151
 20
28.981771
 10
54.781331
 20
28.30957
 10
54.75
 20
27.666667
 10
54.718669
 20
27.060628
 10
54.686849
 20
26.490234
 10
54.654053
 20
25.952067
 10
54.619792
 20
25.442708
 10
54.583577
 20
24.95874
 10
54.544922
 20
24.496745
 10
54.503337
 20
24.053304
 10
54.458333
 20
23.625
 10
54.409668
 20
23.208333
 10
54.358073
 20
22.799479
 10
54.304525
 20
22.394531
 10
54.25
 20
21.989583
 10
54.195475
 20
21.580729
 10
54.141927
 20
21.164063
 10
54.090332
 20
20.735677
 10
54.041667
 20
20.291667
 10
53.996745
 20
19.829102
 10
53.955729
 20
19.348958
 10
53.91862
 20
18.85319
 10
53.885417
 20
18.34375
 10
53.85612
 20
17.822591
 10
53.830729
 20
17.291667
 10
53.809245
 20
16.75293
 10
53.791667
 20
16.208333
 10
53.777913
 20
15.660319
 10
53.767578
 20
15.113281
 10
53.760173
 20
14.572103
 10
53.755208
 20
14.041667
 10
53.752197
 20
13.526855
 10
53.750651
 20
13.032552
 10
53.750081
 20
12.563639
 10
53.75
 20
12.125
 10
53.75
 20
11.720052
 10
53.75
 20
11.346354
 10
53.75
 20
11.0
 10
53.75
 20
10.677083
 10
53.75
 20
10.373698
 10
53.75
 20
10.085938
 10
53.75
 20
9.809896
 10
53.75
 20
9.541667
 10
53.749837
 20
9.277344
 10
53.748698
 20
9.013021
 10
53.745605
 20
8.744792
 10
53.739583
 20
8.46875
 10
53.729655
 20
8.18099
 10
53.714844
 20
7.877604
 10
53.694173
 20
7.554688
 10
53.666667
 20
7.208333
 10
53.631836
 20
6.836222
 10
53.591146
 20
6.442383
 10
53.546549
 20
6.03243
 10
53.5
 20
5.611979
 10
53.453451
 20
5.186646
 10
53.408854
 20
4.762044
 10
53.368164
 20
4.343791
 10
53.333333
 20
3.9375
 10
53.305827
 20
3.545776
 10
53.285156
 20
3.15918
 10
53.270345
 20
2.765259
 10
53.260417
 20
2.351563
 10
53.254395
 20
1.90564
 10
53.251302
 20
1.415039
 10
53.250163
 20
0.86731
 10
53.2027
 20
0.0
  0
LWPOLYLINE
  5
728
100
AcDbEntity
  8
CARRETERA
100
AcDbPolyline
 90
      137
 70
     0
 43
0.0
 10
74.0
 20
93.133333
 10
73.935091
 20
92.931331
 10
73.818229
 20
92.589193
 10
73.653711
 20
92.127718
 10
73.445833
 20
91.567708
 10
73.198893
 20
90.929964
 10
72.917188
 20
90.235286
 10
72.605013
 20
89.504476
 10
72.266667
 20
88.758333
 10
71.907129
 20
88.013493
 10
71.534115
 20
87.269922
 10
71.156022
 20
86.523421
 10
70.78125
 20
85.769792
 10
70.418197
 20
85.004834
 10
70.07526
 20
84.224349
 10
69.76084
 20
83.424137
 10
69.483333
 20
82.6
 10
69.248438
 20
81.747819
 10
69.051042
 20
80.863802
 10
68.883333
 20
79.944238
 10
68.7375
 20
78.985417
 10
68.605729
 20
77.983626
 10
68.480208
 20
76.935156
 10
68.353125
 20
75.836296
 10
68.216667
 20
74.683333
 10
68.065137
 20
73.473047
 10
67.901302
 20
72.204167
 10
67.730046
 20
70.875911
 10
67.55625
 20
69.4875
 10
67.384798
 20
68.038151
 10
67.220573
 20
66.527083
 10
67.068457
 20
64.953516
 10
66.933333
 20
63.316667
 10
66.81862
 20
61.617969
 10
66.721875
 20
59.867708
 10
66.639193
 20
58.078385
 10
66.566667
 20
56.2625
 10
66.500391
 20
54.432552
 10
66.436458
 20
52.601042
 10
66.370964
 20
50.780469
 10
66.3
 20
48.983333
 10
66.220703
 20
47.221484
 10
66.134375
 20
45.504167
 10
66.043359
 20
43.839974
 10
65.95
 20
42.2375
 10
65.856641
 20
40.705339
 10
65.765625
 20
39.252083
 10
65.679297
 20
37.886328
 10
65.6
 20
36.616667
 10
65.529535
 20
35.449204
 10
65.467526
 20
34.380088
 10
65.413057
 20
33.402979
 10
65.365209
 20
32.511537
 10
65.323064
 20
31.699422
 10
65.285705
 20
30.960292
 10
65.252213
 20
30.287809
 10
65.221671
 20
29.675631
 10
65.193056
 20
29.116763
 10
65.16493
 20
28.601584
 10
65.135749
 20
28.119818
 10
65.103971
 20
27.661189
 10
65.068052
 20
27.215421
 10
65.026448
 20
26.772239
 10
64.977618
 20
26.321365
 10
64.920017
 20
25.852524
 10
64.852868
 20
25.358917
 10
64.778446
 20
24.847656
 10
64.699793
 20
24.329329
 10
64.619951
 20
23.814527
 10
64.541961
 20
23.313836
 10
64.468863
 20
22.837848
 10
64.4037
 20
22.39715
 10
64.349512
 20
22.002331
 10
64.30834
 20
21.66058
 10
64.278218
 20
21.365482
 10
64.25618
 20
21.107221
 10
64.239259
 20
20.87598
 10
64.224489
 20
20.661943
 10
64.208902
 20
20.455295
 10
64.189534
 20
20.24622
 10
64.163417
 20
20.024902
 10
64.128338
 20
19.783529
 10
64.085099
 20
19.522308
 10
64.035255
 20
19.24345
 10
63.980362
 20
18.949167
 10
63.921973
 20
18.641671
 10
63.861646
 20
18.323172
 10
63.800934
 20
17.995882
 10
63.741393
 20
17.662013
 10
63.684251
 20
17.323254
 10
63.629424
 20
16.979215
 10
63.576501
 20
16.628983
 10
63.525071
 20
16.271644
 10
63.474723
 20
15.906288
 10
63.425045
 20
15.532
 10
63.375628
 20
15.147869
 10
63.326059
 20
14.752982
 10
63.27612
 20
14.347099
 10
63.226365
 20
13.932668
 10
63.177538
 20
13.51281
 10
63.130385
 20
13.090646
 10
63.085652
 20
12.669298
 10
63.044085
 20
12.251885
 10
63.006429
 20
11.841529
 10
62.973429
 20
11.441351
 10
62.945617
 20
11.053817
 10
62.922666
 20
10.678776
 10
62.904037
 20
10.31542
 10
62.889189
 20
9.962943
 10
62.877581
 20
9.620539
 10
62.868673
 20
9.287402
 10
62.861925
 20
8.962725
 10
62.856796
 20
8.645701
 10
62.852759
 20
8.335561
 10
62.849343
 20
8.031681
 10
62.846091
 20
7.733474
 10
62.842546
 20
7.440353
 10
62.83825
 20
7.151732
 10
62.832745
 20
6.867022
 10
62.825575
 20
6.585637
 10
62.816282
 20
6.306989
 10
62.804577
 20
6.030137
 10
62.790849
 20
5.752716
 10
62.775655
 20
5.472006
 10
62.759552
 20
5.185287
 10
62.743096
 20
4.889839
 10
62.726846
 20
4.582942
 10
62.711358
 20
4.261877
 10
62.697189
 20
3.923924
 10
62.684297
 20
3.564061
 10
62.670243
 20
3.16807
 10
62.651987
 20
2.719426
 10
62.626492
 20
2.20161
 10
62.590718
 20
1.5981
 10
62.541627
 20
0.892373
 10
62.476179
 20
0.067909
 10
62.470176
 20
0.0
  0
LWPOLYLINE
  5
7B3
100
AcDbEntity
  8
CARRETERA
100
AcDbPolyline
 90
      121
 70
     0
 43
0.0
 10
74.0
 20
109.691892
 10
73.737549
 20
109.278959
 10
73.409766
 20
108.724835
 10
73.031006
 20
108.053147
 10
72.615625
 20
107.287528
 10
72.177979
 20
106.451607
 10
71.732422
 20
105.569014
 10
71.293311
 20
104.663379
 10
70.875
 20
103.758333
 10
70.489097
 20
102.874071
 10
70.136213
 20
102.017045
 10
69.814211
 20
101.190275
 10
69.520954
 20
100.396778
 10
69.254306
 20
99.639573
 10
69.012128
 20
98.921678
 10
68.792283
 20
98.246112
 10
68.592636
 20
97.615891
 10
68.410666
 20
97.032366
 10
68.242327
 20
96.490201
 10
68.08319
 20
95.982393
 10
67.928828
 20
95.501938
 10
67.77481
 20
95.041832
 10
67.616709
 20
94.59507
 10
67.450096
 20
94.15465
 10
67.270543
 20
93.713566
 10
67.075241
 20
93.266322
 10
66.867871
 20
92.813448
 10
66.65373
 20
92.356983
 10
66.438119
 20
91.898963
 10
66.226338
 20
91.441426
 10
66.023687
 20
90.98641
 10
65.835464
 20
90.535953
 10
65.66697
 20
90.092091
 10
65.522233
 20
89.657381
 10
65.400193
 20
89.236447
 10
65.298517
 20
88.834431
 10
65.214875
 20
88.456478
 10
65.146934
 20
88.107728
 10
65.092364
 20
87.793326
 10
65.048831
 20
87.518413
 10
65.014005
 20
87.288133
 10
64.985174
 20
87.103213
 10
64.958104
 20
86.946723
 10
64.928182
 20
86.79732
 10
64.890795
 20
86.633658
 10
64.841331
 20
86.434393
 10
64.775174
 20
86.17818
 10
64.687713
 20
85.843675
 10
64.574335
 20
85.409533
 10
64.432025
 20
84.858535
 10
64.264172
 20
84.189959
 10
64.075765
 20
83.40721
 10
63.871792
 20
82.513692
 10
63.65724
 20
81.512807
 10
63.437099
 20
80.407961
 10
63.216356
 20
79.202558
 10
63.0
 20
77.9
 10
62.792155
 20
76.507324
 10
62.59349
 20
75.046094
 10
62.403809
 20
73.541504
 10
62.222917
 20
72.01875
 10
62.050618
 20
70.503027
 10
61.886719
 20
69.019531
 10
61.731022
 20
67.593457
 10
61.583333
 20
66.25
 10
61.443522
 20
65.007552
 10
61.311719
 20
63.857292
 10
61.188118
 20
62.783594
 10
61.072917
 20
61.770833
 10
60.966309
 20
60.803385
 10
60.86849
 20
59.865625
 10
60.779655
 20
58.941927
 10
60.7
 20
58.016667
 10
60.629655
 20
57.078848
 10
60.568492
 20
56.135992
 10
60.516316
 20
55.200248
 10
60.472935
 20
54.283766
 10
60.438154
 20
53.398697
 10
60.41178
 20
52.557191
 10
60.39362
 20
51.771397
 10
60.383479
 20
51.053465
 10
60.380806
 20
50.411579
 10
60.383609
 20
49.838061
 10
60.389541
 20
49.321264
 10
60.396253
 20
48.849544
 10
60.401395
 20
48.411255
 10
60.402619
 20
47.994753
 10
60.397576
 20
47.588391
 10
60.383917
 20
47.180525
 10
60.359685
 20
46.758899
 10
60.324494
 20
46.308815
 10
60.278348
 20
45.814966
 10
60.221253
 20
45.262044
 10
60.153213
 20
44.634741
 10
60.074234
 20
43.917748
 10
59.984321
 20
43.095759
 10
59.883479
 20
42.153465
 10
59.772103
 20
41.082757
 10
59.652145
 20
39.904326
 10
59.525947
 20
38.646061
 10
59.395852
 20
37.33585
 10
59.2642
 20
36.001582
 10
59.133336
 20
34.671148
 10
59.005599
 20
33.372435
 10
58.883333
 20
32.133333
 10
58.768115
 20
30.966634
 10
58.658464
 20
29.82474
 10
58.552132
 20
28.644954
 10
58.446875
 20
27.364583
 10
58.340446
 20
25.920931
 10
58.230599
 20
24.251302
 10
58.115088
 20
22.293001
 10
57.991667
 20
19.983333
 10
57.859551
 20
17.293775
 10
57.723805
 20
14.332488
 10
57.590955
 20
11.241809
 10
57.467527
 20
8.164072
 10
57.360045
 20
5.241612
 10
57.275038
 20
2.616764
 10
57.219029
 20
0.431862
 10
57.213509
 20
0.0
  0
LWPOLYLINE
  5
82E
100
AcDbEntity
  8
CERCA
100
AcDbPolyline
 90
      212
 70
     0
 43
0.0
 10
0.0
 20
76.505406
 10
0.343872
 20
76.244385
 10
0.929688
 20
75.755208
 10
1.418823
 20
75.31486
 10
1.836914
 20
74.923828
 10
2.209595
 20
74.582601
 10
2.5625
 20
74.291667
 10
2.916545
 20
74.050374
 10
3.273763
 20
73.853516
 10
3.63147
 20
73.694743
 10
3.986979
 20
73.567708
 10
4.337606
 20
73.466064
 10
4.680664
 20
73.383464
 10
5.013468
 20
73.313558
 10
5.333333
 20
73.25
 10
5.639079
 20
73.187337
 10
5.935547
 20
73.123698
 10
6.229085
 20
73.058105
 10
6.526042
 20
72.989583
 10
6.832764
 20
72.917155
 10
7.155599
 20
72.839844
 10
7.500895
 20
72.756673
 10
7.875
 20
72.666667
 10
8.282227
 20
72.569499
 10
8.71875
 20
72.467448
 10
9.178711
 20
72.363444
 10
9.65625
 20
72.260417
 10
10.145508
 20
72.161296
 10
10.640625
 20
72.06901
 10
11.135742
 20
71.986491
 10
11.625
 20
71.916667
 10
12.103271
 20
71.861654
 10
12.568359
 20
71.820313
 10
13.018799
 20
71.79069
 10
13.453125
 20
71.770833
 10
13.869873
 20
71.758789
 10
14.267578
 20
71.752604
 10
14.644775
 20
71.750326
 10
15.0
 20
71.75
 10
15.332926
 20
71.750163
 10
15.647786
 20
71.751302
 10
15.949951
 20
71.754395
 10
16.244792
 20
71.760417
 10
16.537679
 20
71.770345
 10
16.833984
 20
71.785156
 10
17.139079
 20
71.805827
 10
17.458333
 20
71.833333
 10
17.796143
 20
71.86849
 10
18.152995
 20
71.911458
 10
18.528402
 20
71.96224
 10
18.921875
 20
72.020833
 10
19.332926
 20
72.08724
 10
19.761068
 20
72.161458
 10
20.205811
 20
72.24349
 10
20.666667
 20
72.333333
 10
21.141846
 20
72.430664
 10
21.624349
 20
72.533854
 10
22.105876
 20
72.640951
 10
22.578125
 20
72.75
 10
23.032796
 20
72.859049
 10
23.461589
 20
72.966146
 10
23.856201
 20
73.069336
 10
24.208333
 20
73.166667
 10
24.511963
 20
73.256592
 10
24.770182
 20
73.339193
 10
24.988363
 20
73.414958
 10
25.171875
 20
73.484375
 10
25.32609
 20
73.547933
 10
25.45638
 20
73.60612
 10
25.568115
 20
73.659424
 10
25.666667
 20
73.708333
 10
25.757161
 20
73.753988
 10
25.84375
 20
73.80013
 10
25.930339
 20
73.851156
 10
26.020833
 20
73.911458
 10
26.119141
 20
73.985433
 10
26.229167
 20
74.077474
 10
26.354818
 20
74.191976
 10
26.5
 20
74.333333
 10
26.667236
 20
74.50415
 10
26.853516
 20
74.69987
 10
27.054443
 20
74.914144
 10
27.265625
 20
75.140625
 10
27.482666
 20
75.372965
 10
27.701172
 20
75.604818
 10
27.916748
 20
75.829834
 10
28.125
 20
76.041667
 10
28.322428
 20
76.235596
 10
28.509115
 20
76.413411
 10
28.686035
 20
76.578532
 10
28.854167
 20
76.734375
 10
29.014486
 20
76.884359
 10
29.167969
 20
77.031901
 10
29.315592
 20
77.18042
 10
29.458333
 20
77.333333
 10
29.597254
 20
77.493441
 10
29.733762
 20
77.66107
 10
29.86935
 20
77.835931
 10
30.005511
 20
78.017731
 10
30.143738
 20
78.206179
 10
30.285525
 20
78.400986
 10
30.432365
 20
78.601861
 10
30.585752
 20
78.808511
 10
30.746291
 20
79.02054
 10
30.911045
 20
79.237123
 10
31.076191
 20
79.457328
 10
31.237905
 20
79.680222
 10
31.392363
 20
79.904875
 10
31.535742
 20
80.130355
 10
31.664217
 20
80.355729
 10
31.773964
 20
80.580067
 10
31.862222
 20
80.803029
 10
31.93047
 20
81.026654
 10
31.981253
 20
81.253571
 10
32.017111
 20
81.486411
 10
32.040587
 20
81.727805
 10
32.054224
 20
81.980384
 10
32.060564
 20
82.246777
 10
32.06215
 20
82.529617
 10
32.061094
 20
82.830762
 10
32.057794
 20
83.148988
 10
32.052221
 20
83.482302
 10
32.044342
 20
83.828709
 10
32.034127
 20
84.186213
 10
32.021545
 20
84.552821
 10
32.006564
 20
84.926537
 10
31.989155
 20
85.305367
 10
31.969263
 20
85.687395
 10
31.946751
 20
86.07102
 10
31.921455
 20
86.454719
 10
31.893216
 20
86.836969
 10
31.861871
 20
87.216248
 10
31.827259
 20
87.591033
 10
31.78922
 20
87.959802
 10
31.74759
 20
88.321031
 10
31.701918
 20
88.674106
 10
31.650578
 20
89.022035
 10
31.591655
 20
89.368735
 10
31.523232
 20
89.718124
 10
31.443392
 20
90.074118
 10
31.35022
 20
90.440633
 10
31.2418
 20
90.821586
 10
31.116213
 20
91.220894
 10
30.972394
 20
91.640875
 10
30.812665
 20
92.077454
 10
30.6402
 20
92.524959
 10
30.458172
 20
92.977715
 10
30.269752
 20
93.43005
 10
30.078114
 20
93.87629
 10
29.886431
 20
94.310763
 10
29.697875
 20
94.727794
 10
29.514934
 20
95.122946
 10
29.337362
 20
95.496723
 10
29.164227
 20
95.850862
 10
28.994596
 20
96.187101
 10
28.82754
 20
96.507179
 10
28.662126
 20
96.812834
 10
28.497422
 20
97.105805
 10
28.332497
 20
97.387829
 10
28.166465
 20
97.660635
 10
27.998616
 20
97.925918
 10
27.828287
 20
98.185361
 10
27.654813
 20
98.440648
 10
27.47753
 20
98.693464
 10
27.295775
 20
98.945493
 10
27.108883
 20
99.19842
 10
26.916189
 20
99.453927
 10
26.717336
 20
99.71333
 10
26.513185
 20
99.97646
 10
26.304904
 20
100.242776
 10
26.093661
 20
100.51174
 10
25.880622
 20
100.782812
 10
25.666956
 20
101.055453
 10
25.45383
 20
101.329124
 10
25.242412
 20
101.603284
 10
25.033381
 20
101.877536
 10
24.825471
 20
102.152049
 10
24.616926
 20
102.427133
 10
24.405991
 20
102.703097
 10
24.190911
 20
102.980252
 10
23.969931
 20
103.258908
 10
23.741297
 20
103.539374
 10
23.503252
 20
103.821962
 10
23.25456
 20
104.106948
 10
22.996045
 20
104.394477
 10
22.729051
 20
104.684664
 10
22.454919
 20
104.977621
 10
22.174994
 20
105.273462
 10
21.890617
 20
105.572299
 10
21.603131
 20
105.874245
 10
21.313879
 20
106.179414
 10
21.023374
 20
106.489019
 10
20.728809
 20
106.80867
 10
20.42655
 20
107.145077
 10
20.112962
 20
107.504953
 10
19.784409
 20
107.895007
 10
19.437256
 20
108.321949
 10
19.067867
 20
108.792492
 10
18.672607
 20
109.313344
 10
18.246691
 20
109.891881
 10
17.780733
 20
110.53813
 10
17.264196
 20
111.262783
 10
16.686544
 20
112.07653
 10
16.03724
 20
112.990064
 10
15.305749
 20
114.014075
 10
14.481534
 20
115.159255
 10
14.077529
 20
115.715528
 10
14.0
 20
116.2
 10
13.8
 20
117.3
 10
13.8
 20
119.7
 10
14.4
 20
121.3
 10
14.8
 20
122.0
  0
INSERT
  5
904
100
AcDbEntity
  8
CERCA
100
AcDbBlockReference
  2
FENCE
 10
14.1
 20
120.5
 30
0.0
  0
INSERT
  5
905
100
AcDbEntity
  8
CERCA
100
AcDbBlockReference
  2
FENCE
 10
13.826612
 20
117.842009
 30
0.0
  0
INSERT
  5
906
100
AcDbEntity
  8
CERCA
100
AcDbBlockReference
  2
FENCE
 10
14.668681
 20
114.897285
 30
0.0
  0
INSERT
  5
907
100
AcDbEntity
  8
CERCA
100
AcDbBlockReference
  2
FENCE
 10
16.07213
 20
113.07436
 30
0.0
  0
INSERT
  5
908
100
AcDbEntity
  8
CERCA
100
AcDbBlockReference
  2
FENCE
 10
17.475578
 20
110.690536
 30
0.0
  0
INSERT
  5
909
100
AcDbEntity
  8
CERCA
100
AcDbBlockReference
  2
FENCE
 10
19.019372
 20
108.727386
 30
0.0
  0
INSERT
  5
90A
100
AcDbEntity
  8
CERCA
100
AcDbBlockReference
  2
FENCE
 10
21.124545
 20
106.483787
 30
0.0
  0
INSERT
  5
90B
100
AcDbEntity
  8
CERCA
100
AcDbBlockReference
  2
FENCE
 10
23.229718
 20
104.099962
 30
0.0
  0
INSERT
  5
90C
100
AcDbEntity
  8
CERCA
100
AcDbBlockReference
  2
FENCE
 10
24.773512
 20
102.136812
 30
0.0
  0
INSERT
  5
90D
100
AcDbEntity
  8
CERCA
100
AcDbBlockReference
  2
FENCE
 10
26.597995
 20
99.752988
 30
0.0
  0
INSERT
  5
90E
100
AcDbEntity
  8
CERCA
100
AcDbBlockReference
  2
FENCE
 10
28.843513
 20
96.668038
 30
0.0
  0
INSERT
  5
90F
100
AcDbEntity
  8
CERCA
100
AcDbBlockReference
  2
FENCE
 10
29.825927
 20
94.284213
 30
0.0
  0
INSERT
  5
910
100
AcDbEntity
  8
CERCA
100
AcDbBlockReference
  2
FENCE
 10
31.089031
 20
91.059039
 30
0.0
  0
INSERT
  5
911
100
AcDbEntity
  8
CERCA
100
AcDbBlockReference
  2
FENCE
 10
31.790755
 20
87.97409
 30
0.0
  0
INSERT
  5
912
100
AcDbEntity
  8
CERCA
100
AcDbBlockReference
  2
FENCE
 10
31.9311
 20
85.029365
 30
0.0
  0
INSERT
  5
913
100
AcDbEntity
  8
CERCA
100
AcDbBlockReference
  2
FENCE
 10
31.790755
 20
80.682391
 30
0.0
  0
INSERT
  5
914
100
AcDbEntity
  8
CERCA
100
AcDbBlockReference
  2
FENCE
 10
30.106617
 20
78.438791
 30
0.0
  0
INSERT
  5
915
100
AcDbEntity
  8
CERCA
100
AcDbBlockReference
  2
FENCE
 10
27.720754
 20
75.634291
 30
0.0
  0
INSERT
  5
916
100
AcDbEntity
  8
CERCA
100
AcDbBlockReference
  2
FENCE
 10
25.334891
 20
73.530917
 30
0.0
  0
INSERT
  5
917
100
AcDbEntity
  8
CERCA
100
AcDbBlockReference
  2
FENCE
 10
22.106959
 20
72.549342
 30
0.0
  0
INSERT
  5
918
100
AcDbEntity
  8
CERCA
100
AcDbBlockReference
  2
FENCE
 10
19.019372
 20
71.988442
 30
0.0
  0
INSERT
  5
919
100
AcDbEntity
  8
CERCA
100
AcDbBlockReference
  2
FENCE
 10
15.79144
 20
71.707992
 30
0.0
  0
INSERT
  5
91A
100
AcDbEntity
  8
CERCA
100
AcDbBlockReference
  2
FENCE
 10
12.142473
 20
71.848217
 30
0.0
  0
INSERT
  5
91B
100
AcDbEntity
  8
CERCA
100
AcDbBlockReference
  2
FENCE
 10
8.914541
 20
72.409117
 30
0.0
  0
INSERT
  5
91C
100
AcDbEntity
  8
CERCA
100
AcDbBlockReference
  2
FENCE
 10
5.686609
 20
73.110242
 30
0.0
  0
INSERT
  5
91D
100
AcDbEntity
  8
CERCA
100
AcDbBlockReference
  2
FENCE
 10
2.599022
 20
74.091817
 30
0.0
  0
INSERT
  5
91E
100
AcDbEntity
  8
CERCA
100
AcDbBlockReference
  2
FENCE
 10
0.634194
 20
75.914742
 30
0.0
  0
LWPOLYLINE
  5
91F
100
AcDbEntity
  8
CASA
100
AcDbPolyline
 90
        4
 70
     1
 43
0.0
 10
37.899527
 20
59.379227
 10
39.964092
 20
69.398551
 10
45.272976
 20
68.219807
 10
43.503348
 20
58.495169
  0
LWPOLYLINE
  5
925
100
AcDbEntity
  8
TOPO
100
AcDbPolyline
 90
     2524
 70
     0
 43
0.0
 10
74.0
 20
105.116947
 10
71.498945
 20
105.036337
 10
69.575436
 20
104.288945
 10
66.797035
 20
103.328012
 10
64.44608
 20
102.153539
 10
62.41571
 20
100.124904
 10
59.744171
 20
94.466078
 10
58.675555
 20
92.437443
 10
55.683431
 20
88.380172
 10
52.26386
 20
85.817685
 10
49.378598
 20
84.429671
 10
48.523705
 20
83.89582
 10
48.238654
 20
83.611012
 10
47.585484
 20
83.445345
 10
46.328045
 20
83.034225
 10
44.362193
 20
83.141213
 10
42.396717
 20
83.224441
 10
40.568997
 20
82.852246
 10
39.027827
 20
82.371486
 10
36.722595
 20
82.550593
 10
34.899231
 20
83.02811
 10
33.314392
 20
83.431985
 10
32.035782
 20
83.608761
 10
30.215133
 20
83.539693
 10
28.507944
 20
83.050486
 10
26.75696
 20
82.328897
 10
25.251751
 20
81.450594
 10
23.857088
 20
80.336297
 10
23.262259
 20
79.649785
 10
23.207333
 20
79.484298
 10
23.103505
 20
79.221769
 10
22.992188
 20
78.975163
 10
22.876008
 20
78.74058
 10
22.757586
 20
78.514119
 10
22.639549
 20
78.291879
 10
22.524521
 20
78.069959
 10
22.414655
 20
77.845224
 10
22.31023
 20
77.617612
 10
22.211053
 20
77.387826
 10
22.116933
 20
77.156569
 10
22.027677
 20
76.924544
 10
21.943093
 20
76.692455
 10
21.86299
 20
76.461006
 10
21.787176
 20
76.2309
 10
21.715319
 20
76.002808
 10
21.646534
 20
75.777275
 10
21.579797
 20
75.55481
 10
21.514085
 20
75.335928
 10
21.448372
 20
75.121138
 10
21.381636
 20
74.910952
 10
21.312851
 20
74.705883
 10
21.240994
 20
74.506441
 10
21.165147
 20
74.312712
 10
21.08482
 20
74.123077
 10
20.999629
 20
73.935487
 10
20.909189
 20
73.747898
 10
20.813116
 20
73.558262
 10
20.711027
 20
73.364533
 10
20.602538
 20
73.164665
 10
20.487264
 20
72.956611
 10
20.364864
 20
72.738901
 10
20.235167
 20
72.512365
 10
20.098045
 20
72.278411
 10
19.953371
 20
72.038446
 10
19.801017
 20
71.793876
 10
19.640853
 20
71.546109
 10
19.472753
 20
71.296551
 10
19.296588
 20
71.046609
 10
19.112551
 20
70.797627
 10
18.922113
 20
70.550691
 10
18.727066
 20
70.306825
 10
18.529203
 20
70.067051
 10
18.330317
 20
69.832394
 10
18.132198
 20
69.603876
 10
17.936639
 20
69.38252
 10
17.745433
 20
69.16935
 10
17.559412
 20
68.964984
 10
17.375566
 20
68.76842
 10
17.189928
 20
68.578252
 10
16.99853
 20
68.393071
 10
16.797403
 20
68.211472
 10
16.582579
 20
68.032047
 10
16.350089
 20
67.853389
 10
16.095965
 20
67.674092
 10
15.818096
 20
67.493388
 10
15.521792
 20
67.313067
 10
15.214224
 20
67.135561
 10
14.902559
 20
66.963298
 10
14.593967
 20
66.79871
 10
14.295615
 20
66.644226
 10
14.014673
 20
66.502276
 10
13.758309
 20
66.375291
 10
13.532091
 20
66.264974
 10
13.335185
 20
66.170129
 10
13.165156
 20
66.08883
 10
13.01957
 20
66.019154
 10
12.89599
 20
65.959176
 10
12.791982
 20
65.906973
 10
12.705111
 20
65.860622
 10
12.632943
 20
65.818197
 10
12.573202
 20
65.778118
 10
12.524253
 20
65.740179
 10
12.484624
 20
65.704518
 10
12.452839
 20
65.671272
 10
12.427424
 20
65.640577
 10
12.406906
 20
65.612571
 10
12.389808
 20
65.587392
 10
12.374659
 20
65.565176
 10
12.360192
 20
65.545957
 10
12.345987
 20
65.529348
 10
12.331832
 20
65.514861
 10
12.317513
 20
65.502006
 10
12.302821
 20
65.490292
 10
12.287542
 20
65.479231
 10
12.271465
 20
65.468332
 10
12.254379
 20
65.457106
 10
12.236137
 20
65.445165
 10
12.216857
 20
65.432529
 10
12.196726
 20
65.419318
 10
12.175926
 20
65.405656
 10
12.154644
 20
65.391663
 10
12.133063
 20
65.377461
 10
12.111368
 20
65.363173
 10
12.089744
 20
65.348918
 10
12.068343
 20
65.3348
 10
12.047192
 20
65.320835
 10
12.026285
 20
65.307023
 10
12.005616
 20
65.293361
 10
11.985179
 20
65.279848
 10
11.964968
 20
65.266481
 10
11.944977
 20
65.253259
 10
11.925201
 20
65.24018
 10
11.905633
 20
65.227241
 10
11.886268
 20
65.214442
 10
11.867099
 20
65.201779
 10
11.848122
 20
65.189252
 10
11.829329
 20
65.176857
 10
11.810716
 20
65.164594
 10
11.792275
 20
65.15246
 10
11.774003
 20
65.140454
 10
11.755891
 20
65.128573
 10
11.737936
 20
65.116816
 10
11.72013
 20
65.10518
 10
11.702468
 20
65.093664
 10
11.684944
 20
65.082267
 10
11.667552
 20
65.070985
 10
11.650287
 20
65.059817
 10
11.633142
 20
65.048761
 10
11.616112
 20
65.037815
 10
11.59919
 20
65.026978
 10
11.582371
 20
65.016247
 10
11.565649
 20
65.00562
 10
11.549018
 20
64.995096
 10
11.532472
 20
64.984673
 10
11.516006
 20
64.974348
 10
11.499613
 20
64.96412
 10
11.483288
 20
64.953987
 10
11.467025
 20
64.943947
 10
11.45082
 20
64.933997
 10
11.434667
 20
64.924136
 10
11.418562
 20
64.914361
 10
11.402499
 20
64.90467
 10
11.386474
 20
64.895061
 10
11.370481
 20
64.885532
 10
11.354516
 20
64.87608
 10
11.338577
 20
64.866703
 10
11.322662
 20
64.857397
 10
11.306769
 20
64.848159
 10
11.290897
 20
64.838986
 10
11.275045
 20
64.829876
 10
11.25921
 20
64.820824
 10
11.243391
 20
64.811828
 10
11.227586
 20
64.802884
 10
11.211796
 20
64.793989
 10
11.196017
 20
64.78514
 10
11.180251
 20
64.776334
 10
11.164496
 20
64.767567
 10
11.148752
 20
64.758835
 10
11.133017
 20
64.750135
 10
11.117291
 20
64.741465
 10
11.101573
 20
64.732819
 10
11.085862
 20
64.724196
 10
11.070158
 20
64.715592
 10
11.05446
 20
64.707003
 10
11.038766
 20
64.698426
 10
11.023077
 20
64.689858
 10
11.007391
 20
64.681294
 10
10.991707
 20
64.672733
 10
10.976026
 20
64.66417
 10
10.960345
 20
64.655602
 10
10.944665
 20
64.647026
 10
10.928984
 20
64.638438
 10
10.913302
 20
64.629835
 10
10.897617
 20
64.621214
 10
10.88193
 20
64.612571
 10
10.866239
 20
64.603902
 10
10.850544
 20
64.595205
 10
10.834843
 20
64.586476
 10
10.819137
 20
64.577712
 10
10.803423
 20
64.568909
 10
10.787702
 20
64.560064
 10
10.771973
 20
64.551173
 10
10.756234
 20
64.542234
 10
10.740486
 20
64.533242
 10
10.724727
 20
64.524194
 10
10.708956
 20
64.515088
 10
10.693173
 20
64.505919
 10
10.677377
 20
64.496685
 10
10.661567
 20
64.487381
 10
10.645742
 20
64.478004
 10
10.629902
 20
64.468552
 10
10.614046
 20
64.459021
 10
10.598173
 20
64.449407
 10
10.582282
 20
64.439706
 10
10.566372
 20
64.429917
 10
10.550444
 20
64.420034
 10
10.534495
 20
64.410056
 10
10.518525
 20
64.399977
 10
10.502533
 20
64.389796
 10
10.486519
 20
64.379509
 10
10.470482
 20
64.369112
 10
10.45442
 20
64.358602
 10
10.438334
 20
64.347979
 10
10.422223
 20
64.337238
 10
10.406084
 20
64.326378
 10
10.389919
 20
64.315396
 10
10.373726
 20
64.30429
 10
10.357504
 20
64.293057
 10
10.341253
 20
64.281695
 10
10.324972
 20
64.270206
 10
10.308659
 20
64.258591
 10
10.292315
 20
64.246851
 10
10.275939
 20
64.234987
 10
10.259529
 20
64.223002
 10
10.243085
 20
64.210895
 10
10.226607
 20
64.19867
 10
10.210093
 20
64.186327
 10
10.193543
 20
64.173868
 10
10.176956
 20
64.161297
 10
10.160332
 20
64.148615
 10
10.143669
 20
64.135824
 10
10.126967
 20
64.122927
 10
10.110225
 20
64.109927
 10
10.093443
 20
64.096826
 10
10.076619
 20
64.083626
 10
10.059754
 20
64.070329
 10
10.042845
 20
64.056939
 10
10.025893
 20
64.043456
 10
10.008897
 20
64.029884
 10
9.991855
 20
64.016226
 10
9.974768
 20
64.002482
 10
9.957634
 20
63.988657
 10
9.940454
 20
63.974751
 10
9.923225
 20
63.960768
 10
9.905947
 20
63.94671
 10
9.88862
 20
63.932579
 10
9.871243
 20
63.918378
 10
9.853815
 20
63.904108
 10
9.836335
 20
63.889773
 10
9.818803
 20
63.875375
 10
9.801218
 20
63.860916
 10
9.783579
 20
63.846398
 10
9.765885
 20
63.831824
 10
9.748136
 20
63.817196
 10
9.730331
 20
63.802517
 10
9.712469
 20
63.787789
 10
9.694549
 20
63.773014
 10
9.676571
 20
63.758195
 10
9.658534
 20
63.743333
 10
9.640438
 20
63.728432
 10
9.622281
 20
63.713494
 10
9.604062
 20
63.698522
 10
9.585782
 20
63.683516
 10
9.567439
 20
63.668481
 10
9.549032
 20
63.653417
 10
9.530561
 20
63.638329
 10
9.512026
 20
63.623217
 10
9.493424
 20
63.608085
 10
9.474756
 20
63.592934
 10
9.456021
 20
63.577768
 10
9.437218
 20
63.562588
 10
9.418347
 20
63.547397
 10
9.399406
 20
63.532197
 10
9.380395
 20
63.516991
 10
9.361313
 20
63.501781
 10
9.34216
 20
63.486568
 10
9.322936
 20
63.471355
 10
9.30364
 20
63.456144
 10
9.284273
 20
63.440937
 10
9.264832
 20
63.425735
 10
9.24532
 20
63.41054
 10
9.225735
 20
63.395355
 10
9.206077
 20
63.38018
 10
9.186347
 20
63.365017
 10
9.166548
 20
63.349865
 10
9.146681
 20
63.334724
 10
9.126747
 20
63.319595
 10
9.106747
 20
63.304477
 10
9.086685
 20
63.28937
 10
9.06656
 20
63.274275
 10
9.046376
 20
63.259191
 10
9.026133
 20
63.244119
 10
9.005834
 20
63.229057
 10
8.985481
 20
63.214005
 10
8.965075
 20
63.198963
 10
8.94462
 20
63.18393
 10
8.924117
 20
63.168906
 10
8.903568
 20
63.15389
 10
8.882975
 20
63.138883
 10
8.862341
 20
63.123883
 10
8.841667
 20
63.10889
 10
8.820955
 20
63.093904
 10
8.800207
 20
63.078925
 10
8.779427
 20
63.063951
 10
8.758614
 20
63.048983
 10
8.737772
 20
63.034019
 10
8.716903
 20
63.019061
 10
8.696009
 20
63.004106
 10
8.675091
 20
62.989155
 10
8.654153
 20
62.974208
 10
8.633195
 20
62.959263
 10
8.61222
 20
62.944321
 10
8.59123
 20
62.929381
 10
8.570227
 20
62.914442
 10
8.549214
 20
62.899505
 10
8.528191
 20
62.884568
 10
8.507162
 20
62.869632
 10
8.486128
 20
62.854695
 10
8.465091
 20
62.839758
 10
8.444054
 20
62.82482
 10
8.423019
 20
62.80988
 10
8.401987
 20
62.794939
 10
8.38096
 20
62.779995
 10
8.359942
 20
62.765049
 10
8.338932
 20
62.750099
 10
8.317935
 20
62.735146
 10
8.296952
 20
62.720188
 10
8.275984
 20
62.705227
 10
8.255035
 20
62.69026
 10
8.234105
 20
62.675288
 10
8.213198
 20
62.660311
 10
8.192314
 20
62.645327
 10
8.171457
 20
62.630337
 10
8.150628
 20
62.615339
 10
8.12983
 20
62.600334
 10
8.109063
 20
62.585322
 10
8.088332
 20
62.5703
 10
8.067636
 20
62.555271
 10
8.04698
 20
62.540232
 10
8.026363
 20
62.525183
 10
8.005787
 20
62.510125
 10
7.985255
 20
62.495056
 10
7.964768
 20
62.479977
 10
7.944326
 20
62.464886
 10
7.923932
 20
62.449784
 10
7.903587
 20
62.434671
 10
7.883292
 20
62.419546
 10
7.863047
 20
62.404408
 10
7.842851
 20
62.389258
 10
7.822704
 20
62.374096
 10
7.802604
 20
62.358921
 10
7.782551
 20
62.343734
 10
7.762544
 20
62.328534
 10
7.742582
 20
62.313321
 10
7.722666
 20
62.298095
 10
7.702792
 20
62.282857
 10
7.682961
 20
62.267606
 10
7.66317
 20
62.252341
 10
7.643419
 20
62.237064
 10
7.623707
 20
62.221774
 10
7.604031
 20
62.206471
 10
7.584391
 20
62.191155
 10
7.564785
 20
62.175826
 10
7.545212
 20
62.160483
 10
7.525671
 20
62.145128
 10
7.506161
 20
62.12976
 10
7.486679
 20
62.114378
 10
7.467226
 20
62.098983
 10
7.447799
 20
62.083575
 10
7.428398
 20
62.068154
 10
7.409021
 20
62.052719
 10
7.389666
 20
62.037271
 10
7.370333
 20
62.02181
 10
7.35102
 20
62.006335
 10
7.331726
 20
61.990848
 10
7.31245
 20
61.975346
 10
7.293189
 20
61.959831
 10
7.273944
 20
61.944303
 10
7.254713
 20
61.928762
 10
7.235494
 20
61.913206
 10
7.216286
 20
61.897638
 10
7.197088
 20
61.882055
 10
7.177898
 20
61.86646
 10
7.158716
 20
61.85085
 10
7.13954
 20
61.835227
 10
7.120368
 20
61.81959
 10
7.1012
 20
61.80394
 10
7.082034
 20
61.788276
 10
7.062868
 20
61.772598
 10
7.043702
 20
61.756906
 10
7.024535
 20
61.741201
 10
7.005364
 20
61.725481
 10
6.986189
 20
61.709748
 10
6.967009
 20
61.694001
 10
6.947821
 20
61.67824
 10
6.928625
 20
61.662465
 10
6.90942
 20
61.646676
 10
6.890204
 20
61.630873
 10
6.870975
 20
61.615057
 10
6.851734
 20
61.599226
 10
6.832477
 20
61.583381
 10
6.813205
 20
61.567522
 10
6.793916
 20
61.551648
 10
6.774608
 20
61.535761
 10
6.75528
 20
61.519859
 10
6.735932
 20
61.503943
 10
6.716563
 20
61.488012
 10
6.69717
 20
61.472066
 10
6.677754
 20
61.456105
 10
6.658312
 20
61.44013
 10
6.638845
 20
61.424139
 10
6.619351
 20
61.408132
 10
6.59983
 20
61.392109
 10
6.580282
 20
61.37607
 10
6.560706
 20
61.360013
 10
6.541102
 20
61.343938
 10
6.521469
 20
61.327845
 10
6.501808
 20
61.311733
 10
6.482117
 20
61.295601
 10
6.462397
 20
61.279449
 10
6.442648
 20
61.263277
 10
6.422868
 20
61.247083
 10
6.403059
 20
61.230867
 10
6.383219
 20
61.214628
 10
6.363349
 20
61.198366
 10
6.343448
 20
61.18208
 10
6.323516
 20
61.165769
 10
6.303553
 20
61.149433
 10
6.283558
 20
61.133071
 10
6.263533
 20
61.116682
 10
6.243475
 20
61.100267
 10
6.223386
 20
61.083823
 10
6.203264
 20
61.067351
 10
6.18311
 20
61.05085
 10
6.162924
 20
61.034319
 10
6.142705
 20
61.017757
 10
6.122452
 20
61.001165
 10
6.102167
 20
60.98454
 10
6.081848
 20
60.967884
 10
6.061496
 20
60.951194
 10
6.04111
 20
60.934471
 10
6.02069
 20
60.917713
 10
6.000236
 20
60.900921
 10
5.979747
 20
60.884092
 10
5.959224
 20
60.867228
 10
5.938666
 20
60.850327
 10
5.918073
 20
60.833388
 10
5.897445
 20
60.816411
 10
5.876781
 20
60.799395
 10
5.856082
 20
60.78234
 10
5.835347
 20
60.765245
 10
5.814575
 20
60.748109
 10
5.793768
 20
60.730931
 10
5.772924
 20
60.713712
 10
5.752044
 20
60.69645
 10
5.731126
 20
60.679144
 10
5.710171
 20
60.661795
 10
5.68918
 20
60.644401
 10
5.66815
 20
60.626962
 10
5.647083
 20
60.609476
 10
5.625978
 20
60.591945
 10
5.604835
 20
60.574366
 10
5.583654
 20
60.556739
 10
5.562434
 20
60.539064
 10
5.541175
 20
60.52134
 10
5.519878
 20
60.503566
 10
5.498541
 20
60.485741
 10
5.477165
 20
60.467866
 10
5.45575
 20
60.449938
 10
5.434295
 20
60.431958
 10
5.412801
 20
60.413925
 10
5.391267
 20
60.395837
 10
5.369694
 20
60.377694
 10
5.348081
 20
60.359496
 10
5.326428
 20
60.341242
 10
5.304735
 20
60.32293
 10
5.283003
 20
60.304559
 10
5.261232
 20
60.286129
 10
5.239423
 20
60.267638
 10
5.217576
 20
60.249085
 10
5.195691
 20
60.230468
 10
5.173769
 20
60.211787
 10
5.15181
 20
60.193041
 10
5.129814
 20
60.174228
 10
5.107782
 20
60.155347
 10
5.085714
 20
60.136397
 10
5.063611
 20
60.117377
 10
5.041474
 20
60.098285
 10
5.019302
 20
60.07912
 10
4.997097
 20
60.059881
 10
4.974858
 20
60.040567
 10
4.952587
 20
60.021176
 10
4.930283
 20
60.001707
 10
4.907948
 20
59.98216
 10
4.885581
 20
59.962532
 10
4.863183
 20
59.942822
 10
4.840754
 20
59.92303
 10
4.818296
 20
59.903154
 10
4.795808
 20
59.883192
 10
4.773291
 20
59.863144
 10
4.750746
 20
59.843009
 10
4.728173
 20
59.822784
 10
4.705572
 20
59.802469
 10
4.682943
 20
59.782063
 10
4.660288
 20
59.761564
 10
4.637607
 20
59.740971
 10
4.614901
 20
59.720284
 10
4.592168
 20
59.699499
 10
4.569412
 20
59.678617
 10
4.54663
 20
59.657637
 10
4.523825
 20
59.636556
 10
4.500997
 20
59.615374
 10
4.478146
 20
59.59409
 10
4.455272
 20
59.572701
 10
4.432376
 20
59.551208
 10
4.409459
 20
59.529608
 10
4.386521
 20
59.507901
 10
4.363562
 20
59.486085
 10
4.340583
 20
59.46416
 10
4.317584
 20
59.442123
 10
4.294567
 20
59.419973
 10
4.27153
 20
59.39771
 10
4.248476
 20
59.375332
 10
4.225404
 20
59.352838
 10
4.202314
 20
59.330227
 10
4.179208
 20
59.307497
 10
4.156085
 20
59.284647
 10
4.132947
 20
59.261676
 10
4.109793
 20
59.238582
 10
4.086624
 20
59.215366
 10
4.063441
 20
59.192024
 10
4.040244
 20
59.168557
 10
4.017034
 20
59.144965
 10
3.993812
 20
59.121246
 10
3.970579
 20
59.097401
 10
3.947335
 20
59.073428
 10
3.924081
 20
59.049328
 10
3.900817
 20
59.0251
 10
3.877546
 20
59.000744
 10
3.854268
 20
58.976263
 10
3.830985
 20
58.951658
 10
3.8077
 20
58.926933
 10
3.784413
 20
58.902089
 10
3.761128
 20
58.877131
 10
3.737845
 20
58.852061
 10
3.714567
 20
58.82688
 10
3.691296
 20
58.801592
 10
3.668033
 20
58.776201
 10
3.644781
 20
58.75071
 10
3.621543
 20
58.725121
 10
3.598319
 20
58.699439
 10
3.575113
 20
58.673667
 10
3.551926
 20
58.647809
 10
3.528761
 20
58.621868
 10
3.505619
 20
58.595847
 10
3.482504
 20
58.569749
 10
3.459416
 20
58.543579
 10
3.436359
 20
58.51734
 10
3.413334
 20
58.491035
 10
3.390344
 20
58.464667
 10
3.36739
 20
58.438241
 10
3.344476
 20
58.411758
 10
3.321602
 20
58.385224
 10
3.298771
 20
58.358641
 10
3.275986
 20
58.332013
 10
3.253249
 20
58.305343
 10
3.23056
 20
58.278634
 10
3.207924
 20
58.251891
 10
3.185342
 20
58.225116
 10
3.162815
 20
58.198313
 10
3.140347
 20
58.171486
 10
3.117939
 20
58.144637
 10
3.095594
 20
58.117771
 10
3.073314
 20
58.090891
 10
3.0511
 20
58.063999
 10
3.028955
 20
58.0371
 10
3.006882
 20
58.010198
 10
2.984882
 20
57.983294
 10
2.962957
 20
57.956394
 10
2.94111
 20
57.9295
 10
2.919342
 20
57.902616
 10
2.897657
 20
57.875745
 10
2.876055
 20
57.848891
 10
2.85454
 20
57.822057
 10
2.833114
 20
57.795246
 10
2.811777
 20
57.768463
 10
2.790534
 20
57.74171
 10
2.769385
 20
57.71499
 10
2.748333
 20
57.688309
 10
2.727381
 20
57.661667
 10
2.706529
 20
57.635071
 10
2.685781
 20
57.608521
 10
2.665139
 20
57.582023
 10
2.644605
 20
57.55558
 10
2.62418
 20
57.529194
 10
2.603867
 20
57.502868
 10
2.583668
 20
57.476605
 10
2.563584
 20
57.450406
 10
2.543618
 20
57.424275
 10
2.523771
 20
57.398212
 10
2.504045
 20
57.37222
 10
2.484442
 20
57.346302
 10
2.464963
 20
57.320459
 10
2.44561
 20
57.294689
 10
2.426383
 20
57.268989
 10
2.407284
 20
57.243356
 10
2.388311
 20
57.217788
 10
2.369468
 20
57.192283
 10
2.350753
 20
57.166836
 10
2.332168
 20
57.141447
 10
2.313713
 20
57.116111
 10
2.295389
 20
57.090825
 10
2.277197
 20
57.065585
 10
2.259136
 20
57.040388
 10
2.241207
 20
57.015228
 10
2.223411
 20
56.990103
 10
2.205748
 20
56.965008
 10
2.188218
 20
56.93994
 10
2.170822
 20
56.914894
 10
2.15356
 20
56.889866
 10
2.136433
 20
56.864853
 10
2.119441
 20
56.839851
 10
2.102584
 20
56.814855
 10
2.085863
 20
56.789862
 10
2.069278
 20
56.764868
 10
2.05283
 20
56.739869
 10
2.036519
 20
56.71486
 10
2.020346
 20
56.689839
 10
2.00431
 20
56.6648
 10
1.988413
 20
56.639741
 10
1.972655
 20
56.614657
 10
1.957035
 20
56.589544
 10
1.941556
 20
56.564398
 10
1.926216
 20
56.539215
 10
1.911017
 20
56.513992
 10
1.895958
 20
56.488725
 10
1.881041
 20
56.463408
 10
1.866265
 20
56.43804
 10
1.851632
 20
56.412615
 10
1.837141
 20
56.387129
 10
1.822793
 20
56.361579
 10
1.808588
 20
56.335961
 10
1.794527
 20
56.310271
 10
1.78061
 20
56.284505
 10
1.766837
 20
56.258659
 10
1.75321
 20
56.232729
 10
1.739728
 20
56.206711
 10
1.726391
 20
56.180601
 10
1.713201
 20
56.154395
 10
1.700158
 20
56.128089
 10
1.687262
 20
56.10168
 10
1.674513
 20
56.075163
 10
1.661912
 20
56.048534
 10
1.649459
 20
56.02179
 10
1.637155
 20
55.994927
 10
1.625
 20
55.96794
 10
1.612994
 20
55.940826
 10
1.601139
 20
55.91358
 10
1.589434
 20
55.8862
 10
1.577879
 20
55.858681
 10
1.566475
 20
55.831021
 10
1.555222
 20
55.803218
 10
1.54412
 20
55.775269
 10
1.533168
 20
55.74717
 10
1.522368
 20
55.718919
 10
1.51172
 20
55.690514
 10
1.501222
 20
55.661951
 10
1.490875
 20
55.633233
 10
1.480678
 20
55.60436
 10
1.470629
 20
55.575335
 10
1.460728
 20
55.54616
 10
1.450973
 20
55.516835
 10
1.441364
 20
55.487364
 10
1.4319
 20
55.457747
 10
1.422579
 20
55.427986
 10
1.413401
 20
55.398085
 10
1.404364
 20
55.368046
 10
1.395467
 20
55.337872
 10
1.386709
 20
55.307567
 10
1.378088
 20
55.277132
 10
1.369604
 20
55.24657
 10
1.361254
 20
55.215886
 10
1.353038
 20
55.18508
 10
1.344955
 20
55.154158
 10
1.337003
 20
55.12312
 10
1.329181
 20
55.091971
 10
1.321488
 20
55.060713
 10
1.313923
 20
55.029349
 10
1.306483
 20
54.997882
 10
1.299169
 20
54.966315
 10
1.291978
 20
54.93465
 10
1.28491
 20
54.902891
 10
1.277964
 20
54.87104
 10
1.271137
 20
54.839101
 10
1.264429
 20
54.807076
 10
1.257839
 20
54.774968
 10
1.251365
 20
54.74278
 10
1.245006
 20
54.710515
 10
1.238761
 20
54.678176
 10
1.232629
 20
54.645766
 10
1.226608
 20
54.613287
 10
1.220697
 20
54.580743
 10
1.214895
 20
54.548136
 10
1.2092
 20
54.51547
 10
1.203612
 20
54.482747
 10
1.198129
 20
54.449969
 10
1.19275
 20
54.417141
 10
1.187473
 20
54.384265
 10
1.182298
 20
54.351343
 10
1.177223
 20
54.318379
 10
1.172247
 20
54.285376
 10
1.167368
 20
54.252336
 10
1.162586
 20
54.219262
 10
1.157899
 20
54.186158
 10
1.153306
 20
54.153026
 10
1.148805
 20
54.119868
 10
1.144396
 20
54.086689
 10
1.140078
 20
54.053491
 10
1.135848
 20
54.020276
 10
1.131705
 20
53.987048
 10
1.12765
 20
53.953809
 10
1.123679
 20
53.920562
 10
1.119792
 20
53.887311
 10
1.115988
 20
53.854058
 10
1.112266
 20
53.820804
 10
1.108624
 20
53.787553
 10
1.105061
 20
53.754307
 10
1.101576
 20
53.721068
 10
1.098169
 20
53.687838
 10
1.094836
 20
53.65462
 10
1.091579
 20
53.621417
 10
1.088394
 20
53.588228
 10
1.085283
 20
53.555053
 10
1.082243
 20
53.521895
 10
1.079274
 20
53.488751
 10
1.076374
 20
53.455624
 10
1.073544
 20
53.422512
 10
1.070781
 20
53.389418
 10
1.068086
 20
53.35634
 10
1.065456
 20
53.323278
 10
1.062892
 20
53.290233
 10
1.060392
 20
53.257205
 10
1.057956
 20
53.224192
 10
1.055583
 20
53.191195
 10
1.053271
 20
53.158214
 10
1.05102
 20
53.125248
 10
1.048829
 20
53.092297
 10
1.046697
 20
53.059362
 10
1.044623
 20
53.026441
 10
1.042607
 20
52.993535
 10
1.040648
 20
52.960644
 10
1.038744
 20
52.927766
 10
1.036894
 20
52.894903
 10
1.035099
 20
52.862054
 10
1.033357
 20
52.829218
 10
1.031667
 20
52.796396
 10
1.030028
 20
52.763586
 10
1.02844
 20
52.73079
 10
1.026901
 20
52.698007
 10
1.025411
 20
52.665237
 10
1.023968
 20
52.632479
 10
1.022573
 20
52.599733
 10
1.021224
 20
52.566999
 10
1.019919
 20
52.534277
 10
1.01866
 20
52.501567
 10
1.017443
 20
52.468868
 10
1.016269
 20
52.436181
 10
1.015137
 20
52.403504
 10
1.014046
 20
52.370839
 10
1.012995
 20
52.338184
 10
1.011982
 20
52.305539
 10
1.011008
 20
52.272905
 10
1.010071
 20
52.240281
 10
1.009171
 20
52.207667
 10
1.008306
 20
52.175062
 10
1.007476
 20
52.142467
 10
1.00668
 20
52.109881
 10
1.005917
 20
52.077304
 10
1.005186
 20
52.044737
 10
1.004486
 20
52.012177
 10
1.003817
 20
51.979627
 10
1.003177
 20
51.947084
 10
1.002565
 20
51.91455
 10
1.001981
 20
51.882023
 10
1.001425
 20
51.849504
 10
1.000894
 20
51.816993
 10
1.000388
 20
51.784489
 10
0.999907
 20
51.751993
 10
0.999448
 20
51.719503
 10
0.999013
 20
51.687022
 10
0.998599
 20
51.654548
 10
0.998205
 20
51.622081
 10
0.997832
 20
51.589623
 10
0.997477
 20
51.557172
 10
0.99714
 20
51.524729
 10
0.996821
 20
51.492295
 10
0.996518
 20
51.459872
 10
0.99623
 20
51.42746
 10
0.995956
 20
51.39506
 10
0.995696
 20
51.362675
 10
0.995448
 20
51.330304
 10
0.995212
 20
51.29795
 10
0.994987
 20
51.265613
 10
0.994771
 20
51.233294
 10
0.994564
 20
51.200996
 10
0.994365
 20
51.16872
 10
0.994173
 20
51.136467
 10
0.993987
 20
51.104238
 10
0.993806
 20
51.072035
 10
0.993629
 20
51.03986
 10
0.993456
 20
51.007714
 10
0.993284
 20
50.975598
 10
0.993114
 20
50.943514
 10
0.992944
 20
50.911464
 10
0.992774
 20
50.879448
 10
0.992602
 20
50.847469
 10
0.992428
 20
50.815527
 10
0.992251
 20
50.783624
 10
0.992069
 20
50.751762
 10
0.991882
 20
50.719942
 10
0.991689
 20
50.688165
 10
0.991489
 20
50.656434
 10
0.99128
 20
50.624749
 10
0.991063
 20
50.593111
 10
0.990836
 20
50.561523
 10
0.990598
 20
50.529986
 10
0.990349
 20
50.498501
 10
0.990086
 20
50.46707
 10
0.98981
 20
50.435693
 10
0.98952
 20
50.404374
 10
0.989214
 20
50.373112
 10
0.988891
 20
50.34191
 10
0.988552
 20
50.310769
 10
0.988194
 20
50.27969
 10
0.987816
 20
50.248675
 10
0.987419
 20
50.217726
 10
0.987
 20
50.186843
 10
0.98656
 20
50.156029
 10
0.986096
 20
50.125284
 10
0.985609
 20
50.09461
 10
0.985097
 20
50.064009
 10
0.984559
 20
50.033482
 10
0.983994
 20
50.00303
 10
0.983402
 20
49.972655
 10
0.982781
 20
49.942359
 10
0.982131
 20
49.912143
 10
0.98145
 20
49.882008
 10
0.980738
 20
49.851955
 10
0.979993
 20
49.821987
 10
0.979216
 20
49.792105
 10
0.978404
 20
49.762309
 10
0.977557
 20
49.732602
 10
0.976675
 20
49.702984
 10
0.975757
 20
49.673456
 10
0.974803
 20
49.64402
 10
0.973811
 20
49.614676
 10
0.972782
 20
49.585425
 10
0.971714
 20
49.556269
 10
0.970607
 20
49.527208
 10
0.969462
 20
49.498241
 10
0.96828
 20
49.46937
 10
0.96706
 20
49.440591
 10
0.965805
 20
49.411906
 10
0.964514
 20
49.383314
 10
0.963189
 20
49.354813
 10
0.961829
 20
49.326404
 10
0.960437
 20
49.298085
 10
0.959012
 20
49.269857
 10
0.957556
 20
49.241716
 10
0.95607
 20
49.213664
 10
0.954554
 20
49.185698
 10
0.953011
 20
49.157819
 10
0.951441
 20
49.130023
 10
0.949845
 20
49.102312
 10
0.948224
 20
49.074683
 10
0.94658
 20
49.047136
 10
0.944912
 20
49.01967
 10
0.943223
 20
48.992283
 10
0.941513
 20
48.964976
 10
0.939784
 20
48.937745
 10
0.938036
 20
48.910592
 10
0.93627
 20
48.883514
 10
0.934488
 20
48.856511
 10
0.932691
 20
48.829582
 10
0.930879
 20
48.802726
 10
0.929054
 20
48.775941
 10
0.927217
 20
48.749227
 10
0.925368
 20
48.722582
 10
0.92351
 20
48.696006
 10
0.921642
 20
48.669498
 10
0.919766
 20
48.643057
 10
0.917883
 20
48.616681
 10
0.915994
 20
48.59037
 10
0.9141
 20
48.564123
 10
0.912203
 20
48.537938
 10
0.910302
 20
48.511816
 10
0.9084
 20
48.485753
 10
0.906497
 20
48.459751
 10
0.904594
 20
48.433807
 10
0.902693
 20
48.407921
 10
0.900794
 20
48.382091
 10
0.898898
 20
48.356317
 10
0.897007
 20
48.330598
 10
0.895122
 20
48.304933
 10
0.893243
 20
48.27932
 10
0.891372
 20
48.253759
 10
0.88951
 20
48.228248
 10
0.887657
 20
48.202787
 10
0.885815
 20
48.177375
 10
0.883985
 20
48.15201
 10
0.882168
 20
48.126693
 10
0.880365
 20
48.10142
 10
0.878577
 20
48.076193
 10
0.876805
 20
48.051009
 10
0.87505
 20
48.025868
 10
0.873314
 20
48.000768
 10
0.871597
 20
47.975708
 10
0.869901
 20
47.950688
 10
0.868226
 20
47.925707
 10
0.866576
 20
47.900762
 10
0.864949
 20
47.875853
 10
0.863349
 20
47.850979
 10
0.861775
 20
47.826139
 10
0.860231
 20
47.801331
 10
0.858717
 20
47.776553
 10
0.857236
 20
47.751804
 10
0.85579
 20
47.727083
 10
0.854381
 20
47.702388
 10
0.853011
 20
47.677718
 10
0.851681
 20
47.65307
 10
0.850394
 20
47.628443
 10
0.849153
 20
47.603836
 10
0.847958
 20
47.579246
 10
0.846812
 20
47.554673
 10
0.845718
 20
47.530114
 10
0.844677
 20
47.505569
 10
0.843692
 20
47.481034
 10
0.842765
 20
47.456509
 10
0.841898
 20
47.431992
 10
0.841093
 20
47.40748
 10
0.840352
 20
47.382974
 10
0.839678
 20
47.35847
 10
0.839072
 20
47.333967
 10
0.838537
 20
47.309463
 10
0.838075
 20
47.284958
 10
0.837688
 20
47.260448
 10
0.837379
 20
47.235933
 10
0.837148
 20
47.211411
 10
0.836999
 20
47.186879
 10
0.836934
 20
47.162337
 10
0.836955
 20
47.137783
 10
0.837064
 20
47.113215
 10
0.837263
 20
47.088631
 10
0.837554
 20
47.064029
 10
0.83794
 20
47.039409
 10
0.838423
 20
47.014768
 10
0.839004
 20
46.990105
 10
0.839686
 20
46.965418
 10
0.840471
 20
46.940705
 10
0.841362
 20
46.915964
 10
0.84236
 20
46.891195
 10
0.843467
 20
46.866395
 10
0.844687
 20
46.841562
 10
0.84602
 20
46.816695
 10
0.847469
 20
46.791793
 10
0.849037
 20
46.766853
 10
0.850724
 20
46.741874
 10
0.852535
 20
46.716854
 10
0.854469
 20
46.691792
 10
0.856531
 20
46.666685
 10
0.858722
 20
46.641533
 10
0.861044
 20
46.616333
 10
0.863499
 20
46.591084
 10
0.866089
 20
46.565785
 10
0.868818
 20
46.540432
 10
0.871686
 20
46.515026
 10
0.874695
 20
46.489563
 10
0.877849
 20
46.464044
 10
0.881149
 20
46.438465
 10
0.884597
 20
46.412826
 10
0.888192
 20
46.387127
 10
0.891938
 20
46.361367
 10
0.895834
 20
46.335546
 10
0.899881
 20
46.309663
 10
0.904082
 20
46.283717
 10
0.908437
 20
46.257709
 10
0.912946
 20
46.231638
 10
0.917607
 20
46.205507
 10
0.922417
 20
46.179321
 10
0.927373
 20
46.153083
 10
0.932472
 20
46.126799
 10
0.93771
 20
46.100471
 10
0.943085
 20
46.074103
 10
0.948594
 20
46.047701
 10
0.954234
 20
46.021268
 10
0.96
 20
45.994808
 10
0.965888
 20
45.968328
 10
0.971894
 20
45.941832
 10
0.978015
 20
45.915326
 10
0.984245
 20
45.888814
 10
0.990582
 20
45.862303
 10
0.99702
 20
45.835797
 10
1.003556
 20
45.809301
 10
1.010185
 20
45.78282
 10
1.016904
 20
45.75636
 10
1.023708
 20
45.729926
 10
1.030594
 20
45.703523
 10
1.037556
 20
45.677157
 10
1.044592
 20
45.650831
 10
1.051696
 20
45.624553
 10
1.058866
 20
45.598326
 10
1.066096
 20
45.572156
 10
1.073382
 20
45.546048
 10
1.080721
 20
45.520008
 10
1.088108
 20
45.49404
 10
1.09554
 20
45.46815
 10
1.103011
 20
45.442343
 10
1.110519
 20
45.416624
 10
1.118058
 20
45.390998
 10
1.125626
 20
45.365471
 10
1.133217
 20
45.340047
 10
1.140827
 20
45.314732
 10
1.148453
 20
45.289531
 10
1.15609
 20
45.264449
 10
1.163735
 20
45.239492
 10
1.171382
 20
45.214664
 10
1.179029
 20
45.189971
 10
1.18667
 20
45.165418
 10
1.194302
 20
45.141011
 10
1.201921
 20
45.116753
 10
1.209522
 20
45.092651
 10
1.217102
 20
45.068709
 10
1.224656
 20
45.044934
 10
1.23218
 20
45.021329
 10
1.239671
 20
44.997901
 10
1.247123
 20
44.974654
 10
1.254533
 20
44.951594
 10
1.261897
 20
44.928726
 10
1.269211
 20
44.906054
 10
1.27647
 20
44.883585
 10
1.283671
 20
44.861323
 10
1.290809
 20
44.839273
 10
1.29788
 20
44.817441
 10
1.304882
 20
44.79583
 10
1.311811
 20
44.774444
 10
1.318665
 20
44.753286
 10
1.325441
 20
44.73236
 10
1.332136
 20
44.711669
 10
1.338748
 20
44.691216
 10
1.345272
 20
44.671006
 10
1.351709
 20
44.65104
 10
1.358058
 20
44.631317
 10
1.364323
 20
44.611833
 10
1.370506
 20
44.592584
 10
1.376609
 20
44.573568
 10
1.382635
 20
44.554782
 10
1.388586
 20
44.536221
 10
1.394464
 20
44.517883
 10
1.400272
 20
44.499764
 10
1.406013
 20
44.48186
 10
1.411692
 20
44.464166
 10
1.417311
 20
44.446675
 10
1.422875
 20
44.429385
 10
1.428387
 20
44.412289
 10
1.433851
 20
44.395382
 10
1.439271
 20
44.378661
 10
1.44465
 20
44.362119
 10
1.449991
 20
44.345752
 10
1.455299
 20
44.329554
 10
1.460578
 20
44.313522
 10
1.46583
 20
44.297649
 10
1.47106
 20
44.281931
 10
1.476272
 20
44.266363
 10
1.481468
 20
44.25094
 10
1.486653
 20
44.235657
 10
1.491831
 20
44.220509
 10
1.497004
 20
44.205491
 10
1.502177
 20
44.190598
 10
1.507354
 20
44.175825
 10
1.512538
 20
44.161167
 10
1.517732
 20
44.14662
 10
1.522941
 20
44.132177
 10
1.528168
 20
44.117835
 10
1.533417
 20
44.103588
 10
1.538692
 20
44.089432
 10
1.543995
 20
44.075361
 10
1.549332
 20
44.06137
 10
1.554705
 20
44.047454
 10
1.560118
 20
44.033609
 10
1.565575
 20
44.01983
 10
1.57108
 20
44.006111
 10
1.576636
 20
43.992447
 10
1.582247
 20
43.978834
 10
1.587917
 20
43.965267
 10
1.593649
 20
43.95174
 10
1.599447
 20
43.938249
 10
1.605315
 20
43.924789
 10
1.611256
 20
43.911354
 10
1.617275
 20
43.89794
 10
1.623374
 20
43.884542
 10
1.629557
 20
43.871155
 10
1.635829
 20
43.857773
 10
1.642192
 20
43.844393
 10
1.648651
 20
43.831008
 10
1.655209
 20
43.817614
 10
1.66187
 20
43.804207
 10
1.668637
 20
43.79078
 10
1.675514
 20
43.777331
 10
1.682502
 20
43.763855
 10
1.689606
 20
43.750349
 10
1.696827
 20
43.736808
 10
1.704169
 20
43.72323
 10
1.711634
 20
43.70961
 10
1.719226
 20
43.695944
 10
1.726945
 20
43.68223
 10
1.734793
 20
43.668467
 10
1.742768
 20
43.654656
 10
1.750871
 20
43.640799
 10
1.759099
 20
43.626895
 10
1.767452
 20
43.612947
 10
1.77593
 20
43.598954
 10
1.784532
 20
43.584918
 10
1.793257
 20
43.570839
 10
1.802103
 20
43.55672
 10
1.811069
 20
43.542563
 10
1.820153
 20
43.528369
 10
1.829354
 20
43.514141
 10
1.838671
 20
43.49988
 10
1.8481
 20
43.485589
 10
1.857641
 20
43.471269
 10
1.867293
 20
43.456924
 10
1.877053
 20
43.442553
 10
1.88692
 20
43.428161
 10
1.896893
 20
43.413748
 10
1.906969
 20
43.399317
 10
1.917148
 20
43.38487
 10
1.927427
 20
43.370409
 10
1.937805
 20
43.355935
 10
1.94828
 20
43.341452
 10
1.958851
 20
43.32696
 10
1.969516
 20
43.312462
 10
1.980273
 20
43.29796
 10
1.991122
 20
43.283456
 10
2.00206
 20
43.268952
 10
2.013085
 20
43.25445
 10
2.024196
 20
43.239952
 10
2.035392
 20
43.22546
 10
2.046671
 20
43.210976
 10
2.058031
 20
43.196502
 10
2.06947
 20
43.182041
 10
2.080988
 20
43.167593
 10
2.092582
 20
43.153162
 10
2.10425
 20
43.138749
 10
2.115992
 20
43.124356
 10
2.127806
 20
43.109985
 10
2.139689
 20
43.095639
 10
2.151641
 20
43.081318
 10
2.163659
 20
43.067027
 10
2.175742
 20
43.052765
 10
2.187889
 20
43.038536
 10
2.200098
 20
43.024341
 10
2.212367
 20
43.010183
 10
2.224695
 20
42.996063
 10
2.23708
 20
42.981983
 10
2.24952
 20
42.967946
 10
2.262014
 20
42.953954
 10
2.27456
 20
42.940008
 10
2.287157
 20
42.92611
 10
2.299803
 20
42.912263
 10
2.312496
 20
42.898469
 10
2.325235
 20
42.884729
 10
2.338019
 20
42.871046
 10
2.350847
 20
42.85742
 10
2.363718
 20
42.843852
 10
2.37663
 20
42.830346
 10
2.389583
 20
42.816901
 10
2.402576
 20
42.803519
 10
2.415608
 20
42.790202
 10
2.428678
 20
42.776951
 10
2.441787
 20
42.763765
 10
2.454937
 20
42.750644
 10
2.46813
 20
42.737586
 10
2.481366
 20
42.724591
 10
2.494648
 20
42.711658
 10
2.507976
 20
42.698786
 10
2.521353
 20
42.685975
 10
2.53478
 20
42.673222
 10
2.548258
 20
42.660527
 10
2.561791
 20
42.647889
 10
2.575379
 20
42.635306
 10
2.589026
 20
42.622776
 10
2.602733
 20
42.610298
 10
2.616503
 20
42.597871
 10
2.630337
 20
42.585494
 10
2.644238
 20
42.573164
 10
2.658207
 20
42.56088
 10
2.672248
 20
42.548642
 10
2.686361
 20
42.536446
 10
2.70055
 20
42.524293
 10
2.714816
 20
42.512181
 10
2.729161
 20
42.500108
 10
2.743588
 20
42.488072
 10
2.758098
 20
42.476073
 10
2.772694
 20
42.464108
 10
2.787377
 20
42.452177
 10
2.802151
 20
42.440278
 10
2.817016
 20
42.42841
 10
2.831976
 20
42.41657
 10
2.847032
 20
42.404759
 10
2.862186
 20
42.392973
 10
2.877441
 20
42.381213
 10
2.892798
 20
42.369475
 10
2.90826
 20
42.35776
 10
2.923828
 20
42.346065
 10
2.939506
 20
42.334389
 10
2.955295
 20
42.322731
 10
2.971196
 20
42.311089
 10
2.987213
 20
42.299461
 10
3.003347
 20
42.287847
 10
3.019601
 20
42.276245
 10
3.035976
 20
42.264653
 10
3.052475
 20
42.25307
 10
3.0691
 20
42.241495
 10
3.085853
 20
42.229926
 10
3.102736
 20
42.218361
 10
3.11975
 20
42.2068
 10
3.136899
 20
42.19524
 10
3.154185
 20
42.183681
 10
3.171608
 20
42.172121
 10
3.189173
 20
42.160558
 10
3.20688
 20
42.148991
 10
3.224732
 20
42.137419
 10
3.242731
 20
42.12584
 10
3.260878
 20
42.114253
 10
3.279177
 20
42.102656
 10
3.297628
 20
42.091048
 10
3.316233
 20
42.079428
 10
3.334992
 20
42.067794
 10
3.353906
 20
42.056147
 10
3.372978
 20
42.044483
 10
3.392208
 20
42.032803
 10
3.411597
 20
42.021105
 10
3.431145
 20
42.009388
 10
3.450852
 20
41.997652
 10
3.470713
 20
41.985896
 10
3.490727
 20
41.974121
 10
3.51089
 20
41.962326
 10
3.5312
 20
41.950511
 10
3.551655
 20
41.938676
 10
3.572251
 20
41.926821
 10
3.592986
 20
41.914946
 10
3.613857
 20
41.903051
 10
3.634859
 20
41.891136
 10
3.655989
 20
41.879201
 10
3.677243
 20
41.867246
 10
3.698618
 20
41.855271
 10
3.720111
 20
41.843277
 10
3.741717
 20
41.831264
 10
3.763432
 20
41.819231
 10
3.785254
 20
41.807179
 10
3.807179
 20
41.795108
 10
3.829203
 20
41.783019
 10
3.851322
 20
41.77091
 10
3.873532
 20
41.758783
 10
3.895831
 20
41.746637
 10
3.918214
 20
41.734473
 10
3.940678
 20
41.72229
 10
3.963219
 20
41.71009
 10
3.985834
 20
41.697871
 10
4.008519
 20
41.685635
 10
4.03127
 20
41.67338
 10
4.054083
 20
41.661108
 10
4.076956
 20
41.648818
 10
4.099884
 20
41.636511
 10
4.122863
 20
41.624187
 10
4.145891
 20
41.611845
 10
4.168963
 20
41.599487
 10
4.192076
 20
41.587111
 10
4.215227
 20
41.574719
 10
4.23841
 20
41.562309
 10
4.261624
 20
41.549884
 10
4.284864
 20
41.537441
 10
4.308127
 20
41.524983
 10
4.331409
 20
41.512508
 10
4.354706
 20
41.500017
 10
4.378015
 20
41.487511
 10
4.401332
 20
41.474988
 10
4.424654
 20
41.46245
 10
4.447976
 20
41.449896
 10
4.471296
 20
41.437326
 10
4.494609
 20
41.424741
 10
4.517912
 20
41.412141
 10
4.541202
 20
41.399526
 10
4.564474
 20
41.386896
 10
4.587726
 20
41.374251
 10
4.610952
 20
41.361591
 10
4.634151
 20
41.348917
 10
4.657318
 20
41.336228
 10
4.680449
 20
41.323525
 10
4.703542
 20
41.310807
 10
4.726592
 20
41.298077
 10
4.749598
 20
41.285333
 10
4.772554
 20
41.272576
 10
4.795459
 20
41.259807
 10
4.818309
 20
41.247026
 10
4.841101
 20
41.234233
 10
4.863831
 20
41.22143
 10
4.886498
 20
41.208617
 10
4.9091
 20
41.195795
 10
4.931635
 20
41.182968
 10
4.954101
 20
41.170135
 10
4.976497
 20
41.157299
 10
4.99882
 20
41.14446
 10
5.021069
 20
41.131622
 10
5.043243
 20
41.118784
 10
5.065339
 20
41.10595
 10
5.087356
 20
41.09312
 10
5.109294
 20
41.080297
 10
5.131149
 20
41.067482
 10
5.152922
 20
41.054677
 10
5.17461
 20
41.041885
 10
5.196213
 20
41.029106
 10
5.217729
 20
41.016343
 10
5.239155
 20
41.003597
 10
5.260492
 20
40.990871
 10
5.281737
 20
40.978165
 10
5.30289
 20
40.965483
 10
5.323948
 20
40.952825
 10
5.344911
 20
40.940194
 10
5.365776
 20
40.927591
 10
5.386543
 20
40.915019
 10
5.407209
 20
40.902478
 10
5.427775
 20
40.889971
 10
5.448238
 20
40.8775
 10
5.468596
 20
40.865066
 10
5.488849
 20
40.852671
 10
5.508995
 20
40.840318
 10
5.529032
 20
40.828007
 10
5.54896
 20
40.815741
 10
5.568776
 20
40.803522
 10
5.588479
 20
40.791351
 10
5.608069
 20
40.77923
 10
5.627542
 20
40.76716
 10
5.646899
 20
40.755145
 10
5.666138
 20
40.743185
 10
5.685257
 20
40.731283
 10
5.704254
 20
40.71944
 10
5.723129
 20
40.707658
 10
5.74188
 20
40.695939
 10
5.760505
 20
40.684284
 10
5.779004
 20
40.672696
 10
5.797374
 20
40.661176
 10
5.815614
 20
40.649726
 10
5.833724
 20
40.638349
 10
5.851701
 20
40.627045
 10
5.869544
 20
40.615816
 10
5.887251
 20
40.604665
 10
5.904822
 20
40.593593
 10
5.922255
 20
40.582602
 10
5.939547
 20
40.571694
 10
5.956699
 20
40.56087
 10
5.973709
 20
40.550133
 10
5.990574
 20
40.539484
 10
6.007295
 20
40.528925
 10
6.02387
 20
40.518456
 10
6.040297
 20
40.50808
 10
6.056576
 20
40.497796
 10
6.072705
 20
40.487608
 10
6.088684
 20
40.477515
 10
6.104511
 20
40.46752
 10
6.120186
 20
40.457622
 10
6.135707
 20
40.447823
 10
6.151076
 20
40.43812
 10
6.166292
 20
40.428512
 10
6.181356
 20
40.419
 10
6.196267
 20
40.409581
 10
6.211025
 20
40.400256
 10
6.225631
 20
40.391023
 10
6.240085
 20
40.381881
 10
6.254387
 20
40.372829
 10
6.268537
 20
40.363866
 10
6.282535
 20
40.354989
 10
6.296383
 20
40.346199
 10
6.310079
 20
40.337492
 10
6.323626
 20
40.328868
 10
6.337022
 20
40.320326
 10
6.350269
 20
40.311863
 10
6.363367
 20
40.303479
 10
6.376316
 20
40.295172
 10
6.389116
 20
40.286941
 10
6.401768
 20
40.278783
 10
6.414272
 20
40.270699
 10
6.426628
 20
40.262686
 10
6.438838
 20
40.254742
 10
6.4509
 20
40.246868
 10
6.462816
 20
40.23906
 10
6.474586
 20
40.231318
 10
6.48621
 20
40.22364
 10
6.497689
 20
40.216024
 10
6.509022
 20
40.20847
 10
6.520211
 20
40.200976
 10
6.531256
 20
40.193541
 10
6.542156
 20
40.186162
 10
6.552913
 20
40.178839
 10
6.563526
 20
40.17157
 10
6.573996
 20
40.164354
 10
6.584324
 20
40.15719
 10
6.594509
 20
40.150075
 10
6.604553
 20
40.143008
 10
6.614455
 20
40.135989
 10
6.624215
 20
40.129015
 10
6.633835
 20
40.122086
 10
6.643314
 20
40.115199
 10
6.652653
 20
40.108353
 10
6.661852
 20
40.101547
 10
6.670912
 20
40.09478
 10
6.679832
 20
40.08805
 10
6.688614
 20
40.081355
 10
6.697257
 20
40.074694
 10
6.705762
 20
40.068066
 10
6.714129
 20
40.06147
 10
6.722359
 20
40.054903
 10
6.730452
 20
40.048365
 10
6.738408
 20
40.041854
 10
6.746228
 20
40.035368
 10
6.753912
 20
40.028906
 10
6.76146
 20
40.022468
 10
6.768873
 20
40.01605
 10
6.776154
 20
40.009653
 10
6.783301
 20
40.003274
 10
6.790318
 20
39.996913
 10
6.797204
 20
39.990568
 10
6.803962
 20
39.984237
 10
6.810591
 20
39.97792
 10
6.817094
 20
39.971615
 10
6.823475
 20
39.965322
 10
6.829737
 20
39.959038
 10
6.835884
 20
39.952764
 10
6.841921
 20
39.946498
 10
6.847852
 20
39.940239
 10
6.853681
 20
39.933987
 10
6.859412
 20
39.927741
 10
6.865049
 20
39.921499
 10
6.870598
 20
39.915261
 10
6.876062
 20
39.909026
 10
6.881448
 20
39.902793
 10
6.886759
 20
39.896561
 10
6.892001
 20
39.89033
 10
6.897178
 20
39.884099
 10
6.902296
 20
39.877866
 10
6.907359
 20
39.871631
 10
6.912372
 20
39.865394
 10
6.917341
 20
39.859153
 10
6.922269
 20
39.852907
 10
6.927162
 20
39.846656
 10
6.932025
 20
39.840399
 10
6.936863
 20
39.834134
 10
6.941681
 20
39.827862
 10
6.946482
 20
39.821581
 10
6.951273
 20
39.815291
 10
6.956059
 20
39.808991
 10
6.960843
 20
39.802679
 10
6.965631
 20
39.796355
 10
6.970429
 20
39.790019
 10
6.975239
 20
39.783668
 10
6.980069
 20
39.777304
 10
6.984922
 20
39.770924
 10
6.989804
 20
39.764528
 10
6.994719
 20
39.758115
 10
6.999672
 20
39.751684
 10
7.004668
 20
39.745234
 10
7.009712
 20
39.738765
 10
7.014809
 20
39.732276
 10
7.019964
 20
39.725765
 10
7.025182
 20
39.719233
 10
7.030467
 20
39.712678
 10
7.035824
 20
39.706099
 10
7.041259
 20
39.699496
 10
7.046776
 20
39.692867
 10
7.05238
 20
39.686213
 10
7.058076
 20
39.679531
 10
7.063868
 20
39.672822
 10
7.069763
 20
39.666084
 10
7.075764
 20
39.659316
 10
7.081877
 20
39.652519
 10
7.088106
 20
39.64569
 10
7.094457
 20
39.638829
 10
7.100933
 20
39.631936
 10
7.107541
 20
39.625009
 10
7.114284
 20
39.618047
 10
7.121169
 20
39.61105
 10
7.128198
 20
39.604017
 10
7.135376
 20
39.596948
 10
7.142707
 20
39.58984
 10
7.150195
 20
39.582694
 10
7.157844
 20
39.575508
 10
7.165658
 20
39.568281
 10
7.173641
 20
39.561014
 10
7.181797
 20
39.553704
 10
7.190126
 20
39.546351
 10
7.19863
 20
39.538953
 10
7.207308
 20
39.531511
 10
7.216161
 20
39.524023
 10
7.225191
 20
39.516487
 10
7.234397
 20
39.508903
 10
7.24378
 20
39.50127
 10
7.253341
 20
39.493587
 10
7.263079
 20
39.485853
 10
7.272994
 20
39.478067
 10
7.283086
 20
39.470227
 10
7.293354
 20
39.462333
 10
7.303799
 20
39.454384
 10
7.31442
 20
39.446379
 10
7.325217
 20
39.438316
 10
7.336188
 20
39.430195
 10
7.347335
 20
39.422014
 10
7.358657
 20
39.413774
 10
7.370154
 20
39.405471
 10
7.381824
 20
39.397106
 10
7.393669
 20
39.388678
 10
7.405687
 20
39.380185
 10
7.417879
 20
39.371627
 10
7.430244
 20
39.363002
 10
7.442782
 20
39.354309
 10
7.455492
 20
39.345548
 10
7.468374
 20
39.336717
 10
7.481429
 20
39.327815
 10
7.494655
 20
39.318842
 10
7.508053
 20
39.309796
 10
7.521622
 20
39.300676
 10
7.535361
 20
39.291481
 10
7.549272
 20
39.28221
 10
7.563352
 20
39.272863
 10
7.577603
 20
39.263437
 10
7.592023
 20
39.253933
 10
7.606613
 20
39.244349
 10
7.621372
 20
39.234683
 10
7.636299
 20
39.224936
 10
7.651396
 20
39.215105
 10
7.66666
 20
39.205191
 10
7.682093
 20
39.195191
 10
7.697693
 20
39.185106
 10
7.713461
 20
39.174933
 10
7.729396
 20
39.164672
 10
7.745497
 20
39.154321
 10
7.761766
 20
39.143881
 10
7.7782
 20
39.133349
 10
7.794801
 20
39.122725
 10
7.811568
 20
39.112007
 10
7.828499
 20
39.101195
 10
7.845597
 20
39.090288
 10
7.862858
 20
39.079284
 10
7.880285
 20
39.068183
 10
7.897876
 20
39.056984
 10
7.915631
 20
39.045685
 10
7.933549
 20
39.034285
 10
7.951631
 20
39.022783
 10
7.969876
 20
39.011179
 10
7.988284
 20
38.999471
 10
8.006855
 20
38.987659
 10
8.025587
 20
38.97574
 10
8.044482
 20
38.963714
 10
8.063538
 20
38.951581
 10
8.082755
 20
38.939338
 10
8.102133
 20
38.926984
 10
8.121671
 20
38.914519
 10
8.14137
 20
38.901941
 10
8.161227
 20
38.889248
 10
8.181245
 20
38.876441
 10
8.20142
 20
38.863516
 10
8.221755
 20
38.850474
 10
8.242247
 20
38.837313
 10
8.262897
 20
38.824031
 10
8.283703
 20
38.810628
 10
8.304667
 20
38.797102
 10
8.325787
 20
38.783451
 10
8.347062
 20
38.769675
 10
8.368494
 20
38.755773
 10
8.39008
 20
38.741742
 10
8.41182
 20
38.727583
 10
8.433715
 20
38.713293
 10
8.455764
 20
38.698871
 10
8.477966
 20
38.684316
 10
8.500321
 20
38.669627
 10
8.522828
 20
38.654802
 10
8.545488
 20
38.639841
 10
8.568299
 20
38.624742
 10
8.591261
 20
38.609503
 10
8.614374
 20
38.594123
 10
8.637638
 20
38.578602
 10
8.661051
 20
38.562938
 10
8.684614
 20
38.547129
 10
8.708326
 20
38.531175
 10
8.732187
 20
38.515074
 10
8.756196
 20
38.498825
 10
8.780353
 20
38.482426
 10
8.804657
 20
38.465877
 10
8.829109
 20
38.449175
 10
8.853707
 20
38.432321
 10
8.878451
 20
38.415312
 10
8.903341
 20
38.398147
 10
8.928376
 20
38.380826
 10
8.953556
 20
38.363346
 10
8.978881
 20
38.345706
 10
9.004349
 20
38.327906
 10
9.029961
 20
38.309944
 10
9.055717
 20
38.291818
 10
9.081615
 20
38.273528
 10
9.107656
 20
38.255072
 10
9.133839
 20
38.236449
 10
9.160163
 20
38.217658
 10
9.186628
 20
38.198697
 10
9.213234
 20
38.179565
 10
9.23998
 20
38.160261
 10
9.266866
 20
38.140784
 10
9.293892
 20
38.121132
 10
9.321056
 20
38.101304
 10
9.348359
 20
38.081299
 10
9.375801
 20
38.061115
 10
9.40338
 20
38.040753
 10
9.431095
 20
38.02021
 10
9.458947
 20
37.999486
 10
9.486935
 20
37.978581
 10
9.515057
 20
37.957494
 10
9.543314
 20
37.936224
 10
9.571705
 20
37.914769
 10
9.600229
 20
37.893131
 10
9.628884
 20
37.871309
 10
9.657669
 20
37.849305
 10
9.686584
 20
37.827119
 10
9.715625
 20
37.804754
 10
9.744792
 20
37.78221
 10
9.774083
 20
37.759489
 10
9.803498
 20
37.736592
 10
9.833033
 20
37.713519
 10
9.862688
 20
37.690273
 10
9.892461
 20
37.666856
 10
9.92235
 20
37.643268
 10
9.952354
 20
37.619512
 10
9.982471
 20
37.595589
 10
10.012699
 20
37.571501
 10
10.043036
 20
37.54725
 10
10.073482
 20
37.522838
 10
10.104033
 20
37.498265
 10
10.134689
 20
37.473535
 10
10.165448
 20
37.448647
 10
10.196307
 20
37.423605
 10
10.227267
 20
37.39841
 10
10.258324
 20
37.373063
 10
10.289477
 20
37.347566
 10
10.320724
 20
37.321921
 10
10.352064
 20
37.29613
 10
10.383495
 20
37.270194
 10
10.415015
 20
37.244114
 10
10.446623
 20
37.217894
 10
10.478317
 20
37.191533
 10
10.510095
 20
37.165035
 10
10.541956
 20
37.1384
 10
10.573897
 20
37.111631
 10
10.605918
 20
37.084728
 10
10.638016
 20
37.057694
 10
10.67019
 20
37.030531
 10
10.702438
 20
37.003239
 10
10.734759
 20
36.975822
 10
10.76715
 20
36.94828
 10
10.799611
 20
36.920615
 10
10.832139
 20
36.892828
 10
10.864732
 20
36.864922
 10
10.89739
 20
36.836899
 10
10.93011
 20
36.808759
 10
10.96289
 20
36.780505
 10
10.99573
 20
36.752137
 10
11.028627
 20
36.723659
 10
11.061579
 20
36.695072
 10
11.094586
 20
36.666376
 10
11.127644
 20
36.637575
 10
11.160754
 20
36.608669
 10
11.193912
 20
36.57966
 10
11.227117
 20
36.550551
 10
11.260367
 20
36.521342
 10
11.293662
 20
36.492036
 10
11.326999
 20
36.462633
 10
11.360376
 20
36.433136
 10
11.393792
 20
36.403547
 10
11.427247
 20
36.373866
 10
11.460739
 20
36.344094
 10
11.494268
 20
36.314234
 10
11.527831
 20
36.284287
 10
11.561429
 20
36.254254
 10
11.59506
 20
36.224137
 10
11.628723
 20
36.193936
 10
11.66242
 20
36.163653
 10
11.696151
 20
36.133287
 10
11.72992
 20
36.102839
 10
11.763726
 20
36.072309
 10
11.797571
 20
36.041697
 10
11.831457
 20
36.011004
 10
11.865386
 20
35.98023
 10
11.899358
 20
35.949375
 10
11.933377
 20
35.918439
 10
11.967443
 20
35.887422
 10
12.00156
 20
35.856325
 10
12.035728
 20
35.825147
 10
12.069952
 20
35.793887
 10
12.104231
 20
35.762548
 10
12.138569
 20
35.731127
 10
12.172968
 20
35.699625
 10
12.20743
 20
35.668043
 10
12.241956
 20
35.63638
 10
12.276549
 20
35.604636
 10
12.311212
 20
35.572811
 10
12.345945
 20
35.540906
 10
12.380752
 20
35.508919
 10
12.415635
 20
35.476852
 10
12.450595
 20
35.444704
 10
12.485634
 20
35.412476
 10
12.520755
 20
35.380166
 10
12.55596
 20
35.347776
 10
12.591251
 20
35.315305
 10
12.62663
 20
35.282753
 10
12.662099
 20
35.25012
 10
12.697661
 20
35.217406
 10
12.733316
 20
35.184612
 10
12.769069
 20
35.151736
 10
12.804919
 20
35.11878
 10
12.840871
 20
35.085744
 10
12.876925
 20
35.052626
 10
12.913084
 20
35.019428
 10
12.94935
 20
34.986148
 10
12.985726
 20
34.952788
 10
13.022212
 20
34.919347
 10
13.058812
 20
34.885826
 10
13.095527
 20
34.852223
 10
13.132359
 20
34.81854
 10
13.169312
 20
34.784776
 10
13.206386
 20
34.750931
 10
13.243584
 20
34.717005
 10
13.280907
 20
34.682999
 10
13.318359
 20
34.648911
 10
13.355941
 20
34.614743
 10
13.393656
 20
34.580494
 10
13.431504
 20
34.546164
 10
13.469489
 20
34.511754
 10
13.507613
 20
34.477262
 10
13.545878
 20
34.44269
 10
13.584285
 20
34.408037
 10
13.622837
 20
34.373304
 10
13.661535
 20
34.338489
 10
13.700382
 20
34.303593
 10
13.739378
 20
34.268617
 10
13.778525
 20
34.23356
 10
13.817825
 20
34.198422
 10
13.857279
 20
34.163204
 10
13.896888
 20
34.127904
 10
13.936655
 20
34.092524
 10
13.976578
 20
34.057063
 10
14.016657
 20
34.021521
 10
14.056891
 20
33.985898
 10
14.097279
 20
33.950195
 10
14.137821
 20
33.914411
 10
14.178517
 20
33.878546
 10
14.219364
 20
33.8426
 10
14.260364
 20
33.806573
 10
14.301513
 20
33.770465
 10
14.342812
 20
33.734277
 10
14.384259
 20
33.698008
 10
14.425852
 20
33.661658
 10
14.46759
 20
33.625227
 10
14.509473
 20
33.588716
 10
14.551498
 20
33.552123
 10
14.593665
 20
33.51545
 10
14.635972
 20
33.478696
 10
14.678418
 20
33.441861
 10
14.721002
 20
33.404946
 10
14.763722
 20
33.367949
 10
14.806578
 20
33.330872
 10
14.849568
 20
33.293714
 10
14.89269
 20
33.256475
 10
14.935943
 20
33.219156
 10
14.979327
 20
33.181755
 10
15.02284
 20
33.144274
 10
15.06648
 20
33.106712
 10
15.110247
 20
33.069069
 10
15.154139
 20
33.031345
 10
15.198154
 20
32.993541
 10
15.242293
 20
32.955656
 10
15.286552
 20
32.917689
 10
15.330932
 20
32.879642
 10
15.37543
 20
32.841515
 10
15.420046
 20
32.803306
 10
15.464778
 20
32.765017
 10
15.509625
 20
32.726647
 10
15.554586
 20
32.688196
 10
15.59966
 20
32.649664
 10
15.644844
 20
32.611052
 10
15.690139
 20
32.572358
 10
15.735542
 20
32.533584
 10
15.781053
 20
32.494729
 10
15.826669
 20
32.455793
 10
15.872391
 20
32.416777
 10
15.918216
 20
32.377679
 10
15.964144
 20
32.338501
 10
16.010173
 20
32.299242
 10
16.056301
 20
32.259902
 10
16.102528
 20
32.220481
 10
16.148853
 20
32.18098
 10
16.195273
 20
32.141398
 10
16.241789
 20
32.101735
 10
16.288397
 20
32.061991
 10
16.335098
 20
32.022166
 10
16.38189
 20
31.982261
 10
16.428769
 20
31.942277
 10
16.475733
 20
31.902215
 10
16.522778
 20
31.862078
 10
16.569901
 20
31.821868
 10
16.617099
 20
31.781585
 10
16.664368
 20
31.741232
 10
16.711706
 20
31.700811
 10
16.759106
 20
31.660325
 10
16.806561
 20
31.61978
 10
16.854058
 20
31.579187
 10
16.901586
 20
31.538554
 10
16.949134
 20
31.49789
 10
16.996691
 20
31.457204
 10
17.044245
 20
31.416504
 10
17.091786
 20
31.3758
 10
17.139301
 20
31.335101
 10
17.186778
 20
31.294417
 10
17.234203
 20
31.253758
 10
17.281564
 20
31.213136
 10
17.328847
 20
31.172561
 10
17.376038
 20
31.132044
 10
17.423125
 20
31.091595
 10
17.470094
 20
31.051225
 10
17.516933
 20
31.010945
 10
17.563627
 20
30.970765
 10
17.610164
 20
30.930697
 10
17.65653
 20
30.890749
 10
17.702713
 20
30.850935
 10
17.748698
 20
30.811263
 10
17.794473
 20
30.771745
 10
17.840024
 20
30.732391
 10
17.885338
 20
30.693212
 10
17.930403
 20
30.654218
 10
17.975204
 20
30.615421
 10
18.019728
 20
30.576831
 10
18.063963
 20
30.538459
 10
18.107895
 20
30.500314
 10
18.151511
 20
30.462409
 10
18.194797
 20
30.424753
 10
18.23774
 20
30.387357
 10
18.280327
 20
30.350232
 10
18.322545
 20
30.313389
 10
18.364381
 20
30.276838
 10
18.405821
 20
30.24059
 10
18.446852
 20
30.204655
 10
18.487461
 20
30.169044
 10
18.527635
 20
30.133768
 10
18.56736
 20
30.098838
 10
18.606623
 20
30.064263
 10
18.645411
 20
30.030056
 10
18.683711
 20
29.996225
 10
18.721509
 20
29.962783
 10
18.758792
 20
29.92974
 10
18.795547
 20
29.897106
 10
18.831761
 20
29.864892
 10
18.867421
 20
29.833109
 10
18.902512
 20
29.801767
 10
18.937023
 20
29.770877
 10
18.97094
 20
29.74045
 10
19.004248
 20
29.710496
 10
19.036937
 20
29.681026
 10
19.068991
 20
29.652051
 10
19.100398
 20
29.623581
 10
19.131146
 20
29.595626
 10
19.161225
 20
29.568195
 10
19.190627
 20
29.541294
 10
19.219345
 20
29.514931
 10
19.24737
 20
29.489112
 10
19.274694
 20
29.463846
 10
19.30131
 20
29.439139
 10
19.327209
 20
29.414998
 10
19.352386
 20
29.391429
 10
19.37685
 20
29.368427
 10
19.400615
 20
29.345986
 10
19.423693
 20
29.324098
 10
19.446096
 20
29.302759
 10
19.467837
 20
29.281961
 10
19.488929
 20
29.261697
 10
19.509383
 20
29.241961
 10
19.529215
 20
29.222747
 10
19.54844
 20
29.204044
 10
19.567076
 20
29.185842
 10
19.585142
 20
29.168133
 10
19.602654
 20
29.150905
 10
19.619631
 20
29.134149
 10
19.636091
 20
29.117854
 10
19.65205
 20
29.102012
 10
19.667527
 20
29.086612
 10
19.682541
 20
29.071643
 10
19.697107
 20
29.057097
 10
19.711245
 20
29.042963
 10
19.724972
 20
29.029231
 10
19.738305
 20
29.015891
 10
19.751263
 20
29.002933
 10
19.763863
 20
28.990348
 10
19.776123
 20
28.978125
 10
19.788062
 20
28.966254
 10
19.799695
 20
28.954726
 10
19.811042
 20
28.94353
 10
19.82212
 20
28.932656
 10
19.832947
 20
28.922096
 10
19.843541
 20
28.911837
 10
19.853919
 20
28.901872
 10
19.864099
 20
28.892189
 10
19.874099
 20
28.882779
 10
19.883936
 20
28.873631
 10
19.89363
 20
28.864737
 10
19.903196
 20
28.856085
 10
19.912653
 20
28.847666
 10
19.922019
 20
28.839471
 10
19.931312
 20
28.831488
 10
19.940549
 20
28.823708
 10
19.949748
 20
28.816121
 10
19.958926
 20
28.808718
 10
19.968103
 20
28.801488
 10
19.977294
 20
28.794421
 10
19.986519
 20
28.787507
 10
19.995795
 20
28.780737
 10
20.005139
 20
28.774099
 10
20.014569
 20
28.767586
 10
20.024104
 20
28.761186
 10
20.033761
 20
28.754889
 10
20.043557
 20
28.748686
 10
20.053511
 20
28.742567
 10
20.06364
 20
28.736521
 10
20.073962
 20
28.730539
 10
20.084495
 20
28.724611
 10
20.095256
 20
28.718726
 10
20.106259
 20
28.712874
 10
20.117519
 20
28.707045
 10
20.12905
 20
28.701227
 10
20.140865
 20
28.695411
 10
20.15298
 20
28.689584
 10
20.165407
 20
28.683737
 10
20.178161
 20
28.677858
 10
20.191255
 20
28.671937
 10
20.204688
 20
28.665959
 10
20.218461
 20
28.659912
 10
20.232573
 20
28.653781
 10
20.247024
 20
28.647553
 10
20.261812
 20
28.641213
 10
20.276938
 20
28.634748
 10
20.292399
 20
28.628143
 10
20.308196
 20
28.621385
 10
20.324323
 20
28.61446
 10
20.340778
 20
28.607352
 10
20.357555
 20
28.600047
 10
20.37465
 20
28.59253
 10
20.392059
 20
28.584787
 10
20.409777
 20
28.576803
 10
20.4278
 20
28.568564
 10
20.446123
 20
28.560054
 10
20.464743
 20
28.551259
 10
20.483655
 20
28.542164
 10
20.502854
 20
28.532755
 10
20.522336
 20
28.523017
 10
20.542096
 20
28.512935
 10
20.562131
 20
28.502495
 10
20.582436
 20
28.491683
 10
20.603007
 20
28.480482
 10
20.623838
 20
28.468879
 10
20.644926
 20
28.45686
 10
20.666267
 20
28.444409
 10
20.687856
 20
28.431511
 10
20.709688
 20
28.418153
 10
20.73176
 20
28.404319
 10
20.754066
 20
28.389995
 10
20.776603
 20
28.375166
 10
20.799366
 20
28.359818
 10
20.82235
 20
28.343935
 10
20.845552
 20
28.327504
 10
20.868967
 20
28.310509
 10
20.892591
 20
28.292936
 10
20.916419
 20
28.27477
 10
20.940446
 20
28.255997
 10
20.964669
 20
28.236602
 10
20.989083
 20
28.21657
 10
21.013684
 20
28.195886
 10
21.038467
 20
28.174537
 10
21.063428
 20
28.152506
 10
21.088562
 20
28.129781
 10
21.113866
 20
28.106345
 10
21.139335
 20
28.082184
 10
21.164963
 20
28.057285
 10
21.190748
 20
28.031631
 10
21.216685
 20
28.005208
 10
21.242768
 20
27.978002
 10
21.268995
 20
27.949999
 10
21.29536
 20
27.921182
 10
21.32186
 20
27.891538
 10
21.348489
 20
27.861052
 10
21.375243
 20
27.829711
 10
21.402118
 20
27.797507
 10
21.429108
 20
27.764431
 10
21.45621
 20
27.730477
 10
21.483417
 20
27.695639
 10
21.510726
 20
27.659909
 10
21.538132
 20
27.623279
 10
21.565629
 20
27.585743
 10
21.593212
 20
27.5473
 10
21.620876
 20
27.507966
 10
21.648614
 20
27.467765
 10
21.676418
 20
27.42672
 10
21.704284
 20
27.384856
 10
21.732203
 20
27.342194
 10
21.76017
 20
27.298758
 10
21.788178
 20
27.254571
 10
21.81622
 20
27.209659
 10
21.84429
 20
27.164049
 10
21.87238
 20
27.117774
 10
21.900484
 20
27.070863
 10
21.928594
 20
27.023348
 10
21.956703
 20
26.97526
 10
21.984805
 20
26.926629
 10
22.012892
 20
26.877486
 10
22.040958
 20
26.827862
 10
22.068996
 20
26.777788
 10
22.096998
 20
26.727294
 10
22.124957
 20
26.676412
 10
22.152867
 20
26.625172
 10
22.180721
 20
26.573604
 10
22.208511
 20
26.52174
 10
22.23623
 20
26.469611
 10
22.263872
 20
26.417247
 10
22.29143
 20
26.364679
 10
22.318897
 20
26.311938
 10
22.346265
 20
26.259054
 10
22.373527
 20
26.206059
 10
22.400677
 20
26.152984
 10
22.427708
 20
26.099858
 10
22.454613
 20
26.046713
 10
22.481384
 20
25.99358
 10
22.508015
 20
25.94049
 10
22.534498
 20
25.887472
 10
22.560828
 20
25.834559
 10
22.586996
 20
25.781781
 10
22.612995
 20
25.729168
 10
22.63882
 20
25.676751
 10
22.664462
 20
25.624562
 10
22.689915
 20
25.572631
 10
22.715171
 20
25.520989
 10
22.740225
 20
25.469667
 10
22.765068
 20
25.418695
 10
22.789694
 20
25.368104
 10
22.814095
 20
25.317925
 10
22.838266
 20
25.268189
 10
22.862198
 20
25.218927
 10
22.885885
 20
25.170169
 10
22.90932
 20
25.121946
 10
22.932496
 20
25.074289
 10
22.955406
 20
25.02723
 10
22.978043
 20
24.980797
 10
23.000399
 20
24.935024
 10
23.022469
 20
24.889939
 10
23.044244
 20
24.845575
 10
23.065718
 20
24.801959
 10
23.086887
 20
24.759116
 10
23.107746
 20
24.717068
 10
23.12829
 20
24.675835
 10
23.148514
 20
24.635439
 10
23.168415
 20
24.595902
 10
23.187987
 20
24.557245
 10
23.207226
 20
24.51949
 10
23.226129
 20
24.482653
 10
23.244699
 20
24.446725
 10
23.262942
 20
24.41169
 10
23.280862
 20
24.377533
 10
23.298465
 20
24.344239
 10
23.315756
 20
24.311792
 10
23.33274
 20
24.280179
 10
23.349421
 20
24.249383
 10
23.365806
 20
24.219387
 10
23.381902
 20
24.19017
 10
23.397715
 20
24.161707
 10
23.413254
 20
24.133972
 10
23.428526
 20
24.106943
 10
23.443539
 20
24.080594
 10
23.4583
 20
24.054901
 10
23.472816
 20
24.02984
 10
23.487095
 20
24.005386
 10
23.501145
 20
23.981516
 10
23.514973
 20
23.958204
 10
23.528586
 20
23.935427
 10
23.541993
 20
23.91316
 10
23.5552
 20
23.891378
 10
23.568215
 20
23.870058
 10
23.581046
 20
23.849174
 10
23.5937
 20
23.828703
 10
23.606184
 20
23.808621
 10
23.618506
 20
23.788902
 10
23.630674
 20
23.769523
 10
23.642695
 20
23.750459
 10
23.654577
 20
23.731686
 10
23.666327
 20
23.713179
 10
23.677952
 20
23.694914
 10
23.689461
 20
23.676867
 10
23.70086
 20
23.659014
 10
23.712157
 20
23.641329
 10
23.72336
 20
23.623789
 10
23.734475
 20
23.606369
 10
23.745512
 20
23.589045
 10
23.756476
 20
23.571793
 10
23.767377
 20
23.554588
 10
23.77822
 20
23.537406
 10
23.789014
 20
23.520222
 10
23.799766
 20
23.503013
 10
23.810484
 20
23.485753
 10
23.821174
 20
23.468418
 10
23.831846
 20
23.450985
 10
23.842505
 20
23.433428
 10
23.853161
 20
23.415724
 10
23.863819
 20
23.397848
 10
23.874488
 20
23.379775
 10
23.885175
 20
23.361482
 10
23.895888
 20
23.342943
 10
23.906634
 20
23.324135
 10
23.917421
 20
23.305033
 10
23.928255
 20
23.285613
 10
23.939146
 20
23.26585
 10
23.950099
 20
23.245722
 10
23.961121
 20
23.225207
 10
23.972217
 20
23.204287
 10
23.983392
 20
23.182942
 10
23.994651
 20
23.161153
 10
24.006001
 20
23.138901
 10
24.017446
 20
23.116167
 10
24.028992
 20
23.09293
 10
24.040642
 20
23.069177
 10
24.052396
 20
23.044903
 10
24.064249
 20
23.020111
 10
24.076199
 20
22.994801
 10
24.088242
 20
22.968975
 10
24.100376
 20
22.942634
 10
24.112597
 20
22.915779
 10
24.124902
 20
22.888411
 10
24.137287
 20
22.860532
 10
24.149748
 20
22.832147
 10
24.162279
 20
22.803263
 10
24.174875
 20
22.773887
 10
24.187531
 20
22.744023
 10
24.200241
 20
22.713679
 10
24.213
 20
22.682861
 10
24.225803
 20
22.651574
 10
24.238645
 20
22.619826
 10
24.251519
 20
22.587623
 10
24.264422
 20
22.55497
 10
24.277347
 20
22.521875
 10
24.290289
 20
22.488342
 10
24.303244
 20
22.454379
 10
24.316205
 20
22.419992
 10
24.329167
 20
22.385187
 10
24.342126
 20
22.349971
 10
24.355075
 20
22.314348
 10
24.36801
 20
22.278327
 10
24.380925
 20
22.241913
 10
24.393816
 20
22.205111
 10
24.406675
 20
22.16793
 10
24.419499
 20
22.130374
 10
24.432283
 20
22.092451
 10
24.44502
 20
22.054165
 10
24.457705
 20
22.015524
 10
24.470334
 20
21.976534
 10
24.4829
 20
21.937202
 10
24.495399
 20
21.897532
 10
24.507825
 20
21.857532
 10
24.520174
 20
21.817208
 10
24.532439
 20
21.776566
 10
24.544615
 20
21.735612
 10
24.556698
 20
21.694352
 10
24.568681
 20
21.652794
 10
24.58056
 20
21.610943
 10
24.592329
 20
21.568805
 10
24.603983
 20
21.526386
 10
24.615517
 20
21.483694
 10
24.626925
 20
21.440733
 10
24.638202
 20
21.397511
 10
24.649342
 20
21.354034
 10
24.660342
 20
21.310307
 10
24.671194
 20
21.266338
 10
24.681894
 20
21.222131
 10
24.692437
 20
21.177695
 10
24.702817
 20
21.133034
 10
24.713029
 20
21.088155
 10
24.723068
 20
21.043065
 10
24.73293
 20
20.997769
 10
24.74261
 20
20.952272
 10
24.752105
 20
20.90658
 10
24.76141
 20
20.860698
 10
24.770521
 20
20.814633
 10
24.779435
 20
20.76839
 10
24.788147
 20
20.721974
 10
24.796654
 20
20.67539
 10
24.804956
 20
20.628642
 10
24.813054
 20
20.581732
 10
24.820949
 20
20.534664
 10
24.828642
 20
20.48744
 10
24.836133
 20
20.440062
 10
24.843424
 20
20.392534
 10
24.850515
 20
20.344859
 10
24.857407
 20
20.297038
 10
24.864102
 20
20.249075
 10
24.870603
 20
20.200972
 10
24.876912
 20
20.15273
 10
24.88303
 20
20.104351
 10
24.88896
 20
20.055839
 10
24.894703
 20
20.007194
 10
24.900263
 20
19.958419
 10
24.90564
 20
19.909516
 10
24.910838
 20
19.860487
 10
24.915858
 20
19.811335
 10
24.920702
 20
19.762061
 10
24.925373
 20
19.712667
 10
24.929872
 20
19.663156
 10
24.934202
 20
19.61353
 10
24.938365
 20
19.563791
 10
24.942362
 20
19.51394
 10
24.946197
 20
19.46398
 10
24.94987
 20
19.413914
 10
24.953385
 20
19.363742
 10
24.956743
 20
19.313468
 10
24.959947
 20
19.263094
 10
24.962998
 20
19.212621
 10
24.965899
 20
19.162051
 10
24.968651
 20
19.111387
 10
24.971257
 20
19.060631
 10
24.973719
 20
19.009785
 10
24.97604
 20
18.958851
 10
24.97822
 20
18.907832
 10
24.980263
 20
18.856728
 10
24.98217
 20
18.805543
 10
24.983943
 20
18.754278
 10
24.985585
 20
18.702936
 10
24.987098
 20
18.651518
 10
24.988483
 20
18.600028
 10
24.989744
 20
18.548466
 10
24.990881
 20
18.496835
 10
24.991898
 20
18.445137
 10
24.992795
 20
18.393374
 10
24.993576
 20
18.341549
 10
24.994243
 20
18.289663
 10
24.994797
 20
18.237718
 10
24.99524
 20
18.185717
 10
24.995576
 20
18.133662
 10
24.995805
 20
18.081555
 10
24.99593
 20
18.029397
 10
24.995953
 20
17.977192
 10
24.995877
 20
17.924941
 10
24.995702
 20
17.872645
 10
24.995433
 20
17.820307
 10
24.995069
 20
17.767927
 10
24.994614
 20
17.715505
 10
24.99407
 20
17.663043
 10
24.993439
 20
17.610542
 10
24.992722
 20
17.558002
 10
24.991923
 20
17.505424
 10
24.991043
 20
17.452808
 10
24.990083
 20
17.40015
 10
24.989048
 20
17.347448
 10
24.987937
 20
17.294695
 10
24.986755
 20
17.241889
 10
24.985502
 20
17.189025
 10
24.98418
 20
17.136098
 10
24.982793
 20
17.083105
 10
24.981341
 20
17.030041
 10
24.979828
 20
16.976901
 10
24.978255
 20
16.923679
 10
24.976624
 20
16.87037
 10
24.974937
 20
16.816969
 10
24.973197
 20
16.763469
 10
24.971406
 20
16.709866
 10
24.969565
 20
16.656154
 10
24.967677
 20
16.602327
 10
24.965744
 20
16.548381
 10
24.963768
 20
16.494309
 10
24.961751
 20
16.440106
 10
24.959696
 20
16.385767
 10
24.957604
 20
16.331285
 10
24.955477
 20
16.276657
 10
24.953318
 20
16.221876
 10
24.951128
 20
16.166936
 10
24.94891
 20
16.111833
 10
24.946667
 20
16.056561
 10
24.944399
 20
16.001114
 10
24.942109
 20
15.945487
 10
24.939799
 20
15.889674
 10
24.937472
 20
15.83367
 10
24.935129
 20
15.77747
 10
24.932773
 20
15.721068
 10
24.930405
 20
15.664458
 10
24.928028
 20
15.607635
 10
24.925644
 20
15.550594
 10
24.923255
 20
15.493329
 10
24.920863
 20
15.435834
 10
24.91847
 20
15.378105
 10
24.916078
 20
15.320135
 10
24.91369
 20
15.26192
 10
24.911307
 20
15.203453
 10
24.908932
 20
15.144729
 10
24.906566
 20
15.085744
 10
24.904213
 20
15.02649
 10
24.901873
 20
14.966964
 10
24.899549
 20
14.907159
 10
24.897243
 20
14.847069
 10
24.894958
 20
14.786691
 10
24.892694
 20
14.726017
 10
24.890456
 20
14.665043
 10
24.888243
 20
14.603762
 10
24.88606
 20
14.542171
 10
24.883907
 20
14.480262
 10
24.881787
 20
14.418031
 10
24.879702
 20
14.355472
 10
24.877654
 20
14.29258
 10
24.875644
 20
14.229352
 10
24.873675
 20
14.165784
 10
24.871747
 20
14.101872
 10
24.869862
 20
14.037615
 10
24.868021
 20
13.973008
 10
24.866226
 20
13.908048
 10
24.864479
 20
13.842733
 10
24.86278
 20
13.77706
 10
24.861129
 20
13.711033
 10
24.859525
 20
13.644659
 10
24.857966
 20
13.577943
 10
24.856452
 20
13.510891
 10
24.854982
 20
13.443508
 10
24.853554
 20
13.375801
 10
24.852168
 20
13.307775
 10
24.850822
 20
13.239436
 10
24.849515
 20
13.170792
 10
24.848245
 20
13.101851
 10
24.84701
 20
13.03262
 10
24.845809
 20
12.963109
 10
24.84464
 20
12.893324
 10
24.843501
 20
12.823275
 10
24.842391
 20
12.752968
 10
24.841308
 20
12.682412
 10
24.84025
 20
12.611614
 10
24.839216
 20
12.540584
 10
24.838203
 20
12.469329
 10
24.837211
 20
12.397856
 10
24.836237
 20
12.326174
 10
24.835281
 20
12.254291
 10
24.834339
 20
12.182215
 10
24.833411
 20
12.109953
 10
24.832495
 20
12.037515
 10
24.831588
 20
11.964907
 10
24.830691
 20
11.892138
 10
24.8298
 20
11.819216
 10
24.828914
 20
11.746148
 10
24.828031
 20
11.672944
 10
24.82715
 20
11.59961
 10
24.826269
 20
11.526155
 10
24.825387
 20
11.452587
 10
24.824501
 20
11.378913
 10
24.823609
 20
11.305143
 10
24.822712
 20
11.231283
 10
24.821805
 20
11.157342
 10
24.820889
 20
11.083327
 10
24.819961
 20
11.009248
 10
24.819019
 20
10.935111
 10
24.818063
 20
10.860925
 10
24.817089
 20
10.786697
 10
24.816097
 20
10.712437
 10
24.815085
 20
10.638151
 10
24.81405
 20
10.563848
 10
24.812992
 20
10.489536
 10
24.811909
 20
10.415222
 10
24.810799
 20
10.340915
 10
24.809661
 20
10.266623
 10
24.808491
 20
10.192354
 10
24.80729
 20
10.118115
 10
24.806056
 20
10.043915
 10
24.804785
 20
9.969762
 10
24.803478
 20
9.895663
 10
24.802132
 20
9.821627
 10
24.800746
 20
9.747662
 10
24.799318
 20
9.673774
 10
24.797847
 20
9.599969
 10
24.796333
 20
9.526255
 10
24.794774
 20
9.452638
 10
24.793168
 20
9.379123
 10
24.791516
 20
9.305718
 10
24.789815
 20
9.232429
 10
24.788065
 20
9.159262
 10
24.786267
 20
9.086218
 10
24.784422
 20
9.013298
 10
24.78253
 20
8.940501
 10
24.780594
 20
8.867829
 10
24.778614
 20
8.795282
 10
24.776591
 20
8.72286
 10
24.774526
 20
8.650564
 10
24.772422
 20
8.578394
 10
24.770278
 20
8.506349
 10
24.768097
 20
8.434428
 10
24.765882
 20
8.362631
 10
24.763632
 20
8.290955
 10
24.76135
 20
8.219401
 10
24.759038
 20
8.147966
 10
24.756698
 20
8.07665
 10
24.75433
 20
8.005453
 10
24.751937
 20
7.934372
 10
24.749521
 20
7.863406
 10
24.747082
 20
7.792556
 10
24.744624
 20
7.721819
 10
24.742146
 20
7.651194
 10
24.739652
 20
7.580681
 10
24.737143
 20
7.510279
 10
24.734621
 20
7.439986
 10
24.732086
 20
7.369801
 10
24.729542
 20
7.299724
 10
24.726989
 20
7.229753
 10
24.724429
 20
7.159887
 10
24.721864
 20
7.090126
 10
24.719296
 20
7.020467
 10
24.716726
 20
6.950911
 10
24.714157
 20
6.881456
 10
24.711589
 20
6.8121
 10
24.709024
 20
6.742843
 10
24.706464
 20
6.673685
 10
24.703911
 20
6.604623
 10
24.701367
 20
6.535657
 10
24.698832
 20
6.466785
 10
24.69631
 20
6.398007
 10
24.6938
 20
6.329322
 10
24.691307
 20
6.260729
 10
24.688829
 20
6.192225
 10
24.686371
 20
6.123812
 10
24.683932
 20
6.055486
 10
24.681516
 20
5.987248
 10
24.679123
 20
5.919096
 10
24.676755
 20
5.85103
 10
24.674415
 20
5.783047
 10
24.672103
 20
5.715148
 10
24.669821
 20
5.647331
 10
24.667571
 20
5.579595
 10
24.665355
 20
5.511939
 10
24.663175
 20
5.444361
 10
24.661031
 20
5.376862
 10
24.658927
 20
5.309439
 10
24.656862
 20
5.242092
 10
24.65484
 20
5.174817
 10
24.65286
 20
5.107612
 10
24.650924
 20
5.040472
 10
24.649034
 20
4.973395
 10
24.64719
 20
4.906377
 10
24.645395
 20
4.839415
 10
24.643648
 20
4.772506
 10
24.641952
 20
4.705644
 10
24.640305
 20
4.63882
 10
24.638707
 20
4.572021
 10
24.637159
 20
4.505234
 10
24.635658
 20
4.438447
 10
24.634206
 20
4.371648
 10
24.6328
 20
4.304825
 10
24.631441
 20
4.237966
 10
24.630128
 20
4.171057
 10
24.628861
 20
4.104085
 10
24.627637
 20
4.037035
 10
24.626457
 20
3.969892
 10
24.625318
 20
3.902642
 10
24.624221
 20
3.835271
 10
24.623164
 20
3.767764
 10
24.622147
 20
3.700107
 10
24.621167
 20
3.632284
 10
24.620225
 20
3.564282
 10
24.619319
 20
3.496085
 10
24.618449
 20
3.42768
 10
24.617613
 20
3.359052
 10
24.61681
 20
3.290186
 10
24.61604
 20
3.221068
 10
24.615301
 20
3.151683
 10
24.614592
 20
3.082017
 10
24.613913
 20
3.012055
 10
24.613263
 20
2.941783
 10
24.61264
 20
2.871186
 10
24.612043
 20
2.800249
 10
24.611472
 20
2.728959
 10
24.610926
 20
2.6573
 10
24.610403
 20
2.585258
 10
24.609903
 20
2.512819
 10
24.609424
 20
2.439968
 10
24.608966
 20
2.36669
 10
24.608528
 20
2.292971
 10
24.608109
 20
2.218797
 10
24.607707
 20
2.144152
 10
24.607322
 20
2.069023
 10
24.606952
 20
1.993395
 10
24.606598
 20
1.917145
 10
24.606255
 20
1.839718
 10
24.605921
 20
1.760453
 10
24.605593
 20
1.678685
 10
24.605268
 20
1.593752
 10
24.604943
 20
1.504992
 10
24.604616
 20
1.411742
 10
24.604283
 20
1.313338
 10
24.603941
 20
1.208609
 10
24.603578
 20
1.094341
 10
24.603185
 20
0.966814
 10
24.60275
 20
0.822304
 10
24.602262
 20
0.65709
 10
24.60171
 20
0.467449
 10
24.601082
 20
0.24966
 10
24.600367
 20
0.0
  0
LWPOLYLINE
  5
1303
100
AcDbEntity
  8
TOPO
100
AcDbPolyline
 90
       38
 70
     0
 43
0.0
 10
0.0
 20
67.533833
 10
1.164791
 20
67.64467
 10
4.168314
 20
67.935085
 10
8.528266
 20
69.387162
 10
10.369135
 20
70.258407
 10
13.178882
 20
72.775339
 10
14.438424
 20
75.29227
 10
16.666844
 20
79.648498
 10
17.054395
 20
82.068624
 10
18.023274
 20
84.488751
 10
19.379703
 20
88.070538
 10
20.929909
 20
90.877885
 10
22.964553
 20
93.007596
 10
23.54588
 20
93.782037
 10
23.61966
 20
94.224337
 10
24.231544
 20
94.922572
 10
26.625359
 20
97.020425
 10
28.145286
 20
98.84366
 10
30.492663
 20
100.501135
 10
33.17
 20
101.931869
 10
36.329934
 20
102.864852
 10
39.04887
 20
103.541634
 10
42.502969
 20
103.884899
 10
45.601382
 20
103.830652
 10
47.863007
 20
103.407282
 10
48.994235
 20
102.998598
 10
49.058013
 20
103.007701
 10
50.23349
 20
103.007701
 10
55.469708
 20
103.861864
 10
57.820662
 20
104.609256
 10
61.881403
 20
106.31758
 10
62.950018
 20
107.492053
 10
65.194112
 20
109.94777
 10
66.690173
 20
111.015473
 10
68.613682
 20
112.617027
 10
70.857775
 20
113.898271
 10
72.033253
 20
115.179514
 10
74.0
 20
116.464366
  0
LWPOLYLINE
  5
132B
100
AcDbEntity
  8
TOPO
100
AcDbPolyline
 90
       38
 70
     0
 43
0.0
 10
0.0
 20
74.480185
 10
4.071426
 20
74.808245
 10
7.365612
 20
75.969906
 10
9.787808
 20
80.035718
 10
11.338013
 20
84.198336
 10
13.081995
 20
87.780123
 10
15.601078
 20
91.1683
 10
17.441947
 20
92.620376
 10
18.604601
 20
93.782037
 10
21.026797
 20
95.911748
 10
21.898787
 20
96.879799
 10
21.967169
 20
97.221414
 10
22.661007
 20
98.172677
 10
23.992312
 20
99.915826
 10
25.945507
 20
101.733716
 10
28.073295
 20
103.768139
 10
30.275647
 20
105.21547
 10
32.574143
 20
106.587013
 10
34.739292
 20
107.760471
 10
36.785589
 20
108.569699
 10
38.594771
 20
109.363465
 10
41.443379
 20
110.095678
 10
43.875744
 20
110.132386
 10
46.657745
 20
109.823818
 10
47.964221
 20
109.386034
 10
48.866241
 20
109.032734
 10
50.019767
 20
109.307148
 10
51.195245
 20
109.520689
 10
53.118753
 20
109.734229
 10
55.042262
 20
109.94777
 10
56.431462
 20
110.801932
 10
59.316725
 20
112.189946
 10
62.201987
 20
114.111811
 10
65.621558
 20
117.20815
 10
68.506821
 20
119.023245
 10
71.712668
 20
120.197718
 10
73.956761
 20
121.05188
 10
74.0
 20
121.068496
  0
TEXT
  5
1353
100
AcDbEntity
  8
TEXT
100
AcDbText
 10
34.357084
 20
85.161404
 30
0.0
 40
1.0
  1
QT16
  7
ROMANS
 72
     1
 11
36.02375
 21
85.161404
 31
0.0
100
AcDbText
  0
TEXT
  5
1355
100
AcDbEntity
  8
TEXT
100
AcDbText
 10
39.490417
 20
85.161404
 30
0.0
 40
1.0
  1
QT7
  7
ROMANS
 72
     1
 11
40.82375
 21
85.161404
 31
0.0
100
AcDbText
  0
TEXT
  5
1356
100
AcDbEntity
  8
TEXT
100
AcDbText
 10
44.857084
 20
85.161404
 30
0.0
 40
1.0
  1
QT1
  7
ROMANS
 72
     1
 11
46.02375
 21
85.161404
 31
0.0
100
AcDbText
  0
TEXT
  5
1357
100
AcDbEntity
  8
TEXT
100
AcDbText
 10
34.357084
 20
90.561404
 30
0.0
 40
1.0
  1
QT17
  7
ROMANS
 72
     1
 11
36.02375
 21
90.561404
 31
0.0
100
AcDbText
  0
TEXT
  5
1358
100
AcDbEntity
  8
TEXT
100
AcDbText
 10
39.157084
 20
90.561404
 30
0.0
 40
1.0
  1
QT14
  7
ROMANS
 72
     1
 11
40.82375
 21
90.561404
 31
0.0
100
AcDbText
  0
TEXT
  5
1359
100
AcDbEntity
  8
TEXT
100
AcDbText
 10
44.357084
 20
90.561404
 30
0.0
 40
1.0
  1
QT13
  7
ROMANS
 72
     1
 11
46.02375
 21
90.561404
 31
0.0
100
AcDbText
  0
TEXT
  5
135A
100
AcDbEntity
  8
TEXT
100
AcDbText
 10
34.690417
 20
95.661404
 30
0.0
 40
1.0
  1
QT8
  7
ROMANS
 72
     1
 11
36.02375
 21
95.661404
 31
0.0
100
AcDbText
  0
TEXT
  5
135B
100
AcDbEntity
  8
TEXT
100
AcDbText
 10
38.990417
 20
95.661404
 30
0.0
 40
1.0
  1
QT22
  7
ROMANS
 72
     1
 11
40.82375
 21
95.661404
 31
0.0
100
AcDbText
  0
TEXT
  5
135C
100
AcDbEntity
  8
TEXT
100
AcDbText
 10
44.357084
 20
95.661404
 30
0.0
 40
1.0
  1
QT21
  7
ROMANS
 72
     1
 11
46.02375
 21
95.661404
 31
0.0
100
AcDbText
  0
TEXT
  5
135D
100
AcDbEntity
  8
TEXT
100
AcDbText
 10
34.690417
 20
100.561404
 30
0.0
 40
1.0
  1
QT2
  7
ROMANS
 72
     1
 11
36.02375
 21
100.561404
 31
0.0
100
AcDbText
  0
TEXT
  5
135E
100
AcDbEntity
  8
TEXT
100
AcDbText
 10
39.157084
 20
100.561404
 30
0.0
 40
1.0
  1
QT18
  7
ROMANS
 72
     1
 11
40.82375
 21
100.561404
 31
0.0
100
AcDbText
  0
TEXT
  5
135F
100
AcDbEntity
  8
TEXT
100
AcDbText
 10
44.52375
 20
100.561404
 30
0.0
 40
1.0
  1
QT11
  7
ROMANS
 72
     1
 11
46.02375
 21
100.561404
 31
0.0
100
AcDbText
  0
TEXT
  5
1360
100
AcDbEntity
  8
TEXT
100
AcDbText
 10
39.490417
 20
110.561404
 30
0.0
 40
1.0
  1
QT9
  7
ROMANS
 72
     1
 11
40.82375
 21
110.561404
 31
0.0
100
AcDbText
  0
TEXT
  5
1361
100
AcDbEntity
  8
TEXT
100
AcDbText
 10
34.790417
 20
110.561404
 30
0.0
 40
1.0
  1
QT3
  7
ROMANS
 72
     1
 11
36.12375
 21
110.561404
 31
0.0
100
AcDbText
  0
TEXT
  5
1362
100
AcDbEntity
  8
TEXT
100
AcDbText
 10
29.457084
 20
110.561404
 30
0.0
 40
1.0
  1
QT19
  7
ROMANS
 72
     1
 11
31.12375
 21
110.561404
 31
0.0
100
AcDbText
  0
TEXT
  5
1363
100
AcDbEntity
  8
TEXT
100
AcDbText
 10
24.457084
 20
110.561404
 30
0.0
 40
1.0
  1
QT15
  7
ROMANS
 72
     1
 11
26.12375
 21
110.561404
 31
0.0
100
AcDbText
  0
TEXT
  5
1364
100
AcDbEntity
  8
TEXT
100
AcDbText
 10
24.790417
 20
115.561404
 30
0.0
 40
1.0
  1
QT5
  7
ROMANS
 72
     1
 11
26.12375
 21
115.561404
 31
0.0
100
AcDbText
  0
TEXT
  5
1365
100
AcDbEntity
  8
TEXT
100
AcDbText
 10
29.290417
 20
115.561404
 30
0.0
 40
1.0
  1
QT24
  7
ROMANS
 72
     1
 11
31.12375
 21
115.561404
 31
0.0
100
AcDbText
  0
TEXT
  5
1366
100
AcDbEntity
  8
TEXT
100
AcDbText
 10
34.790417
 20
115.561404
 30
0.0
 40
1.0
  1
QT4
  7
ROMANS
 72
     1
 11
36.12375
 21
115.561404
 31
0.0
100
AcDbText
  0
TEXT
  5
1367
100
AcDbEntity
  8
TEXT
100
AcDbText
 10
38.990417
 20
115.561404
 30
0.0
 40
1.0
  1
QT23
  7
ROMANS
 72
     1
 11
40.82375
 21
115.561404
 31
0.0
100
AcDbText
  0
TEXT
  5
1368
100
AcDbEntity
  8
TEXT
100
AcDbText
 10
24.37375
 20
120.561404
 30
0.0
 40
1.0
  1
QT20
  7
ROMANS
 72
     1
 11
26.12375
 21
120.561404
 31
0.0
100
AcDbText
  0
TEXT
  5
1369
100
AcDbEntity
  8
TEXT
100
AcDbText
 10
29.790417
 20
120.561404
 30
0.0
 40
1.0
  1
QT6
  7
ROMANS
 72
     1
 11
31.12375
 21
120.561404
 31
0.0
100
AcDbText
  0
TEXT
  5
136A
100
AcDbEntity
  8
TEXT
100
AcDbText
 10
34.540417
 20
120.561404
 30
0.0
 40
1.0
  1
QT10
  7
ROMANS
 72
     1
 11
36.12375
 21
120.561404
 31
0.0
100
AcDbText
  0
TEXT
  5
136B
100
AcDbEntity
  8
TEXT
100
AcDbText
 10
39.157084
 20
120.561404
 30
0.0
 40
1.0
  1
QT12
  7
ROMANS
 72
     1
 11
40.82375
 21
120.561404
 31
0.0
100
AcDbText
  0
TEXT
  5
136C
100
AcDbEntity
  8
TEXT
100
AcDbText
 10
42.0
 20
61.7
 30
0.0
 40
1.5
  1
CASA
 50
77.905243
  7
ROMANS
100
AcDbText
  0
TEXT
  5
136D
100
AcDbEntity
  8
TEXT
100
AcDbText
 10
30.5
 20
7.5
 30
0.0
 40
1.5
  1
HUECO PARA
  7
ROMANS
100
AcDbText
  0
TEXT
  5
136E
100
AcDbEntity
  8
TEXT
100
AcDbText
 10
30.5
 20
4.0
 30
0.0
 40
1.5
  1
CASA VIEJA
  7
ROMANS
100
AcDbText
  0
TEXT
  5
136F
100
AcDbEntity
  8
TEXT
100
AcDbText
 10
1.033333
 20
45.2
 30
0.0
 40
1.0
  1
QT41
  7
ROMANS
 72
     1
 11
2.7
 21
45.2
 31
0.0
100
AcDbText
  0
TEXT
  5
1370
100
AcDbEntity
  8
TEXT
100
AcDbText
 10
5.95
 20
45.2
 30
0.0
 40
1.0
  1
QT30
  7
ROMANS
 72
     1
 11
7.7
 21
45.2
 31
0.0
100
AcDbText
  0
TEXT
  5
1371
100
AcDbEntity
  8
TEXT
100
AcDbText
 10
10.866667
 20
45.2
 30
0.0
 40
1.0
  1
QT25
  7
ROMANS
 72
     1
 11
12.7
 21
45.2
 31
0.0
100
AcDbText
  0
TEXT
  5
1372
100
AcDbEntity
  8
TEXT
100
AcDbText
 10
0.866667
 20
50.2
 30
0.0
 40
1.0
  1
QT26
  7
ROMANS
 72
     1
 11
2.7
 21
50.2
 31
0.0
100
AcDbText
  0
TEXT
  5
1373
100
AcDbEntity
  8
TEXT
100
AcDbText
 10
5.866667
 20
50.2
 30
0.0
 40
1.0
  1
QT42
  7
ROMANS
 72
     1
 11
7.7
 21
50.2
 31
0.0
100
AcDbText
  0
TEXT
  5
1374
100
AcDbEntity
  8
TEXT
100
AcDbText
 10
10.866667
 20
50.2
 30
0.0
 40
1.0
  1
QT36
  7
ROMANS
 72
     1
 11
12.7
 21
50.2
 31
0.0
100
AcDbText
  0
TEXT
  5
1375
100
AcDbEntity
  8
TEXT
100
AcDbText
 10
0.866667
 20
55.2
 30
0.0
 40
1.0
  1
QT43
  7
ROMANS
 72
     1
 11
2.7
 21
55.2
 31
0.0
100
AcDbText
  0
TEXT
  5
1376
100
AcDbEntity
  8
TEXT
100
AcDbText
 10
6.033333
 20
55.2
 30
0.0
 40
1.0
  1
QT31
  7
ROMANS
 72
     1
 11
7.7
 21
55.2
 31
0.0
100
AcDbText
  0
TEXT
  5
1377
100
AcDbEntity
  8
TEXT
100
AcDbText
 10
10.866667
 20
55.2
 30
0.0
 40
1.0
  1
QT46
  7
ROMANS
 72
     1
 11
12.7
 21
55.2
 31
0.0
100
AcDbText
  0
TEXT
  5
1378
100
AcDbEntity
  8
TEXT
100
AcDbText
 10
0.866667
 20
60.2
 30
0.0
 40
1.0
  1
QT33
  7
ROMANS
 72
     1
 11
2.7
 21
60.2
 31
0.0
100
AcDbText
  0
TEXT
  5
1379
100
AcDbEntity
  8
TEXT
100
AcDbText
 10
5.866667
 20
60.2
 30
0.0
 40
1.0
  1
QT38
  7
ROMANS
 72
     1
 11
7.7
 21
60.2
 31
0.0
100
AcDbText
  0
TEXT
  5
137A
100
AcDbEntity
  8
TEXT
100
AcDbText
 10
10.866667
 20
60.2
 30
0.0
 40
1.0
  1
QT37
  7
ROMANS
 72
     1
 11
12.7
 21
60.2
 31
0.0
100
AcDbText
  0
TEXT
  5
137B
100
AcDbEntity
  8
TEXT
100
AcDbText
 10
5.866667
 20
65.0
 30
0.0
 40
1.0
  1
QT32
  7
ROMANS
 72
     1
 11
7.7
 21
65.0
 31
0.0
100
AcDbText
  0
TEXT
  5
137C
100
AcDbEntity
  8
TEXT
100
AcDbText
 10
10.866667
 20
65.0
 30
0.0
 40
1.0
  1
QT47
  7
ROMANS
 72
     1
 11
12.7
 21
65.0
 31
0.0
100
AcDbText
  0
TEXT
  5
137D
100
AcDbEntity
  8
TEXT
100
AcDbText
 10
15.866667
 20
60.2
 30
0.0
 40
1.0
  1
QT39
  7
ROMANS
 72
     1
 11
17.7
 21
60.2
 31
0.0
100
AcDbText
  0
TEXT
  5
137E
100
AcDbEntity
  8
TEXT
100
AcDbText
 10
27.933333
 20
16.3
 30
0.0
 40
1.0
  1
QT61
  7
ROMANS
 72
     1
 11
29.6
 21
16.3
 31
0.0
100
AcDbText
  0
TEXT
  5
137F
100
AcDbEntity
  8
TEXT
100
AcDbText
 10
32.666667
 20
16.3
 30
0.0
 40
1.0
  1
QT27
  7
ROMANS
 72
     1
 11
34.5
 21
16.3
 31
0.0
100
AcDbText
  0
TEXT
  5
1380
100
AcDbEntity
  8
TEXT
100
AcDbText
 10
37.75
 20
16.3
 30
0.0
 40
1.0
  1
QT40
  7
ROMANS
 72
     1
 11
39.5
 21
16.3
 31
0.0
100
AcDbText
  0
TEXT
  5
1381
100
AcDbEntity
  8
TEXT
100
AcDbText
 10
42.766667
 20
16.3
 30
0.0
 40
1.0
  1
QT44
  7
ROMANS
 72
     1
 11
44.6
 21
16.3
 31
0.0
100
AcDbText
  0
TEXT
  5
1382
100
AcDbEntity
  8
TEXT
100
AcDbText
 10
47.666667
 20
16.3
 30
0.0
 40
1.0
  1
QT34
  7
ROMANS
 72
     1
 11
49.5
 21
16.3
 31
0.0
100
AcDbText
  0
TEXT
  5
1383
100
AcDbEntity
  8
TEXT
100
AcDbText
 10
27.766667
 20
21.2
 30
0.0
 40
1.0
  1
QT62
  7
ROMANS
 72
     1
 11
29.6
 21
21.2
 31
0.0
100
AcDbText
  0
TEXT
  5
1384
100
AcDbEntity
  8
TEXT
100
AcDbText
 10
32.666667
 20
21.2
 30
0.0
 40
1.0
  1
QT28
  7
ROMANS
 72
     1
 11
34.5
 21
21.2
 31
0.0
100
AcDbText
  0
TEXT
  5
1385
100
AcDbEntity
  8
TEXT
100
AcDbText
 10
37.666667
 20
21.2
 30
0.0
 40
1.0
  1
QT54
  7
ROMANS
 72
     1
 11
39.5
 21
21.2
 31
0.0
100
AcDbText
  0
TEXT
  5
1386
100
AcDbEntity
  8
TEXT
100
AcDbText
 10
42.766667
 20
21.2
 30
0.0
 40
1.0
  1
QT45
  7
ROMANS
 72
     1
 11
44.6
 21
21.2
 31
0.0
100
AcDbText
  0
TEXT
  5
1387
100
AcDbEntity
  8
TEXT
100
AcDbText
 10
47.666667
 20
21.2
 30
0.0
 40
1.0
  1
QT35
  7
ROMANS
 72
     1
 11
49.5
 21
21.2
 31
0.0
100
AcDbText
  0
TEXT
  5
1388
100
AcDbEntity
  8
TEXT
100
AcDbText
 10
27.766667
 20
26.3
 30
0.0
 40
1.0
  1
QT29
  7
ROMANS
 72
     1
 11
29.6
 21
26.3
 31
0.0
100
AcDbText
  0
TEXT
  5
1389
100
AcDbEntity
  8
TEXT
100
AcDbText
 10
32.666667
 20
26.3
 30
0.0
 40
1.0
  1
QT66
  7
ROMANS
 72
     1
 11
34.5
 21
26.3
 31
0.0
100
AcDbText
  0
TEXT
  5
138A
100
AcDbEntity
  8
TEXT
100
AcDbText
 10
37.666667
 20
26.3
 30
0.0
 40
1.0
  1
QT55
  7
ROMANS
 72
     1
 11
39.5
 21
26.3
 31
0.0
100
AcDbText
  0
TEXT
  5
138B
100
AcDbEntity
  8
TEXT
100
AcDbText
 10
42.933333
 20
26.3
 30
0.0
 40
1.0
  1
QT51
  7
ROMANS
 72
     1
 11
44.6
 21
26.3
 31
0.0
100
AcDbText
  0
TEXT
  5
138C
100
AcDbEntity
  8
TEXT
100
AcDbText
 10
47.666667
 20
26.3
 30
0.0
 40
1.0
  1
QT48
  7
ROMANS
 72
     1
 11
49.5
 21
26.3
 31
0.0
100
AcDbText
  0
TEXT
  5
138D
100
AcDbEntity
  8
TEXT
100
AcDbText
 10
27.766667
 20
31.3
 30
0.0
 40
1.0
  1
QT64
  7
ROMANS
 72
     1
 11
29.6
 21
31.3
 31
0.0
100
AcDbText
  0
TEXT
  5
138E
100
AcDbEntity
  8
TEXT
100
AcDbText
 10
32.666667
 20
31.3
 30
0.0
 40
1.0
  1
QT63
  7
ROMANS
 72
     1
 11
34.5
 21
31.3
 31
0.0
100
AcDbText
  0
TEXT
  5
138F
100
AcDbEntity
  8
TEXT
100
AcDbText
 10
37.666667
 20
31.3
 30
0.0
 40
1.0
  1
QT56
  7
ROMANS
 72
     1
 11
39.5
 21
31.3
 31
0.0
100
AcDbText
  0
TEXT
  5
1390
100
AcDbEntity
  8
TEXT
100
AcDbText
 10
42.766667
 20
31.3
 30
0.0
 40
1.0
  1
QT52
  7
ROMANS
 72
     1
 11
44.6
 21
31.3
 31
0.0
100
AcDbText
  0
TEXT
  5
1391
100
AcDbEntity
  8
TEXT
100
AcDbText
 10
47.666667
 20
31.3
 30
0.0
 40
1.0
  1
QT49
  7
ROMANS
 72
     1
 11
49.5
 21
31.3
 31
0.0
100
AcDbText
  0
TEXT
  5
1392
100
AcDbEntity
  8
TEXT
100
AcDbText
 10
27.766667
 20
36.3
 30
0.0
 40
1.0
  1
QT76
  7
ROMANS
 72
     1
 11
29.6
 21
36.3
 31
0.0
100
AcDbText
  0
TEXT
  5
1393
100
AcDbEntity
  8
TEXT
100
AcDbText
 10
32.833333
 20
36.3
 30
0.0
 40
1.0
  1
QT71
  7
ROMANS
 72
     1
 11
34.5
 21
36.3
 31
0.0
100
AcDbText
  0
TEXT
  5
1394
100
AcDbEntity
  8
TEXT
100
AcDbText
 10
37.666667
 20
36.3
 30
0.0
 40
1.0
  1
QT57
  7
ROMANS
 72
     1
 11
39.5
 21
36.3
 31
0.0
100
AcDbText
  0
TEXT
  5
1395
100
AcDbEntity
  8
TEXT
100
AcDbText
 10
42.766667
 20
36.3
 30
0.0
 40
1.0
  1
QT53
  7
ROMANS
 72
     1
 11
44.6
 21
36.3
 31
0.0
100
AcDbText
  0
TEXT
  5
1396
100
AcDbEntity
  8
TEXT
100
AcDbText
 10
47.75
 20
36.3
 30
0.0
 40
1.0
  1
QT50
  7
ROMANS
 72
     1
 11
49.5
 21
36.3
 31
0.0
100
AcDbText
  0
MTEXT
  5
139A
100
AcDbEntity
  8
NARROW
100
AcDbMText
 10
3.2
 20
8.8
 30
0.0
 40
0.9
 41
0.0
 71
     1
 72
     5
  1
Drawing Not To Scale\PShovel Tests in \P5 meter Grid
  7
ROMANS
  0
TEXT
  5
139F
100
AcDbEntity
  8
TEXT
100
AcDbText
 10
61.3
 20
15.9
 30
0.0
 40
1.5
  1
Carretera
 50
90.0
  7
ROMANS
100
AcDbText
  0
TEXT
  5
13A9
100
AcDbEntity
  8
TEXT
100
AcDbText
 10
0.6
 20
119.6
 30
0.0
 40
1.5
  1
VP183
  7
ROMANS
100
AcDbText
  0
ENDSEC
  0
SECTION
  2
OBJECTS
  0
DICTIONARY
  5
C
100
AcDbDictionary
  3
ACAD_GROUP
350
D
  3
ACAD_MLINESTYLE
350
1A
  3
ACDBVARIABLEDICTIONARY
350
32
  0
DICTIONARY
  5
D
102
{ACAD_REACTORS
330
C
102
}
100
AcDbDictionary
  0
DICTIONARY
  5
1A
102
{ACAD_REACTORS
330
C
102
}
100
AcDbDictionary
  3
STANDARD
350
1B
  0
DICTIONARY
  5
32
102
{ACAD_REACTORS
330
C
102
}
100
AcDbDictionary
  3
DIMADEC
350
33
  0
MLINESTYLE
  5
1B
102
{ACAD_REACTORS
330
1A
102
}
100
AcDbMlineStyle
  2
STANDARD
 70
     0
  3

 62
   256
 51
90.0
 52
90.0
 71
     2
 49
0.5
 62
   256
  6
BYLAYER
 49
-0.5
 62
   256
  6
BYLAYER
  0
DICTIONARYVAR
  5
33
102
{ACAD_REACTORS
330
32
102
}
100
DictionaryVariables
280
     0
  1
0
  0
ENDSEC
  0
EOF
