  0
SECTION
  2
HEADER
  9
$ACADVER
  1
AC1014
  9
$ACADMAINTVER
 70
     0
  9
$DWGCODEPAGE
  3
ANSI_1252
  9
$INSBASE
 10
0.0
 20
0.0
 30
0.0
  9
$EXTMIN
 10
108.5
 20
1594.3
 30
0.0
  9
$EXTMAX
 10
115.5
 20
1596.0
 30
0.0
  9
$LIMMIN
 10
0.0
 20
0.0
  9
$LIMMAX
 10
12.0
 20
9.0
  9
$ORTHOMODE
 70
     0
  9
$REGENMODE
 70
     1
  9
$FILLMODE
 70
     1
  9
$QTEXTMODE
 70
     0
  9
$MIRRTEXT
 70
     1
  9
$DRAGMODE
 70
     2
  9
$LTSCALE
 40
1.0
  9
$OSMODE
 70
     0
  9
$ATTMODE
 70
     1
  9
$TEXTSIZE
 40
0.04
  9
$TRACEWID
 40
0.05
  9
$TEXTSTYLE
  7
ROMANS
  9
$CLAYER
  8
TEXT
  9
$CELTYPE
  6
BYLAYER
  9
$CECOLOR
 62
   256
  9
$CELTSCALE
 40
1.0
  9
$DELOBJ
 70
     1
  9
$DISPSILH
 70
     0
  9
$DIMSCALE
 40
1.0
  9
$DIMASZ
 40
0.18
  9
$DIMEXO
 40
0.0625
  9
$DIMDLI
 40
0.38
  9
$DIMRND
 40
0.0
  9
$DIMDLE
 40
0.0
  9
$DIMEXE
 40
0.18
  9
$DIMTP
 40
0.0
  9
$DIMTM
 40
0.0
  9
$DIMTXT
 40
0.18
  9
$DIMCEN
 40
0.09
  9
$DIMTSZ
 40
0.0
  9
$DIMTOL
 70
     0
  9
$DIMLIM
 70
     0
  9
$DIMTIH
 70
     1
  9
$DIMTOH
 70
     1
  9
$DIMSE1
 70
     0
  9
$DIMSE2
 70
     0
  9
$DIMTAD
 70
     0
  9
$DIMZIN
 70
     0
  9
$DIMBLK
  1

  9
$DIMASO
 70
     1
  9
$DIMSHO
 70
     0
  9
$DIMPOST
  1

  9
$DIMAPOST
  1

  9
$DIMALT
 70
     0
  9
$DIMALTD
 70
     2
  9
$DIMALTF
 40
25.4
  9
$DIMLFAC
 40
1.0
  9
$DIMTOFL
 70
     0
  9
$DIMTVP
 40
0.0
  9
$DIMTIX
 70
     0
  9
$DIMSOXD
 70
     0
  9
$DIMSAH
 70
     0
  9
$DIMBLK1
  1

  9
$DIMBLK2
  1

  9
$DIMSTYLE
  2
STANDARD
  9
$DIMCLRD
 70
     0
  9
$DIMCLRE
 70
     0
  9
$DIMCLRT
 70
     0
  9
$DIMTFAC
 40
1.0
  9
$DIMGAP
 40
0.09
  9
$DIMJUST
 70
     0
  9
$DIMSD1
 70
     0
  9
$DIMSD2
 70
     0
  9
$DIMTOLJ
 70
     1
  9
$DIMTZIN
 70
     0
  9
$DIMALTZ
 70
     0
  9
$DIMALTTZ
 70
     0
  9
$DIMFIT
 70
     5
  9
$DIMUPT
 70
     0
  9
$DIMUNIT
 70
     2
  9
$DIMDEC
 70
     4
  9
$DIMTDEC
 70
     4
  9
$DIMALTU
 70
     2
  9
$DIMALTTD
 70
     2
  9
$DIMTXSTY
  7
ROMANS
  9
$DIMAUNIT
 70
     0
  9
$LUNITS
 70
     2
  9
$LUPREC
 70
     4
  9
$SKETCHINC
 40
0.1
  9
$FILLETRAD
 40
0.0
  9
$AUNITS
 70
     0
  9
$AUPREC
 70
     0
  9
$MENU
  1
ACAD
  9
$ELEVATION
 40
0.0
  9
$PELEVATION
 40
0.0
  9
$THICKNESS
 40
0.0
  9
$LIMCHECK
 70
     0
  9
$BLIPMODE
 70
     1
  9
$CHAMFERA
 40
0.0
  9
$CHAMFERB
 40
0.0
  9
$CHAMFERC
 40
0.0
  9
$CHAMFERD
 40
0.0
  9
$SKPOLY
 70
     0
  9
$TDCREATE
 40
2447634.639644792
  9
$TDUPDATE
 40
2450266.817206134
  9
$TDINDWG
 40
0.0609864583
  9
$TDUSRTIMER
 40
0.0609864583
  9
$USRTIMER
 70
     1
  9
$ANGBASE
 50
0.0
  9
$ANGDIR
 70
     0
  9
$PDMODE
 70
     0
  9
$PDSIZE
 40
0.0
  9
$PLINEWID
 40
0.0
  9
$COORDS
 70
     2
  9
$SPLFRAME
 70
     0
  9
$SPLINETYPE
 70
     6
  9
$SPLINESEGS
 70
     8
  9
$ATTDIA
 70
     0
  9
$ATTREQ
 70
     1
  9
$HANDLING
 70
     1
  9
$HANDSEED
  5
2DC
  9
$SURFTAB1
 70
     6
  9
$SURFTAB2
 70
     6
  9
$SURFTYPE
 70
     6
  9
$SURFU
 70
     6
  9
$SURFV
 70
     6
  9
$UCSNAME
  2

  9
$UCSORG
 10
0.0
 20
0.0
 30
0.0
  9
$UCSXDIR
 10
1.0
 20
0.0
 30
0.0
  9
$UCSYDIR
 10
0.0
 20
1.0
 30
0.0
  9
$PUCSNAME
  2

  9
$PUCSORG
 10
0.0
 20
0.0
 30
0.0
  9
$PUCSXDIR
 10
1.0
 20
0.0
 30
0.0
  9
$PUCSYDIR
 10
0.0
 20
1.0
 30
0.0
  9
$USERI1
 70
     0
  9
$USERI2
 70
     0
  9
$USERI3
 70
     0
  9
$USERI4
 70
     0
  9
$USERI5
 70
     0
  9
$USERR1
 40
0.0
  9
$USERR2
 40
0.0
  9
$USERR3
 40
0.0
  9
$USERR4
 40
0.0
  9
$USERR5
 40
0.0
  9
$WORLDVIEW
 70
     1
  9
$SHADEDGE
 70
     3
  9
$SHADEDIF
 70
    70
  9
$TILEMODE
 70
     1
  9
$MAXACTVP
 70
    48
  9
$PINSBASE
 10
0.0
 20
0.0
 30
0.0
  9
$PLIMCHECK
 70
     0
  9
$PEXTMIN
 10
1.000000E+20
 20
1.000000E+20
 30
1.000000E+20
  9
$PEXTMAX
 10
-1.000000E+20
 20
-1.000000E+20
 30
-1.000000E+20
  9
$PLIMMIN
 10
0.0
 20
0.0
  9
$PLIMMAX
 10
12.0
 20
9.0
  9
$UNITMODE
 70
     0
  9
$VISRETAIN
 70
     0
  9
$PLINEGEN
 70
     0
  9
$PSLTSCALE
 70
     0
  9
$TREEDEPTH
 70
  3020
  9
$PICKSTYLE
 70
     1
  9
$CMLSTYLE
  2
STANDARD
  9
$CMLJUST
 70
     0
  9
$CMLSCALE
 40
1.0
  9
$PROXYGRAPHICS
 70
     1
  9
$MEASUREMENT
 70
     0
  0
ENDSEC
  0
SECTION
  2
CLASSES
  0
CLASS
  1
DICTIONARYVAR
  2
AcDbDictionaryVar
  3
"AutoCAD"
 90
        0
280
     0
281
     0
  0
CLASS
  1
LWPOLYLINE
  2
AcDbPolyline
  3
"AutoCAD"
 90
        0
280
     0
281
     1
  0
ENDSEC
  0
SECTION
  2
TABLES
  0
TABLE
  2
VPORT
  5
8
100
AcDbSymbolTable
 70
     3
  0
VPORT
  5
21
100
AcDbSymbolTableRecord
100
AcDbViewportTableRecord
  2
*ACTIVE
 70
     0
 10
0.0
 20
0.0
 11
1.0
 21
1.0
 12
112.0
 22
1596.834904
 13
0.0
 23
0.0
 14
0.5
 24
0.5
 15
0.0
 25
0.0
 16
0.0
 26
0.0
 36
1.0
 17
0.0
 27
0.0
 37
0.0
 40
5.069808
 41
1.380723
 42
50.0
 43
0.0
 44
0.0
 50
0.0
 51
0.0
 71
     0
 72
   100
 73
     1
 74
     0
 75
     0
 76
     0
 77
     0
 78
     0
  0
ENDTAB
  0
TABLE
  2
LTYPE
  5
5
100
AcDbSymbolTable
 70
     1
  0
LTYPE
  5
11
100
AcDbSymbolTableRecord
100
AcDbLinetypeTableRecord
  2
BYBLOCK
 70
     0
  3

 72
    65
 73
     0
 40
0.0
  0
LTYPE
  5
12
100
AcDbSymbolTableRecord
100
AcDbLinetypeTableRecord
  2
BYLAYER
 70
     0
  3

 72
    65
 73
     0
 40
0.0
  0
LTYPE
  5
13
100
AcDbSymbolTableRecord
100
AcDbLinetypeTableRecord
  2
CONTINUOUS
 70
     0
  3
Solid line
 72
    65
 73
     0
 40
0.0
  0
ENDTAB
  0
TABLE
  2
LAYER
  5
2
100
AcDbSymbolTable
 70
    10
  0
LAYER
  5
E
100
AcDbSymbolTableRecord
100
AcDbLayerTableRecord
  2
0
 70
     0
 62
    -7
  6
CONTINUOUS
  0
LAYER
  5
22
100
AcDbSymbolTableRecord
100
AcDbLayerTableRecord
  2
TEXT
 70
     0
 62
     7
  6
CONTINUOUS
  0
LAYER
  5
23
100
AcDbSymbolTableRecord
100
AcDbLayerTableRecord
  2
COORD
 70
     0
 62
     7
  6
CONTINUOUS
  0
LAYER
  5
24
100
AcDbSymbolTableRecord
100
AcDbLayerTableRecord
  2
ELEV
 70
     0
 62
     7
  6
CONTINUOUS
  0
LAYER
  5
25
100
AcDbSymbolTableRecord
100
AcDbLayerTableRecord
  2
ROOTS
 70
     0
 62
     5
  6
CONTINUOUS
  0
LAYER
  5
26
100
AcDbSymbolTableRecord
100
AcDbLayerTableRecord
  2
FLOOR
 70
     0
 62
     1
  6
CONTINUOUS
  0
LAYER
  5
27
100
AcDbSymbolTableRecord
100
AcDbLayerTableRecord
  2
TOP
 70
     0
 62
     4
  6
CONTINUOUS
  0
LAYER
  5
28
100
AcDbSymbolTableRecord
100
AcDbLayerTableRecord
  2
MUESTRAS
 70
     0
 62
     3
  6
CONTINUOUS
  0
LAYER
  5
29
100
AcDbSymbolTableRecord
100
AcDbLayerTableRecord
  2
FEATURES
 70
     0
 62
     6
  6
CONTINUOUS
  0
LAYER
  5
2A
100
AcDbSymbolTableRecord
100
AcDbLayerTableRecord
  2
LEVELS
 70
     0
 62
     7
  6
CONTINUOUS
  0
ENDTAB
  0
TABLE
  2
STYLE
  5
3
100
AcDbSymbolTable
 70
     2
  0
STYLE
  5
F
100
AcDbSymbolTableRecord
100
AcDbTextStyleTableRecord
  2
STANDARD
 70
     0
 40
0.0
 41
1.0
 50
0.0
 71
     0
 42
0.2
  3
txt
  4

  0
STYLE
  5
1E
100
AcDbSymbolTableRecord
100
AcDbTextStyleTableRecord
  2
ROMANS
 70
     0
 40
0.0
 41
1.0
 50
0.0
 71
     0
 42
0.04
  3
romans
  4

  0
ENDTAB
  0
TABLE
  2
VIEW
  5
6
100
AcDbSymbolTable
 70
     0
  0
ENDTAB
  0
TABLE
  2
UCS
  5
7
100
AcDbSymbolTable
 70
     0
  0
ENDTAB
  0
TABLE
  2
APPID
  5
9
100
AcDbSymbolTable
 70
     1
  0
APPID
  5
10
100
AcDbSymbolTableRecord
100
AcDbRegAppTableRecord
  2
ACAD
 70
     0
  0
ENDTAB
  0
TABLE
  2
DIMSTYLE
  5
A
100
AcDbSymbolTable
 70
     1
  0
DIMSTYLE
105
2D9
100
AcDbSymbolTableRecord
100
AcDbDimStyleTableRecord
  2
STANDARD
 70
     0
  3

  4

  5

  6

  7

 40
1.0
 41
0.18
 42
0.0625
 43
0.38
 44
0.18
 45
0.0
 46
0.0
 47
0.0
 48
0.0
140
0.18
141
0.09
142
0.0
143
25.4
144
1.0
145
0.0
146
1.0
147
0.09
 71
     0
 72
     0
 73
     1
 74
     1
 75
     0
 76
     0
 77
     0
 78
     0
170
     0
171
     2
172
     0
173
     0
174
     0
175
     0
176
     0
177
     0
178
     0
270
     2
271
     4
272
     4
273
     2
274
     2
340
F
275
     0
280
     0
281
     0
282
     0
283
     1
284
     0
285
     0
286
     0
287
     3
288
     0
  0
ENDTAB
  0
TABLE
  2
BLOCK_RECORD
  5
1
100
AcDbSymbolTable
 70
     2
  0
BLOCK_RECORD
  5
17
100
AcDbSymbolTableRecord
100
AcDbBlockTableRecord
  2
*MODEL_SPACE
  0
BLOCK_RECORD
  5
14
100
AcDbSymbolTableRecord
100
AcDbBlockTableRecord
  2
*PAPER_SPACE
  0
BLOCK_RECORD
  5
1C
100
AcDbSymbolTableRecord
100
AcDbBlockTableRecord
  2
TEMP
  0
BLOCK_RECORD
  5
1D
100
AcDbSymbolTableRecord
100
AcDbBlockTableRecord
  2
TEMP1
  0
ENDTAB
  0
ENDSEC
  0
SECTION
  2
BLOCKS
  0
BLOCK
  5
2D
100
AcDbEntity
  8
0
100
AcDbBlockBegin
  2
*MODEL_SPACE
 70
     0
 10
0.0
 20
0.0
 30
0.0
  3
*MODEL_SPACE
  1

  0
ENDBLK
  5
2E
100
AcDbEntity
  8
0
100
AcDbBlockEnd
  0
BLOCK
  5
2B
100
AcDbEntity
 67
     1
  8
0
100
AcDbBlockBegin
  2
*PAPER_SPACE
 70
     0
 10
0.0
 20
0.0
 30
0.0
  3
*PAPER_SPACE
  1

  0
ENDBLK
  5
2C
100
AcDbEntity
 67
     1
  8
0
100
AcDbBlockEnd
  0
BLOCK
  5
31
100
AcDbEntity
  8
0
100
AcDbBlockBegin
  2
TEMP
 70
     0
 10
0.0
 20
0.0
 30
0.0
  3
TEMP
  1

  0
LWPOLYLINE
  5
32
100
AcDbEntity
  8
ELEV
100
AcDbPolyline
 90
        2
 70
     0
 43
0.0
 10
275.95
 20
1594.2
 10
275.925
 20
1594.2
  0
LWPOLYLINE
  5
36
100
AcDbEntity
  8
ELEV
100
AcDbPolyline
 90
        2
 70
     0
 43
0.0
 10
275.95
 20
1594.3
 10
275.925
 20
1594.3
  0
LWPOLYLINE
  5
3A
100
AcDbEntity
  8
ELEV
100
AcDbPolyline
 90
        2
 70
     0
 43
0.0
 10
275.95
 20
1594.4
 10
275.925
 20
1594.4
  0
LWPOLYLINE
  5
3E
100
AcDbEntity
  8
ELEV
100
AcDbPolyline
 90
        2
 70
     0
 43
0.0
 10
275.95
 20
1594.6
 10
275.925
 20
1594.6
  0
LWPOLYLINE
  5
42
100
AcDbEntity
  8
ELEV
100
AcDbPolyline
 90
        2
 70
     0
 43
0.0
 10
275.95
 20
1594.7
 10
275.925
 20
1594.7
  0
LWPOLYLINE
  5
46
100
AcDbEntity
  8
ELEV
100
AcDbPolyline
 90
        2
 70
     0
 43
0.0
 10
275.95
 20
1594.8
 10
275.925
 20
1594.8
  0
LWPOLYLINE
  5
4A
100
AcDbEntity
  8
ELEV
100
AcDbPolyline
 90
        2
 70
     0
 43
0.0
 10
275.95
 20
1594.9
 10
275.925
 20
1594.9
  0
LWPOLYLINE
  5
4E
100
AcDbEntity
  8
ELEV
100
AcDbPolyline
 90
        2
 70
     0
 43
0.0
 10
275.95
 20
1594.5
 10
275.9
 20
1594.5
  0
LWPOLYLINE
  5
52
100
AcDbEntity
  8
ELEV
100
AcDbPolyline
 90
        2
 70
     0
 43
0.0
 10
275.95
 20
1596.1
 10
275.925
 20
1596.1
  0
LWPOLYLINE
  5
56
100
AcDbEntity
  8
ELEV
100
AcDbPolyline
 90
        2
 70
     0
 43
0.0
 10
275.95
 20
1596.2
 10
275.925
 20
1596.2
  0
LWPOLYLINE
  5
5A
100
AcDbEntity
  8
ELEV
100
AcDbPolyline
 90
        2
 70
     0
 43
0.0
 10
275.95
 20
1596.0
 10
275.9
 20
1596.0
  0
LWPOLYLINE
  5
5E
100
AcDbEntity
  8
ELEV
100
AcDbPolyline
 90
        2
 70
     0
 43
0.0
 10
275.95
 20
1595.5
 10
275.9
 20
1595.5
  0
LWPOLYLINE
  5
62
100
AcDbEntity
  8
ELEV
100
AcDbPolyline
 90
        2
 70
     0
 43
0.0
 10
275.95
 20
1595.9
 10
275.925
 20
1595.9
  0
LWPOLYLINE
  5
66
100
AcDbEntity
  8
ELEV
100
AcDbPolyline
 90
        2
 70
     0
 43
0.0
 10
275.95
 20
1595.8
 10
275.925
 20
1595.8
  0
LWPOLYLINE
  5
6A
100
AcDbEntity
  8
ELEV
100
AcDbPolyline
 90
        2
 70
     0
 43
0.0
 10
275.95
 20
1595.7
 10
275.925
 20
1595.7
  0
LWPOLYLINE
  5
6E
100
AcDbEntity
  8
ELEV
100
AcDbPolyline
 90
        2
 70
     0
 43
0.0
 10
275.95
 20
1595.6
 10
275.925
 20
1595.6
  0
LWPOLYLINE
  5
72
100
AcDbEntity
  8
ELEV
100
AcDbPolyline
 90
        2
 70
     0
 43
0.0
 10
275.95
 20
1595.4
 10
275.925
 20
1595.4
  0
LWPOLYLINE
  5
76
100
AcDbEntity
  8
ELEV
100
AcDbPolyline
 90
        2
 70
     0
 43
0.0
 10
275.95
 20
1595.3
 10
275.925
 20
1595.3
  0
LWPOLYLINE
  5
7A
100
AcDbEntity
  8
COORD
100
AcDbPolyline
 90
        2
 70
     0
 43
0.0
 10
276.0
 20
1596.325
 10
276.0
 20
1596.275
  0
LWPOLYLINE
  5
7E
100
AcDbEntity
  8
ELEV
100
AcDbPolyline
 90
        2
 70
     0
 43
0.0
 10
275.95
 20
1595.2
 10
275.925
 20
1595.2
  0
LWPOLYLINE
  5
82
100
AcDbEntity
  8
ELEV
100
AcDbPolyline
 90
        2
 70
     0
 43
0.0
 10
275.95
 20
1595.1
 10
275.925
 20
1595.1
  0
LWPOLYLINE
  5
86
100
AcDbEntity
  8
ELEV
100
AcDbPolyline
 90
        2
 70
     0
 43
0.0
 10
275.95
 20
1595.0
 10
275.9
 20
1595.0
  0
TEXT
  5
8A
100
AcDbEntity
  8
ELEV
100
AcDbText
 10
275.64
 20
1595.98
 30
0.0
 40
0.03
  1
1596.00
  7
ROMANS
100
AcDbText
  0
TEXT
  5
8C
100
AcDbEntity
  8
ELEV
100
AcDbText
 10
275.64
 20
1595.48
 30
0.0
 40
0.03
  1
1595.50
  7
ROMANS
100
AcDbText
  0
TEXT
  5
8D
100
AcDbEntity
  8
0
100
AcDbText
 10
275.638571
 20
1594.98
 30
0.0
 40
0.03
  1
1595.00
  7
ROMANS
 72
     2
 11
275.82
 21
1594.98
 31
0.0
100
AcDbText
  0
TEXT
  5
8E
100
AcDbEntity
  8
ELEV
100
AcDbText
 10
275.64
 20
1594.48
 30
0.0
 40
0.03
  1
1594.50
  7
ROMANS
100
AcDbText
  0
LWPOLYLINE
  5
8F
100
AcDbEntity
  8
ELEV
100
AcDbPolyline
 90
        2
 70
     0
 43
0.0
 10
284.05
 20
1596.2
 10
284.075
 20
1596.2
  0
LWPOLYLINE
  5
93
100
AcDbEntity
  8
COORD
100
AcDbPolyline
 90
        2
 70
     0
 43
0.0
 10
284.0
 20
1596.325
 10
284.0
 20
1596.275
  0
LWPOLYLINE
  5
97
100
AcDbEntity
  8
COORD
100
AcDbPolyline
 90
        2
 70
     0
 43
0.0
 10
280.0
 20
1596.325
 10
280.0
 20
1596.275
  0
LWPOLYLINE
  5
9B
100
AcDbEntity
  8
COORD
100
AcDbPolyline
 90
        2
 70
     0
 43
0.0
 10
281.0
 20
1596.325
 10
281.0
 20
1596.275
  0
LWPOLYLINE
  5
9F
100
AcDbEntity
  8
COORD
100
AcDbPolyline
 90
        2
 70
     0
 43
0.0
 10
282.0
 20
1596.325
 10
282.0
 20
1596.275
  0
LWPOLYLINE
  5
A3
100
AcDbEntity
  8
COORD
100
AcDbPolyline
 90
        2
 70
     0
 43
0.0
 10
283.0
 20
1596.325
 10
283.0
 20
1596.275
  0
TEXT
  5
A7
100
AcDbEntity
  8
COORD
100
AcDbText
 10
283.942857
 20
1596.35
 30
0.0
 40
0.03
  1
284E
  7
ROMANS
 72
     1
 11
284.0
 21
1596.35
 31
0.0
100
AcDbText
  0
TEXT
  5
A8
100
AcDbEntity
  8
COORD
100
AcDbText
 10
282.942857
 20
1596.35
 30
0.0
 40
0.03
  1
283E
  7
ROMANS
 72
     1
 11
283.0
 21
1596.35
 31
0.0
100
AcDbText
  0
TEXT
  5
A9
100
AcDbEntity
  8
COORD
100
AcDbText
 10
281.942857
 20
1596.35
 30
0.0
 40
0.03
  1
282E
  7
ROMANS
 72
     1
 11
282.0
 21
1596.35
 31
0.0
100
AcDbText
  0
TEXT
  5
AA
100
AcDbEntity
  8
COORD
100
AcDbText
 10
280.942857
 20
1596.35
 30
0.0
 40
0.03
  1
281E
  7
ROMANS
 72
     1
 11
281.0
 21
1596.35
 31
0.0
100
AcDbText
  0
TEXT
  5
AB
100
AcDbEntity
  8
COORD
100
AcDbText
 10
275.942857
 20
1596.35
 30
0.0
 40
0.03
  1
276E
  7
ROMANS
 72
     1
 11
276.0
 21
1596.35
 31
0.0
100
AcDbText
  0
TEXT
  5
AC
100
AcDbEntity
  8
COORD
100
AcDbText
 10
276.942857
 20
1596.35
 30
0.0
 40
0.03
  1
277E
  7
ROMANS
 72
     1
 11
277.0
 21
1596.35
 31
0.0
100
AcDbText
  0
TEXT
  5
AD
100
AcDbEntity
  8
COORD
100
AcDbText
 10
277.942857
 20
1596.35
 30
0.0
 40
0.03
  1
278E
  7
ROMANS
 72
     1
 11
278.0
 21
1596.35
 31
0.0
100
AcDbText
  0
TEXT
  5
AE
100
AcDbEntity
  8
COORD
100
AcDbText
 10
278.942857
 20
1596.35
 30
0.0
 40
0.03
  1
279E
  7
ROMANS
 72
     1
 11
279.0
 21
1596.35
 31
0.0
100
AcDbText
  0
TEXT
  5
AF
100
AcDbEntity
  8
COORD
100
AcDbText
 10
279.942857
 20
1596.35
 30
0.0
 40
0.03
  1
280E
  7
ROMANS
 72
     1
 11
280.0
 21
1596.35
 31
0.0
100
AcDbText
  0
LWPOLYLINE
  5
B0
100
AcDbEntity
  8
COORD
100
AcDbPolyline
 90
        2
 70
     0
 43
0.0
 10
279.0
 20
1596.325
 10
279.0
 20
1596.275
  0
LWPOLYLINE
  5
B4
100
AcDbEntity
  8
COORD
100
AcDbPolyline
 90
        2
 70
     0
 43
0.0
 10
278.0
 20
1596.325
 10
278.0
 20
1596.275
  0
LWPOLYLINE
  5
B8
100
AcDbEntity
  8
COORD
100
AcDbPolyline
 90
        2
 70
     0
 43
0.0
 10
277.0
 20
1596.325
 10
277.0
 20
1596.275
  0
LWPOLYLINE
  5
BC
100
AcDbEntity
  8
COORD
100
AcDbPolyline
 90
        2
 70
     0
 43
0.0
 10
280.0
 20
1596.325
 10
280.0
 20
1596.275
  0
LWPOLYLINE
  5
C0
100
AcDbEntity
  8
COORD
100
AcDbPolyline
 90
        2
 70
     0
 43
0.0
 10
284.0
 20
1596.11
 10
284.0
 20
1595.74
  0
LWPOLYLINE
  5
C4
100
AcDbEntity
  8
ELEV
100
AcDbPolyline
 90
        2
 70
     0
 43
0.0
 10
284.05
 20
1594.2
 10
284.075
 20
1594.2
  0
LWPOLYLINE
  5
C8
100
AcDbEntity
  8
ELEV
100
AcDbPolyline
 90
        2
 70
     0
 43
0.0
 10
284.05
 20
1594.5
 10
284.1
 20
1594.5
  0
LWPOLYLINE
  5
CC
100
AcDbEntity
  8
ELEV
100
AcDbPolyline
 90
        2
 70
     0
 43
0.0
 10
284.05
 20
1594.9
 10
284.075
 20
1594.9
  0
LWPOLYLINE
  5
D0
100
AcDbEntity
  8
ELEV
100
AcDbPolyline
 90
        2
 70
     0
 43
0.0
 10
284.05
 20
1594.8
 10
284.075
 20
1594.8
  0
LWPOLYLINE
  5
D4
100
AcDbEntity
  8
ELEV
100
AcDbPolyline
 90
        2
 70
     0
 43
0.0
 10
284.05
 20
1594.7
 10
284.075
 20
1594.7
  0
LWPOLYLINE
  5
D8
100
AcDbEntity
  8
ELEV
100
AcDbPolyline
 90
        2
 70
     0
 43
0.0
 10
284.05
 20
1594.6
 10
284.075
 20
1594.6
  0
LWPOLYLINE
  5
DC
100
AcDbEntity
  8
ELEV
100
AcDbPolyline
 90
        2
 70
     0
 43
0.0
 10
284.05
 20
1594.4
 10
284.075
 20
1594.4
  0
LWPOLYLINE
  5
E0
100
AcDbEntity
  8
ELEV
100
AcDbPolyline
 90
        2
 70
     0
 43
0.0
 10
284.05
 20
1594.3
 10
284.075
 20
1594.3
  0
LWPOLYLINE
  5
E4
100
AcDbEntity
  8
ELEV
100
AcDbPolyline
 90
        2
 70
     0
 43
0.0
 10
284.05
 20
1596.1
 10
284.075
 20
1596.1
  0
LWPOLYLINE
  5
E8
100
AcDbEntity
  8
ELEV
100
AcDbPolyline
 90
        2
 70
     0
 43
0.0
 10
284.05
 20
1595.3
 10
284.075
 20
1595.3
  0
LWPOLYLINE
  5
EC
100
AcDbEntity
  8
ELEV
100
AcDbPolyline
 90
        2
 70
     0
 43
0.0
 10
284.05
 20
1595.4
 10
284.075
 20
1595.4
  0
LWPOLYLINE
  5
F0
100
AcDbEntity
  8
ELEV
100
AcDbPolyline
 90
        2
 70
     0
 43
0.0
 10
284.05
 20
1595.6
 10
284.075
 20
1595.6
  0
LWPOLYLINE
  5
F4
100
AcDbEntity
  8
ELEV
100
AcDbPolyline
 90
        2
 70
     0
 43
0.0
 10
284.05
 20
1595.7
 10
284.075
 20
1595.7
  0
LWPOLYLINE
  5
F8
100
AcDbEntity
  8
ELEV
100
AcDbPolyline
 90
        2
 70
     0
 43
0.0
 10
284.05
 20
1595.8
 10
284.075
 20
1595.8
  0
LWPOLYLINE
  5
FC
100
AcDbEntity
  8
ELEV
100
AcDbPolyline
 90
        2
 70
     0
 43
0.0
 10
284.05
 20
1595.9
 10
284.075
 20
1595.9
  0
LWPOLYLINE
  5
100
100
AcDbEntity
  8
ELEV
100
AcDbPolyline
 90
        2
 70
     0
 43
0.0
 10
284.05
 20
1595.5
 10
284.1
 20
1595.5
  0
LWPOLYLINE
  5
104
100
AcDbEntity
  8
ELEV
100
AcDbPolyline
 90
        2
 70
     0
 43
0.0
 10
284.05
 20
1596.0
 10
284.1
 20
1596.0
  0
LWPOLYLINE
  5
108
100
AcDbEntity
  8
ELEV
100
AcDbPolyline
 90
        2
 70
     0
 43
0.0
 10
284.05
 20
1595.2
 10
284.075
 20
1595.2
  0
LWPOLYLINE
  5
10C
100
AcDbEntity
  8
ELEV
100
AcDbPolyline
 90
        2
 70
     0
 43
0.0
 10
284.05
 20
1595.1
 10
284.075
 20
1595.1
  0
LWPOLYLINE
  5
110
100
AcDbEntity
  8
ELEV
100
AcDbPolyline
 90
        2
 70
     0
 43
0.0
 10
284.05
 20
1595.0
 10
284.1
 20
1595.0
  0
TEXT
  5
114
100
AcDbEntity
  8
ELEV
100
AcDbText
 10
284.15
 20
1595.98
 30
0.0
 40
0.03
  1
1596.00
  7
ROMANS
100
AcDbText
  0
TEXT
  5
115
100
AcDbEntity
  8
ELEV
100
AcDbText
 10
284.15
 20
1595.48
 30
0.0
 40
0.03
  1
1595.50
  7
ROMANS
100
AcDbText
  0
TEXT
  5
116
100
AcDbEntity
  8
0
100
AcDbText
 10
284.15
 20
1594.98
 30
0.0
 40
0.03
  1
1595.00
  7
ROMANS
100
AcDbText
  0
TEXT
  5
117
100
AcDbEntity
  8
ELEV
100
AcDbText
 10
284.15
 20
1594.48
 30
0.0
 40
0.03
  1
1594.50
  7
ROMANS
100
AcDbText
  0
ENDBLK
  5
118
100
AcDbEntity
  8
0
100
AcDbBlockEnd
  0
BLOCK
  5
119
100
AcDbEntity
  8
0
100
AcDbBlockBegin
  2
TEMP1
 70
     0
 10
0.0
 20
0.0
 30
0.0
  3
TEMP1
  1

  0
TEXT
  5
11A
100
AcDbEntity
  8
COORD
100
AcDbText
 10
-0.38
 20
-0.14
 30
0.0
 40
0.04
  1
1--BROWN: CESPED
  7
ROMANS
100
AcDbText
  0
TEXT
  5
11B
100
AcDbEntity
  8
COORD
100
AcDbText
 10
-0.38
 20
-0.25
 30
0.0
 40
0.04
  1
2A--BROWN: OCCUPATION LAYER
  7
ROMANS
100
AcDbText
  0
TEXT
  5
11C
100
AcDbEntity
  8
COORD
100
AcDbText
 10
-0.39
 20
-0.34
 30
0.0
 40
0.04
  1
2B--BLACK: DWELLING MIDDEN
  7
ROMANS
100
AcDbText
  0
TEXT
  5
11D
100
AcDbEntity
  8
COORD
100
AcDbText
 10
-0.38
 20
-0.43
 30
0.0
 40
0.04
  1
3A--YELLOWISH BROWN: TRANSITIONAL LAYER
  7
ROMANS
100
AcDbText
  0
TEXT
  5
11E
100
AcDbEntity
  8
COORD
100
AcDbText
 10
-0.38
 20
-0.52
 30
0.0
 40
0.04
  1
3B--BLACKISH BROWN: TRANSITIONAL LAYER?
  7
ROMANS
100
AcDbText
  0
TEXT
  5
11F
100
AcDbEntity
  8
COORD
100
AcDbText
 10
-0.38
 20
-0.59
 30
0.0
 40
0.04
  1
4--YELLOW: STERILE SUBSOIL
  7
ROMANS
100
AcDbText
  0
ENDBLK
  5
120
100
AcDbEntity
  8
0
100
AcDbBlockEnd
  0
ENDSEC
  0
SECTION
  2
ENTITIES
  0
LWPOLYLINE
  5
121
100
AcDbEntity
  8
LEVELS
100
AcDbPolyline
 90
        3
 70
     0
 43
0.0
 10
109.0
 20
1595.3
 10
109.1
 20
1595.25
 10
109.16
 20
1595.23
  0
LWPOLYLINE
  5
126
100
AcDbEntity
  8
LEVELS
100
AcDbPolyline
 90
       13
 70
     0
 43
0.0
 10
109.0
 20
1595.22
 10
109.05
 20
1595.21
 10
109.07
 20
1595.21
 10
109.11
 20
1595.21
 10
109.13
 20
1595.21
 10
109.16
 20
1595.2
 10
109.18
 20
1595.19
 10
109.21
 20
1595.18
 10
109.23
 20
1595.17
 10
109.26
 20
1595.17
 10
109.29
 20
1595.16
 10
109.3
 20
1595.15
 10
109.3
 20
1595.14
  0
LWPOLYLINE
  5
135
100
AcDbEntity
  8
LEVELS
100
AcDbPolyline
 90
       14
 70
     0
 43
0.0
 10
112.12
 20
1594.92
 10
112.2
 20
1594.94
 10
112.3
 20
1594.96
 10
112.4
 20
1594.97
 10
112.46
 20
1594.97
 10
112.52
 20
1594.97
 10
112.56
 20
1594.97
 10
112.6
 20
1594.97
 10
112.61
 20
1594.97
 10
112.64
 20
1594.96
 10
112.67
 20
1594.96
 10
112.69
 20
1594.94
 10
112.7
 20
1594.93
 10
112.71
 20
1594.91
  0
LWPOLYLINE
  5
145
100
AcDbEntity
  8
LEVELS
100
AcDbPolyline
 90
        8
 70
     0
 43
0.0
 10
114.35
 20
1594.85
 10
114.4
 20
1594.88
 10
114.5
 20
1594.89
 10
114.6
 20
1594.9
 10
114.7
 20
1594.91
 10
114.8
 20
1594.91
 10
114.9
 20
1594.92
 10
115.0
 20
1594.92
  0
LWPOLYLINE
  5
14F
100
AcDbEntity
  8
ELEV
100
AcDbPolyline
 90
        2
 70
     0
 43
0.0
 10
108.95
 20
1595.6
 10
108.925
 20
1595.6
  0
LWPOLYLINE
  5
153
100
AcDbEntity
  8
ELEV
100
AcDbPolyline
 90
        2
 70
     0
 43
0.0
 10
108.95
 20
1595.7
 10
108.925
 20
1595.7
  0
LWPOLYLINE
  5
157
100
AcDbEntity
  8
ELEV
100
AcDbPolyline
 90
        2
 70
     0
 43
0.0
 10
108.95
 20
1595.5
 10
108.9
 20
1595.5
  0
LWPOLYLINE
  5
15B
100
AcDbEntity
  8
ELEV
100
AcDbPolyline
 90
        2
 70
     0
 43
0.0
 10
108.95
 20
1595.0
 10
108.9
 20
1595.0
  0
LWPOLYLINE
  5
15F
100
AcDbEntity
  8
ELEV
100
AcDbPolyline
 90
        2
 70
     0
 43
0.0
 10
108.95
 20
1595.4
 10
108.925
 20
1595.4
  0
LWPOLYLINE
  5
163
100
AcDbEntity
  8
ELEV
100
AcDbPolyline
 90
        2
 70
     0
 43
0.0
 10
108.95
 20
1595.3
 10
108.925
 20
1595.3
  0
LWPOLYLINE
  5
167
100
AcDbEntity
  8
ELEV
100
AcDbPolyline
 90
        2
 70
     0
 43
0.0
 10
108.95
 20
1595.2
 10
108.925
 20
1595.2
  0
LWPOLYLINE
  5
16B
100
AcDbEntity
  8
ELEV
100
AcDbPolyline
 90
        2
 70
     0
 43
0.0
 10
108.95
 20
1595.1
 10
108.925
 20
1595.1
  0
LWPOLYLINE
  5
16F
100
AcDbEntity
  8
ELEV
100
AcDbPolyline
 90
        2
 70
     0
 43
0.0
 10
108.95
 20
1594.9
 10
108.925
 20
1594.9
  0
LWPOLYLINE
  5
173
100
AcDbEntity
  8
ELEV
100
AcDbPolyline
 90
        2
 70
     0
 43
0.0
 10
108.95
 20
1594.8
 10
108.925
 20
1594.8
  0
LWPOLYLINE
  5
177
100
AcDbEntity
  8
COORD
100
AcDbPolyline
 90
        2
 70
     0
 43
0.0
 10
109.0
 20
1595.825
 10
109.0
 20
1595.775
  0
LWPOLYLINE
  5
17B
100
AcDbEntity
  8
ELEV
100
AcDbPolyline
 90
        2
 70
     0
 43
0.0
 10
108.95
 20
1594.7
 10
108.925
 20
1594.7
  0
TEXT
  5
17F
100
AcDbEntity
  8
ELEV
100
AcDbText
 10
108.64
 20
1595.48
 30
0.0
 40
0.03
  1
1595.50
  7
ROMANS
100
AcDbText
  0
TEXT
  5
180
100
AcDbEntity
  8
ELEV
100
AcDbText
 10
108.64
 20
1594.98
 30
0.0
 40
0.03
  1
1595.00
  7
ROMANS
100
AcDbText
  0
LWPOLYLINE
  5
181
100
AcDbEntity
  8
ELEV
100
AcDbPolyline
 90
        2
 70
     0
 43
0.0
 10
115.05
 20
1595.7
 10
115.075
 20
1595.7
  0
LWPOLYLINE
  5
185
100
AcDbEntity
  8
COORD
100
AcDbPolyline
 90
        2
 70
     0
 43
0.0
 10
115.0
 20
1595.825
 10
115.0
 20
1595.775
  0
LWPOLYLINE
  5
189
100
AcDbEntity
  8
COORD
100
AcDbPolyline
 90
        2
 70
     0
 43
0.0
 10
113.0
 20
1595.825
 10
113.0
 20
1595.775
  0
LWPOLYLINE
  5
18D
100
AcDbEntity
  8
COORD
100
AcDbPolyline
 90
        2
 70
     0
 43
0.0
 10
114.0
 20
1595.825
 10
114.0
 20
1595.775
  0
TEXT
  5
191
100
AcDbEntity
  8
COORD
100
AcDbText
 10
114.94
 20
1595.85
 30
0.0
 40
0.03
  1
115N
  7
ROMANS
 72
     1
 11
115.0
 21
1595.85
 31
0.0
100
AcDbText
  0
TEXT
  5
192
100
AcDbEntity
  8
COORD
100
AcDbText
 10
113.94
 20
1595.85
 30
0.0
 40
0.03
  1
114N
  7
ROMANS
 72
     1
 11
114.0
 21
1595.85
 31
0.0
100
AcDbText
  0
TEXT
  5
193
100
AcDbEntity
  8
COORD
100
AcDbText
 10
108.94
 20
1595.85
 30
0.0
 40
0.03
  1
109N
  7
ROMANS
 72
     1
 11
109.0
 21
1595.85
 31
0.0
100
AcDbText
  0
TEXT
  5
194
100
AcDbEntity
  8
COORD
100
AcDbText
 10
109.94
 20
1595.85
 30
0.0
 40
0.03
  1
110N
  7
ROMANS
 72
     1
 11
110.0
 21
1595.85
 31
0.0
100
AcDbText
  0
TEXT
  5
195
100
AcDbEntity
  8
COORD
100
AcDbText
 10
110.94
 20
1595.85
 30
0.0
 40
0.03
  1
111N
  7
ROMANS
 72
     1
 11
111.0
 21
1595.85
 31
0.0
100
AcDbText
  0
TEXT
  5
196
100
AcDbEntity
  8
COORD
100
AcDbText
 10
111.94
 20
1595.85
 30
0.0
 40
0.03
  1
112N
  7
ROMANS
 72
     1
 11
112.0
 21
1595.85
 31
0.0
100
AcDbText
  0
TEXT
  5
197
100
AcDbEntity
  8
COORD
100
AcDbText
 10
112.94
 20
1595.85
 30
0.0
 40
0.03
  1
113N
  7
ROMANS
 72
     1
 11
113.0
 21
1595.85
 31
0.0
100
AcDbText
  0
LWPOLYLINE
  5
198
100
AcDbEntity
  8
COORD
100
AcDbPolyline
 90
        2
 70
     0
 43
0.0
 10
112.0
 20
1595.825
 10
112.0
 20
1595.775
  0
LWPOLYLINE
  5
19C
100
AcDbEntity
  8
COORD
100
AcDbPolyline
 90
        2
 70
     0
 43
0.0
 10
111.0
 20
1595.825
 10
111.0
 20
1595.775
  0
LWPOLYLINE
  5
1A0
100
AcDbEntity
  8
COORD
100
AcDbPolyline
 90
        2
 70
     0
 43
0.0
 10
110.0
 20
1595.825
 10
110.0
 20
1595.775
  0
LWPOLYLINE
  5
1A4
100
AcDbEntity
  8
COORD
100
AcDbPolyline
 90
        2
 70
     0
 43
0.0
 10
113.0
 20
1595.825
 10
113.0
 20
1595.775
  0
LWPOLYLINE
  5
1A8
100
AcDbEntity
  8
ELEV
100
AcDbPolyline
 90
        2
 70
     0
 43
0.0
 10
115.05
 20
1595.6
 10
115.075
 20
1595.6
  0
LWPOLYLINE
  5
1AC
100
AcDbEntity
  8
ELEV
100
AcDbPolyline
 90
        2
 70
     0
 43
0.0
 10
115.05
 20
1594.8
 10
115.075
 20
1594.8
  0
LWPOLYLINE
  5
1B0
100
AcDbEntity
  8
ELEV
100
AcDbPolyline
 90
        2
 70
     0
 43
0.0
 10
115.05
 20
1594.9
 10
115.075
 20
1594.9
  0
LWPOLYLINE
  5
1B4
100
AcDbEntity
  8
ELEV
100
AcDbPolyline
 90
        2
 70
     0
 43
0.0
 10
115.05
 20
1595.1
 10
115.075
 20
1595.1
  0
LWPOLYLINE
  5
1B8
100
AcDbEntity
  8
ELEV
100
AcDbPolyline
 90
        2
 70
     0
 43
0.0
 10
115.05
 20
1595.2
 10
115.075
 20
1595.2
  0
LWPOLYLINE
  5
1BC
100
AcDbEntity
  8
ELEV
100
AcDbPolyline
 90
        2
 70
     0
 43
0.0
 10
115.05
 20
1595.3
 10
115.075
 20
1595.3
  0
LWPOLYLINE
  5
1C0
100
AcDbEntity
  8
ELEV
100
AcDbPolyline
 90
        2
 70
     0
 43
0.0
 10
115.05
 20
1595.4
 10
115.075
 20
1595.4
  0
LWPOLYLINE
  5
1C4
100
AcDbEntity
  8
ELEV
100
AcDbPolyline
 90
        2
 70
     0
 43
0.0
 10
115.05
 20
1595.0
 10
115.1
 20
1595.0
  0
LWPOLYLINE
  5
1C8
100
AcDbEntity
  8
ELEV
100
AcDbPolyline
 90
        2
 70
     0
 43
0.0
 10
115.05
 20
1595.5
 10
115.1
 20
1595.5
  0
LWPOLYLINE
  5
1CC
100
AcDbEntity
  8
ELEV
100
AcDbPolyline
 90
        2
 70
     0
 43
0.0
 10
115.05
 20
1594.7
 10
115.075
 20
1594.7
  0
TEXT
  5
1D0
100
AcDbEntity
  8
ELEV
100
AcDbText
 10
115.15
 20
1595.48
 30
0.0
 40
0.03
  1
1595.50
  7
ROMANS
100
AcDbText
  0
TEXT
  5
1D1
100
AcDbEntity
  8
ELEV
100
AcDbText
 10
115.15
 20
1594.98
 30
0.0
 40
0.03
  1
1595.00
  7
ROMANS
100
AcDbText
  0
LWPOLYLINE
  5
1D2
100
AcDbEntity
  8
LEVELS
100
AcDbPolyline
 90
       11
 70
     0
 43
0.0
 10
109.86
 20
1595.09
 10
110.0
 20
1595.1
 10
110.2
 20
1595.07
 10
110.23
 20
1595.08
 10
110.26
 20
1595.08
 10
110.3
 20
1595.08
 10
110.31
 20
1595.07
 10
110.33
 20
1595.06
 10
110.35
 20
1595.04
 10
110.37
 20
1595.03
 10
110.388889
 20
1595.020556
  0
LWPOLYLINE
  5
1DF
100
AcDbEntity
  8
LEVELS
100
AcDbPolyline
 90
       31
 70
     0
 43
0.0
 10
111.083333
 20
1594.971667
 10
111.1
 20
1594.98
 10
111.12
 20
1594.99
 10
111.14
 20
1595.0
 10
111.2
 20
1595.01
 10
111.3
 20
1595.0
 10
111.4
 20
1595.0
 10
111.6
 20
1594.99
 10
111.8
 20
1594.98
 10
111.9
 20
1594.97
 10
112.0
 20
1594.97
 10
112.1
 20
1594.98
 10
112.2
 20
1594.99
 10
112.3
 20
1595.0
 10
112.4
 20
1595.0
 10
112.43
 20
1595.0
 10
112.45
 20
1594.99
 10
112.48
 20
1594.98
 10
112.52
 20
1594.98
 10
112.56
 20
1594.98
 10
112.58
 20
1594.98
 10
112.6
 20
1594.99
 10
112.62
 20
1594.99
 10
112.65
 20
1595.0
 10
112.69
 20
1595.0
 10
112.71
 20
1595.0
 10
112.72
 20
1594.99
 10
112.73
 20
1594.97
 10
112.73
 20
1594.94
 10
112.73
 20
1594.92
 10
112.73
 20
1594.91
  0
LWPOLYLINE
  5
200
100
AcDbEntity
  8
TOP
100
AcDbPolyline
 90
       31
 70
     0
 43
0.0
 10
109.0
 20
1595.57
 10
109.2
 20
1595.53
 10
109.4
 20
1595.49
 10
109.6
 20
1595.47
 10
109.8
 20
1595.45
 10
110.0
 20
1595.44
 10
110.2
 20
1595.41
 10
110.41
 20
1595.39
 10
110.6
 20
1595.37
 10
110.8
 20
1595.35
 10
111.0
 20
1595.33
 10
111.2
 20
1595.32
 10
111.4
 20
1595.31
 10
111.6
 20
1595.31
 10
111.8
 20
1595.31
 10
112.0
 20
1595.31
 10
112.2
 20
1595.31
 10
112.4
 20
1595.31
 10
112.61
 20
1595.29
 10
112.8
 20
1595.29
 10
113.01
 20
1595.3
 10
113.2
 20
1595.31
 10
113.4
 20
1595.32
 10
113.6
 20
1595.31
 10
113.8
 20
1595.31
 10
114.0
 20
1595.29
 10
114.2
 20
1595.26
 10
114.4
 20
1595.26
 10
114.6
 20
1595.26
 10
114.8
 20
1595.26
 10
115.0
 20
1595.22
  0
LWPOLYLINE
  5
221
100
AcDbEntity
  8
LEVELS
100
AcDbPolyline
 90
       31
 70
     0
 43
0.0
 10
109.0
 20
1595.5
 10
109.2
 20
1595.47
 10
109.4
 20
1595.44
 10
109.6
 20
1595.41
 10
109.8
 20
1595.39
 10
110.0
 20
1595.37
 10
110.2
 20
1595.35
 10
110.4
 20
1595.32
 10
110.6
 20
1595.32
 10
110.8
 20
1595.3
 10
111.0
 20
1595.27
 10
111.2
 20
1595.26
 10
111.4
 20
1595.26
 10
111.6
 20
1595.25
 10
111.8
 20
1595.24
 10
112.0
 20
1595.25
 10
112.2
 20
1595.25
 10
112.4
 20
1595.24
 10
112.61
 20
1595.25
 10
112.81
 20
1595.24
 10
113.0
 20
1595.26
 10
113.2
 20
1595.27
 10
113.4
 20
1595.27
 10
113.6
 20
1595.25
 10
113.8
 20
1595.23
 10
114.0
 20
1595.23
 10
114.21
 20
1595.2
 10
114.4
 20
1595.19
 10
114.61
 20
1595.19
 10
114.8
 20
1595.18
 10
115.0
 20
1595.17
  0
LWPOLYLINE
  5
242
100
AcDbEntity
  8
LEVELS
100
AcDbPolyline
 90
       52
 70
     0
 43
0.0
 10
109.151429
 20
1595.202857
 10
109.16
 20
1595.22
 10
109.16
 20
1595.23
 10
109.17
 20
1595.25
 10
109.18
 20
1595.26
 10
109.2
 20
1595.28
 10
109.23
 20
1595.29
 10
109.25
 20
1595.3
 10
109.29
 20
1595.29
 10
109.31
 20
1595.29
 10
109.4
 20
1595.29
 10
109.6
 20
1595.28
 10
109.8
 20
1595.24
 10
110.0
 20
1595.23
 10
110.2
 20
1595.22
 10
110.4
 20
1595.2
 10
110.6
 20
1595.2
 10
110.8
 20
1595.19
 10
111.0
 20
1595.18
 10
111.08
 20
1595.15
 10
111.11
 20
1595.14
 10
111.17
 20
1595.13
 10
111.2
 20
1595.12
 10
111.25
 20
1595.12
 10
111.4
 20
1595.13
 10
111.47
 20
1595.12
 10
111.5
 20
1595.11
 10
111.53
 20
1595.11
 10
111.6
 20
1595.11
 10
111.8
 20
1595.14
 10
112.0
 20
1595.13
 10
112.2
 20
1595.13
 10
112.4
 20
1595.13
 10
112.6
 20
1595.12
 10
112.81
 20
1595.14
 10
113.01
 20
1595.14
 10
113.2
 20
1595.14
 10
113.4
 20
1595.13
 10
113.6
 20
1595.12
 10
113.8
 20
1595.11
 10
114.0
 20
1595.1
 10
114.2
 20
1595.11
 10
114.4
 20
1595.08
 10
114.6
 20
1595.07
 10
114.64
 20
1595.06
 10
114.67
 20
1595.05
 10
114.69
 20
1595.05
 10
114.7
 20
1595.05
 10
114.72
 20
1595.03
 10
114.76
 20
1595.01
 10
114.79
 20
1594.99
 10
114.8
 20
1594.98
  0
LWPOLYLINE
  5
278
100
AcDbEntity
  8
FLOOR
100
AcDbPolyline
 90
       40
 70
     0
 43
0.0
 10
109.0
 20
1595.18
 10
109.2
 20
1595.16
 10
109.3
 20
1595.14
 10
109.4
 20
1595.14
 10
109.6
 20
1595.12
 10
109.71
 20
1595.11
 10
109.8
 20
1595.09
 10
109.86
 20
1595.09
 10
110.0
 20
1595.06
 10
110.2
 20
1595.03
 10
110.4
 20
1595.02
 10
110.6
 20
1595.01
 10
110.8
 20
1594.99
 10
111.0
 20
1594.98
 10
111.2
 20
1594.96
 10
111.4
 20
1594.95
 10
111.6
 20
1594.95
 10
111.81
 20
1594.94
 10
112.1
 20
1594.92
 10
112.2
 20
1594.92
 10
112.3
 20
1594.93
 10
112.4
 20
1594.92
 10
112.5
 20
1594.91
 10
112.6
 20
1594.91
 10
112.7
 20
1594.91
 10
112.73
 20
1594.91
 10
112.8
 20
1594.91
 10
113.0
 20
1594.92
 10
113.0
 20
1594.88
 10
113.2
 20
1594.88
 10
113.4
 20
1594.88
 10
113.6
 20
1594.87
 10
113.8
 20
1594.86
 10
114.0
 20
1594.85
 10
114.2
 20
1594.84
 10
114.35
 20
1594.85
 10
114.4
 20
1594.85
 10
114.6
 20
1594.85
 10
114.8
 20
1594.82
 10
115.0
 20
1594.81
  0
LWPOLYLINE
  5
2A2
100
AcDbEntity
  8
LEVELS
100
AcDbPolyline
 90
       16
 70
     0
 43
0.0
 10
112.884211
 20
1594.914211
 10
112.89
 20
1594.92
 10
112.91
 20
1594.94
 10
112.93
 20
1594.96
 10
112.96
 20
1594.97
 10
113.0
 20
1594.98
 10
113.2
 20
1594.97
 10
113.4
 20
1594.93
 10
113.6
 20
1594.92
 10
113.8
 20
1594.94
 10
114.0
 20
1594.96
 10
114.2
 20
1594.96
 10
114.4
 20
1594.97
 10
114.6
 20
1594.99
 10
114.8
 20
1594.98
 10
115.0
 20
1594.98
  0
TEXT
  5
2B4
100
AcDbEntity
  8
TEXT
100
AcDbText
 10
109.96
 20
1595.39
 30
0.0
 40
0.04
  1
1
  7
ROMANS
100
AcDbText
  0
TEXT
  5
2B5
100
AcDbEntity
  8
TEXT
100
AcDbText
 10
113.8
 20
1595.25
 30
0.0
 40
0.04
  1
1
  7
ROMANS
100
AcDbText
  0
TEXT
  5
2B6
100
AcDbEntity
  8
TEXT
100
AcDbText
 10
109.84
 20
1595.29
 30
0.0
 40
0.04
  1
2A
  7
ROMANS
100
AcDbText
  0
TEXT
  5
2B7
100
AcDbEntity
  8
TEXT
100
AcDbText
 10
109.82
 20
1595.14
 30
0.0
 40
0.04
  1
2B
  7
ROMANS
100
AcDbText
  0
TEXT
  5
2B8
100
AcDbEntity
  8
TEXT
100
AcDbText
 10
109.03
 20
1595.23
 30
0.0
 40
0.04
  1
3A
  7
ROMANS
100
AcDbText
  0
TEXT
  5
2B9
100
AcDbEntity
  8
TEXT
100
AcDbText
 10
109.07
 20
1595.18
 30
0.0
 40
0.04
  1
3B
  7
ROMANS
100
AcDbText
  0
TEXT
  5
2BA
100
AcDbEntity
  8
0
100
AcDbText
 10
113.39
 20
1594.75
 30
0.0
 40
0.04
  1
1--BROWN: CESPED
  7
ROMANS
100
AcDbText
  0
TEXT
  5
2BB
100
AcDbEntity
  8
0
100
AcDbText
 10
113.39
 20
1594.64
 30
0.0
 40
0.04
  1
2A--BROWN: OCCUPATION LAYER
  7
ROMANS
100
AcDbText
  0
TEXT
  5
2BC
100
AcDbEntity
  8
0
100
AcDbText
 10
113.38
 20
1594.55
 30
0.0
 40
0.04
  1
2B--BLACK: DWELLING MIDDEN
  7
ROMANS
100
AcDbText
  0
TEXT
  5
2BD
100
AcDbEntity
  8
0
100
AcDbText
 10
113.39
 20
1594.46
 30
0.0
 40
0.04
  1
3A--YELLOWISH BROWN: TRANSITIONAL LAYER
  7
ROMANS
100
AcDbText
  0
TEXT
  5
2BE
100
AcDbEntity
  8
0
100
AcDbText
 10
113.39
 20
1594.37
 30
0.0
 40
0.04
  1
3B--BROWNISH YELLOW:TRANSITIONAL LAYER
  7
ROMANS
100
AcDbText
  0
TEXT
  5
2BF
100
AcDbEntity
  8
0
100
AcDbText
 10
113.39
 20
1594.3
 30
0.0
 40
0.04
  1
4--YELLOW: STERILE SUBSOIL
  7
ROMANS
100
AcDbText
  0
TEXT
  5
2C0
100
AcDbEntity
  8
TEXT
100
AcDbText
 10
110.23
 20
1595.04
 30
0.0
 40
0.04
  1
3B
  7
ROMANS
100
AcDbText
  0
TEXT
  5
2C1
100
AcDbEntity
  8
TEXT
100
AcDbText
 10
111.95
 20
1595.17
 30
0.0
 40
0.04
  1
2A
  7
ROMANS
100
AcDbText
  0
TEXT
  5
2C2
100
AcDbEntity
  8
TEXT
100
AcDbText
 10
111.95
 20
1595.02
 30
0.0
 40
0.04
  1
2B
  7
ROMANS
100
AcDbText
  0
TEXT
  5
2C3
100
AcDbEntity
  8
TEXT
100
AcDbText
 10
112.08
 20
1594.94
 30
0.0
 40
0.04
  1
3A
  7
ROMANS
100
AcDbText
  0
TEXT
  5
2C4
100
AcDbEntity
  8
TEXT
100
AcDbText
 10
112.5
 20
1594.92
 30
0.0
 40
0.04
  1
3B
  7
ROMANS
100
AcDbText
  0
TEXT
  5
2C5
100
AcDbEntity
  8
TEXT
100
AcDbText
 10
113.81
 20
1595.16
 30
0.0
 40
0.04
  1
2A
  7
ROMANS
100
AcDbText
  0
TEXT
  5
2C6
100
AcDbEntity
  8
TEXT
100
AcDbText
 10
113.81
 20
1595.0
 30
0.0
 40
0.04
  1
2B
  7
ROMANS
100
AcDbText
  0
TEXT
  5
2C7
100
AcDbEntity
  8
TEXT
100
AcDbText
 10
114.09
 20
1594.87
 30
0.0
 40
0.04
  1
3A
  7
ROMANS
100
AcDbText
  0
TEXT
  5
2C8
100
AcDbEntity
  8
TEXT
100
AcDbText
 10
114.84
 20
1594.84
 30
0.0
 40
0.04
  1
4
  7
ROMANS
100
AcDbText
  0
LWPOLYLINE
  5
2C9
100
AcDbEntity
  8
0
100
AcDbPolyline
 90
        2
 70
     0
 43
0.0
 10
108.5
 20
1595.0
 10
108.5
 20
1594.5
  0
LWPOLYLINE
  5
2CD
100
AcDbEntity
  8
0
100
AcDbPolyline
 90
        2
 70
     0
 43
0.0
 10
115.5
 20
1595.0
 10
115.5
 20
1594.5
  0
LWPOLYLINE
  5
2D1
100
AcDbEntity
  8
0
100
AcDbPolyline
 90
        2
 70
     0
 43
0.0
 10
112.0
 20
1594.5
 10
111.0
 20
1594.5
  0
LWPOLYLINE
  5
2D5
100
AcDbEntity
  8
0
100
AcDbPolyline
 90
        2
 70
     0
 43
0.0
 10
111.0
 20
1596.0
 10
112.0
 20
1596.0
  0
ENDSEC
  0
SECTION
  2
OBJECTS
  0
DICTIONARY
  5
C
100
AcDbDictionary
  3
ACAD_GROUP
350
D
  3
ACAD_MLINESTYLE
350
1A
  3
ACDBVARIABLEDICTIONARY
350
2F
  0
DICTIONARY
  5
D
102
{ACAD_REACTORS
330
C
102
}
100
AcDbDictionary
  0
DICTIONARY
  5
1A
102
{ACAD_REACTORS
330
C
102
}
100
AcDbDictionary
  3
STANDARD
350
1B
  0
DICTIONARY
  5
2F
102
{ACAD_REACTORS
330
C
102
}
100
AcDbDictionary
  3
DIMADEC
350
30
  0
MLINESTYLE
  5
1B
102
{ACAD_REACTORS
330
1A
102
}
100
AcDbMlineStyle
  2
STANDARD
 70
     0
  3

 62
   256
 51
90.0
 52
90.0
 71
     2
 49
0.5
 62
   256
  6
BYLAYER
 49
-0.5
 62
   256
  6
BYLAYER
  0
DICTIONARYVAR
  5
30
102
{ACAD_REACTORS
330
2F
102
}
100
DictionaryVariables
280
     0
  1
0
  0
ENDSEC
  0
EOF
