  0
SECTION
  2
HEADER
  9
$ACADVER
  1
AC1014
  9
$ACADMAINTVER
 70
     0
  9
$DWGCODEPAGE
  3
ANSI_1252
  9
$INSBASE
 10
0.0
 20
0.0
 30
0.0
  9
$EXTMIN
 10
275.5
 20
1594.0
 30
0.0
  9
$EXTMAX
 10
284.5
 20
1597.0
 30
0.0
  9
$LIMMIN
 10
0.0
 20
0.0
  9
$LIMMAX
 10
12.0
 20
9.0
  9
$ORTHOMODE
 70
     1
  9
$REGENMODE
 70
     1
  9
$FILLMODE
 70
     1
  9
$QTEXTMODE
 70
     0
  9
$MIRRTEXT
 70
     1
  9
$DRAGMODE
 70
     2
  9
$LTSCALE
 40
1.0
  9
$OSMODE
 70
     0
  9
$ATTMODE
 70
     1
  9
$TEXTSIZE
 40
0.04
  9
$TRACEWID
 40
0.05
  9
$TEXTSTYLE
  7
ROMANS
  9
$CLAYER
  8
SOILS
  9
$CELTYPE
  6
BYLAYER
  9
$CECOLOR
 62
   256
  9
$CELTSCALE
 40
1.0
  9
$DELOBJ
 70
     1
  9
$DISPSILH
 70
     0
  9
$DIMSCALE
 40
1.0
  9
$DIMASZ
 40
0.18
  9
$DIMEXO
 40
0.0625
  9
$DIMDLI
 40
0.38
  9
$DIMRND
 40
0.0
  9
$DIMDLE
 40
0.0
  9
$DIMEXE
 40
0.18
  9
$DIMTP
 40
0.0
  9
$DIMTM
 40
0.0
  9
$DIMTXT
 40
0.18
  9
$DIMCEN
 40
0.09
  9
$DIMTSZ
 40
0.0
  9
$DIMTOL
 70
     0
  9
$DIMLIM
 70
     0
  9
$DIMTIH
 70
     1
  9
$DIMTOH
 70
     1
  9
$DIMSE1
 70
     0
  9
$DIMSE2
 70
     0
  9
$DIMTAD
 70
     0
  9
$DIMZIN
 70
     0
  9
$DIMBLK
  1

  9
$DIMASO
 70
     1
  9
$DIMSHO
 70
     0
  9
$DIMPOST
  1

  9
$DIMAPOST
  1

  9
$DIMALT
 70
     0
  9
$DIMALTD
 70
     2
  9
$DIMALTF
 40
25.4
  9
$DIMLFAC
 40
1.0
  9
$DIMTOFL
 70
     0
  9
$DIMTVP
 40
0.0
  9
$DIMTIX
 70
     0
  9
$DIMSOXD
 70
     0
  9
$DIMSAH
 70
     0
  9
$DIMBLK1
  1

  9
$DIMBLK2
  1

  9
$DIMSTYLE
  2
STANDARD
  9
$DIMCLRD
 70
     0
  9
$DIMCLRE
 70
     0
  9
$DIMCLRT
 70
     0
  9
$DIMTFAC
 40
1.0
  9
$DIMGAP
 40
0.09
  9
$DIMJUST
 70
     0
  9
$DIMSD1
 70
     0
  9
$DIMSD2
 70
     0
  9
$DIMTOLJ
 70
     1
  9
$DIMTZIN
 70
     0
  9
$DIMALTZ
 70
     0
  9
$DIMALTTZ
 70
     0
  9
$DIMFIT
 70
     5
  9
$DIMUPT
 70
     0
  9
$DIMUNIT
 70
     2
  9
$DIMDEC
 70
     4
  9
$DIMTDEC
 70
     4
  9
$DIMALTU
 70
     2
  9
$DIMALTTD
 70
     2
  9
$DIMTXSTY
  7
ROMANS
  9
$DIMAUNIT
 70
     0
  9
$LUNITS
 70
     2
  9
$LUPREC
 70
     4
  9
$SKETCHINC
 40
0.1
  9
$FILLETRAD
 40
0.0
  9
$AUNITS
 70
     0
  9
$AUPREC
 70
     0
  9
$MENU
  1
ACAD
  9
$ELEVATION
 40
0.0
  9
$PELEVATION
 40
0.0
  9
$THICKNESS
 40
0.0
  9
$LIMCHECK
 70
     0
  9
$BLIPMODE
 70
     1
  9
$CHAMFERA
 40
0.0
  9
$CHAMFERB
 40
0.0
  9
$CHAMFERC
 40
0.0
  9
$CHAMFERD
 40
0.0
  9
$SKPOLY
 70
     0
  9
$TDCREATE
 40
2447634.613858449
  9
$TDUPDATE
 40
2450266.814191551
  9
$TDINDWG
 40
0.0591020833
  9
$TDUSRTIMER
 40
0.0412195602
  9
$USRTIMER
 70
     0
  9
$ANGBASE
 50
0.0
  9
$ANGDIR
 70
     0
  9
$PDMODE
 70
     0
  9
$PDSIZE
 40
0.0
  9
$PLINEWID
 40
0.0
  9
$COORDS
 70
     2
  9
$SPLFRAME
 70
     0
  9
$SPLINETYPE
 70
     6
  9
$SPLINESEGS
 70
     8
  9
$ATTDIA
 70
     0
  9
$ATTREQ
 70
     1
  9
$HANDLING
 70
     1
  9
$HANDSEED
  5
3C8
  9
$SURFTAB1
 70
     6
  9
$SURFTAB2
 70
     6
  9
$SURFTYPE
 70
     6
  9
$SURFU
 70
     6
  9
$SURFV
 70
     6
  9
$UCSNAME
  2

  9
$UCSORG
 10
0.0
 20
0.0
 30
0.0
  9
$UCSXDIR
 10
1.0
 20
0.0
 30
0.0
  9
$UCSYDIR
 10
0.0
 20
1.0
 30
0.0
  9
$PUCSNAME
  2

  9
$PUCSORG
 10
0.0
 20
0.0
 30
0.0
  9
$PUCSXDIR
 10
1.0
 20
0.0
 30
0.0
  9
$PUCSYDIR
 10
0.0
 20
1.0
 30
0.0
  9
$USERI1
 70
     0
  9
$USERI2
 70
     0
  9
$USERI3
 70
     0
  9
$USERI4
 70
     0
  9
$USERI5
 70
     0
  9
$USERR1
 40
0.0
  9
$USERR2
 40
0.0
  9
$USERR3
 40
0.0
  9
$USERR4
 40
0.0
  9
$USERR5
 40
0.0
  9
$WORLDVIEW
 70
     1
  9
$SHADEDGE
 70
     3
  9
$SHADEDIF
 70
    70
  9
$TILEMODE
 70
     1
  9
$MAXACTVP
 70
    48
  9
$PINSBASE
 10
0.0
 20
0.0
 30
0.0
  9
$PLIMCHECK
 70
     0
  9
$PEXTMIN
 10
1.000000E+20
 20
1.000000E+20
 30
1.000000E+20
  9
$PEXTMAX
 10
-1.000000E+20
 20
-1.000000E+20
 30
-1.000000E+20
  9
$PLIMMIN
 10
0.0
 20
0.0
  9
$PLIMMAX
 10
12.0
 20
9.0
  9
$UNITMODE
 70
     0
  9
$VISRETAIN
 70
     0
  9
$PLINEGEN
 70
     0
  9
$PSLTSCALE
 70
     0
  9
$TREEDEPTH
 70
  3020
  9
$PICKSTYLE
 70
     1
  9
$CMLSTYLE
  2
STANDARD
  9
$CMLJUST
 70
     0
  9
$CMLSCALE
 40
1.0
  9
$PROXYGRAPHICS
 70
     1
  9
$MEASUREMENT
 70
     0
  0
ENDSEC
  0
SECTION
  2
CLASSES
  0
CLASS
  1
DICTIONARYVAR
  2
AcDbDictionaryVar
  3
"AutoCAD"
 90
        0
280
     0
281
     0
  0
CLASS
  1
LWPOLYLINE
  2
AcDbPolyline
  3
"AutoCAD"
 90
        0
280
     0
281
     1
  0
ENDSEC
  0
SECTION
  2
TABLES
  0
TABLE
  2
VPORT
  5
8
100
AcDbSymbolTable
 70
     3
  0
VPORT
  5
21
100
AcDbSymbolTableRecord
100
AcDbViewportTableRecord
  2
*ACTIVE
 70
     0
 10
0.0
 20
0.0
 11
1.0
 21
1.0
 12
280.0
 22
1597.259162
 13
0.0
 23
0.0
 14
0.5
 24
0.5
 15
0.0
 25
0.0
 16
0.0
 26
0.0
 36
1.0
 17
0.0
 27
0.0
 37
0.0
 40
6.518325
 41
1.380723
 42
50.0
 43
0.0
 44
0.0
 50
0.0
 51
0.0
 71
     0
 72
   100
 73
     1
 74
     0
 75
     0
 76
     0
 77
     0
 78
     0
  0
ENDTAB
  0
TABLE
  2
LTYPE
  5
5
100
AcDbSymbolTable
 70
     1
  0
LTYPE
  5
11
100
AcDbSymbolTableRecord
100
AcDbLinetypeTableRecord
  2
BYBLOCK
 70
     0
  3

 72
    65
 73
     0
 40
0.0
  0
LTYPE
  5
12
100
AcDbSymbolTableRecord
100
AcDbLinetypeTableRecord
  2
BYLAYER
 70
     0
  3

 72
    65
 73
     0
 40
0.0
  0
LTYPE
  5
13
100
AcDbSymbolTableRecord
100
AcDbLinetypeTableRecord
  2
CONTINUOUS
 70
     0
  3
Solid line
 72
    65
 73
     0
 40
0.0
  0
ENDTAB
  0
TABLE
  2
LAYER
  5
2
100
AcDbSymbolTable
 70
    11
  0
LAYER
  5
E
100
AcDbSymbolTableRecord
100
AcDbLayerTableRecord
  2
0
 70
     0
 62
     7
  6
CONTINUOUS
  0
LAYER
  5
22
100
AcDbSymbolTableRecord
100
AcDbLayerTableRecord
  2
SOILS
 70
     0
 62
    -4
  6
CONTINUOUS
  0
LAYER
  5
23
100
AcDbSymbolTableRecord
100
AcDbLayerTableRecord
  2
COORD
 70
     0
 62
     7
  6
CONTINUOUS
  0
LAYER
  5
24
100
AcDbSymbolTableRecord
100
AcDbLayerTableRecord
  2
ELEV
 70
     0
 62
     7
  6
CONTINUOUS
  0
LAYER
  5
25
100
AcDbSymbolTableRecord
100
AcDbLayerTableRecord
  2
ROOTS
 70
     0
 62
    -5
  6
CONTINUOUS
  0
LAYER
  5
26
100
AcDbSymbolTableRecord
100
AcDbLayerTableRecord
  2
FLOOR
 70
     0
 62
     1
  6
CONTINUOUS
  0
LAYER
  5
27
100
AcDbSymbolTableRecord
100
AcDbLayerTableRecord
  2
TOP
 70
     0
 62
     4
  6
CONTINUOUS
  0
LAYER
  5
28
100
AcDbSymbolTableRecord
100
AcDbLayerTableRecord
  2
MUESTRAS
 70
     0
 62
     3
  6
CONTINUOUS
  0
LAYER
  5
29
100
AcDbSymbolTableRecord
100
AcDbLayerTableRecord
  2
FEATURES
 70
     0
 62
     6
  6
CONTINUOUS
  0
LAYER
  5
2A
100
AcDbSymbolTableRecord
100
AcDbLayerTableRecord
  2
LEVELS
 70
     0
 62
     5
  6
CONTINUOUS
  0
LAYER
  5
2B
100
AcDbSymbolTableRecord
100
AcDbLayerTableRecord
  2
TEXT
 70
     0
 62
     7
  6
CONTINUOUS
  0
ENDTAB
  0
TABLE
  2
STYLE
  5
3
100
AcDbSymbolTable
 70
     2
  0
STYLE
  5
F
100
AcDbSymbolTableRecord
100
AcDbTextStyleTableRecord
  2
STANDARD
 70
     0
 40
0.0
 41
1.0
 50
0.0
 71
     0
 42
0.04
  3
txt
  4

  0
STYLE
  5
1E
100
AcDbSymbolTableRecord
100
AcDbTextStyleTableRecord
  2
ROMANS
 70
     0
 40
0.0
 41
1.0
 50
0.0
 71
     0
 42
0.04
  3
romans
  4

  0
ENDTAB
  0
TABLE
  2
VIEW
  5
6
100
AcDbSymbolTable
 70
     0
  0
ENDTAB
  0
TABLE
  2
UCS
  5
7
100
AcDbSymbolTable
 70
     0
  0
ENDTAB
  0
TABLE
  2
APPID
  5
9
100
AcDbSymbolTable
 70
     1
  0
APPID
  5
10
100
AcDbSymbolTableRecord
100
AcDbRegAppTableRecord
  2
ACAD
 70
     0
  0
ENDTAB
  0
TABLE
  2
DIMSTYLE
  5
A
100
AcDbSymbolTable
 70
     1
  0
DIMSTYLE
105
3C5
100
AcDbSymbolTableRecord
100
AcDbDimStyleTableRecord
  2
STANDARD
 70
     0
  3

  4

  5

  6

  7

 40
1.0
 41
0.18
 42
0.0625
 43
0.38
 44
0.18
 45
0.0
 46
0.0
 47
0.0
 48
0.0
140
0.18
141
0.09
142
0.0
143
25.4
144
1.0
145
0.0
146
1.0
147
0.09
 71
     0
 72
     0
 73
     1
 74
     1
 75
     0
 76
     0
 77
     0
 78
     0
170
     0
171
     2
172
     0
173
     0
174
     0
175
     0
176
     0
177
     0
178
     0
270
     2
271
     4
272
     4
273
     2
274
     2
340
F
275
     0
280
     0
281
     0
282
     0
283
     1
284
     0
285
     0
286
     0
287
     3
288
     0
  0
ENDTAB
  0
TABLE
  2
BLOCK_RECORD
  5
1
100
AcDbSymbolTable
 70
     2
  0
BLOCK_RECORD
  5
17
100
AcDbSymbolTableRecord
100
AcDbBlockTableRecord
  2
*MODEL_SPACE
  0
BLOCK_RECORD
  5
14
100
AcDbSymbolTableRecord
100
AcDbBlockTableRecord
  2
*PAPER_SPACE
  0
BLOCK_RECORD
  5
1C
100
AcDbSymbolTableRecord
100
AcDbBlockTableRecord
  2
TEMP
  0
BLOCK_RECORD
  5
1D
100
AcDbSymbolTableRecord
100
AcDbBlockTableRecord
  2
SOILS
  0
ENDTAB
  0
ENDSEC
  0
SECTION
  2
BLOCKS
  0
BLOCK
  5
2E
100
AcDbEntity
  8
0
100
AcDbBlockBegin
  2
*MODEL_SPACE
 70
     0
 10
0.0
 20
0.0
 30
0.0
  3
*MODEL_SPACE
  1

  0
ENDBLK
  5
2F
100
AcDbEntity
  8
0
100
AcDbBlockEnd
  0
BLOCK
  5
2C
100
AcDbEntity
 67
     1
  8
0
100
AcDbBlockBegin
  2
*PAPER_SPACE
 70
     0
 10
0.0
 20
0.0
 30
0.0
  3
*PAPER_SPACE
  1

  0
ENDBLK
  5
2D
100
AcDbEntity
 67
     1
  8
0
100
AcDbBlockEnd
  0
BLOCK
  5
32
100
AcDbEntity
  8
0
100
AcDbBlockBegin
  2
TEMP
 70
     0
 10
0.0
 20
0.0
 30
0.0
  3
TEMP
  1

  0
LWPOLYLINE
  5
33
100
AcDbEntity
  8
ELEV
100
AcDbPolyline
 90
        2
 70
     0
 43
0.0
 10
275.95
 20
1594.2
 10
275.925
 20
1594.2
  0
LWPOLYLINE
  5
37
100
AcDbEntity
  8
ELEV
100
AcDbPolyline
 90
        2
 70
     0
 43
0.0
 10
275.95
 20
1594.3
 10
275.925
 20
1594.3
  0
LWPOLYLINE
  5
3B
100
AcDbEntity
  8
ELEV
100
AcDbPolyline
 90
        2
 70
     0
 43
0.0
 10
275.95
 20
1594.4
 10
275.925
 20
1594.4
  0
LWPOLYLINE
  5
3F
100
AcDbEntity
  8
ELEV
100
AcDbPolyline
 90
        2
 70
     0
 43
0.0
 10
275.95
 20
1594.6
 10
275.925
 20
1594.6
  0
LWPOLYLINE
  5
43
100
AcDbEntity
  8
ELEV
100
AcDbPolyline
 90
        2
 70
     0
 43
0.0
 10
275.95
 20
1594.7
 10
275.925
 20
1594.7
  0
LWPOLYLINE
  5
47
100
AcDbEntity
  8
ELEV
100
AcDbPolyline
 90
        2
 70
     0
 43
0.0
 10
275.95
 20
1594.8
 10
275.925
 20
1594.8
  0
LWPOLYLINE
  5
4B
100
AcDbEntity
  8
ELEV
100
AcDbPolyline
 90
        2
 70
     0
 43
0.0
 10
275.95
 20
1594.9
 10
275.925
 20
1594.9
  0
LWPOLYLINE
  5
4F
100
AcDbEntity
  8
ELEV
100
AcDbPolyline
 90
        2
 70
     0
 43
0.0
 10
275.95
 20
1594.5
 10
275.9
 20
1594.5
  0
LWPOLYLINE
  5
53
100
AcDbEntity
  8
ELEV
100
AcDbPolyline
 90
        2
 70
     0
 43
0.0
 10
275.95
 20
1596.1
 10
275.925
 20
1596.1
  0
LWPOLYLINE
  5
57
100
AcDbEntity
  8
ELEV
100
AcDbPolyline
 90
        2
 70
     0
 43
0.0
 10
275.95
 20
1596.2
 10
275.925
 20
1596.2
  0
LWPOLYLINE
  5
5B
100
AcDbEntity
  8
ELEV
100
AcDbPolyline
 90
        2
 70
     0
 43
0.0
 10
275.95
 20
1596.0
 10
275.9
 20
1596.0
  0
LWPOLYLINE
  5
5F
100
AcDbEntity
  8
ELEV
100
AcDbPolyline
 90
        2
 70
     0
 43
0.0
 10
275.95
 20
1595.5
 10
275.9
 20
1595.5
  0
LWPOLYLINE
  5
63
100
AcDbEntity
  8
ELEV
100
AcDbPolyline
 90
        2
 70
     0
 43
0.0
 10
275.95
 20
1595.9
 10
275.925
 20
1595.9
  0
LWPOLYLINE
  5
67
100
AcDbEntity
  8
ELEV
100
AcDbPolyline
 90
        2
 70
     0
 43
0.0
 10
275.95
 20
1595.8
 10
275.925
 20
1595.8
  0
LWPOLYLINE
  5
6B
100
AcDbEntity
  8
ELEV
100
AcDbPolyline
 90
        2
 70
     0
 43
0.0
 10
275.95
 20
1595.7
 10
275.925
 20
1595.7
  0
LWPOLYLINE
  5
6F
100
AcDbEntity
  8
ELEV
100
AcDbPolyline
 90
        2
 70
     0
 43
0.0
 10
275.95
 20
1595.6
 10
275.925
 20
1595.6
  0
LWPOLYLINE
  5
73
100
AcDbEntity
  8
ELEV
100
AcDbPolyline
 90
        2
 70
     0
 43
0.0
 10
275.95
 20
1595.4
 10
275.925
 20
1595.4
  0
LWPOLYLINE
  5
77
100
AcDbEntity
  8
ELEV
100
AcDbPolyline
 90
        2
 70
     0
 43
0.0
 10
275.95
 20
1595.3
 10
275.925
 20
1595.3
  0
LWPOLYLINE
  5
7B
100
AcDbEntity
  8
COORD
100
AcDbPolyline
 90
        2
 70
     0
 43
0.0
 10
276.0
 20
1596.325
 10
276.0
 20
1596.275
  0
LWPOLYLINE
  5
7F
100
AcDbEntity
  8
ELEV
100
AcDbPolyline
 90
        2
 70
     0
 43
0.0
 10
275.95
 20
1595.2
 10
275.925
 20
1595.2
  0
LWPOLYLINE
  5
83
100
AcDbEntity
  8
ELEV
100
AcDbPolyline
 90
        2
 70
     0
 43
0.0
 10
275.95
 20
1595.1
 10
275.925
 20
1595.1
  0
LWPOLYLINE
  5
87
100
AcDbEntity
  8
ELEV
100
AcDbPolyline
 90
        2
 70
     0
 43
0.0
 10
275.95
 20
1595.0
 10
275.9
 20
1595.0
  0
TEXT
  5
8B
100
AcDbEntity
  8
ELEV
100
AcDbText
 10
275.64
 20
1595.98
 30
0.0
 40
0.03
  1
1596.00
  7
ROMANS
100
AcDbText
  0
TEXT
  5
8D
100
AcDbEntity
  8
ELEV
100
AcDbText
 10
275.64
 20
1595.48
 30
0.0
 40
0.03
  1
1595.50
  7
ROMANS
100
AcDbText
  0
TEXT
  5
8E
100
AcDbEntity
  8
0
100
AcDbText
 10
275.638571
 20
1594.98
 30
0.0
 40
0.03
  1
1595.00
  7
ROMANS
 72
     2
 11
275.82
 21
1594.98
 31
0.0
100
AcDbText
  0
TEXT
  5
8F
100
AcDbEntity
  8
ELEV
100
AcDbText
 10
275.64
 20
1594.48
 30
0.0
 40
0.03
  1
1594.50
  7
ROMANS
100
AcDbText
  0
LWPOLYLINE
  5
90
100
AcDbEntity
  8
ELEV
100
AcDbPolyline
 90
        2
 70
     0
 43
0.0
 10
284.05
 20
1596.2
 10
284.075
 20
1596.2
  0
LWPOLYLINE
  5
94
100
AcDbEntity
  8
COORD
100
AcDbPolyline
 90
        2
 70
     0
 43
0.0
 10
284.0
 20
1596.325
 10
284.0
 20
1596.275
  0
LWPOLYLINE
  5
98
100
AcDbEntity
  8
COORD
100
AcDbPolyline
 90
        2
 70
     0
 43
0.0
 10
280.0
 20
1596.325
 10
280.0
 20
1596.275
  0
LWPOLYLINE
  5
9C
100
AcDbEntity
  8
COORD
100
AcDbPolyline
 90
        2
 70
     0
 43
0.0
 10
281.0
 20
1596.325
 10
281.0
 20
1596.275
  0
LWPOLYLINE
  5
A0
100
AcDbEntity
  8
COORD
100
AcDbPolyline
 90
        2
 70
     0
 43
0.0
 10
282.0
 20
1596.325
 10
282.0
 20
1596.275
  0
LWPOLYLINE
  5
A4
100
AcDbEntity
  8
COORD
100
AcDbPolyline
 90
        2
 70
     0
 43
0.0
 10
283.0
 20
1596.325
 10
283.0
 20
1596.275
  0
TEXT
  5
A8
100
AcDbEntity
  8
COORD
100
AcDbText
 10
283.942857
 20
1596.35
 30
0.0
 40
0.03
  1
284E
  7
ROMANS
 72
     1
 11
284.0
 21
1596.35
 31
0.0
100
AcDbText
  0
TEXT
  5
A9
100
AcDbEntity
  8
COORD
100
AcDbText
 10
282.942857
 20
1596.35
 30
0.0
 40
0.03
  1
283E
  7
ROMANS
 72
     1
 11
283.0
 21
1596.35
 31
0.0
100
AcDbText
  0
TEXT
  5
AA
100
AcDbEntity
  8
COORD
100
AcDbText
 10
281.942857
 20
1596.35
 30
0.0
 40
0.03
  1
282E
  7
ROMANS
 72
     1
 11
282.0
 21
1596.35
 31
0.0
100
AcDbText
  0
TEXT
  5
AB
100
AcDbEntity
  8
COORD
100
AcDbText
 10
280.942857
 20
1596.35
 30
0.0
 40
0.03
  1
281E
  7
ROMANS
 72
     1
 11
281.0
 21
1596.35
 31
0.0
100
AcDbText
  0
TEXT
  5
AC
100
AcDbEntity
  8
COORD
100
AcDbText
 10
275.942857
 20
1596.35
 30
0.0
 40
0.03
  1
276E
  7
ROMANS
 72
     1
 11
276.0
 21
1596.35
 31
0.0
100
AcDbText
  0
TEXT
  5
AD
100
AcDbEntity
  8
COORD
100
AcDbText
 10
276.942857
 20
1596.35
 30
0.0
 40
0.03
  1
277E
  7
ROMANS
 72
     1
 11
277.0
 21
1596.35
 31
0.0
100
AcDbText
  0
TEXT
  5
AE
100
AcDbEntity
  8
COORD
100
AcDbText
 10
277.942857
 20
1596.35
 30
0.0
 40
0.03
  1
278E
  7
ROMANS
 72
     1
 11
278.0
 21
1596.35
 31
0.0
100
AcDbText
  0
TEXT
  5
AF
100
AcDbEntity
  8
COORD
100
AcDbText
 10
278.942857
 20
1596.35
 30
0.0
 40
0.03
  1
279E
  7
ROMANS
 72
     1
 11
279.0
 21
1596.35
 31
0.0
100
AcDbText
  0
TEXT
  5
B0
100
AcDbEntity
  8
COORD
100
AcDbText
 10
279.942857
 20
1596.35
 30
0.0
 40
0.03
  1
280E
  7
ROMANS
 72
     1
 11
280.0
 21
1596.35
 31
0.0
100
AcDbText
  0
LWPOLYLINE
  5
B1
100
AcDbEntity
  8
COORD
100
AcDbPolyline
 90
        2
 70
     0
 43
0.0
 10
279.0
 20
1596.325
 10
279.0
 20
1596.275
  0
LWPOLYLINE
  5
B5
100
AcDbEntity
  8
COORD
100
AcDbPolyline
 90
        2
 70
     0
 43
0.0
 10
278.0
 20
1596.325
 10
278.0
 20
1596.275
  0
LWPOLYLINE
  5
B9
100
AcDbEntity
  8
COORD
100
AcDbPolyline
 90
        2
 70
     0
 43
0.0
 10
277.0
 20
1596.325
 10
277.0
 20
1596.275
  0
LWPOLYLINE
  5
BD
100
AcDbEntity
  8
COORD
100
AcDbPolyline
 90
        2
 70
     0
 43
0.0
 10
280.0
 20
1596.325
 10
280.0
 20
1596.275
  0
LWPOLYLINE
  5
C1
100
AcDbEntity
  8
COORD
100
AcDbPolyline
 90
        2
 70
     0
 43
0.0
 10
284.0
 20
1596.11
 10
284.0
 20
1595.74
  0
LWPOLYLINE
  5
C5
100
AcDbEntity
  8
ELEV
100
AcDbPolyline
 90
        2
 70
     0
 43
0.0
 10
284.05
 20
1594.2
 10
284.075
 20
1594.2
  0
LWPOLYLINE
  5
C9
100
AcDbEntity
  8
ELEV
100
AcDbPolyline
 90
        2
 70
     0
 43
0.0
 10
284.05
 20
1594.5
 10
284.1
 20
1594.5
  0
LWPOLYLINE
  5
CD
100
AcDbEntity
  8
ELEV
100
AcDbPolyline
 90
        2
 70
     0
 43
0.0
 10
284.05
 20
1594.9
 10
284.075
 20
1594.9
  0
LWPOLYLINE
  5
D1
100
AcDbEntity
  8
ELEV
100
AcDbPolyline
 90
        2
 70
     0
 43
0.0
 10
284.05
 20
1594.8
 10
284.075
 20
1594.8
  0
LWPOLYLINE
  5
D5
100
AcDbEntity
  8
ELEV
100
AcDbPolyline
 90
        2
 70
     0
 43
0.0
 10
284.05
 20
1594.7
 10
284.075
 20
1594.7
  0
LWPOLYLINE
  5
D9
100
AcDbEntity
  8
ELEV
100
AcDbPolyline
 90
        2
 70
     0
 43
0.0
 10
284.05
 20
1594.6
 10
284.075
 20
1594.6
  0
LWPOLYLINE
  5
DD
100
AcDbEntity
  8
ELEV
100
AcDbPolyline
 90
        2
 70
     0
 43
0.0
 10
284.05
 20
1594.4
 10
284.075
 20
1594.4
  0
LWPOLYLINE
  5
E1
100
AcDbEntity
  8
ELEV
100
AcDbPolyline
 90
        2
 70
     0
 43
0.0
 10
284.05
 20
1594.3
 10
284.075
 20
1594.3
  0
LWPOLYLINE
  5
E5
100
AcDbEntity
  8
ELEV
100
AcDbPolyline
 90
        2
 70
     0
 43
0.0
 10
284.05
 20
1596.1
 10
284.075
 20
1596.1
  0
LWPOLYLINE
  5
E9
100
AcDbEntity
  8
ELEV
100
AcDbPolyline
 90
        2
 70
     0
 43
0.0
 10
284.05
 20
1595.3
 10
284.075
 20
1595.3
  0
LWPOLYLINE
  5
ED
100
AcDbEntity
  8
ELEV
100
AcDbPolyline
 90
        2
 70
     0
 43
0.0
 10
284.05
 20
1595.4
 10
284.075
 20
1595.4
  0
LWPOLYLINE
  5
F1
100
AcDbEntity
  8
ELEV
100
AcDbPolyline
 90
        2
 70
     0
 43
0.0
 10
284.05
 20
1595.6
 10
284.075
 20
1595.6
  0
LWPOLYLINE
  5
F5
100
AcDbEntity
  8
ELEV
100
AcDbPolyline
 90
        2
 70
     0
 43
0.0
 10
284.05
 20
1595.7
 10
284.075
 20
1595.7
  0
LWPOLYLINE
  5
F9
100
AcDbEntity
  8
ELEV
100
AcDbPolyline
 90
        2
 70
     0
 43
0.0
 10
284.05
 20
1595.8
 10
284.075
 20
1595.8
  0
LWPOLYLINE
  5
FD
100
AcDbEntity
  8
ELEV
100
AcDbPolyline
 90
        2
 70
     0
 43
0.0
 10
284.05
 20
1595.9
 10
284.075
 20
1595.9
  0
LWPOLYLINE
  5
101
100
AcDbEntity
  8
ELEV
100
AcDbPolyline
 90
        2
 70
     0
 43
0.0
 10
284.05
 20
1595.5
 10
284.1
 20
1595.5
  0
LWPOLYLINE
  5
105
100
AcDbEntity
  8
ELEV
100
AcDbPolyline
 90
        2
 70
     0
 43
0.0
 10
284.05
 20
1596.0
 10
284.1
 20
1596.0
  0
LWPOLYLINE
  5
109
100
AcDbEntity
  8
ELEV
100
AcDbPolyline
 90
        2
 70
     0
 43
0.0
 10
284.05
 20
1595.2
 10
284.075
 20
1595.2
  0
LWPOLYLINE
  5
10D
100
AcDbEntity
  8
ELEV
100
AcDbPolyline
 90
        2
 70
     0
 43
0.0
 10
284.05
 20
1595.1
 10
284.075
 20
1595.1
  0
LWPOLYLINE
  5
111
100
AcDbEntity
  8
ELEV
100
AcDbPolyline
 90
        2
 70
     0
 43
0.0
 10
284.05
 20
1595.0
 10
284.1
 20
1595.0
  0
TEXT
  5
115
100
AcDbEntity
  8
ELEV
100
AcDbText
 10
284.15
 20
1595.98
 30
0.0
 40
0.03
  1
1596.00
  7
ROMANS
100
AcDbText
  0
TEXT
  5
116
100
AcDbEntity
  8
ELEV
100
AcDbText
 10
284.15
 20
1595.48
 30
0.0
 40
0.03
  1
1595.50
  7
ROMANS
100
AcDbText
  0
TEXT
  5
117
100
AcDbEntity
  8
0
100
AcDbText
 10
284.15
 20
1594.98
 30
0.0
 40
0.03
  1
1595.00
  7
ROMANS
100
AcDbText
  0
TEXT
  5
118
100
AcDbEntity
  8
ELEV
100
AcDbText
 10
284.15
 20
1594.48
 30
0.0
 40
0.03
  1
1594.50
  7
ROMANS
100
AcDbText
  0
ENDBLK
  5
119
100
AcDbEntity
  8
0
100
AcDbBlockEnd
  0
BLOCK
  5
11A
100
AcDbEntity
  8
0
100
AcDbBlockBegin
  2
SOILS
 70
     0
 10
0.0
 20
0.0
 30
0.0
  3
SOILS
  1

  0
TEXT
  5
11B
100
AcDbEntity
  8
COORD
100
AcDbText
 10
279.44
 20
1594.24
 30
0.0
 40
0.04
  1
4--YELLOW: STERILE SUBSOIL
  7
ROMANS
100
AcDbText
  0
TEXT
  5
11C
100
AcDbEntity
  8
COORD
100
AcDbText
 10
279.44
 20
1594.31
 30
0.0
 40
0.04
  1
3B--BLACKISH BROWN: TRANSITIONAL LAYER?
  7
ROMANS
100
AcDbText
  0
TEXT
  5
11D
100
AcDbEntity
  8
COORD
100
AcDbText
 10
279.44
 20
1594.4
 30
0.0
 40
0.04
  1
3A--YELLOWISH BROWN: TRANSITIONAL LAYER
  7
ROMANS
100
AcDbText
  0
TEXT
  5
11E
100
AcDbEntity
  8
COORD
100
AcDbText
 10
279.43
 20
1594.49
 30
0.0
 40
0.04
  1
2B--BLACK: DWELLING MIDDEN
  7
ROMANS
100
AcDbText
  0
TEXT
  5
11F
100
AcDbEntity
  8
COORD
100
AcDbText
 10
279.44
 20
1594.58
 30
0.0
 40
0.04
  1
2A--BROWN: OCCUPATION LAYER
  7
ROMANS
100
AcDbText
  0
TEXT
  5
120
100
AcDbEntity
  8
COORD
100
AcDbText
 10
279.44
 20
1594.69
 30
0.0
 40
0.04
  1
1--BROWN: CESPED
  7
ROMANS
100
AcDbText
  0
ENDBLK
  5
121
100
AcDbEntity
  8
0
100
AcDbBlockEnd
  0
ENDSEC
  0
SECTION
  2
ENTITIES
  0
LWPOLYLINE
  5
122
100
AcDbEntity
  8
LEVELS
100
AcDbPolyline
 90
       14
 70
     0
 43
0.0
 10
277.04
 20
1594.67
 10
277.06
 20
1594.69
 10
277.08
 20
1594.7
 10
277.1
 20
1594.71
 10
277.13
 20
1594.72
 10
277.2
 20
1594.75
 10
277.3
 20
1594.78
 10
277.4
 20
1594.8
 10
277.5
 20
1594.83
 10
277.6
 20
1594.85
 10
277.7
 20
1594.87
 10
277.8
 20
1594.88
 10
277.89
 20
1594.88
 10
278.0
 20
1594.88
  0
LWPOLYLINE
  5
132
100
AcDbEntity
  8
LEVELS
100
AcDbPolyline
 90
       16
 70
     0
 43
0.0
 10
278.98
 20
1594.91
 10
278.99
 20
1594.93
 10
279.0
 20
1594.94
 10
279.02
 20
1594.96
 10
279.04
 20
1594.98
 10
279.07
 20
1594.99
 10
279.11
 20
1595.0
 10
279.15
 20
1595.0
 10
279.19
 20
1595.0
 10
279.2
 20
1595.0
 10
279.23
 20
1594.98
 10
279.27
 20
1594.97
 10
279.3
 20
1594.95
 10
279.31
 20
1594.94
 10
279.33
 20
1594.93
 10
279.33
 20
1594.92
  0
LWPOLYLINE
  5
144
100
AcDbEntity
  8
LEVELS
100
AcDbPolyline
 90
       19
 70
     0
 43
0.0
 10
282.01
 20
1595.31
 10
282.04
 20
1595.33
 10
282.07
 20
1595.35
 10
282.1
 20
1595.37
 10
282.16
 20
1595.4
 10
282.2
 20
1595.42
 10
282.3
 20
1595.5
 10
282.4
 20
1595.53
 10
282.5
 20
1595.57
 10
282.6
 20
1595.59
 10
282.7
 20
1595.62
 10
282.8
 20
1595.65
 10
282.9
 20
1595.68
 10
283.0
 20
1595.72
 10
283.1
 20
1595.77
 10
283.2
 20
1595.82
 10
283.3
 20
1595.88
 10
283.4
 20
1595.92
 10
283.44
 20
1595.92
  0
LWPOLYLINE
  5
159
100
AcDbEntity
  8
LEVELS
100
AcDbPolyline
 90
       10
 70
     0
 43
0.0
 10
283.4
 20
1595.86
 10
283.42
 20
1595.89
 10
283.43
 20
1595.9
 10
283.44
 20
1595.92
 10
283.5
 20
1595.96
 10
283.6
 20
1596.0
 10
283.7
 20
1596.04
 10
283.8
 20
1596.07
 10
283.9
 20
1596.11
 10
284.0
 20
1596.13
  0
LWPOLYLINE
  5
165
100
AcDbEntity
  8
LEVELS
100
AcDbPolyline
 90
        6
 70
     0
 43
0.0
 10
283.07
 20
1595.57
 10
283.09
 20
1595.6
 10
283.1
 20
1595.61
 10
283.15
 20
1595.68
 10
283.2
 20
1595.72
 10
283.23
 20
1595.75
  0
LWPOLYLINE
  5
16D
100
AcDbEntity
  8
ELEV
100
AcDbPolyline
 90
        2
 70
     0
 43
0.0
 10
275.95
 20
1595.1
 10
275.925
 20
1595.1
  0
LWPOLYLINE
  5
171
100
AcDbEntity
  8
ELEV
100
AcDbPolyline
 90
        2
 70
     0
 43
0.0
 10
275.95
 20
1595.2
 10
275.925
 20
1595.2
  0
LWPOLYLINE
  5
175
100
AcDbEntity
  8
ELEV
100
AcDbPolyline
 90
        2
 70
     0
 43
0.0
 10
275.95
 20
1595.3
 10
275.925
 20
1595.3
  0
LWPOLYLINE
  5
179
100
AcDbEntity
  8
ELEV
100
AcDbPolyline
 90
        2
 70
     0
 43
0.0
 10
275.95
 20
1595.4
 10
275.925
 20
1595.4
  0
LWPOLYLINE
  5
17D
100
AcDbEntity
  8
ELEV
100
AcDbPolyline
 90
        2
 70
     0
 43
0.0
 10
275.95
 20
1595.0
 10
275.9
 20
1595.0
  0
LWPOLYLINE
  5
181
100
AcDbEntity
  8
ELEV
100
AcDbPolyline
 90
        2
 70
     0
 43
0.0
 10
275.95
 20
1596.5
 10
275.9
 20
1596.5
  0
LWPOLYLINE
  5
185
100
AcDbEntity
  8
ELEV
100
AcDbPolyline
 90
        2
 70
     0
 43
0.0
 10
275.95
 20
1596.0
 10
275.9
 20
1596.0
  0
LWPOLYLINE
  5
189
100
AcDbEntity
  8
ELEV
100
AcDbPolyline
 90
        2
 70
     0
 43
0.0
 10
275.95
 20
1596.4
 10
275.925
 20
1596.4
  0
LWPOLYLINE
  5
18D
100
AcDbEntity
  8
ELEV
100
AcDbPolyline
 90
        2
 70
     0
 43
0.0
 10
275.95
 20
1596.3
 10
275.925
 20
1596.3
  0
LWPOLYLINE
  5
191
100
AcDbEntity
  8
ELEV
100
AcDbPolyline
 90
        2
 70
     0
 43
0.0
 10
275.95
 20
1596.2
 10
275.925
 20
1596.2
  0
LWPOLYLINE
  5
195
100
AcDbEntity
  8
ELEV
100
AcDbPolyline
 90
        2
 70
     0
 43
0.0
 10
275.95
 20
1596.1
 10
275.925
 20
1596.1
  0
LWPOLYLINE
  5
199
100
AcDbEntity
  8
ELEV
100
AcDbPolyline
 90
        2
 70
     0
 43
0.0
 10
275.95
 20
1595.9
 10
275.925
 20
1595.9
  0
LWPOLYLINE
  5
19D
100
AcDbEntity
  8
ELEV
100
AcDbPolyline
 90
        2
 70
     0
 43
0.0
 10
275.95
 20
1595.8
 10
275.925
 20
1595.8
  0
LWPOLYLINE
  5
1A1
100
AcDbEntity
  8
COORD
100
AcDbPolyline
 90
        2
 70
     0
 43
0.0
 10
276.0
 20
1596.825
 10
276.0
 20
1596.775
  0
LWPOLYLINE
  5
1A5
100
AcDbEntity
  8
ELEV
100
AcDbPolyline
 90
        2
 70
     0
 43
0.0
 10
275.95
 20
1595.7
 10
275.925
 20
1595.7
  0
LWPOLYLINE
  5
1A9
100
AcDbEntity
  8
ELEV
100
AcDbPolyline
 90
        2
 70
     0
 43
0.0
 10
275.95
 20
1595.6
 10
275.925
 20
1595.6
  0
LWPOLYLINE
  5
1AD
100
AcDbEntity
  8
ELEV
100
AcDbPolyline
 90
        2
 70
     0
 43
0.0
 10
275.95
 20
1595.5
 10
275.9
 20
1595.5
  0
TEXT
  5
1B1
100
AcDbEntity
  8
ELEV
100
AcDbText
 10
275.64
 20
1596.48
 30
0.0
 40
0.05
  1
1596.50
  7
ROMANS
100
AcDbText
  0
TEXT
  5
1B2
100
AcDbEntity
  8
ELEV
100
AcDbText
 10
275.64
 20
1595.98
 30
0.0
 40
0.05
  1
1596.00
  7
ROMANS
100
AcDbText
  0
TEXT
  5
1B3
100
AcDbEntity
  8
0
100
AcDbText
 10
275.517619
 20
1595.48
 30
0.0
 40
0.05
  1
1595.50
  7
ROMANS
 72
     2
 11
275.82
 21
1595.48
 31
0.0
100
AcDbText
  0
TEXT
  5
1B4
100
AcDbEntity
  8
ELEV
100
AcDbText
 10
275.64
 20
1594.98
 30
0.0
 40
0.05
  1
1595.00
  7
ROMANS
100
AcDbText
  0
LWPOLYLINE
  5
1B5
100
AcDbEntity
  8
COORD
100
AcDbPolyline
 90
        2
 70
     0
 43
0.0
 10
284.0
 20
1596.825
 10
284.0
 20
1596.775
  0
LWPOLYLINE
  5
1B9
100
AcDbEntity
  8
COORD
100
AcDbPolyline
 90
        2
 70
     0
 43
0.0
 10
280.0
 20
1596.825
 10
280.0
 20
1596.775
  0
LWPOLYLINE
  5
1BD
100
AcDbEntity
  8
COORD
100
AcDbPolyline
 90
        2
 70
     0
 43
0.0
 10
281.0
 20
1596.825
 10
281.0
 20
1596.775
  0
LWPOLYLINE
  5
1C1
100
AcDbEntity
  8
COORD
100
AcDbPolyline
 90
        2
 70
     0
 43
0.0
 10
282.0
 20
1596.825
 10
282.0
 20
1596.775
  0
LWPOLYLINE
  5
1C5
100
AcDbEntity
  8
COORD
100
AcDbPolyline
 90
        2
 70
     0
 43
0.0
 10
283.0
 20
1596.825
 10
283.0
 20
1596.775
  0
TEXT
  5
1C9
100
AcDbEntity
  8
COORD
100
AcDbText
 10
283.904762
 20
1596.85
 30
0.0
 40
0.05
  1
284E
  7
ROMANS
 72
     1
 11
284.0
 21
1596.85
 31
0.0
100
AcDbText
  0
TEXT
  5
1CA
100
AcDbEntity
  8
COORD
100
AcDbText
 10
282.904762
 20
1596.85
 30
0.0
 40
0.05
  1
283E
  7
ROMANS
 72
     1
 11
283.0
 21
1596.85
 31
0.0
100
AcDbText
  0
TEXT
  5
1CB
100
AcDbEntity
  8
COORD
100
AcDbText
 10
281.904762
 20
1596.85
 30
0.0
 40
0.05
  1
282E
  7
ROMANS
 72
     1
 11
282.0
 21
1596.85
 31
0.0
100
AcDbText
  0
TEXT
  5
1CC
100
AcDbEntity
  8
COORD
100
AcDbText
 10
280.904762
 20
1596.85
 30
0.0
 40
0.05
  1
281E
  7
ROMANS
 72
     1
 11
281.0
 21
1596.85
 31
0.0
100
AcDbText
  0
TEXT
  5
1CD
100
AcDbEntity
  8
COORD
100
AcDbText
 10
275.904762
 20
1596.85
 30
0.0
 40
0.05
  1
276E
  7
ROMANS
 72
     1
 11
276.0
 21
1596.85
 31
0.0
100
AcDbText
  0
TEXT
  5
1CE
100
AcDbEntity
  8
COORD
100
AcDbText
 10
276.904762
 20
1596.85
 30
0.0
 40
0.05
  1
277E
  7
ROMANS
 72
     1
 11
277.0
 21
1596.85
 31
0.0
100
AcDbText
  0
TEXT
  5
1CF
100
AcDbEntity
  8
COORD
100
AcDbText
 10
277.904762
 20
1596.85
 30
0.0
 40
0.05
  1
278E
  7
ROMANS
 72
     1
 11
278.0
 21
1596.85
 31
0.0
100
AcDbText
  0
TEXT
  5
1D0
100
AcDbEntity
  8
COORD
100
AcDbText
 10
278.904762
 20
1596.85
 30
0.0
 40
0.05
  1
279E
  7
ROMANS
 72
     1
 11
279.0
 21
1596.85
 31
0.0
100
AcDbText
  0
TEXT
  5
1D1
100
AcDbEntity
  8
COORD
100
AcDbText
 10
279.904762
 20
1596.85
 30
0.0
 40
0.05
  1
280E
  7
ROMANS
 72
     1
 11
280.0
 21
1596.85
 31
0.0
100
AcDbText
  0
LWPOLYLINE
  5
1D2
100
AcDbEntity
  8
COORD
100
AcDbPolyline
 90
        2
 70
     0
 43
0.0
 10
279.0
 20
1596.825
 10
279.0
 20
1596.775
  0
LWPOLYLINE
  5
1D6
100
AcDbEntity
  8
COORD
100
AcDbPolyline
 90
        2
 70
     0
 43
0.0
 10
278.0
 20
1596.825
 10
278.0
 20
1596.775
  0
LWPOLYLINE
  5
1DA
100
AcDbEntity
  8
COORD
100
AcDbPolyline
 90
        2
 70
     0
 43
0.0
 10
277.0
 20
1596.825
 10
277.0
 20
1596.775
  0
LWPOLYLINE
  5
1DE
100
AcDbEntity
  8
COORD
100
AcDbPolyline
 90
        2
 70
     0
 43
0.0
 10
280.0
 20
1596.825
 10
280.0
 20
1596.775
  0
LWPOLYLINE
  5
1E2
100
AcDbEntity
  8
ELEV
100
AcDbPolyline
 90
        2
 70
     0
 43
0.0
 10
284.05
 20
1595.0
 10
284.1
 20
1595.0
  0
LWPOLYLINE
  5
1E6
100
AcDbEntity
  8
ELEV
100
AcDbPolyline
 90
        2
 70
     0
 43
0.0
 10
284.05
 20
1595.4
 10
284.075
 20
1595.4
  0
LWPOLYLINE
  5
1EA
100
AcDbEntity
  8
ELEV
100
AcDbPolyline
 90
        2
 70
     0
 43
0.0
 10
284.05
 20
1595.3
 10
284.075
 20
1595.3
  0
LWPOLYLINE
  5
1EE
100
AcDbEntity
  8
ELEV
100
AcDbPolyline
 90
        2
 70
     0
 43
0.0
 10
284.05
 20
1595.2
 10
284.075
 20
1595.2
  0
LWPOLYLINE
  5
1F2
100
AcDbEntity
  8
ELEV
100
AcDbPolyline
 90
        2
 70
     0
 43
0.0
 10
284.05
 20
1595.1
 10
284.075
 20
1595.1
  0
LWPOLYLINE
  5
1F6
100
AcDbEntity
  8
ELEV
100
AcDbPolyline
 90
        2
 70
     0
 43
0.0
 10
284.05
 20
1595.8
 10
284.075
 20
1595.8
  0
LWPOLYLINE
  5
1FA
100
AcDbEntity
  8
ELEV
100
AcDbPolyline
 90
        2
 70
     0
 43
0.0
 10
284.05
 20
1595.9
 10
284.075
 20
1595.9
  0
LWPOLYLINE
  5
1FE
100
AcDbEntity
  8
ELEV
100
AcDbPolyline
 90
        2
 70
     0
 43
0.0
 10
284.05
 20
1596.1
 10
284.075
 20
1596.1
  0
LWPOLYLINE
  5
202
100
AcDbEntity
  8
ELEV
100
AcDbPolyline
 90
        2
 70
     0
 43
0.0
 10
284.05
 20
1596.2
 10
284.075
 20
1596.2
  0
LWPOLYLINE
  5
206
100
AcDbEntity
  8
ELEV
100
AcDbPolyline
 90
        2
 70
     0
 43
0.0
 10
284.05
 20
1596.3
 10
284.075
 20
1596.3
  0
LWPOLYLINE
  5
20A
100
AcDbEntity
  8
ELEV
100
AcDbPolyline
 90
        2
 70
     0
 43
0.0
 10
284.05
 20
1596.4
 10
284.075
 20
1596.4
  0
LWPOLYLINE
  5
20E
100
AcDbEntity
  8
ELEV
100
AcDbPolyline
 90
        2
 70
     0
 43
0.0
 10
284.05
 20
1596.0
 10
284.1
 20
1596.0
  0
LWPOLYLINE
  5
212
100
AcDbEntity
  8
ELEV
100
AcDbPolyline
 90
        2
 70
     0
 43
0.0
 10
284.05
 20
1596.5
 10
284.1
 20
1596.5
  0
LWPOLYLINE
  5
216
100
AcDbEntity
  8
ELEV
100
AcDbPolyline
 90
        2
 70
     0
 43
0.0
 10
284.05
 20
1595.7
 10
284.075
 20
1595.7
  0
LWPOLYLINE
  5
21A
100
AcDbEntity
  8
ELEV
100
AcDbPolyline
 90
        2
 70
     0
 43
0.0
 10
284.05
 20
1595.6
 10
284.075
 20
1595.6
  0
LWPOLYLINE
  5
21E
100
AcDbEntity
  8
ELEV
100
AcDbPolyline
 90
        2
 70
     0
 43
0.0
 10
284.05
 20
1595.5
 10
284.1
 20
1595.5
  0
TEXT
  5
222
100
AcDbEntity
  8
ELEV
100
AcDbText
 10
284.15
 20
1596.48
 30
0.0
 40
0.05
  1
1596.50
  7
ROMANS
100
AcDbText
  0
TEXT
  5
223
100
AcDbEntity
  8
ELEV
100
AcDbText
 10
284.15
 20
1595.98
 30
0.0
 40
0.05
  1
1596.00
  7
ROMANS
100
AcDbText
  0
TEXT
  5
224
100
AcDbEntity
  8
0
100
AcDbText
 10
284.15
 20
1595.48
 30
0.0
 40
0.05
  1
1595.50
  7
ROMANS
100
AcDbText
  0
TEXT
  5
225
100
AcDbEntity
  8
ELEV
100
AcDbText
 10
284.15
 20
1594.98
 30
0.0
 40
0.05
  1
1595.00
  7
ROMANS
100
AcDbText
  0
LWPOLYLINE
  5
226
100
AcDbEntity
  8
ELEV
100
AcDbPolyline
 90
        2
 70
     0
 43
0.0
 10
275.95
 20
1594.9
 10
275.925
 20
1594.9
  0
LWPOLYLINE
  5
22A
100
AcDbEntity
  8
ELEV
100
AcDbPolyline
 90
        2
 70
     0
 43
0.0
 10
275.95
 20
1594.8
 10
275.925
 20
1594.8
  0
LWPOLYLINE
  5
22E
100
AcDbEntity
  8
ELEV
100
AcDbPolyline
 90
        2
 70
     0
 43
0.0
 10
275.95
 20
1594.7
 10
275.925
 20
1594.7
  0
LWPOLYLINE
  5
232
100
AcDbEntity
  8
ELEV
100
AcDbPolyline
 90
        2
 70
     0
 43
0.0
 10
275.95
 20
1594.6
 10
275.925
 20
1594.6
  0
LWPOLYLINE
  5
236
100
AcDbEntity
  8
ELEV
100
AcDbPolyline
 90
        2
 70
     0
 43
0.0
 10
275.95
 20
1594.5
 10
275.9
 20
1594.5
  0
TEXT
  5
23A
100
AcDbEntity
  8
ELEV
100
AcDbText
 10
275.64
 20
1594.48
 30
0.0
 40
0.05
  1
1594.50
  7
ROMANS
100
AcDbText
  0
LWPOLYLINE
  5
23B
100
AcDbEntity
  8
ELEV
100
AcDbPolyline
 90
        2
 70
     0
 43
0.0
 10
275.95
 20
1594.4
 10
275.925
 20
1594.4
  0
LWPOLYLINE
  5
23F
100
AcDbEntity
  8
ELEV
100
AcDbPolyline
 90
        2
 70
     0
 43
0.0
 10
275.95
 20
1594.3
 10
275.925
 20
1594.3
  0
TEXT
  5
243
100
AcDbEntity
  8
ELEV
100
AcDbText
 10
284.15
 20
1594.48
 30
0.0
 40
0.05
  1
1594.50
  7
ROMANS
100
AcDbText
  0
LWPOLYLINE
  5
244
100
AcDbEntity
  8
ELEV
100
AcDbPolyline
 90
        2
 70
     0
 43
0.0
 10
284.05
 20
1594.6
 10
284.075
 20
1594.6
  0
LWPOLYLINE
  5
248
100
AcDbEntity
  8
ELEV
100
AcDbPolyline
 90
        2
 70
     0
 43
0.0
 10
284.05
 20
1594.7
 10
284.075
 20
1594.7
  0
LWPOLYLINE
  5
24C
100
AcDbEntity
  8
ELEV
100
AcDbPolyline
 90
        2
 70
     0
 43
0.0
 10
284.05
 20
1594.8
 10
284.075
 20
1594.8
  0
LWPOLYLINE
  5
250
100
AcDbEntity
  8
ELEV
100
AcDbPolyline
 90
        2
 70
     0
 43
0.0
 10
284.05
 20
1594.9
 10
284.075
 20
1594.9
  0
LWPOLYLINE
  5
254
100
AcDbEntity
  8
ELEV
100
AcDbPolyline
 90
        2
 70
     0
 43
0.0
 10
284.05
 20
1594.5
 10
284.1
 20
1594.5
  0
LWPOLYLINE
  5
258
100
AcDbEntity
  8
ELEV
100
AcDbPolyline
 90
        2
 70
     0
 43
0.0
 10
284.05
 20
1594.4
 10
284.075
 20
1594.4
  0
LWPOLYLINE
  5
25C
100
AcDbEntity
  8
ELEV
100
AcDbPolyline
 90
        2
 70
     0
 43
0.0
 10
284.05
 20
1594.3
 10
284.075
 20
1594.3
  0
LWPOLYLINE
  5
260
100
AcDbEntity
  8
LEVELS
100
AcDbPolyline
 90
        2
 70
     0
 43
0.0
 10
284.0
 20
1596.37
 10
284.0
 20
1596.09
  0
LWPOLYLINE
  5
264
100
AcDbEntity
  8
LEVELS
100
AcDbPolyline
 90
       71
 70
     0
 43
0.0
 10
276.0
 20
1594.82
 10
276.1
 20
1594.83
 10
276.2
 20
1594.85
 10
276.3
 20
1594.89
 10
276.4
 20
1594.91
 10
276.5
 20
1594.93
 10
276.6
 20
1594.95
 10
276.7
 20
1594.96
 10
276.8
 20
1594.98
 10
276.9
 20
1594.99
 10
277.0
 20
1595.02
 10
277.1
 20
1595.04
 10
277.2
 20
1595.05
 10
277.3
 20
1595.07
 10
277.4
 20
1595.08
 10
277.5
 20
1595.1
 10
277.6
 20
1595.11
 10
277.7
 20
1595.13
 10
277.8
 20
1595.13
 10
277.9
 20
1595.14
 10
278.0
 20
1595.14
 10
278.1
 20
1595.14
 10
278.2
 20
1595.15
 10
278.3
 20
1595.15
 10
278.4
 20
1595.15
 10
278.5
 20
1595.16
 10
278.6
 20
1595.17
 10
278.7
 20
1595.18
 10
278.8
 20
1595.18
 10
278.9
 20
1595.19
 10
279.0
 20
1595.2
 10
279.1
 20
1595.21
 10
279.2
 20
1595.22
 10
279.3
 20
1595.23
 10
279.4
 20
1595.23
 10
279.5
 20
1595.24
 10
279.6
 20
1595.25
 10
279.7
 20
1595.25
 10
279.8
 20
1595.25
 10
279.9
 20
1595.26
 10
280.0
 20
1595.28
 10
280.1
 20
1595.3
 10
280.2
 20
1595.32
 10
280.3
 20
1595.34
 10
280.4
 20
1595.35
 10
280.5
 20
1595.36
 10
280.6
 20
1595.37
 10
280.7
 20
1595.39
 10
280.8
 20
1595.39
 10
280.9
 20
1595.4
 10
281.0
 20
1595.41
 10
281.1
 20
1595.43
 10
281.2
 20
1595.45
 10
281.3
 20
1595.47
 10
281.4
 20
1595.5
 10
281.5
 20
1595.53
 10
281.6
 20
1595.54
 10
281.7
 20
1595.56
 10
281.8
 20
1595.59
 10
281.9
 20
1595.61
 10
282.0
 20
1595.64
 10
282.2
 20
1595.69
 10
282.4
 20
1595.73
 10
282.6
 20
1595.78
 10
282.8
 20
1595.86
 10
283.0
 20
1595.91
 10
283.2
 20
1595.97
 10
283.4
 20
1596.08
 10
283.6
 20
1596.15
 10
283.8
 20
1596.24
 10
284.0
 20
1596.32
  0
LWPOLYLINE
  5
2AD
100
AcDbEntity
  8
TOP
100
AcDbPolyline
 90
       62
 70
     0
 43
0.0
 10
276.0
 20
1594.87
 10
276.1
 20
1594.89
 10
276.2
 20
1594.91
 10
276.3
 20
1594.93
 10
276.4
 20
1594.96
 10
276.5
 20
1594.99
 10
276.6
 20
1595.01
 10
276.7
 20
1595.03
 10
276.8
 20
1595.05
 10
276.9
 20
1595.07
 10
277.0
 20
1595.07
 10
277.1
 20
1595.09
 10
277.2
 20
1595.1
 10
277.3
 20
1595.12
 10
277.4
 20
1595.13
 10
277.5
 20
1595.14
 10
277.6
 20
1595.17
 10
277.7
 20
1595.19
 10
277.8
 20
1595.2
 10
277.9
 20
1595.2
 10
278.0
 20
1595.2
 10
278.1
 20
1595.2
 10
278.2
 20
1595.2
 10
278.3
 20
1595.2
 10
278.4
 20
1595.21
 10
278.5
 20
1595.21
 10
278.6
 20
1595.22
 10
278.69
 20
1595.23
 10
278.8
 20
1595.24
 10
278.9
 20
1595.24
 10
279.0
 20
1595.25
 10
279.1
 20
1595.26
 10
279.2
 20
1595.27
 10
279.4
 20
1595.29
 10
279.5
 20
1595.3
 10
279.6
 20
1595.31
 10
279.7
 20
1595.31
 10
279.8
 20
1595.31
 10
279.9
 20
1595.31
 10
280.0
 20
1595.32
 10
280.1
 20
1595.35
 10
280.2
 20
1595.37
 10
280.3
 20
1595.39
 10
280.4
 20
1595.39
 10
280.6
 20
1595.42
 10
280.8
 20
1595.44
 10
281.0
 20
1595.47
 10
281.2
 20
1595.5
 10
281.4
 20
1595.54
 10
281.6
 20
1595.6
 10
281.8
 20
1595.64
 10
282.0
 20
1595.69
 10
282.2
 20
1595.76
 10
282.4
 20
1595.79
 10
282.6
 20
1595.86
 10
282.81
 20
1595.91
 10
283.0
 20
1595.95
 10
283.2
 20
1596.03
 10
283.4
 20
1596.12
 10
283.6
 20
1596.2
 10
283.8
 20
1596.29
 10
284.0
 20
1596.37
  0
LWPOLYLINE
  5
2ED
100
AcDbEntity
  8
FLOOR
100
AcDbPolyline
 90
       89
 70
     0
 43
0.0
 10
276.0
 20
1594.41
 10
276.1
 20
1594.42
 10
276.2
 20
1594.44
 10
276.3
 20
1594.49
 10
276.4
 20
1594.52
 10
276.5
 20
1594.54
 10
276.6
 20
1594.57
 10
276.7
 20
1594.6
 10
276.8
 20
1594.62
 10
276.9
 20
1594.63
 10
277.0
 20
1594.65
 10
277.1
 20
1594.67
 10
277.2
 20
1594.69
 10
277.3
 20
1594.71
 10
277.39
 20
1594.72
 10
277.5
 20
1594.74
 10
277.6
 20
1594.76
 10
277.7
 20
1594.77
 10
277.8
 20
1594.78
 10
277.9
 20
1594.79
 10
277.99
 20
1594.8
 10
278.0
 20
1594.8
 10
278.0
 20
1594.88
 10
278.1
 20
1594.89
 10
278.2
 20
1594.89
 10
278.3
 20
1594.89
 10
278.4
 20
1594.89
 10
278.5
 20
1594.9
 10
278.6
 20
1594.9
 10
278.7
 20
1594.9
 10
278.75
 20
1594.9
 10
278.8
 20
1594.9
 10
278.9
 20
1594.9
 10
278.98
 20
1594.91
 10
279.0
 20
1594.91
 10
279.1
 20
1594.91
 10
279.2
 20
1594.91
 10
279.3
 20
1594.91
 10
279.33
 20
1594.91
 10
279.4
 20
1594.91
 10
279.5
 20
1594.92
 10
279.6
 20
1594.92
 10
279.7
 20
1594.93
 10
279.8
 20
1594.94
 10
279.9
 20
1594.95
 10
280.0
 20
1594.95
 10
280.0
 20
1594.99
 10
280.2
 20
1595.01
 10
280.4
 20
1595.04
 10
280.5
 20
1595.05
 10
280.6
 20
1595.06
 10
280.8
 20
1595.08
 10
281.0
 20
1595.11
 10
281.2
 20
1595.13
 10
281.4
 20
1595.16
 10
281.6
 20
1595.19
 10
281.8
 20
1595.23
 10
282.0
 20
1595.28
 10
282.0
 20
1595.31
 10
282.05
 20
1595.32
 10
282.1
 20
1595.33
 10
282.2
 20
1595.35
 10
282.3
 20
1595.37
 10
282.41
 20
1595.4
 10
282.5
 20
1595.44
 10
282.61
 20
1595.46
 10
282.7
 20
1595.48
 10
282.81
 20
1595.49
 10
282.91
 20
1595.52
 10
283.0
 20
1595.55
 10
283.04
 20
1595.56
 10
283.08
 20
1595.57
 10
283.11
 20
1595.59
 10
283.13
 20
1595.6
 10
283.16
 20
1595.63
 10
283.19
 20
1595.67
 10
283.21
 20
1595.7
 10
283.21
 20
1595.73
 10
283.22
 20
1595.75
 10
283.25
 20
1595.77
 10
283.29
 20
1595.79
 10
283.3
 20
1595.8
 10
283.4
 20
1595.86
 10
283.5
 20
1595.89
 10
283.6
 20
1595.96
 10
283.7
 20
1596.0
 10
283.8
 20
1596.04
 10
283.9
 20
1596.07
 10
284.0
 20
1596.09
  0
LWPOLYLINE
  5
348
100
AcDbEntity
  8
LEVELS
100
AcDbPolyline
 90
       33
 70
     0
 43
0.0
 10
276.0
 20
1594.59
 10
276.1
 20
1594.6
 10
276.2
 20
1594.63
 10
276.3
 20
1594.66
 10
276.4
 20
1594.69
 10
276.5
 20
1594.71
 10
276.6
 20
1594.73
 10
276.7
 20
1594.75
 10
276.8
 20
1594.77
 10
276.9
 20
1594.77
 10
277.0
 20
1594.78
 10
277.1
 20
1594.81
 10
277.2
 20
1594.83
 10
277.3
 20
1594.86
 10
277.4
 20
1594.87
 10
277.5
 20
1594.87
 10
277.6
 20
1594.89
 10
277.7
 20
1594.9
 10
277.8
 20
1594.92
 10
277.9
 20
1594.93
 10
278.0
 20
1594.93
 10
278.1
 20
1594.94
 10
278.2
 20
1594.95
 10
278.3
 20
1594.95
 10
278.4
 20
1594.97
 10
278.5
 20
1594.98
 10
278.6
 20
1595.0
 10
278.64
 20
1594.99
 10
278.69
 20
1594.98
 10
278.7
 20
1594.97
 10
278.72
 20
1594.95
 10
278.74
 20
1594.93
 10
278.75
 20
1594.9
  0
LWPOLYLINE
  5
36B
100
AcDbEntity
  8
LEVELS
100
AcDbPolyline
 90
       50
 70
     0
 43
0.0
 10
278.08
 20
1594.94
 10
278.06
 20
1594.94
 10
278.05
 20
1594.95
 10
278.04
 20
1594.96
 10
278.04
 20
1594.97
 10
278.06
 20
1594.99
 10
278.1
 20
1595.0
 10
278.2
 20
1595.03
 10
278.3
 20
1595.04
 10
278.4
 20
1595.05
 10
278.5
 20
1595.06
 10
278.6
 20
1595.07
 10
278.7
 20
1595.08
 10
278.8
 20
1595.08
 10
278.9
 20
1595.07
 10
279.0
 20
1595.07
 10
279.1
 20
1595.09
 10
279.2
 20
1595.11
 10
279.3
 20
1595.1
 10
279.4
 20
1595.1
 10
279.5
 20
1595.11
 10
279.6
 20
1595.11
 10
279.7
 20
1595.11
 10
279.8
 20
1595.12
 10
279.9
 20
1595.14
 10
280.0
 20
1595.17
 10
280.1
 20
1595.2
 10
280.2
 20
1595.22
 10
280.3
 20
1595.23
 10
280.4
 20
1595.25
 10
280.5
 20
1595.27
 10
280.6
 20
1595.28
 10
280.7
 20
1595.3
 10
280.8
 20
1595.3
 10
280.9
 20
1595.31
 10
281.0
 20
1595.31
 10
281.1
 20
1595.32
 10
281.2
 20
1595.33
 10
281.3
 20
1595.34
 10
281.4
 20
1595.34
 10
281.5
 20
1595.35
 10
281.6
 20
1595.38
 10
281.7
 20
1595.39
 10
281.8
 20
1595.4
 10
281.9
 20
1595.41
 10
281.99
 20
1595.43
 10
282.07
 20
1595.44
 10
282.14
 20
1595.44
 10
282.2
 20
1595.45
 10
282.258333
 20
1595.466667
  0
LWPOLYLINE
  5
39F
100
AcDbEntity
  8
LEVELS
100
AcDbPolyline
 90
        2
 70
     0
 43
0.0
 10
276.0
 20
1594.87
 10
276.0
 20
1594.41
  0
TEXT
  5
3A3
100
AcDbEntity
  8
SOILS
100
AcDbText
 10
279.44
 20
1594.24
 30
0.0
 40
0.04
  1
4--YELLOW: STERILE SUBSOIL
  7
ROMANS
100
AcDbText
  0
TEXT
  5
3A4
100
AcDbEntity
  8
SOILS
100
AcDbText
 10
279.44
 20
1594.31
 30
0.0
 40
0.04
  1
3B--BLACKISH BROWN: TRANSITIONAL LAYER?
  7
ROMANS
100
AcDbText
  0
TEXT
  5
3A5
100
AcDbEntity
  8
SOILS
100
AcDbText
 10
279.44
 20
1594.4
 30
0.0
 40
0.04
  1
3A--YELLOWISH BROWN: TRANSITIONAL LAYER
  7
ROMANS
100
AcDbText
  0
TEXT
  5
3A6
100
AcDbEntity
  8
SOILS
100
AcDbText
 10
279.43
 20
1594.49
 30
0.0
 40
0.04
  1
2B--BLACK: DWELLING MIDDEN
  7
ROMANS
100
AcDbText
  0
TEXT
  5
3A7
100
AcDbEntity
  8
SOILS
100
AcDbText
 10
279.44
 20
1594.58
 30
0.0
 40
0.04
  1
2A--BROWN: OCCUPATION LAYER
  7
ROMANS
100
AcDbText
  0
TEXT
  5
3A8
100
AcDbEntity
  8
SOILS
100
AcDbText
 10
279.44
 20
1594.69
 30
0.0
 40
0.04
  1
1--BROWN: CESPED
  7
ROMANS
100
AcDbText
  0
TEXT
  5
3A9
100
AcDbEntity
  8
TEXT
100
AcDbText
 10
279.61
 20
1595.26
 30
0.0
 40
0.05
  1
1
  7
ROMANS
100
AcDbText
  0
TEXT
  5
3AA
100
AcDbEntity
  8
TEXT
100
AcDbText
 10
276.77
 20
1594.99
 30
0.0
 40
0.05
  1
1
  7
ROMANS
100
AcDbText
  0
TEXT
  5
3AB
100
AcDbEntity
  8
TEXT
100
AcDbText
 10
276.96
 20
1594.86
 30
0.0
 40
0.05
  1
2A
  7
ROMANS
100
AcDbText
  0
TEXT
  5
3AC
100
AcDbEntity
  8
TEXT
100
AcDbText
 10
276.66
 20
1594.64
 30
0.0
 40
0.05
  1
3A
  7
ROMANS
100
AcDbText
  0
TEXT
  5
3AD
100
AcDbEntity
  8
TEXT
100
AcDbText
 10
277.68
 20
1594.8
 30
0.0
 40
0.05
  1
4
  7
ROMANS
100
AcDbText
  0
TEXT
  5
3AE
100
AcDbEntity
  8
TEXT
100
AcDbText
 10
279.11
 20
1594.94
 30
0.0
 40
0.05
  1
3A
  7
ROMANS
100
AcDbText
  0
TEXT
  5
3AF
100
AcDbEntity
  8
TEXT
100
AcDbText
 10
279.7
 20
1594.99
 30
0.0
 40
0.05
  1
2B
  7
ROMANS
100
AcDbText
  0
TEXT
  5
3B0
100
AcDbEntity
  8
TEXT
100
AcDbText
 10
282.2
 20
1595.7
 30
0.0
 40
0.05
  1
1
  7
ROMANS
100
AcDbText
  0
TEXT
  5
3B1
100
AcDbEntity
  8
TEXT
100
AcDbText
 10
282.28
 20
1595.58
 30
0.0
 40
0.05
  1
2A
  7
ROMANS
100
AcDbText
  0
TEXT
  5
3B2
100
AcDbEntity
  8
TEXT
100
AcDbText
 10
282.69
 20
1595.52
 30
0.0
 40
0.05
  1
3A
  7
ROMANS
100
AcDbText
  0
TEXT
  5
3B3
100
AcDbEntity
  8
TEXT
100
AcDbText
 10
283.49
 20
1595.91
 30
0.0
 40
0.05
  1
4
  7
ROMANS
100
AcDbText
  0
TEXT
  5
3B4
100
AcDbEntity
  8
TEXT
100
AcDbText
 10
283.14
 20
1595.62
 30
0.0
 40
0.05
  1
4
  7
ROMANS
100
AcDbText
  0
LWPOLYLINE
  5
3B5
100
AcDbEntity
  8
SOILS
100
AcDbPolyline
 90
        2
 70
     0
 43
0.0
 10
275.5
 20
1594.5
 10
275.5
 20
1595.0
  0
LWPOLYLINE
  5
3B9
100
AcDbEntity
  8
SOILS
100
AcDbPolyline
 90
        2
 70
     0
 43
0.0
 10
284.5
 20
1595.5
 10
284.5
 20
1594.5
  0
LWPOLYLINE
  5
3BD
100
AcDbEntity
  8
SOILS
100
AcDbPolyline
 90
        2
 70
     0
 43
0.0
 10
279.0
 20
1594.0
 10
279.5
 20
1594.0
  0
LWPOLYLINE
  5
3C1
100
AcDbEntity
  8
SOILS
100
AcDbPolyline
 90
        2
 70
     0
 43
0.0
 10
279.0
 20
1597.0
 10
279.5
 20
1597.0
  0
ENDSEC
  0
SECTION
  2
OBJECTS
  0
DICTIONARY
  5
C
100
AcDbDictionary
  3
ACAD_GROUP
350
D
  3
ACAD_MLINESTYLE
350
1A
  3
ACDBVARIABLEDICTIONARY
350
30
  0
DICTIONARY
  5
D
102
{ACAD_REACTORS
330
C
102
}
100
AcDbDictionary
  0
DICTIONARY
  5
1A
102
{ACAD_REACTORS
330
C
102
}
100
AcDbDictionary
  3
STANDARD
350
1B
  0
DICTIONARY
  5
30
102
{ACAD_REACTORS
330
C
102
}
100
AcDbDictionary
  3
DIMADEC
350
31
  0
MLINESTYLE
  5
1B
102
{ACAD_REACTORS
330
1A
102
}
100
AcDbMlineStyle
  2
STANDARD
 70
     0
  3

 62
   256
 51
90.0
 52
90.0
 71
     2
 49
0.5
 62
   256
  6
BYLAYER
 49
-0.5
 62
   256
  6
BYLAYER
  0
DICTIONARYVAR
  5
31
102
{ACAD_REACTORS
330
30
102
}
100
DictionaryVariables
280
     0
  1
0
  0
ENDSEC
  0
EOF
