  0
SECTION
  2
HEADER
  9
$ACADVER
  1
AC1012
  9
$DWGCODEPAGE
  3
ANSI_1252
  9
$INSBASE
 10
0.0
 20
0.0
 30
0.0
  9
$EXTMIN
 10
100.0
 20
723.132979
 30
0.0
  9
$EXTMAX
 10
130.3454189999999
 20
743.313803
 30
0.3
  9
$LIMMIN
 10
0.0
 20
0.0
  9
$LIMMAX
 10
12.0
 20
9.0
  9
$ORTHOMODE
 70
     0
  9
$REGENMODE
 70
     1
  9
$FILLMODE
 70
     1
  9
$QTEXTMODE
 70
     0
  9
$MIRRTEXT
 70
     1
  9
$DRAGMODE
 70
     2
  9
$LTSCALE
 40
1.0
  9
$OSMODE
 70
    37
  9
$ATTMODE
 70
     1
  9
$TEXTSIZE
 40
0.2
  9
$TRACEWID
 40
0.05
  9
$TEXTSTYLE
  7
STANDARD
  9
$CLAYER
  8
SURVBND
  9
$CELTYPE
  6
BYLAYER
  9
$CECOLOR
 62
   256
  9
$CELTSCALE
 40
1.0
  9
$DELOBJ
 70
     1
  9
$DISPSILH
 70
     0
  9
$DIMSCALE
 40
1.0
  9
$DIMASZ
 40
0.18
  9
$DIMEXO
 40
0.0625
  9
$DIMDLI
 40
0.38
  9
$DIMRND
 40
0.0
  9
$DIMDLE
 40
0.0
  9
$DIMEXE
 40
0.18
  9
$DIMTP
 40
0.0
  9
$DIMTM
 40
0.0
  9
$DIMTXT
 40
0.18
  9
$DIMCEN
 40
0.09
  9
$DIMTSZ
 40
0.0
  9
$DIMTOL
 70
     0
  9
$DIMLIM
 70
     0
  9
$DIMTIH
 70
     1
  9
$DIMTOH
 70
     1
  9
$DIMSE1
 70
     0
  9
$DIMSE2
 70
     0
  9
$DIMTAD
 70
     0
  9
$DIMZIN
 70
     0
  9
$DIMBLK
  1

  9
$DIMASO
 70
     1
  9
$DIMSHO
 70
     0
  9
$DIMPOST
  1

  9
$DIMAPOST
  1

  9
$DIMALT
 70
     0
  9
$DIMALTD
 70
     2
  9
$DIMALTF
 40
25.4
  9
$DIMLFAC
 40
1.0
  9
$DIMTOFL
 70
     0
  9
$DIMTVP
 40
0.0
  9
$DIMTIX
 70
     0
  9
$DIMSOXD
 70
     0
  9
$DIMSAH
 70
     0
  9
$DIMBLK1
  1

  9
$DIMBLK2
  1

  9
$DIMSTYLE
  2
STANDARD
  9
$DIMCLRD
 70
     0
  9
$DIMCLRE
 70
     0
  9
$DIMCLRT
 70
     0
  9
$DIMTFAC
 40
1.0
  9
$DIMGAP
 40
0.09
  9
$DIMJUST
 70
     0
  9
$DIMSD1
 70
     0
  9
$DIMSD2
 70
     0
  9
$DIMTOLJ
 70
     1
  9
$DIMTZIN
 70
     0
  9
$DIMALTZ
 70
     0
  9
$DIMALTTZ
 70
     0
  9
$DIMFIT
 70
     5
  9
$DIMUPT
 70
     0
  9
$DIMUNIT
 70
     2
  9
$DIMDEC
 70
     4
  9
$DIMTDEC
 70
     4
  9
$DIMALTU
 70
     2
  9
$DIMALTTD
 70
     2
  9
$DIMTXSTY
  7
STANDARD
  9
$DIMAUNIT
 70
     0
  9
$LUNITS
 70
     2
  9
$LUPREC
 70
     4
  9
$SKETCHINC
 40
0.1
  9
$FILLETRAD
 40
0.0
  9
$AUNITS
 70
     0
  9
$AUPREC
 70
     0
  9
$MENU
  1
acad
  9
$ELEVATION
 40
0.0
  9
$PELEVATION
 40
0.0
  9
$THICKNESS
 40
0.0
  9
$LIMCHECK
 70
     0
  9
$BLIPMODE
 70
     0
  9
$CHAMFERA
 40
0.0
  9
$CHAMFERB
 40
0.0
  9
$CHAMFERC
 40
0.0
  9
$CHAMFERD
 40
0.0
  9
$SKPOLY
 70
     0
  9
$TDCREATE
 40
2448253.678741088
  9
$TDUPDATE
 40
2452043.549116898
  9
$TDINDWG
 40
0.1224766088
  9
$TDUSRTIMER
 40
0.1224766088
  9
$USRTIMER
 70
     1
  9
$ANGBASE
 50
0.0
  9
$ANGDIR
 70
     0
  9
$PDMODE
 70
     0
  9
$PDSIZE
 40
0.0
  9
$PLINEWID
 40
0.0
  9
$COORDS
 70
     1
  9
$SPLFRAME
 70
     0
  9
$SPLINETYPE
 70
     6
  9
$SPLINESEGS
 70
     8
  9
$ATTDIA
 70
     0
  9
$ATTREQ
 70
     1
  9
$HANDLING
 70
  4097
  9
$HANDSEED
  5
59C
  9
$SURFTAB1
 70
     6
  9
$SURFTAB2
 70
     6
  9
$SURFTYPE
 70
     6
  9
$SURFU
 70
     6
  9
$SURFV
 70
     6
  9
$UCSNAME
  2

  9
$UCSORG
 10
0.0
 20
0.0
 30
0.0
  9
$UCSXDIR
 10
1.0
 20
0.0
 30
0.0
  9
$UCSYDIR
 10
0.0
 20
1.0
 30
0.0
  9
$PUCSNAME
  2

  9
$PUCSORG
 10
0.0
 20
0.0
 30
0.0
  9
$PUCSXDIR
 10
1.0
 20
0.0
 30
0.0
  9
$PUCSYDIR
 10
0.0
 20
1.0
 30
0.0
  9
$USERI1
 70
     0
  9
$USERI2
 70
     0
  9
$USERI3
 70
     0
  9
$USERI4
 70
     0
  9
$USERI5
 70
     0
  9
$USERR1
 40
0.0
  9
$USERR2
 40
0.0
  9
$USERR3
 40
0.0
  9
$USERR4
 40
0.0
  9
$USERR5
 40
0.0
  9
$WORLDVIEW
 70
     1
  9
$SHADEDGE
 70
     3
  9
$SHADEDIF
 70
    70
  9
$TILEMODE
 70
     1
  9
$MAXACTVP
 70
    48
  9
$PINSBASE
 10
0.0
 20
0.0
 30
0.0
  9
$PLIMCHECK
 70
     0
  9
$PEXTMIN
 10
1.000000000000000E+20
 20
1.000000000000000E+20
 30
1.000000000000000E+20
  9
$PEXTMAX
 10
-1.000000000000000E+20
 20
-1.000000000000000E+20
 30
-1.000000000000000E+20
  9
$PLIMMIN
 10
0.0
 20
0.0
  9
$PLIMMAX
 10
12.0
 20
9.0
  9
$UNITMODE
 70
     0
  9
$VISRETAIN
 70
     0
  9
$PLINEGEN
 70
     0
  9
$PSLTSCALE
 70
     0
  9
$TREEDEPTH
 70
  3020
  9
$PICKSTYLE
 70
     1
  9
$CMLSTYLE
  2
STANDARD
  9
$CMLJUST
 70
     0
  9
$CMLSCALE
 40
1.0
  9
$SAVEIMAGES
 70
     1
  0
ENDSEC
  0
SECTION
  2
CLASSES
  0
CLASS
  1
DICTIONARYVAR
  2
AcDbDictionaryVar
  3
AutoCAD 2000
 90
    32768
280
     0
281
     0
  0
CLASS
  1
LWPOLYLINE
  2
AcDbPolyline
  3
AutoCAD 2000
 90
    32768
280
     0
281
     1
  0
CLASS
  1
XRECORD
  2
AcDbXrecord
  3
AutoCAD 2000
 90
    32768
280
     0
281
     0
  0
CLASS
  1
ACDBDICTIONARYWDFLT
  2
AcDbDictionaryWithDefault
  3
AutoCAD 2000
 90
    32768
280
     0
281
     0
  0
CLASS
  1
ACDBPLACEHOLDER
  2
AcDbPlaceHolder
  3
AutoCAD 2000
 90
    32768
280
     0
281
     0
  0
CLASS
  1
LAYOUT
  2
AcDbLayout
  3
AutoCAD 2000
 90
    32768
280
     0
281
     0
  0
CLASS
  1
LONG_TRANSACTION
  2
AcDbLongTransaction
  3
AutoCAD 2000
 90
    32768
280
     0
281
     0
  0
CLASS
  1
LWPOLYLINE
  2
AcDbPolyline
  3
AutoCAD 2000
 90
    32768
280
     0
281
     1
  0
CLASS
  1
HATCH
  2
AcDbHatch
  3
AutoCAD 2000
 90
    32768
280
     0
281
     1
  0
CLASS
  1
XRECORD
  2
AcDbXrecord
  3
AutoCAD 2000
 90
    32768
280
     0
281
     0
  0
ENDSEC
  0
SECTION
  2
TABLES
  0
TABLE
  2
VPORT
  5
19
330
0
100
AcDbSymbolTable
 70
     1
  0
VPORT
  5
1A
330
19
100
AcDbSymbolTableRecord
100
AcDbViewportTableRecord
  2
*ACTIVE
 70
     0
 10
0.0
 20
0.0
 11
1.0
 21
1.0
 12
115.3953982103851
 22
733.2067317664193
 13
0.0
 23
0.0
 14
1.0
 24
1.0
 15
0.0
 25
0.0
 16
0.0
 26
0.0
 36
1.0
 17
0.0
 27
0.0
 37
0.0
 40
20.47151570740925
 41
1.74074074074074
 42
50.0
 43
0.0
 44
0.0
 50
0.0
 51
0.0
 71
     0
 72
   100
 73
     1
 74
     0
 75
     0
 76
     0
 77
     0
 78
     0
  0
ENDTAB
  0
TABLE
  2
LTYPE
  5
14
330
0
100
AcDbSymbolTable
 70
     1
  0
LTYPE
  5
15
330
14
100
AcDbSymbolTableRecord
100
AcDbLinetypeTableRecord
  2
BYBLOCK
 70
     0
  3

 72
    65
 73
     0
 40
0.0
  0
LTYPE
  5
16
330
14
100
AcDbSymbolTableRecord
100
AcDbLinetypeTableRecord
  2
BYLAYER
 70
     0
  3

 72
    65
 73
     0
 40
0.0
  0
LTYPE
  5
8
330
14
100
AcDbSymbolTableRecord
100
AcDbLinetypeTableRecord
  2
CONTINUOUS
 70
     0
  3
Solid line
 72
    65
 73
     0
 40
0.0
  0
ENDTAB
  0
TABLE
  2
LAYER
  5
10
330
0
100
AcDbSymbolTable
 70
     3
  0
LAYER
  5
4
330
10
100
AcDbSymbolTableRecord
100
AcDbLayerTableRecord
  2
0
 70
     0
 62
     7
  6
CONTINUOUS
  0
LAYER
  5
29
330
10
100
AcDbSymbolTableRecord
100
AcDbLayerTableRecord
  2
SITES
 70
     0
 62
     4
  6
CONTINUOUS
  0
LAYER
  5
22
330
10
100
AcDbSymbolTableRecord
100
AcDbLayerTableRecord
  2
SURVBND
 70
     0
 62
     1
  6
CONTINUOUS
  0
ENDTAB
  0
TABLE
  2
STYLE
  5
11
330
0
100
AcDbSymbolTable
 70
     1
  0
STYLE
  5
12
330
11
100
AcDbSymbolTableRecord
100
AcDbTextStyleTableRecord
  2
STANDARD
 70
     0
 40
0.0
 41
1.0
 50
0.0
 71
     0
 42
0.2
  3
txt
  4

  0
ENDTAB
  0
TABLE
  2
VIEW
  5
17
330
0
100
AcDbSymbolTable
 70
     0
  0
ENDTAB
  0
TABLE
  2
UCS
  5
18
330
0
100
AcDbSymbolTable
 70
     0
  0
ENDTAB
  0
TABLE
  2
APPID
  5
1B
330
0
100
AcDbSymbolTable
 70
     1
  0
APPID
  5
1C
330
1B
100
AcDbSymbolTableRecord
100
AcDbRegAppTableRecord
  2
ACAD
 70
     0
  0
ENDTAB
  0
TABLE
  2
DIMSTYLE
  5
1D
330
0
100
AcDbSymbolTable
 70
     1
  0
DIMSTYLE
105
24
330
1D
100
AcDbSymbolTableRecord
100
AcDbDimStyleTableRecord
  2
STANDARD
 70
     0
  3

  4

  5

  6

  7

 40
1.0
 41
0.18
 42
0.0625
 43
0.38
 44
0.18
 45
0.0
 46
0.0
 47
0.0
 48
0.0
140
0.18
141
0.09
142
0.0
143
25.4
144
1.0
145
0.0
146
1.0
147
0.09
 71
     0
 72
     0
 73
     1
 74
     1
 75
     0
 76
     0
 77
     0
 78
     0
170
     0
171
     2
172
     0
173
     0
174
     0
175
     0
176
     0
177
     0
178
     0
270
     2
271
     4
272
     4
273
     2
274
     2
340
12
275
     0
280
     0
281
     0
282
     0
283
     1
284
     0
285
     0
286
     0
287
     3
288
     0
  0
ENDTAB
  0
TABLE
  2
BLOCK_RECORD
  5
1
330
0
100
AcDbSymbolTable
 70
     0
  0
BLOCK_RECORD
  5
2
102
{ACAD_XDICTIONARY
360
63
102
}
330
1
100
AcDbSymbolTableRecord
100
AcDbBlockTableRecord
  2
*MODEL_SPACE
  0
BLOCK_RECORD
  5
C
102
{ACAD_XDICTIONARY
360
65
102
}
330
1
100
AcDbSymbolTableRecord
100
AcDbBlockTableRecord
  2
*PAPER_SPACE
  0
ENDTAB
  0
ENDSEC
  0
SECTION
  2
BLOCKS
  0
BLOCK
  5
3
330
2
100
AcDbEntity
  8
0
100
AcDbBlockBegin
  2
*MODEL_SPACE
 70
     0
 10
0.0
 20
0.0
 30
0.0
  3
*MODEL_SPACE
  1

  0
ENDBLK
  5
9
330
2
100
AcDbEntity
  8
0
100
AcDbBlockEnd
  0
BLOCK
  5
D
330
C
100
AcDbEntity
 67
     1
  8
0
100
AcDbBlockBegin
  2
*PAPER_SPACE
 70
     0
 10
0.0
 20
0.0
 30
0.0
  3
*PAPER_SPACE
  1

  0
ENDBLK
  5
E
330
C
100
AcDbEntity
 67
     1
  8
0
100
AcDbBlockEnd
  0
ENDSEC
  0
SECTION
  2
ENTITIES
  0
POLYLINE
  5
25
330
2
100
AcDbEntity
  8
SURVBND
100
AcDb2dPolyline
 66
     1
 10
0.0
 20
0.0
 30
0.0
  0
VERTEX
  5
67
330
25
100
AcDbEntity
  8
SURVBND
100
AcDbVertex
100
AcDb2dVertex
 10
111.9860399999999
 20
731.031829
 30
0.0
  0
VERTEX
  5
68
330
25
100
AcDbEntity
  8
SURVBND
100
AcDbVertex
100
AcDb2dVertex
 10
111.9780949999999
 20
731.0409959999999
 30
0.0
  0
VERTEX
  5
69
330
25
100
AcDbEntity
  8
SURVBND
100
AcDbVertex
100
AcDb2dVertex
 10
111.854052
 20
731.1107019999999
 30
0.0
  0
VERTEX
  5
6A
330
25
100
AcDbEntity
  8
SURVBND
100
AcDbVertex
100
AcDb2dVertex
 10
111.7545139999999
 20
731.1245759999999
 30
0.0
  0
VERTEX
  5
6B
330
25
100
AcDbEntity
  8
SURVBND
100
AcDbVertex
100
AcDb2dVertex
 10
111.6364549999999
 20
731.143536
 30
0.0
  0
VERTEX
  5
6C
330
25
100
AcDbEntity
  8
SURVBND
100
AcDbVertex
100
AcDb2dVertex
 10
111.4537699999999
 20
731.136687
 30
0.0
  0
VERTEX
  5
6D
330
25
100
AcDbEntity
  8
SURVBND
100
AcDbVertex
100
AcDb2dVertex
 10
111.3264959999999
 20
731.1779809999999
 30
0.0
  0
VERTEX
  5
6E
330
25
100
AcDbEntity
  8
SURVBND
100
AcDbVertex
100
AcDb2dVertex
 10
111.1783579999999
 20
731.2078650000001
 30
0.0
  0
VERTEX
  5
6F
330
25
100
AcDbEntity
  8
SURVBND
100
AcDbVertex
100
AcDb2dVertex
 10
111.056945
 20
731.249907
 30
0.0
  0
VERTEX
  5
70
330
25
100
AcDbEntity
  8
SURVBND
100
AcDbVertex
100
AcDb2dVertex
 10
111.063357
 20
731.558516
 30
0.0
  0
VERTEX
  5
71
330
25
100
AcDbEntity
  8
SURVBND
100
AcDbVertex
100
AcDb2dVertex
 10
111.045159
 20
731.659078
 30
0.0
  0
VERTEX
  5
72
330
25
100
AcDbEntity
  8
SURVBND
100
AcDbVertex
100
AcDb2dVertex
 10
111.1013139999999
 20
731.779241
 30
0.0
  0
VERTEX
  5
73
330
25
100
AcDbEntity
  8
SURVBND
100
AcDbVertex
100
AcDb2dVertex
 10
111.068217
 20
731.8111349999999
 30
0.0
  0
VERTEX
  5
74
330
25
100
AcDbEntity
  8
SURVBND
100
AcDbVertex
100
AcDb2dVertex
 10
111.0126979999999
 20
731.796413
 30
0.0
  0
VERTEX
  5
75
330
25
100
AcDbEntity
  8
SURVBND
100
AcDbVertex
100
AcDb2dVertex
 10
110.9060649999999
 20
731.7482469999999
 30
0.0
  0
VERTEX
  5
76
330
25
100
AcDbEntity
  8
SURVBND
100
AcDbVertex
100
AcDb2dVertex
 10
110.809921
 20
731.677965
 30
0.0
  0
VERTEX
  5
77
330
25
100
AcDbEntity
  8
SURVBND
100
AcDbVertex
100
AcDb2dVertex
 10
110.758328
 20
731.536654
 30
0.0
  0
VERTEX
  5
78
330
25
100
AcDbEntity
  8
SURVBND
100
AcDbVertex
100
AcDb2dVertex
 10
110.6834499999999
 20
731.464041
 30
0.0
  0
VERTEX
  5
79
330
25
100
AcDbEntity
  8
SURVBND
100
AcDbVertex
100
AcDb2dVertex
 10
110.5598199999999
 20
731.566102
 30
0.0
  0
VERTEX
  5
7A
330
25
100
AcDbEntity
  8
SURVBND
100
AcDbVertex
100
AcDb2dVertex
 10
110.4517899999999
 20
731.6183399999999
 30
0.0
  0
VERTEX
  5
7B
330
25
100
AcDbEntity
  8
SURVBND
100
AcDbVertex
100
AcDb2dVertex
 10
110.247201
 20
731.6028509999999
 30
0.0
  0
VERTEX
  5
7C
330
25
100
AcDbEntity
  8
SURVBND
100
AcDbVertex
100
AcDb2dVertex
 10
110.056009
 20
731.5568879999999
 30
0.0
  0
VERTEX
  5
7D
330
25
100
AcDbEntity
  8
SURVBND
100
AcDbVertex
100
AcDb2dVertex
 10
110.1775879999999
 20
731.82505
 30
0.0
  0
VERTEX
  5
7E
330
25
100
AcDbEntity
  8
SURVBND
100
AcDbVertex
100
AcDb2dVertex
 10
110.3268629999999
 20
732.023319
 30
0.0
  0
VERTEX
  5
7F
330
25
100
AcDbEntity
  8
SURVBND
100
AcDbVertex
100
AcDb2dVertex
 10
110.506104
 20
732.157408
 30
0.0
  0
VERTEX
  5
80
330
25
100
AcDbEntity
  8
SURVBND
100
AcDbVertex
100
AcDb2dVertex
 10
110.486234
 20
732.257638
 30
0.0
  0
VERTEX
  5
81
330
25
100
AcDbEntity
  8
SURVBND
100
AcDbVertex
100
AcDb2dVertex
 10
110.368747
 20
732.3353049999999
 30
0.0
  0
VERTEX
  5
82
330
25
100
AcDbEntity
  8
SURVBND
100
AcDbVertex
100
AcDb2dVertex
 10
110.4951379999999
 20
732.496726
 30
0.0
  0
VERTEX
  5
83
330
25
100
AcDbEntity
  8
SURVBND
100
AcDbVertex
100
AcDb2dVertex
 10
110.635071
 20
732.6390169999999
 30
0.0
  0
VERTEX
  5
84
330
25
100
AcDbEntity
  8
SURVBND
100
AcDbVertex
100
AcDb2dVertex
 10
110.703415
 20
732.784495
 30
0.0
  0
VERTEX
  5
85
330
25
100
AcDbEntity
  8
SURVBND
100
AcDbVertex
100
AcDb2dVertex
 10
110.645424
 20
733.001615
 30
0.0
  0
VERTEX
  5
86
330
25
100
AcDbEntity
  8
SURVBND
100
AcDbVertex
100
AcDb2dVertex
 10
110.4896729999999
 20
733.241353
 30
0.0
  0
VERTEX
  5
87
330
25
100
AcDbEntity
  8
SURVBND
100
AcDbVertex
100
AcDb2dVertex
 10
110.357336
 20
733.386784
 30
0.0
  0
VERTEX
  5
88
330
25
100
AcDbEntity
  8
SURVBND
100
AcDbVertex
100
AcDb2dVertex
 10
110.373047
 20
733.038595
 30
0.0
  0
VERTEX
  5
89
330
25
100
AcDbEntity
  8
SURVBND
100
AcDbVertex
100
AcDb2dVertex
 10
110.2975249999999
 20
732.8765139999999
 30
0.0
  0
VERTEX
  5
8A
330
25
100
AcDbEntity
  8
SURVBND
100
AcDbVertex
100
AcDb2dVertex
 10
110.298519
 20
732.721403
 30
0.0
  0
VERTEX
  5
8B
330
25
100
AcDbEntity
  8
SURVBND
100
AcDbVertex
100
AcDb2dVertex
 10
110.112201
 20
732.5277219999999
 30
0.0
  0
VERTEX
  5
8C
330
25
100
AcDbEntity
  8
SURVBND
100
AcDbVertex
100
AcDb2dVertex
 10
109.9593129999999
 20
732.449755
 30
0.0
  0
VERTEX
  5
8D
330
25
100
AcDbEntity
  8
SURVBND
100
AcDbVertex
100
AcDb2dVertex
 10
109.853575
 20
732.317639
 30
0.0
  0
VERTEX
  5
8E
330
25
100
AcDbEntity
  8
SURVBND
100
AcDbVertex
100
AcDb2dVertex
 10
109.741906
 20
732.198945
 30
0.0
  0
VERTEX
  5
8F
330
25
100
AcDbEntity
  8
SURVBND
100
AcDbVertex
100
AcDb2dVertex
 10
109.605928
 20
732.0413629999999
 30
0.0
  0
VERTEX
  5
90
330
25
100
AcDbEntity
  8
SURVBND
100
AcDbVertex
100
AcDb2dVertex
 10
109.474052
 20
731.9458759999999
 30
0.0
  0
VERTEX
  5
91
330
25
100
AcDbEntity
  8
SURVBND
100
AcDbVertex
100
AcDb2dVertex
 10
109.3733139999999
 20
732.056064
 30
0.0
  0
VERTEX
  5
92
330
25
100
AcDbEntity
  8
SURVBND
100
AcDbVertex
100
AcDb2dVertex
 10
109.3509309999999
 20
732.3143019999999
 30
0.0
  0
VERTEX
  5
93
330
25
100
AcDbEntity
  8
SURVBND
100
AcDbVertex
100
AcDb2dVertex
 10
109.26916
 20
732.465286
 30
0.0
  0
VERTEX
  5
94
330
25
100
AcDbEntity
  8
SURVBND
100
AcDbVertex
100
AcDb2dVertex
 10
109.182904
 20
732.621123
 30
0.0
  0
VERTEX
  5
95
330
25
100
AcDbEntity
  8
SURVBND
100
AcDbVertex
100
AcDb2dVertex
 10
109.059159
 20
732.5969559999999
 30
0.0
  0
VERTEX
  5
96
330
25
100
AcDbEntity
  8
SURVBND
100
AcDbVertex
100
AcDb2dVertex
 10
108.9773389999999
 20
732.4294469999999
 30
0.0
  0
VERTEX
  5
97
330
25
100
AcDbEntity
  8
SURVBND
100
AcDbVertex
100
AcDb2dVertex
 10
108.935409
 20
732.336983
 30
0.0
  0
VERTEX
  5
98
330
25
100
AcDbEntity
  8
SURVBND
100
AcDbVertex
100
AcDb2dVertex
 10
108.831771
 20
732.370282
 30
0.0
  0
VERTEX
  5
99
330
25
100
AcDbEntity
  8
SURVBND
100
AcDbVertex
100
AcDb2dVertex
 10
108.7417939999999
 20
732.453787
 30
0.0
  0
VERTEX
  5
9A
330
25
100
AcDbEntity
  8
SURVBND
100
AcDbVertex
100
AcDb2dVertex
 10
108.650877
 20
732.4820269999999
 30
0.0
  0
VERTEX
  5
9B
330
25
100
AcDbEntity
  8
SURVBND
100
AcDbVertex
100
AcDb2dVertex
 10
108.578557
 20
732.881622
 30
0.0
  0
VERTEX
  5
9C
330
25
100
AcDbEntity
  8
SURVBND
100
AcDbVertex
100
AcDb2dVertex
 10
108.4160049999999
 20
732.9059120000001
 30
0.0
  0
VERTEX
  5
9D
330
25
100
AcDbEntity
  8
SURVBND
100
AcDbVertex
100
AcDb2dVertex
 10
108.257008
 20
732.7844719999999
 30
0.0
  0
VERTEX
  5
9E
330
25
100
AcDbEntity
  8
SURVBND
100
AcDbVertex
100
AcDb2dVertex
 10
108.0551819999999
 20
732.6830559999999
 30
0.0
  0
VERTEX
  5
9F
330
25
100
AcDbEntity
  8
SURVBND
100
AcDbVertex
100
AcDb2dVertex
 10
107.9079459999999
 20
732.653311
 30
0.0
  0
VERTEX
  5
A0
330
25
100
AcDbEntity
  8
SURVBND
100
AcDbVertex
100
AcDb2dVertex
 10
107.73668
 20
732.626942
 30
0.0
  0
VERTEX
  5
A1
330
25
100
AcDbEntity
  8
SURVBND
100
AcDbVertex
100
AcDb2dVertex
 10
107.605642
 20
732.714774
 30
0.0
  0
VERTEX
  5
A2
330
25
100
AcDbEntity
  8
SURVBND
100
AcDbVertex
100
AcDb2dVertex
 10
107.533491
 20
732.6937629999999
 30
0.0
  0
VERTEX
  5
A3
330
25
100
AcDbEntity
  8
SURVBND
100
AcDbVertex
100
AcDb2dVertex
 10
107.3662059999999
 20
732.277773
 30
0.0
  0
VERTEX
  5
A4
330
25
100
AcDbEntity
  8
SURVBND
100
AcDbVertex
100
AcDb2dVertex
 10
107.213146
 20
732.1217889999999
 30
0.0
  0
VERTEX
  5
A5
330
25
100
AcDbEntity
  8
SURVBND
100
AcDbVertex
100
AcDb2dVertex
 10
107.228083
 20
731.86438
 30
0.0
  0
VERTEX
  5
A6
330
25
100
AcDbEntity
  8
SURVBND
100
AcDbVertex
100
AcDb2dVertex
 10
107.001685
 20
731.832209
 30
0.0
  0
VERTEX
  5
A7
330
25
100
AcDbEntity
  8
SURVBND
100
AcDbVertex
100
AcDb2dVertex
 10
106.818458
 20
732.0375289999999
 30
0.0
  0
VERTEX
  5
A8
330
25
100
AcDbEntity
  8
SURVBND
100
AcDbVertex
100
AcDb2dVertex
 10
106.6673879999999
 20
732.084821
 30
0.0
  0
VERTEX
  5
A9
330
25
100
AcDbEntity
  8
SURVBND
100
AcDbVertex
100
AcDb2dVertex
 10
106.5522
 20
732.0238559999999
 30
0.0
  0
VERTEX
  5
AA
330
25
100
AcDbEntity
  8
SURVBND
100
AcDbVertex
100
AcDb2dVertex
 10
106.515837
 20
731.853283
 30
0.0
  0
VERTEX
  5
AB
330
25
100
AcDbEntity
  8
SURVBND
100
AcDbVertex
100
AcDb2dVertex
 10
106.393985
 20
731.8026179999999
 30
0.0
  0
VERTEX
  5
AC
330
25
100
AcDbEntity
  8
SURVBND
100
AcDbVertex
100
AcDb2dVertex
 10
106.2476619999999
 20
731.80164
 30
0.0
  0
VERTEX
  5
AD
330
25
100
AcDbEntity
  8
SURVBND
100
AcDbVertex
100
AcDb2dVertex
 10
106.112443
 20
731.911453
 30
0.0
  0
VERTEX
  5
AE
330
25
100
AcDbEntity
  8
SURVBND
100
AcDbVertex
100
AcDb2dVertex
 10
105.9346399999999
 20
732.0259329999999
 30
0.0
  0
VERTEX
  5
AF
330
25
100
AcDbEntity
  8
SURVBND
100
AcDbVertex
100
AcDb2dVertex
 10
105.7721879999999
 20
731.994501
 30
0.0
  0
VERTEX
  5
B0
330
25
100
AcDbEntity
  8
SURVBND
100
AcDbVertex
100
AcDb2dVertex
 10
105.616734
 20
731.9649319999999
 30
0.0
  0
VERTEX
  5
B1
330
25
100
AcDbEntity
  8
SURVBND
100
AcDbVertex
100
AcDb2dVertex
 10
105.5358879999999
 20
731.818188
 30
0.0
  0
VERTEX
  5
B2
330
25
100
AcDbEntity
  8
SURVBND
100
AcDbVertex
100
AcDb2dVertex
 10
105.467119
 20
731.7055619999999
 30
0.0
  0
VERTEX
  5
B3
330
25
100
AcDbEntity
  8
SURVBND
100
AcDbVertex
100
AcDb2dVertex
 10
105.472819
 20
731.578797
 30
0.0
  0
VERTEX
  5
B4
330
25
100
AcDbEntity
  8
SURVBND
100
AcDbVertex
100
AcDb2dVertex
 10
105.3156129999999
 20
731.4543139999999
 30
0.0
  0
VERTEX
  5
B5
330
25
100
AcDbEntity
  8
SURVBND
100
AcDbVertex
100
AcDb2dVertex
 10
105.166256
 20
731.3558379999999
 30
0.0
  0
VERTEX
  5
B6
330
25
100
AcDbEntity
  8
SURVBND
100
AcDbVertex
100
AcDb2dVertex
 10
105.034019
 20
731.2631969999999
 30
0.0
  0
VERTEX
  5
B7
330
25
100
AcDbEntity
  8
SURVBND
100
AcDbVertex
100
AcDb2dVertex
 10
104.939325
 20
731.074674
 30
0.0
  0
VERTEX
  5
B8
330
25
100
AcDbEntity
  8
SURVBND
100
AcDbVertex
100
AcDb2dVertex
 10
104.844142
 20
731.014378
 30
0.0
  0
VERTEX
  5
B9
330
25
100
AcDbEntity
  8
SURVBND
100
AcDbVertex
100
AcDb2dVertex
 10
104.740018
 20
731.0931169999999
 30
0.0
  0
VERTEX
  5
BA
330
25
100
AcDbEntity
  8
SURVBND
100
AcDbVertex
100
AcDb2dVertex
 10
104.588652
 20
731.1875259999999
 30
0.0
  0
VERTEX
  5
BB
330
25
100
AcDbEntity
  8
SURVBND
100
AcDbVertex
100
AcDb2dVertex
 10
104.567468
 20
731.3107529999999
 30
0.0
  0
VERTEX
  5
BC
330
25
100
AcDbEntity
  8
SURVBND
100
AcDbVertex
100
AcDb2dVertex
 10
104.660868
 20
731.363458
 30
0.0
  0
VERTEX
  5
BD
330
25
100
AcDbEntity
  8
SURVBND
100
AcDbVertex
100
AcDb2dVertex
 10
104.694159
 20
731.46775
 30
0.0
  0
VERTEX
  5
BE
330
25
100
AcDbEntity
  8
SURVBND
100
AcDbVertex
100
AcDb2dVertex
 10
104.7367619999999
 20
731.563253
 30
0.0
  0
VERTEX
  5
BF
330
25
100
AcDbEntity
  8
SURVBND
100
AcDbVertex
100
AcDb2dVertex
 10
104.8503729999999
 20
731.585464
 30
0.0
  0
VERTEX
  5
C0
330
25
100
AcDbEntity
  8
SURVBND
100
AcDbVertex
100
AcDb2dVertex
 10
104.966286
 20
731.728145
 30
0.0
  0
VERTEX
  5
C1
330
25
100
AcDbEntity
  8
SURVBND
100
AcDbVertex
100
AcDb2dVertex
 10
105.004896
 20
731.815116
 30
0.0
  0
VERTEX
  5
C2
330
25
100
AcDbEntity
  8
SURVBND
100
AcDbVertex
100
AcDb2dVertex
 10
105.001933
 20
732.011655
 30
0.0
  0
VERTEX
  5
C3
330
25
100
AcDbEntity
  8
SURVBND
100
AcDbVertex
100
AcDb2dVertex
 10
104.940972
 20
732.185163
 30
0.0
  0
VERTEX
  5
C4
330
25
100
AcDbEntity
  8
SURVBND
100
AcDbVertex
100
AcDb2dVertex
 10
104.9732629999999
 20
732.3419119999999
 30
0.0
  0
VERTEX
  5
C5
330
25
100
AcDbEntity
  8
SURVBND
100
AcDbVertex
100
AcDb2dVertex
 10
105.006784
 20
732.4626649999999
 30
0.0
  0
VERTEX
  5
C6
330
25
100
AcDbEntity
  8
SURVBND
100
AcDbVertex
100
AcDb2dVertex
 10
104.994809
 20
732.645325
 30
0.0
  0
VERTEX
  5
C7
330
25
100
AcDbEntity
  8
SURVBND
100
AcDbVertex
100
AcDb2dVertex
 10
105.286151
 20
732.82387
 30
0.0
  0
VERTEX
  5
C8
330
25
100
AcDbEntity
  8
SURVBND
100
AcDbVertex
100
AcDb2dVertex
 10
105.326581
 20
733.025542
 30
0.0
  0
VERTEX
  5
C9
330
25
100
AcDbEntity
  8
SURVBND
100
AcDbVertex
100
AcDb2dVertex
 10
105.4241509999999
 20
732.922986
 30
0.0
  0
VERTEX
  5
CA
330
25
100
AcDbEntity
  8
SURVBND
100
AcDbVertex
100
AcDb2dVertex
 10
105.5998149999999
 20
732.950716
 30
0.0
  0
VERTEX
  5
CB
330
25
100
AcDbEntity
  8
SURVBND
100
AcDbVertex
100
AcDb2dVertex
 10
105.684431
 20
733.053024
 30
0.0
  0
VERTEX
  5
CC
330
25
100
AcDbEntity
  8
SURVBND
100
AcDbVertex
100
AcDb2dVertex
 10
105.6932259999999
 20
733.2070940000001
 30
0.0
  0
VERTEX
  5
CD
330
25
100
AcDbEntity
  8
SURVBND
100
AcDbVertex
100
AcDb2dVertex
 10
105.7817929999999
 20
733.3295309999999
 30
0.0
  0
VERTEX
  5
CE
330
25
100
AcDbEntity
  8
SURVBND
100
AcDbVertex
100
AcDb2dVertex
 10
106.0248649999999
 20
733.4161579999999
 30
0.0
  0
VERTEX
  5
CF
330
25
100
AcDbEntity
  8
SURVBND
100
AcDbVertex
100
AcDb2dVertex
 10
106.2939689999999
 20
733.4416110000001
 30
0.0
  0
VERTEX
  5
D0
330
25
100
AcDbEntity
  8
SURVBND
100
AcDbVertex
100
AcDb2dVertex
 10
106.472631
 20
733.370322
 30
0.0
  0
VERTEX
  5
D1
330
25
100
AcDbEntity
  8
SURVBND
100
AcDbVertex
100
AcDb2dVertex
 10
106.542018
 20
733.463274
 30
0.0
  0
VERTEX
  5
D2
330
25
100
AcDbEntity
  8
SURVBND
100
AcDbVertex
100
AcDb2dVertex
 10
106.5342549999999
 20
733.6903169999999
 30
0.0
  0
VERTEX
  5
D3
330
25
100
AcDbEntity
  8
SURVBND
100
AcDbVertex
100
AcDb2dVertex
 10
106.5676279999999
 20
733.862965
 30
0.0
  0
VERTEX
  5
D4
330
25
100
AcDbEntity
  8
SURVBND
100
AcDbVertex
100
AcDb2dVertex
 10
106.726988
 20
733.9283759999999
 30
0.0
  0
VERTEX
  5
D5
330
25
100
AcDbEntity
  8
SURVBND
100
AcDbVertex
100
AcDb2dVertex
 10
106.73203
 20
734.045594
 30
0.0
  0
VERTEX
  5
D6
330
25
100
AcDbEntity
  8
SURVBND
100
AcDbVertex
100
AcDb2dVertex
 10
106.72055
 20
734.1778759999999
 30
0.0
  0
VERTEX
  5
D7
330
25
100
AcDbEntity
  8
SURVBND
100
AcDbVertex
100
AcDb2dVertex
 10
106.561212
 20
734.199971
 30
0.0
  0
VERTEX
  5
D8
330
25
100
AcDbEntity
  8
SURVBND
100
AcDbVertex
100
AcDb2dVertex
 10
106.291917
 20
734.2633059999999
 30
0.0
  0
VERTEX
  5
D9
330
25
100
AcDbEntity
  8
SURVBND
100
AcDbVertex
100
AcDb2dVertex
 10
106.035604
 20
734.329694
 30
0.0
  0
VERTEX
  5
DA
330
25
100
AcDbEntity
  8
SURVBND
100
AcDbVertex
100
AcDb2dVertex
 10
105.827621
 20
734.4451679999999
 30
0.0
  0
VERTEX
  5
DB
330
25
100
AcDbEntity
  8
SURVBND
100
AcDbVertex
100
AcDb2dVertex
 10
105.753925
 20
734.605075
 30
0.0
  0
VERTEX
  5
DC
330
25
100
AcDbEntity
  8
SURVBND
100
AcDbVertex
100
AcDb2dVertex
 10
105.7384909999999
 20
734.797748
 30
0.0
  0
VERTEX
  5
DD
330
25
100
AcDbEntity
  8
SURVBND
100
AcDbVertex
100
AcDb2dVertex
 10
105.636428
 20
734.8957889999999
 30
0.0
  0
VERTEX
  5
DE
330
25
100
AcDbEntity
  8
SURVBND
100
AcDbVertex
100
AcDb2dVertex
 10
105.438929
 20
734.898445
 30
0.0
  0
VERTEX
  5
DF
330
25
100
AcDbEntity
  8
SURVBND
100
AcDbVertex
100
AcDb2dVertex
 10
105.3007299999999
 20
734.9769089999999
 30
0.0
  0
VERTEX
  5
E0
330
25
100
AcDbEntity
  8
SURVBND
100
AcDbVertex
100
AcDb2dVertex
 10
105.30025
 20
734.976183
 30
0.0
  0
VERTEX
  5
E1
330
25
100
AcDbEntity
  8
SURVBND
100
AcDbVertex
100
AcDb2dVertex
 10
105.2729719999999
 20
735.042111
 30
0.0
  0
VERTEX
  5
E2
330
25
100
AcDbEntity
  8
SURVBND
100
AcDbVertex
100
AcDb2dVertex
 10
105.260411
 20
735.179069
 30
0.0
  0
VERTEX
  5
E3
330
25
100
AcDbEntity
  8
SURVBND
100
AcDbVertex
100
AcDb2dVertex
 10
105.298943
 20
735.3541579999999
 30
0.0
  0
VERTEX
  5
E4
330
25
100
AcDbEntity
  8
SURVBND
100
AcDbVertex
100
AcDb2dVertex
 10
105.36953
 20
735.5678849999999
 30
0.0
  0
VERTEX
  5
E5
330
25
100
AcDbEntity
  8
SURVBND
100
AcDbVertex
100
AcDb2dVertex
 10
105.4557919999999
 20
735.814694
 30
0.0
  0
VERTEX
  5
E6
330
25
100
AcDbEntity
  8
SURVBND
100
AcDbVertex
100
AcDb2dVertex
 10
105.5151299999999
 20
735.9959469999999
 30
0.0
  0
VERTEX
  5
E7
330
25
100
AcDbEntity
  8
SURVBND
100
AcDbVertex
100
AcDb2dVertex
 10
105.573109
 20
736.167391
 30
0.0
  0
VERTEX
  5
E8
330
25
100
AcDbEntity
  8
SURVBND
100
AcDbVertex
100
AcDb2dVertex
 10
105.532572
 20
736.310478
 30
0.0
  0
VERTEX
  5
E9
330
25
100
AcDbEntity
  8
SURVBND
100
AcDbVertex
100
AcDb2dVertex
 10
105.3710959999999
 20
736.399806
 30
0.0
  0
VERTEX
  5
EA
330
25
100
AcDbEntity
  8
SURVBND
100
AcDbVertex
100
AcDb2dVertex
 10
105.206471
 20
736.428857
 30
0.0
  0
VERTEX
  5
EB
330
25
100
AcDbEntity
  8
SURVBND
100
AcDbVertex
100
AcDb2dVertex
 10
105.069706
 20
736.4460479999999
 30
0.0
  0
VERTEX
  5
EC
330
25
100
AcDbEntity
  8
SURVBND
100
AcDbVertex
100
AcDb2dVertex
 10
105.0399399999999
 20
736.448824
 30
0.0
  0
VERTEX
  5
ED
330
25
100
AcDbEntity
  8
SURVBND
100
AcDbVertex
100
AcDb2dVertex
 10
104.963906
 20
736.761253
 30
0.0
  0
VERTEX
  5
EE
330
25
100
AcDbEntity
  8
SURVBND
100
AcDbVertex
100
AcDb2dVertex
 10
104.9421869999999
 20
737.0560639999999
 30
0.0
  0
VERTEX
  5
EF
330
25
100
AcDbEntity
  8
SURVBND
100
AcDbVertex
100
AcDb2dVertex
 10
104.9049319999999
 20
737.2301539999999
 30
0.0
  0
VERTEX
  5
F0
330
25
100
AcDbEntity
  8
SURVBND
100
AcDbVertex
100
AcDb2dVertex
 10
104.768985
 20
737.244699
 30
0.0
  0
VERTEX
  5
F1
330
25
100
AcDbEntity
  8
SURVBND
100
AcDbVertex
100
AcDb2dVertex
 10
104.6670189999999
 20
736.986714
 30
0.0
  0
VERTEX
  5
F2
330
25
100
AcDbEntity
  8
SURVBND
100
AcDbVertex
100
AcDb2dVertex
 10
104.5103389999999
 20
736.9737209999999
 30
0.0
  0
VERTEX
  5
F3
330
25
100
AcDbEntity
  8
SURVBND
100
AcDbVertex
100
AcDb2dVertex
 10
104.3979959999999
 20
737.160085
 30
0.0
  0
VERTEX
  5
F4
330
25
100
AcDbEntity
  8
SURVBND
100
AcDbVertex
100
AcDb2dVertex
 10
104.05103
 20
737.203649
 30
0.0
  0
VERTEX
  5
F5
330
25
100
AcDbEntity
  8
SURVBND
100
AcDbVertex
100
AcDb2dVertex
 10
103.867192
 20
737.3410200000001
 30
0.0
  0
VERTEX
  5
F6
330
25
100
AcDbEntity
  8
SURVBND
100
AcDbVertex
100
AcDb2dVertex
 10
103.6301819999999
 20
737.3253039999999
 30
0.0
  0
VERTEX
  5
F7
330
25
100
AcDbEntity
  8
SURVBND
100
AcDbVertex
100
AcDb2dVertex
 10
103.465202
 20
737.3310719999999
 30
0.0
  0
VERTEX
  5
F8
330
25
100
AcDbEntity
  8
SURVBND
100
AcDbVertex
100
AcDb2dVertex
 10
103.5272889999999
 20
737.5765079999999
 30
0.0
  0
VERTEX
  5
F9
330
25
100
AcDbEntity
  8
SURVBND
100
AcDbVertex
100
AcDb2dVertex
 10
103.4126089999999
 20
737.692847
 30
0.0
  0
VERTEX
  5
FA
330
25
100
AcDbEntity
  8
SURVBND
100
AcDbVertex
100
AcDb2dVertex
 10
103.210011
 20
737.719972
 30
0.0
  0
VERTEX
  5
FB
330
25
100
AcDbEntity
  8
SURVBND
100
AcDbVertex
100
AcDb2dVertex
 10
102.93784
 20
737.7103749999999
 30
0.0
  0
VERTEX
  5
FC
330
25
100
AcDbEntity
  8
SURVBND
100
AcDbVertex
100
AcDb2dVertex
 10
102.6806499999999
 20
737.84644
 30
0.0
  0
VERTEX
  5
FD
330
25
100
AcDbEntity
  8
SURVBND
100
AcDbVertex
100
AcDb2dVertex
 10
102.3838699999999
 20
737.9846219999999
 30
0.0
  0
VERTEX
  5
FE
330
25
100
AcDbEntity
  8
SURVBND
100
AcDbVertex
100
AcDb2dVertex
 10
102.1295579999999
 20
738.1384519999999
 30
0.0
  0
VERTEX
  5
FF
330
25
100
AcDbEntity
  8
SURVBND
100
AcDbVertex
100
AcDb2dVertex
 10
101.8568339999999
 20
738.256109
 30
0.0
  0
VERTEX
  5
100
330
25
100
AcDbEntity
  8
SURVBND
100
AcDbVertex
100
AcDb2dVertex
 10
101.806922
 20
738.320494
 30
0.0
  0
VERTEX
  5
101
330
25
100
AcDbEntity
  8
SURVBND
100
AcDbVertex
100
AcDb2dVertex
 10
101.7713709999999
 20
738.324299
 30
0.0
  0
VERTEX
  5
102
330
25
100
AcDbEntity
  8
SURVBND
100
AcDbVertex
100
AcDb2dVertex
 10
101.6546909999999
 20
738.5857969999999
 30
0.0
  0
VERTEX
  5
103
330
25
100
AcDbEntity
  8
SURVBND
100
AcDbVertex
100
AcDb2dVertex
 10
101.467889
 20
738.679558
 30
0.0
  0
VERTEX
  5
104
330
25
100
AcDbEntity
  8
SURVBND
100
AcDbVertex
100
AcDb2dVertex
 10
101.346303
 20
738.750043
 30
0.0
  0
VERTEX
  5
105
330
25
100
AcDbEntity
  8
SURVBND
100
AcDbVertex
100
AcDb2dVertex
 10
101.3178949999999
 20
738.830379
 30
0.0
  0
VERTEX
  5
106
330
25
100
AcDbEntity
  8
SURVBND
100
AcDbVertex
100
AcDb2dVertex
 10
101.345876
 20
738.998316
 30
0.0
  0
VERTEX
  5
107
330
25
100
AcDbEntity
  8
SURVBND
100
AcDbVertex
100
AcDb2dVertex
 10
101.3155829999999
 20
739.094151
 30
0.0
  0
VERTEX
  5
108
330
25
100
AcDbEntity
  8
SURVBND
100
AcDbVertex
100
AcDb2dVertex
 10
101.3037909999999
 20
739.1707209999999
 30
0.0
  0
VERTEX
  5
109
330
25
100
AcDbEntity
  8
SURVBND
100
AcDbVertex
100
AcDb2dVertex
 10
101.3755599999999
 20
739.243788
 30
0.0
  0
VERTEX
  5
10A
330
25
100
AcDbEntity
  8
SURVBND
100
AcDbVertex
100
AcDb2dVertex
 10
101.449326
 20
739.3194179999999
 30
0.0
  0
VERTEX
  5
10B
330
25
100
AcDbEntity
  8
SURVBND
100
AcDbVertex
100
AcDb2dVertex
 10
101.431826
 20
739.409282
 30
0.0
  0
VERTEX
  5
10C
330
25
100
AcDbEntity
  8
SURVBND
100
AcDbVertex
100
AcDb2dVertex
 10
101.2769669999999
 20
739.4982439999999
 30
0.0
  0
VERTEX
  5
10D
330
25
100
AcDbEntity
  8
SURVBND
100
AcDbVertex
100
AcDb2dVertex
 10
101.184606
 20
739.6056919999999
 30
0.0
  0
VERTEX
  5
10E
330
25
100
AcDbEntity
  8
SURVBND
100
AcDbVertex
100
AcDb2dVertex
 10
101.088398
 20
739.670439
 30
0.0
  0
VERTEX
  5
10F
330
25
100
AcDbEntity
  8
SURVBND
100
AcDbVertex
100
AcDb2dVertex
 10
101.007889
 20
739.6861759999999
 30
0.0
  0
VERTEX
  5
110
330
25
100
AcDbEntity
  8
SURVBND
100
AcDbVertex
100
AcDb2dVertex
 10
100.966166
 20
739.639309
 30
0.0
  0
VERTEX
  5
111
330
25
100
AcDbEntity
  8
SURVBND
100
AcDbVertex
100
AcDb2dVertex
 10
100.927005
 20
739.628783
 30
0.0
  0
VERTEX
  5
112
330
25
100
AcDbEntity
  8
SURVBND
100
AcDbVertex
100
AcDb2dVertex
 10
100.7672349999999
 20
739.64169
 30
0.0
  0
VERTEX
  5
113
330
25
100
AcDbEntity
  8
SURVBND
100
AcDbVertex
100
AcDb2dVertex
 10
100.6559949999999
 20
739.6658599999999
 30
0.0
  0
VERTEX
  5
114
330
25
100
AcDbEntity
  8
SURVBND
100
AcDbVertex
100
AcDb2dVertex
 10
100.57426
 20
739.85532
 30
0.0
  0
VERTEX
  5
115
330
25
100
AcDbEntity
  8
SURVBND
100
AcDbVertex
100
AcDb2dVertex
 10
100.5157639999999
 20
739.954841
 30
0.0
  0
VERTEX
  5
116
330
25
100
AcDbEntity
  8
SURVBND
100
AcDbVertex
100
AcDb2dVertex
 10
100.442738
 20
740.025663
 30
0.0
  0
VERTEX
  5
117
330
25
100
AcDbEntity
  8
SURVBND
100
AcDbVertex
100
AcDb2dVertex
 10
100.527549
 20
740.124283
 30
0.0
  0
VERTEX
  5
118
330
25
100
AcDbEntity
  8
SURVBND
100
AcDbVertex
100
AcDb2dVertex
 10
100.633297
 20
740.244682
 30
0.0
  0
VERTEX
  5
119
330
25
100
AcDbEntity
  8
SURVBND
100
AcDbVertex
100
AcDb2dVertex
 10
100.682746
 20
740.392499
 30
0.0
  0
VERTEX
  5
11A
330
25
100
AcDbEntity
  8
SURVBND
100
AcDbVertex
100
AcDb2dVertex
 10
100.738681
 20
740.503822
 30
0.0
  0
VERTEX
  5
11B
330
25
100
AcDbEntity
  8
SURVBND
100
AcDbVertex
100
AcDb2dVertex
 10
100.79529
 20
740.6363230000001
 30
0.0
  0
VERTEX
  5
11C
330
25
100
AcDbEntity
  8
SURVBND
100
AcDbVertex
100
AcDb2dVertex
 10
100.8927339999999
 20
740.7209199999999
 30
0.0
  0
VERTEX
  5
11D
330
25
100
AcDbEntity
  8
SURVBND
100
AcDbVertex
100
AcDb2dVertex
 10
100.968892
 20
740.763723
 30
0.0
  0
VERTEX
  5
11E
330
25
100
AcDbEntity
  8
SURVBND
100
AcDbVertex
100
AcDb2dVertex
 10
101.0294709999999
 20
740.770455
 30
0.0
  0
VERTEX
  5
11F
330
25
100
AcDbEntity
  8
SURVBND
100
AcDbVertex
100
AcDb2dVertex
 10
101.1633599999999
 20
740.895348
 30
0.0
  0
VERTEX
  5
120
330
25
100
AcDbEntity
  8
SURVBND
100
AcDbVertex
100
AcDb2dVertex
 10
101.3404509999999
 20
740.9313799999999
 30
0.0
  0
VERTEX
  5
121
330
25
100
AcDbEntity
  8
SURVBND
100
AcDbVertex
100
AcDb2dVertex
 10
101.4311619999999
 20
740.932575
 30
0.0
  0
VERTEX
  5
122
330
25
100
AcDbEntity
  8
SURVBND
100
AcDbVertex
100
AcDb2dVertex
 10
101.600576
 20
741.017202
 30
0.0
  0
VERTEX
  5
123
330
25
100
AcDbEntity
  8
SURVBND
100
AcDbVertex
100
AcDb2dVertex
 10
101.671021
 20
741.1231149999999
 30
0.0
  0
VERTEX
  5
124
330
25
100
AcDbEntity
  8
SURVBND
100
AcDbVertex
100
AcDb2dVertex
 10
101.7303709999999
 20
741.199811
 30
0.0
  0
VERTEX
  5
125
330
25
100
AcDbEntity
  8
SURVBND
100
AcDbVertex
100
AcDb2dVertex
 10
101.8884649999999
 20
741.3566849999999
 30
0.0
  0
VERTEX
  5
126
330
25
100
AcDbEntity
  8
SURVBND
100
AcDbVertex
100
AcDb2dVertex
 10
102.0130699999999
 20
741.4834929999999
 30
0.0
  0
VERTEX
  5
127
330
25
100
AcDbEntity
  8
SURVBND
100
AcDbVertex
100
AcDb2dVertex
 10
102.011976
 20
741.524398
 30
0.0
  0
VERTEX
  5
128
330
25
100
AcDbEntity
  8
SURVBND
100
AcDbVertex
100
AcDb2dVertex
 10
101.96818
 20
741.6021419999999
 30
0.0
  0
VERTEX
  5
129
330
25
100
AcDbEntity
  8
SURVBND
100
AcDbVertex
100
AcDb2dVertex
 10
102.028718
 20
741.7714319999999
 30
0.0
  0
VERTEX
  5
12A
330
25
100
AcDbEntity
  8
SURVBND
100
AcDbVertex
100
AcDb2dVertex
 10
102.152418
 20
741.882675
 30
0.0
  0
VERTEX
  5
12B
330
25
100
AcDbEntity
  8
SURVBND
100
AcDbVertex
100
AcDb2dVertex
 10
102.2983449999999
 20
741.9792129999999
 30
0.0
  0
VERTEX
  5
12C
330
25
100
AcDbEntity
  8
SURVBND
100
AcDbVertex
100
AcDb2dVertex
 10
102.427327
 20
742.0690469999999
 30
0.0
  0
VERTEX
  5
12D
330
25
100
AcDbEntity
  8
SURVBND
100
AcDbVertex
100
AcDb2dVertex
 10
102.541155
 20
742.1425730000001
 30
0.0
  0
VERTEX
  5
12E
330
25
100
AcDbEntity
  8
SURVBND
100
AcDbVertex
100
AcDb2dVertex
 10
102.593943
 20
742.211406
 30
0.0
  0
VERTEX
  5
12F
330
25
100
AcDbEntity
  8
SURVBND
100
AcDbVertex
100
AcDb2dVertex
 10
102.608792
 20
742.321029
 30
0.0
  0
VERTEX
  5
130
330
25
100
AcDbEntity
  8
SURVBND
100
AcDbVertex
100
AcDb2dVertex
 10
102.6551329999999
 20
742.4014419999999
 30
0.0
  0
VERTEX
  5
131
330
25
100
AcDbEntity
  8
SURVBND
100
AcDbVertex
100
AcDb2dVertex
 10
102.782137
 20
742.4445910000001
 30
0.0
  0
VERTEX
  5
132
330
25
100
AcDbEntity
  8
SURVBND
100
AcDbVertex
100
AcDb2dVertex
 10
102.82648
 20
742.4236969999999
 30
0.0
  0
VERTEX
  5
133
330
25
100
AcDbEntity
  8
SURVBND
100
AcDbVertex
100
AcDb2dVertex
 10
102.851749
 20
742.332748
 30
0.0
  0
VERTEX
  5
134
330
25
100
AcDbEntity
  8
SURVBND
100
AcDbVertex
100
AcDb2dVertex
 10
102.897491
 20
742.2055929999999
 30
0.0
  0
VERTEX
  5
135
330
25
100
AcDbEntity
  8
SURVBND
100
AcDbVertex
100
AcDb2dVertex
 10
102.993926
 20
742.1096559999999
 30
0.0
  0
VERTEX
  5
136
330
25
100
AcDbEntity
  8
SURVBND
100
AcDbVertex
100
AcDb2dVertex
 10
103.1156439999999
 20
742.076265
 30
0.0
  0
VERTEX
  5
137
330
25
100
AcDbEntity
  8
SURVBND
100
AcDbVertex
100
AcDb2dVertex
 10
103.2216999999999
 20
742.0932159999999
 30
0.0
  0
VERTEX
  5
138
330
25
100
AcDbEntity
  8
SURVBND
100
AcDbVertex
100
AcDb2dVertex
 10
103.322931
 20
742.139173
 30
0.0
  0
VERTEX
  5
139
330
25
100
AcDbEntity
  8
SURVBND
100
AcDbVertex
100
AcDb2dVertex
 10
103.4095399999999
 20
742.1566079999999
 30
0.0
  0
VERTEX
  5
13A
330
25
100
AcDbEntity
  8
SURVBND
100
AcDbVertex
100
AcDb2dVertex
 10
103.5046429999999
 20
742.119533
 30
0.0
  0
VERTEX
  5
13B
330
25
100
AcDbEntity
  8
SURVBND
100
AcDbVertex
100
AcDb2dVertex
 10
103.5708419999999
 20
742.112074
 30
0.0
  0
VERTEX
  5
13C
330
25
100
AcDbEntity
  8
SURVBND
100
AcDbVertex
100
AcDb2dVertex
 10
103.681212
 20
742.152966
 30
0.0
  0
VERTEX
  5
13D
330
25
100
AcDbEntity
  8
SURVBND
100
AcDbVertex
100
AcDb2dVertex
 10
103.6814759999999
 20
742.526431
 30
0.0
  0
VERTEX
  5
13E
330
25
100
AcDbEntity
  8
SURVBND
100
AcDbVertex
100
AcDb2dVertex
 10
103.703137
 20
742.695209
 30
0.0
  0
VERTEX
  5
13F
330
25
100
AcDbEntity
  8
SURVBND
100
AcDbVertex
100
AcDb2dVertex
 10
103.8505989999999
 20
742.7736219999999
 30
0.0
  0
VERTEX
  5
140
330
25
100
AcDbEntity
  8
SURVBND
100
AcDbVertex
100
AcDb2dVertex
 10
104.000201
 20
742.9285319999999
 30
0.0
  0
VERTEX
  5
141
330
25
100
AcDbEntity
  8
SURVBND
100
AcDbVertex
100
AcDb2dVertex
 10
104.027742
 20
743.10072
 30
0.0
  0
VERTEX
  5
142
330
25
100
AcDbEntity
  8
SURVBND
100
AcDbVertex
100
AcDb2dVertex
 10
104.11246
 20
743.022775
 30
0.0
  0
VERTEX
  5
143
330
25
100
AcDbEntity
  8
SURVBND
100
AcDbVertex
100
AcDb2dVertex
 10
104.181681
 20
742.842234
 30
0.0
  0
VERTEX
  5
144
330
25
100
AcDbEntity
  8
SURVBND
100
AcDbVertex
100
AcDb2dVertex
 10
104.231544
 20
742.641255
 30
0.0
  0
VERTEX
  5
145
330
25
100
AcDbEntity
  8
SURVBND
100
AcDbVertex
100
AcDb2dVertex
 10
104.2857279999999
 20
742.463663
 30
0.0
  0
VERTEX
  5
146
330
25
100
AcDbEntity
  8
SURVBND
100
AcDbVertex
100
AcDb2dVertex
 10
104.359851
 20
742.5996190000001
 30
0.0
  0
VERTEX
  5
147
330
25
100
AcDbEntity
  8
SURVBND
100
AcDbVertex
100
AcDb2dVertex
 10
104.433816
 20
742.831854
 30
0.0
  0
VERTEX
  5
148
330
25
100
AcDbEntity
  8
SURVBND
100
AcDbVertex
100
AcDb2dVertex
 10
104.4691569999999
 20
743.002294
 30
0.0
  0
VERTEX
  5
149
330
25
100
AcDbEntity
  8
SURVBND
100
AcDbVertex
100
AcDb2dVertex
 10
104.469079
 20
743.006651
 30
0.0
  0
VERTEX
  5
14A
330
25
100
AcDbEntity
  8
SURVBND
100
AcDbVertex
100
AcDb2dVertex
 10
104.5350859999999
 20
742.990832
 30
0.0
  0
VERTEX
  5
14B
330
25
100
AcDbEntity
  8
SURVBND
100
AcDbVertex
100
AcDb2dVertex
 10
104.589945
 20
742.8440789999999
 30
0.0
  0
VERTEX
  5
14C
330
25
100
AcDbEntity
  8
SURVBND
100
AcDbVertex
100
AcDb2dVertex
 10
104.726953
 20
742.7531259999999
 30
0.0
  0
VERTEX
  5
14D
330
25
100
AcDbEntity
  8
SURVBND
100
AcDbVertex
100
AcDb2dVertex
 10
104.6752349999999
 20
742.5942039999999
 30
0.0
  0
VERTEX
  5
14E
330
25
100
AcDbEntity
  8
SURVBND
100
AcDbVertex
100
AcDb2dVertex
 10
104.7190609999999
 20
742.4213549999999
 30
0.0
  0
VERTEX
  5
14F
330
25
100
AcDbEntity
  8
SURVBND
100
AcDbVertex
100
AcDb2dVertex
 10
104.7350479999999
 20
742.275054
 30
0.0
  0
VERTEX
  5
150
330
25
100
AcDbEntity
  8
SURVBND
100
AcDbVertex
100
AcDb2dVertex
 10
104.9067659999999
 20
742.1561889999999
 30
0.0
  0
VERTEX
  5
151
330
25
100
AcDbEntity
  8
SURVBND
100
AcDbVertex
100
AcDb2dVertex
 10
105.003787
 20
742.100188
 30
0.0
  0
VERTEX
  5
152
330
25
100
AcDbEntity
  8
SURVBND
100
AcDbVertex
100
AcDb2dVertex
 10
105.036524
 20
742.234446
 30
0.0
  0
VERTEX
  5
153
330
25
100
AcDbEntity
  8
SURVBND
100
AcDbVertex
100
AcDb2dVertex
 10
105.0642469999999
 20
742.374161
 30
0.0
  0
VERTEX
  5
154
330
25
100
AcDbEntity
  8
SURVBND
100
AcDbVertex
100
AcDb2dVertex
 10
105.1942889999999
 20
742.449665
 30
0.0
  0
VERTEX
  5
155
330
25
100
AcDbEntity
  8
SURVBND
100
AcDbVertex
100
AcDb2dVertex
 10
105.347393
 20
742.422978
 30
0.0
  0
VERTEX
  5
156
330
25
100
AcDbEntity
  8
SURVBND
100
AcDbVertex
100
AcDb2dVertex
 10
105.4840959999999
 20
742.3494349999999
 30
0.0
  0
VERTEX
  5
157
330
25
100
AcDbEntity
  8
SURVBND
100
AcDbVertex
100
AcDb2dVertex
 10
105.634771
 20
742.4551690000001
 30
0.0
  0
VERTEX
  5
158
330
25
100
AcDbEntity
  8
SURVBND
100
AcDbVertex
100
AcDb2dVertex
 10
105.7246659999999
 20
742.6082259999999
 30
0.0
  0
VERTEX
  5
159
330
25
100
AcDbEntity
  8
SURVBND
100
AcDbVertex
100
AcDb2dVertex
 10
105.813937
 20
742.6991649999999
 30
0.0
  0
VERTEX
  5
15A
330
25
100
AcDbEntity
  8
SURVBND
100
AcDbVertex
100
AcDb2dVertex
 10
105.9754539999999
 20
742.666053
 30
0.0
  0
VERTEX
  5
15B
330
25
100
AcDbEntity
  8
SURVBND
100
AcDbVertex
100
AcDb2dVertex
 10
106.087544
 20
742.4942070000001
 30
0.0
  0
VERTEX
  5
15C
330
25
100
AcDbEntity
  8
SURVBND
100
AcDbVertex
100
AcDb2dVertex
 10
106.139925
 20
742.3057679999999
 30
0.0
  0
VERTEX
  5
15D
330
25
100
AcDbEntity
  8
SURVBND
100
AcDbVertex
100
AcDb2dVertex
 10
106.282286
 20
742.2992339999999
 30
0.0
  0
VERTEX
  5
15E
330
25
100
AcDbEntity
  8
SURVBND
100
AcDbVertex
100
AcDb2dVertex
 10
106.2309729999999
 20
742.46473
 30
0.0
  0
VERTEX
  5
15F
330
25
100
AcDbEntity
  8
SURVBND
100
AcDbVertex
100
AcDb2dVertex
 10
106.2718049999999
 20
742.617969
 30
0.0
  0
VERTEX
  5
160
330
25
100
AcDbEntity
  8
SURVBND
100
AcDbVertex
100
AcDb2dVertex
 10
106.3942439999999
 20
742.663904
 30
0.0
  0
VERTEX
  5
161
330
25
100
AcDbEntity
  8
SURVBND
100
AcDbVertex
100
AcDb2dVertex
 10
106.5363929999999
 20
742.7565839999999
 30
0.0
  0
VERTEX
  5
162
330
25
100
AcDbEntity
  8
SURVBND
100
AcDbVertex
100
AcDb2dVertex
 10
106.6181049999999
 20
742.807849
 30
0.0
  0
VERTEX
  5
163
330
25
100
AcDbEntity
  8
SURVBND
100
AcDbVertex
100
AcDb2dVertex
 10
106.764684
 20
742.809862
 30
0.0
  0
VERTEX
  5
164
330
25
100
AcDbEntity
  8
SURVBND
100
AcDbVertex
100
AcDb2dVertex
 10
106.833506
 20
742.813432
 30
0.0
  0
VERTEX
  5
165
330
25
100
AcDbEntity
  8
SURVBND
100
AcDbVertex
100
AcDb2dVertex
 10
107.1723069999999
 20
742.74058
 30
0.0
  0
VERTEX
  5
166
330
25
100
AcDbEntity
  8
SURVBND
100
AcDbVertex
100
AcDb2dVertex
 10
107.3468899999999
 20
742.755534
 30
0.0
  0
VERTEX
  5
167
330
25
100
AcDbEntity
  8
SURVBND
100
AcDbVertex
100
AcDb2dVertex
 10
107.495101
 20
742.74215
 30
0.0
  0
VERTEX
  5
168
330
25
100
AcDbEntity
  8
SURVBND
100
AcDbVertex
100
AcDb2dVertex
 10
107.6918009999999
 20
742.7214049999999
 30
0.0
  0
VERTEX
  5
169
330
25
100
AcDbEntity
  8
SURVBND
100
AcDbVertex
100
AcDb2dVertex
 10
107.8879979999999
 20
742.6332160000001
 30
0.0
  0
VERTEX
  5
16A
330
25
100
AcDbEntity
  8
SURVBND
100
AcDbVertex
100
AcDb2dVertex
 10
108.0812179999999
 20
742.595673
 30
0.0
  0
VERTEX
  5
16B
330
25
100
AcDbEntity
  8
SURVBND
100
AcDbVertex
100
AcDb2dVertex
 10
108.247907
 20
742.5286849999999
 30
0.0
  0
VERTEX
  5
16C
330
25
100
AcDbEntity
  8
SURVBND
100
AcDbVertex
100
AcDb2dVertex
 10
108.3696619999999
 20
742.6131889999999
 30
0.0
  0
VERTEX
  5
16D
330
25
100
AcDbEntity
  8
SURVBND
100
AcDbVertex
100
AcDb2dVertex
 10
108.4733769999999
 20
742.8297639999999
 30
0.0
  0
VERTEX
  5
16E
330
25
100
AcDbEntity
  8
SURVBND
100
AcDbVertex
100
AcDb2dVertex
 10
108.535344
 20
742.850451
 30
0.0
  0
VERTEX
  5
16F
330
25
100
AcDbEntity
  8
SURVBND
100
AcDbVertex
100
AcDb2dVertex
 10
108.725325
 20
742.8631389999999
 30
0.0
  0
VERTEX
  5
170
330
25
100
AcDbEntity
  8
SURVBND
100
AcDbVertex
100
AcDb2dVertex
 10
108.895494
 20
742.7269039999999
 30
0.0
  0
VERTEX
  5
171
330
25
100
AcDbEntity
  8
SURVBND
100
AcDbVertex
100
AcDb2dVertex
 10
108.9638939999999
 20
742.519536
 30
0.0
  0
VERTEX
  5
172
330
25
100
AcDbEntity
  8
SURVBND
100
AcDbVertex
100
AcDb2dVertex
 10
109.015682
 20
742.369047
 30
0.0
  0
VERTEX
  5
173
330
25
100
AcDbEntity
  8
SURVBND
100
AcDbVertex
100
AcDb2dVertex
 10
108.8841689999999
 20
742.1868599999998
 30
0.0
  0
VERTEX
  5
174
330
25
100
AcDbEntity
  8
SURVBND
100
AcDbVertex
100
AcDb2dVertex
 10
108.8481899999999
 20
741.98718
 30
0.0
  0
VERTEX
  5
175
330
25
100
AcDbEntity
  8
SURVBND
100
AcDbVertex
100
AcDb2dVertex
 10
108.8113949999999
 20
741.854269
 30
0.0
  0
VERTEX
  5
176
330
25
100
AcDbEntity
  8
SURVBND
100
AcDbVertex
100
AcDb2dVertex
 10
108.7513839999999
 20
741.674786
 30
0.0
  0
VERTEX
  5
177
330
25
100
AcDbEntity
  8
SURVBND
100
AcDbVertex
100
AcDb2dVertex
 10
108.777885
 20
741.542467
 30
0.0
  0
VERTEX
  5
178
330
25
100
AcDbEntity
  8
SURVBND
100
AcDbVertex
100
AcDb2dVertex
 10
108.7682389999999
 20
741.3886650000001
 30
0.0
  0
VERTEX
  5
179
330
25
100
AcDbEntity
  8
SURVBND
100
AcDbVertex
100
AcDb2dVertex
 10
108.798702
 20
741.261517
 30
0.0
  0
VERTEX
  5
17A
330
25
100
AcDbEntity
  8
SURVBND
100
AcDbVertex
100
AcDb2dVertex
 10
108.8958199999999
 20
741.174336
 30
0.0
  0
VERTEX
  5
17B
330
25
100
AcDbEntity
  8
SURVBND
100
AcDbVertex
100
AcDb2dVertex
 10
108.903374
 20
741.0353809999999
 30
0.0
  0
VERTEX
  5
17C
330
25
100
AcDbEntity
  8
SURVBND
100
AcDbVertex
100
AcDb2dVertex
 10
109.062508
 20
741.008603
 30
0.0
  0
VERTEX
  5
17D
330
25
100
AcDbEntity
  8
SURVBND
100
AcDbVertex
100
AcDb2dVertex
 10
109.2615939999999
 20
741.0661079999999
 30
0.0
  0
VERTEX
  5
17E
330
25
100
AcDbEntity
  8
SURVBND
100
AcDbVertex
100
AcDb2dVertex
 10
109.3486679999999
 20
741.022349
 30
0.0
  0
VERTEX
  5
17F
330
25
100
AcDbEntity
  8
SURVBND
100
AcDbVertex
100
AcDb2dVertex
 10
109.525585
 20
740.9476709999999
 30
0.0
  0
VERTEX
  5
180
330
25
100
AcDbEntity
  8
SURVBND
100
AcDbVertex
100
AcDb2dVertex
 10
109.620658
 20
740.728553
 30
0.0
  0
VERTEX
  5
181
330
25
100
AcDbEntity
  8
SURVBND
100
AcDbVertex
100
AcDb2dVertex
 10
109.684482
 20
740.371836
 30
0.0
  0
VERTEX
  5
182
330
25
100
AcDbEntity
  8
SURVBND
100
AcDbVertex
100
AcDb2dVertex
 10
109.6546699999999
 20
740.1466179999999
 30
0.0
  0
VERTEX
  5
183
330
25
100
AcDbEntity
  8
SURVBND
100
AcDbVertex
100
AcDb2dVertex
 10
109.653237
 20
740.05439
 30
0.0
  0
VERTEX
  5
184
330
25
100
AcDbEntity
  8
SURVBND
100
AcDbVertex
100
AcDb2dVertex
 10
109.684124
 20
739.997429
 30
0.0
  0
VERTEX
  5
185
330
25
100
AcDbEntity
  8
SURVBND
100
AcDbVertex
100
AcDb2dVertex
 10
109.6925909999999
 20
739.979965
 30
0.0
  0
VERTEX
  5
186
330
25
100
AcDbEntity
  8
SURVBND
100
AcDbVertex
100
AcDb2dVertex
 10
109.732584
 20
739.8764929999999
 30
0.0
  0
VERTEX
  5
187
330
25
100
AcDbEntity
  8
SURVBND
100
AcDbVertex
100
AcDb2dVertex
 10
109.8667699999999
 20
739.774624
 30
0.0
  0
VERTEX
  5
188
330
25
100
AcDbEntity
  8
SURVBND
100
AcDbVertex
100
AcDb2dVertex
 10
110.002301
 20
739.803991
 30
0.0
  0
VERTEX
  5
189
330
25
100
AcDbEntity
  8
SURVBND
100
AcDbVertex
100
AcDb2dVertex
 10
110.071848
 20
739.979961
 30
0.0
  0
VERTEX
  5
18A
330
25
100
AcDbEntity
  8
SURVBND
100
AcDbVertex
100
AcDb2dVertex
 10
110.307924
 20
740.006582
 30
0.0
  0
VERTEX
  5
18B
330
25
100
AcDbEntity
  8
SURVBND
100
AcDbVertex
100
AcDb2dVertex
 10
110.562687
 20
740.0005579999999
 30
0.0
  0
VERTEX
  5
18C
330
25
100
AcDbEntity
  8
SURVBND
100
AcDbVertex
100
AcDb2dVertex
 10
110.895396
 20
739.9902319999999
 30
0.0
  0
VERTEX
  5
18D
330
25
100
AcDbEntity
  8
SURVBND
100
AcDbVertex
100
AcDb2dVertex
 10
111.1908649999999
 20
739.961019
 30
0.0
  0
VERTEX
  5
18E
330
25
100
AcDbEntity
  8
SURVBND
100
AcDbVertex
100
AcDb2dVertex
 10
111.4674629999999
 20
739.818517
 30
0.0
  0
VERTEX
  5
18F
330
25
100
AcDbEntity
  8
SURVBND
100
AcDbVertex
100
AcDb2dVertex
 10
111.690928
 20
739.777638
 30
0.0
  0
VERTEX
  5
190
330
25
100
AcDbEntity
  8
SURVBND
100
AcDbVertex
100
AcDb2dVertex
 10
111.885121
 20
739.6033959999999
 30
0.0
  0
VERTEX
  5
191
330
25
100
AcDbEntity
  8
SURVBND
100
AcDbVertex
100
AcDb2dVertex
 10
112.0012929999999
 20
739.356078
 30
0.0
  0
VERTEX
  5
192
330
25
100
AcDbEntity
  8
SURVBND
100
AcDbVertex
100
AcDb2dVertex
 10
112.1325949999999
 20
739.190605
 30
0.0
  0
VERTEX
  5
193
330
25
100
AcDbEntity
  8
SURVBND
100
AcDbVertex
100
AcDb2dVertex
 10
112.294128
 20
739.148022
 30
0.0
  0
VERTEX
  5
194
330
25
100
AcDbEntity
  8
SURVBND
100
AcDbVertex
100
AcDb2dVertex
 10
112.314625
 20
739.2201469999999
 30
0.0
  0
VERTEX
  5
195
330
25
100
AcDbEntity
  8
SURVBND
100
AcDbVertex
100
AcDb2dVertex
 10
112.34277
 20
739.408827
 30
0.0
  0
VERTEX
  5
196
330
25
100
AcDbEntity
  8
SURVBND
100
AcDbVertex
100
AcDb2dVertex
 10
112.2809169999999
 20
739.580994
 30
0.0
  0
VERTEX
  5
197
330
25
100
AcDbEntity
  8
SURVBND
100
AcDbVertex
100
AcDb2dVertex
 10
112.2597309999999
 20
739.740449
 30
0.0
  0
VERTEX
  5
198
330
25
100
AcDbEntity
  8
SURVBND
100
AcDbVertex
100
AcDb2dVertex
 10
112.289506
 20
739.886678
 30
0.0
  0
VERTEX
  5
199
330
25
100
AcDbEntity
  8
SURVBND
100
AcDbVertex
100
AcDb2dVertex
 10
112.3928959999999
 20
739.9585639999998
 30
0.0
  0
VERTEX
  5
19A
330
25
100
AcDbEntity
  8
SURVBND
100
AcDbVertex
100
AcDb2dVertex
 10
112.519586
 20
739.944154
 30
0.0
  0
VERTEX
  5
19B
330
25
100
AcDbEntity
  8
SURVBND
100
AcDbVertex
100
AcDb2dVertex
 10
112.597176
 20
739.838948
 30
0.0
  0
VERTEX
  5
19C
330
25
100
AcDbEntity
  8
SURVBND
100
AcDbVertex
100
AcDb2dVertex
 10
112.711962
 20
739.8129139999999
 30
0.0
  0
VERTEX
  5
19D
330
25
100
AcDbEntity
  8
SURVBND
100
AcDbVertex
100
AcDb2dVertex
 10
112.8873409999999
 20
739.85162
 30
0.0
  0
VERTEX
  5
19E
330
25
100
AcDbEntity
  8
SURVBND
100
AcDbVertex
100
AcDb2dVertex
 10
113.003087
 20
739.8636349999999
 30
0.0
  0
VERTEX
  5
19F
330
25
100
AcDbEntity
  8
SURVBND
100
AcDbVertex
100
AcDb2dVertex
 10
113.002727
 20
739.8698519999999
 30
0.0
  0
VERTEX
  5
1A0
330
25
100
AcDbEntity
  8
SURVBND
100
AcDbVertex
100
AcDb2dVertex
 10
113.080058
 20
739.8165529999999
 30
0.0
  0
VERTEX
  5
1A1
330
25
100
AcDbEntity
  8
SURVBND
100
AcDbVertex
100
AcDb2dVertex
 10
113.2046829999999
 20
739.628096
 30
0.0
  0
VERTEX
  5
1A2
330
25
100
AcDbEntity
  8
SURVBND
100
AcDbVertex
100
AcDb2dVertex
 10
113.2272979999999
 20
739.4030209999999
 30
0.0
  0
VERTEX
  5
1A3
330
25
100
AcDbEntity
  8
SURVBND
100
AcDbVertex
100
AcDb2dVertex
 10
113.191683
 20
739.251403
 30
0.0
  0
VERTEX
  5
1A4
330
25
100
AcDbEntity
  8
SURVBND
100
AcDbVertex
100
AcDb2dVertex
 10
113.1958519999999
 20
739.204517
 30
0.0
  0
VERTEX
  5
1A5
330
25
100
AcDbEntity
  8
SURVBND
100
AcDbVertex
100
AcDb2dVertex
 10
113.30717
 20
739.0859749999999
 30
0.0
  0
VERTEX
  5
1A6
330
25
100
AcDbEntity
  8
SURVBND
100
AcDbVertex
100
AcDb2dVertex
 10
113.4573129999999
 20
739.158841
 30
0.0
  0
VERTEX
  5
1A7
330
25
100
AcDbEntity
  8
SURVBND
100
AcDbVertex
100
AcDb2dVertex
 10
113.6566919999999
 20
739.187144
 30
0.0
  0
VERTEX
  5
1A8
330
25
100
AcDbEntity
  8
SURVBND
100
AcDbVertex
100
AcDb2dVertex
 10
113.8391469999999
 20
739.0639579999999
 30
0.0
  0
VERTEX
  5
1A9
330
25
100
AcDbEntity
  8
SURVBND
100
AcDbVertex
100
AcDb2dVertex
 10
113.989807
 20
739.168348
 30
0.0
  0
VERTEX
  5
1AA
330
25
100
AcDbEntity
  8
SURVBND
100
AcDbVertex
100
AcDb2dVertex
 10
114.1584979999999
 20
739.262416
 30
0.0
  0
VERTEX
  5
1AB
330
25
100
AcDbEntity
  8
SURVBND
100
AcDbVertex
100
AcDb2dVertex
 10
114.162435
 20
739.544117
 30
0.0
  0
VERTEX
  5
1AC
330
25
100
AcDbEntity
  8
SURVBND
100
AcDbVertex
100
AcDb2dVertex
 10
114.312616
 20
739.531033
 30
0.0
  0
VERTEX
  5
1AD
330
25
100
AcDbEntity
  8
SURVBND
100
AcDbVertex
100
AcDb2dVertex
 10
114.462792
 20
739.518683
 30
0.0
  0
VERTEX
  5
1AE
330
25
100
AcDbEntity
  8
SURVBND
100
AcDbVertex
100
AcDb2dVertex
 10
114.6321759999999
 20
739.511411
 30
0.0
  0
VERTEX
  5
1AF
330
25
100
AcDbEntity
  8
SURVBND
100
AcDbVertex
100
AcDb2dVertex
 10
114.870972
 20
739.4034539999999
 30
0.0
  0
VERTEX
  5
1B0
330
25
100
AcDbEntity
  8
SURVBND
100
AcDbVertex
100
AcDb2dVertex
 10
114.999931
 20
739.5993279999999
 30
0.0
  0
VERTEX
  5
1B1
330
25
100
AcDbEntity
  8
SURVBND
100
AcDbVertex
100
AcDb2dVertex
 10
115.185055
 20
739.6486089999999
 30
0.0
  0
VERTEX
  5
1B2
330
25
100
AcDbEntity
  8
SURVBND
100
AcDbVertex
100
AcDb2dVertex
 10
115.427812
 20
739.684906
 30
0.0
  0
VERTEX
  5
1B3
330
25
100
AcDbEntity
  8
SURVBND
100
AcDbVertex
100
AcDb2dVertex
 10
115.644754
 20
739.5837639999999
 30
0.0
  0
VERTEX
  5
1B4
330
25
100
AcDbEntity
  8
SURVBND
100
AcDbVertex
100
AcDb2dVertex
 10
115.647528
 20
739.285432
 30
0.0
  0
VERTEX
  5
1B5
330
25
100
AcDbEntity
  8
SURVBND
100
AcDbVertex
100
AcDb2dVertex
 10
115.6945139999999
 20
738.9804389999999
 30
0.0
  0
VERTEX
  5
1B6
330
25
100
AcDbEntity
  8
SURVBND
100
AcDbVertex
100
AcDb2dVertex
 10
115.937186
 20
738.868477
 30
0.0
  0
SEQEND
  5
1B7
330
25
100
AcDbEntity
  8
SURVBND
  0
POLYLINE
  5
26
330
2
100
AcDbEntity
  8
SURVBND
100
AcDb2dPolyline
 66
     1
 10
0.0
 20
0.0
 30
0.0
  0
VERTEX
  5
1B8
330
26
100
AcDbEntity
  8
SURVBND
100
AcDbVertex
100
AcDb2dVertex
 10
123.003421
 20
741.7334089999999
 30
0.0
  0
VERTEX
  5
1B9
330
26
100
AcDbEntity
  8
SURVBND
100
AcDbVertex
100
AcDb2dVertex
 10
122.971775
 20
741.7757019999998
 30
0.0
  0
VERTEX
  5
1BA
330
26
100
AcDbEntity
  8
SURVBND
100
AcDbVertex
100
AcDb2dVertex
 10
122.986877
 20
741.79332
 30
0.0
  0
VERTEX
  5
1BB
330
26
100
AcDbEntity
  8
SURVBND
100
AcDbVertex
100
AcDb2dVertex
 10
123.0844169999999
 20
741.908074
 30
0.0
  0
VERTEX
  5
1BC
330
26
100
AcDbEntity
  8
SURVBND
100
AcDbVertex
100
AcDb2dVertex
 10
123.1905629999999
 20
742.0371709999999
 30
0.0
  0
VERTEX
  5
1BD
330
26
100
AcDbEntity
  8
SURVBND
100
AcDbVertex
100
AcDb2dVertex
 10
123.1790879999999
 20
742.160531
 30
0.0
  0
VERTEX
  5
1BE
330
26
100
AcDbEntity
  8
SURVBND
100
AcDbVertex
100
AcDb2dVertex
 10
123.127449
 20
742.2752849999999
 30
0.0
  0
VERTEX
  5
1BF
330
26
100
AcDbEntity
  8
SURVBND
100
AcDbVertex
100
AcDb2dVertex
 10
123.049991
 20
742.3527429999999
 30
0.0
  0
VERTEX
  5
1C0
330
26
100
AcDbEntity
  8
SURVBND
100
AcDbVertex
100
AcDb2dVertex
 10
122.9352379999999
 20
742.378563
 30
0.0
  0
VERTEX
  5
1C1
330
26
100
AcDbEntity
  8
SURVBND
100
AcDbVertex
100
AcDb2dVertex
 10
122.849173
 20
742.3527429999999
 30
0.0
  0
VERTEX
  5
1C2
330
26
100
AcDbEntity
  8
SURVBND
100
AcDbVertex
100
AcDb2dVertex
 10
122.794665
 20
742.292498
 30
0.0
  0
VERTEX
  5
1C3
330
26
100
AcDbEntity
  8
SURVBND
100
AcDbVertex
100
AcDb2dVertex
 10
122.7430259999999
 20
742.2752849999999
 30
0.0
  0
VERTEX
  5
1C4
330
26
100
AcDbEntity
  8
SURVBND
100
AcDbVertex
100
AcDb2dVertex
 10
122.559421
 20
742.2752849999999
 30
0.0
  0
VERTEX
  5
1C5
330
26
100
AcDbEntity
  8
SURVBND
100
AcDbVertex
100
AcDb2dVertex
 10
122.533602
 20
742.292498
 30
0.0
  0
VERTEX
  5
1C6
330
26
100
AcDbEntity
  8
SURVBND
100
AcDbVertex
100
AcDb2dVertex
 10
122.6196669999999
 20
742.4129889999999
 30
0.0
  0
VERTEX
  5
1C7
330
26
100
AcDbEntity
  8
SURVBND
100
AcDbVertex
100
AcDb2dVertex
 10
122.682781
 20
742.587988
 30
0.0
  0
VERTEX
  5
1C8
330
26
100
AcDbEntity
  8
SURVBND
100
AcDbVertex
100
AcDb2dVertex
 10
122.751633
 20
742.711348
 30
0.0
  0
VERTEX
  5
1C9
330
26
100
AcDbEntity
  8
SURVBND
100
AcDbVertex
100
AcDb2dVertex
 10
122.849173
 20
742.745774
 30
0.0
  0
VERTEX
  5
1CA
330
26
100
AcDbEntity
  8
SURVBND
100
AcDbVertex
100
AcDb2dVertex
 10
122.9352379999999
 20
742.843314
 30
0.0
  0
VERTEX
  5
1CB
330
26
100
AcDbEntity
  8
SURVBND
100
AcDbVertex
100
AcDb2dVertex
 10
122.952451
 20
742.946592
 30
0.0
  0
VERTEX
  5
1CC
330
26
100
AcDbEntity
  8
SURVBND
100
AcDbVertex
100
AcDb2dVertex
 10
122.952451
 20
743.078559
 30
0.0
  0
VERTEX
  5
1CD
330
26
100
AcDbEntity
  8
SURVBND
100
AcDbVertex
100
AcDb2dVertex
 10
122.9782699999999
 20
743.2191320000001
 30
0.0
  0
VERTEX
  5
1CE
330
26
100
AcDbEntity
  8
SURVBND
100
AcDbVertex
100
AcDb2dVertex
 10
123.0155649999999
 20
743.313803
 30
0.0
  0
VERTEX
  5
1CF
330
26
100
AcDbEntity
  8
SURVBND
100
AcDbVertex
100
AcDb2dVertex
 10
123.10163
 20
743.236345
 30
0.0
  0
VERTEX
  5
1D0
330
26
100
AcDbEntity
  8
SURVBND
100
AcDbVertex
100
AcDb2dVertex
 10
123.302448
 20
743.1129849999999
 30
0.0
  0
VERTEX
  5
1D1
330
26
100
AcDbEntity
  8
SURVBND
100
AcDbVertex
100
AcDb2dVertex
 10
123.425807
 20
743.02692
 30
0.0
  0
VERTEX
  5
1D2
330
26
100
AcDbEntity
  8
SURVBND
100
AcDbVertex
100
AcDb2dVertex
 10
123.529085
 20
743.009707
 30
0.0
  0
VERTEX
  5
1D3
330
26
100
AcDbEntity
  8
SURVBND
100
AcDbVertex
100
AcDb2dVertex
 10
123.6782639999999
 20
742.9035599999999
 30
0.0
  0
VERTEX
  5
1D4
330
26
100
AcDbEntity
  8
SURVBND
100
AcDbVertex
100
AcDb2dVertex
 10
123.879082
 20
742.814626
 30
0.0
  0
VERTEX
  5
1D5
330
26
100
AcDbEntity
  8
SURVBND
100
AcDbVertex
100
AcDb2dVertex
 10
124.168834
 20
742.719954
 30
0.0
  0
VERTEX
  5
1D6
330
26
100
AcDbEntity
  8
SURVBND
100
AcDbVertex
100
AcDb2dVertex
 10
124.4757979999999
 20
742.6511019999999
 30
0.0
  0
VERTEX
  5
1D7
330
26
100
AcDbEntity
  8
SURVBND
100
AcDbVertex
100
AcDb2dVertex
 10
124.6421899999999
 20
742.579381
 30
0.0
  0
VERTEX
  5
1D8
330
26
100
AcDbEntity
  8
SURVBND
100
AcDbVertex
100
AcDb2dVertex
 10
124.8171889999999
 20
742.5965940000001
 30
0.0
  0
VERTEX
  5
1D9
330
26
100
AcDbEntity
  8
SURVBND
100
AcDbVertex
100
AcDb2dVertex
 10
124.980712
 20
742.659709
 30
0.0
  0
VERTEX
  5
1DA
330
26
100
AcDbEntity
  8
SURVBND
100
AcDbVertex
100
AcDb2dVertex
 10
125.086858
 20
742.7802
 30
0.0
  0
VERTEX
  5
1DB
330
26
100
AcDbEntity
  8
SURVBND
100
AcDbVertex
100
AcDb2dVertex
 10
125.184398
 20
742.814626
 30
0.0
  0
VERTEX
  5
1DC
330
26
100
AcDbEntity
  8
SURVBND
100
AcDbVertex
100
AcDb2dVertex
 10
125.3048889999999
 20
742.762987
 30
0.0
  0
VERTEX
  5
1DD
330
26
100
AcDbEntity
  8
SURVBND
100
AcDbVertex
100
AcDb2dVertex
 10
125.428249
 20
742.728561
 30
0.0
  0
VERTEX
  5
1DE
330
26
100
AcDbEntity
  8
SURVBND
100
AcDbVertex
100
AcDb2dVertex
 10
125.4884939999999
 20
742.6511019999999
 30
0.0
  0
VERTEX
  5
1DF
330
26
100
AcDbEntity
  8
SURVBND
100
AcDbVertex
100
AcDb2dVertex
 10
125.5946409999999
 20
742.668315
 30
0.0
  0
VERTEX
  5
1E0
330
26
100
AcDbEntity
  8
SURVBND
100
AcDbVertex
100
AcDb2dVertex
 10
125.7065249999999
 20
742.6052009999999
 30
0.0
  0
VERTEX
  5
1E1
330
26
100
AcDbEntity
  8
SURVBND
100
AcDbVertex
100
AcDb2dVertex
 10
125.7868519999999
 20
742.519136
 30
0.0
  0
VERTEX
  5
1E2
330
26
100
AcDbEntity
  8
SURVBND
100
AcDbVertex
100
AcDb2dVertex
 10
125.910212
 20
742.4933160000001
 30
0.0
  0
VERTEX
  5
1E3
330
26
100
AcDbEntity
  8
SURVBND
100
AcDbVertex
100
AcDb2dVertex
 10
126.0479159999999
 20
742.501923
 30
0.0
  0
VERTEX
  5
1E4
330
26
100
AcDbEntity
  8
SURVBND
100
AcDbVertex
100
AcDb2dVertex
 10
126.260209
 20
742.570775
 30
0.0
  0
VERTEX
  5
1E5
330
26
100
AcDbEntity
  8
SURVBND
100
AcDbVertex
100
AcDb2dVertex
 10
126.498321
 20
742.579381
 30
0.0
  0
VERTEX
  5
1E6
330
26
100
AcDbEntity
  8
SURVBND
100
AcDbVertex
100
AcDb2dVertex
 10
126.6388939999999
 20
742.559299
 30
0.0
  0
VERTEX
  5
1E7
330
26
100
AcDbEntity
  8
SURVBND
100
AcDbVertex
100
AcDb2dVertex
 10
126.7192209999999
 20
742.433071
 30
0.0
  0
VERTEX
  5
1E8
330
26
100
AcDbEntity
  8
SURVBND
100
AcDbVertex
100
AcDb2dVertex
 10
126.8540559999999
 20
742.2379900000001
 30
0.0
  0
VERTEX
  5
1E9
330
26
100
AcDbEntity
  8
SURVBND
100
AcDbVertex
100
AcDb2dVertex
 10
127.003235
 20
742.054384
 30
0.0
  0
VERTEX
  5
1EA
330
26
100
AcDbEntity
  8
SURVBND
100
AcDbVertex
100
AcDb2dVertex
 10
127.1380699999999
 20
741.9281559999999
 30
0.0
  0
VERTEX
  5
1EB
330
26
100
AcDbEntity
  8
SURVBND
100
AcDbVertex
100
AcDb2dVertex
 10
127.2786419999999
 20
741.827746
 30
0.0
  0
VERTEX
  5
1EC
330
26
100
AcDbEntity
  8
SURVBND
100
AcDbVertex
100
AcDb2dVertex
 10
127.413477
 20
741.807665
 30
0.0
  0
VERTEX
  5
1ED
330
26
100
AcDbEntity
  8
SURVBND
100
AcDbVertex
100
AcDb2dVertex
 10
127.614295
 20
741.6642229999999
 30
0.0
  0
VERTEX
  5
1EE
330
26
100
AcDbEntity
  8
SURVBND
100
AcDbVertex
100
AcDb2dVertex
 10
127.769212
 20
741.537994
 30
0.0
  0
VERTEX
  5
1EF
330
26
100
AcDbEntity
  8
SURVBND
100
AcDbVertex
100
AcDb2dVertex
 10
127.94421
 20
741.428978
 30
0.0
  0
VERTEX
  5
1F0
330
26
100
AcDbEntity
  8
SURVBND
100
AcDbVertex
100
AcDb2dVertex
 10
128.127815
 20
741.294143
 30
0.0
  0
VERTEX
  5
1F1
330
26
100
AcDbEntity
  8
SURVBND
100
AcDbVertex
100
AcDb2dVertex
 10
128.3888789999999
 20
741.1134059999999
 30
0.0
  0
VERTEX
  5
1F2
330
26
100
AcDbEntity
  8
SURVBND
100
AcDbVertex
100
AcDb2dVertex
 10
128.5435219999999
 20
741.0189019999998
 30
0.0
  0
SEQEND
  5
1F3
330
26
100
AcDbEntity
  8
SURVBND
  0
POLYLINE
  5
27
330
2
100
AcDbEntity
  8
SURVBND
100
AcDb2dPolyline
 66
     1
 10
0.0
 20
0.0
 30
0.0
  0
VERTEX
  5
1F4
330
27
100
AcDbEntity
  8
SURVBND
100
AcDbVertex
100
AcDb2dVertex
 10
129.6177219999999
 20
737.5320289999999
 30
0.0
  0
VERTEX
  5
1F5
330
27
100
AcDbEntity
  8
SURVBND
100
AcDbVertex
100
AcDb2dVertex
 10
129.613868
 20
737.521624
 30
0.0
  0
VERTEX
  5
1F6
330
27
100
AcDbEntity
  8
SURVBND
100
AcDbVertex
100
AcDb2dVertex
 10
129.654032
 20
737.2519539999999
 30
0.0
  0
VERTEX
  5
1F7
330
27
100
AcDbEntity
  8
SURVBND
100
AcDbVertex
100
AcDb2dVertex
 10
129.694195
 20
737.08843
 30
0.0
  0
VERTEX
  5
1F8
330
27
100
AcDbEntity
  8
SURVBND
100
AcDbVertex
100
AcDb2dVertex
 10
129.685589
 20
736.9335129999999
 30
0.0
  0
VERTEX
  5
1F9
330
27
100
AcDbEntity
  8
SURVBND
100
AcDbVertex
100
AcDb2dVertex
 10
129.642556
 20
736.7527759999999
 30
0.0
  0
VERTEX
  5
1FA
330
27
100
AcDbEntity
  8
SURVBND
100
AcDbVertex
100
AcDb2dVertex
 10
129.5966549999999
 20
736.54622
 30
0.0
  0
VERTEX
  5
1FB
330
27
100
AcDbEntity
  8
SURVBND
100
AcDbVertex
100
AcDb2dVertex
 10
129.642556
 20
736.342533
 30
0.0
  0
VERTEX
  5
1FC
330
27
100
AcDbEntity
  8
SURVBND
100
AcDbVertex
100
AcDb2dVertex
 10
129.757309
 20
736.2249099999999
 30
0.0
  0
VERTEX
  5
1FD
330
27
100
AcDbEntity
  8
SURVBND
100
AcDbVertex
100
AcDb2dVertex
 10
129.935177
 20
736.107288
 30
0.0
  0
VERTEX
  5
1FE
330
27
100
AcDbEntity
  8
SURVBND
100
AcDbVertex
100
AcDb2dVertex
 10
130.153208
 20
735.946633
 30
0.0
  0
VERTEX
  5
1FF
330
27
100
AcDbEntity
  8
SURVBND
100
AcDbVertex
100
AcDb2dVertex
 10
130.27083
 20
735.697045
 30
0.0
  0
VERTEX
  5
200
330
27
100
AcDbEntity
  8
SURVBND
100
AcDbVertex
100
AcDb2dVertex
 10
130.331075
 20
735.4618
 30
0.0
  0
VERTEX
  5
201
330
27
100
AcDbEntity
  8
SURVBND
100
AcDbVertex
100
AcDb2dVertex
 10
130.3454189999999
 20
735.212212
 30
0.0
  0
VERTEX
  5
202
330
27
100
AcDbEntity
  8
SURVBND
100
AcDbVertex
100
AcDb2dVertex
 10
130.3454189999999
 20
734.933934
 30
0.0
  0
VERTEX
  5
203
330
27
100
AcDbEntity
  8
SURVBND
100
AcDbVertex
100
AcDb2dVertex
 10
130.299518
 20
734.641313
 30
0.0
  0
VERTEX
  5
204
330
27
100
AcDbEntity
  8
SURVBND
100
AcDbVertex
100
AcDb2dVertex
 10
130.27083
 20
734.070415
 30
0.0
  0
VERTEX
  5
205
330
27
100
AcDbEntity
  8
SURVBND
100
AcDbVertex
100
AcDb2dVertex
 10
130.242141
 20
733.5884509999999
 30
0.0
  0
VERTEX
  5
206
330
27
100
AcDbEntity
  8
SURVBND
100
AcDbVertex
100
AcDb2dVertex
 10
130.184765
 20
733.160994
 30
0.0
  0
VERTEX
  5
207
330
27
100
AcDbEntity
  8
SURVBND
100
AcDbVertex
100
AcDb2dVertex
 10
130.0527989999999
 20
732.782308
 30
0.0
  0
VERTEX
  5
208
330
27
100
AcDbEntity
  8
SURVBND
100
AcDbVertex
100
AcDb2dVertex
 10
129.889275
 20
732.5040309999999
 30
0.0
  0
VERTEX
  5
209
330
27
100
AcDbEntity
  8
SURVBND
100
AcDbVertex
100
AcDb2dVertex
 10
129.671245
 20
732.240098
 30
0.0
  0
VERTEX
  5
20A
330
27
100
AcDbEntity
  8
SURVBND
100
AcDbVertex
100
AcDb2dVertex
 10
129.421657
 20
731.9474769999999
 30
0.0
  0
VERTEX
  5
20B
330
27
100
AcDbEntity
  8
SURVBND
100
AcDbVertex
100
AcDb2dVertex
 10
129.200757
 20
731.7409200000001
 30
0.0
  0
VERTEX
  5
20C
330
27
100
AcDbEntity
  8
SURVBND
100
AcDbVertex
100
AcDb2dVertex
 10
128.936825
 20
731.608954
 30
0.0
  0
VERTEX
  5
20D
330
27
100
AcDbEntity
  8
SURVBND
100
AcDbVertex
100
AcDb2dVertex
 10
128.690106
 20
731.476988
 30
0.0
  0
VERTEX
  5
20E
330
27
100
AcDbEntity
  8
SURVBND
100
AcDbVertex
100
AcDb2dVertex
 10
128.454862
 20
731.419611
 30
0.0
  0
VERTEX
  5
20F
330
27
100
AcDbEntity
  8
SURVBND
100
AcDbVertex
100
AcDb2dVertex
 10
128.176585
 20
731.388054
 30
0.0
  0
VERTEX
  5
210
330
27
100
AcDbEntity
  8
SURVBND
100
AcDbVertex
100
AcDb2dVertex
 10
127.941342
 20
731.419611
 30
0.0
  0
VERTEX
  5
211
330
27
100
AcDbEntity
  8
SURVBND
100
AcDbVertex
100
AcDb2dVertex
 10
127.6487209999999
 20
731.491332
 30
0.0
  0
VERTEX
  5
212
330
27
100
AcDbEntity
  8
SURVBND
100
AcDbVertex
100
AcDb2dVertex
 10
127.3561009999999
 20
731.5659209999999
 30
0.0
  0
VERTEX
  5
213
330
27
100
AcDbEntity
  8
SURVBND
100
AcDbVertex
100
AcDb2dVertex
 10
127.0921689999999
 20
731.5802660000001
 30
0.0
  0
VERTEX
  5
214
330
27
100
AcDbEntity
  8
SURVBND
100
AcDbVertex
100
AcDb2dVertex
 10
126.8138919999999
 20
731.5659209999999
 30
0.0
  0
VERTEX
  5
215
330
27
100
AcDbEntity
  8
SURVBND
100
AcDbVertex
100
AcDb2dVertex
 10
126.5929929999999
 20
731.491332
 30
0.0
  0
VERTEX
  5
216
330
27
100
AcDbEntity
  8
SURVBND
100
AcDbVertex
100
AcDb2dVertex
 10
126.357749
 20
731.345021
 30
0.0
  0
VERTEX
  5
217
330
27
100
AcDbEntity
  8
SURVBND
100
AcDbVertex
100
AcDb2dVertex
 10
126.205701
 20
731.1929730000001
 30
0.0
  0
VERTEX
  5
218
330
27
100
AcDbEntity
  8
SURVBND
100
AcDbVertex
100
AcDb2dVertex
 10
126.13398
 20
731.106908
 30
0.0
  0
VERTEX
  5
219
330
27
100
AcDbEntity
  8
SURVBND
100
AcDbVertex
100
AcDb2dVertex
 10
126.0823409999999
 20
730.888876
 30
0.0
  0
VERTEX
  5
21A
330
27
100
AcDbEntity
  8
SURVBND
100
AcDbVertex
100
AcDb2dVertex
 10
125.993408
 20
730.7224839999999
 30
0.0
  0
VERTEX
  5
21B
330
27
100
AcDbEntity
  8
SURVBND
100
AcDbVertex
100
AcDb2dVertex
 10
125.89013
 20
730.5044519999999
 30
0.0
  0
VERTEX
  5
21C
330
27
100
AcDbEntity
  8
SURVBND
100
AcDbVertex
100
AcDb2dVertex
 10
125.7581639999999
 20
730.1458479999999
 30
0.0
  0
VERTEX
  5
21D
330
27
100
AcDbEntity
  8
SURVBND
100
AcDbVertex
100
AcDb2dVertex
 10
125.7065249999999
 20
729.927816
 30
0.0
  0
VERTEX
  5
21E
330
27
100
AcDbEntity
  8
SURVBND
100
AcDbVertex
100
AcDb2dVertex
 10
125.6462799999999
 20
729.838882
 30
0.0
  0
VERTEX
  5
21F
330
27
100
AcDbEntity
  8
SURVBND
100
AcDbVertex
100
AcDb2dVertex
 10
125.531527
 20
729.761424
 30
0.0
  0
VERTEX
  5
220
330
27
100
AcDbEntity
  8
SURVBND
100
AcDbVertex
100
AcDb2dVertex
 10
125.3565279999999
 20
729.6552769999999
 30
0.0
  0
VERTEX
  5
221
330
27
100
AcDbEntity
  8
SURVBND
100
AcDbVertex
100
AcDb2dVertex
 10
125.224562
 20
729.54913
 30
0.0
  0
VERTEX
  5
222
330
27
100
AcDbEntity
  8
SURVBND
100
AcDbVertex
100
AcDb2dVertex
 10
125.1040709999999
 20
729.3769999999999
 30
0.0
  0
VERTEX
  5
223
330
27
100
AcDbEntity
  8
SURVBND
100
AcDbVertex
100
AcDb2dVertex
 10
125.006531
 20
729.1561
 30
0.0
  0
VERTEX
  5
224
330
27
100
AcDbEntity
  8
SURVBND
100
AcDbVertex
100
AcDb2dVertex
 10
124.857352
 20
729.0270019999999
 30
0.0
  0
VERTEX
  5
225
330
27
100
AcDbEntity
  8
SURVBND
100
AcDbVertex
100
AcDb2dVertex
 10
124.647928
 20
728.929462
 30
0.0
  0
VERTEX
  5
226
330
27
100
AcDbEntity
  8
SURVBND
100
AcDbVertex
100
AcDb2dVertex
 10
124.44711
 20
728.877823
 30
0.0
  0
VERTEX
  5
227
330
27
100
AcDbEntity
  8
SURVBND
100
AcDbVertex
100
AcDb2dVertex
 10
124.114326
 20
728.886429
 30
0.0
  0
VERTEX
  5
228
330
27
100
AcDbEntity
  8
SURVBND
100
AcDbVertex
100
AcDb2dVertex
 10
123.8532629999999
 20
728.8433969999999
 30
0.0
  0
VERTEX
  5
229
330
27
100
AcDbEntity
  8
SURVBND
100
AcDbVertex
100
AcDb2dVertex
 10
123.5807239999999
 20
728.806102
 30
0.0
  0
VERTEX
  5
22A
330
27
100
AcDbEntity
  8
SURVBND
100
AcDbVertex
100
AcDb2dVertex
 10
123.319661
 20
728.780282
 30
0.0
  0
VERTEX
  5
22B
330
27
100
AcDbEntity
  8
SURVBND
100
AcDbVertex
100
AcDb2dVertex
 10
123.0126959999999
 20
728.720037
 30
0.0
  0
VERTEX
  5
22C
330
27
100
AcDbEntity
  8
SURVBND
100
AcDbVertex
100
AcDb2dVertex
 10
122.740157
 20
728.631103
 30
0.0
  0
VERTEX
  5
22D
330
27
100
AcDbEntity
  8
SURVBND
100
AcDbVertex
100
AcDb2dVertex
 10
122.4704879999999
 20
728.510612
 30
0.0
  0
VERTEX
  5
22E
330
27
100
AcDbEntity
  8
SURVBND
100
AcDbVertex
100
AcDb2dVertex
 10
122.295489
 20
728.4044650000001
 30
0.0
  0
VERTEX
  5
22F
330
27
100
AcDbEntity
  8
SURVBND
100
AcDbVertex
100
AcDb2dVertex
 10
122.068852
 20
728.3528259999999
 30
0.0
  0
VERTEX
  5
230
330
27
100
AcDbEntity
  8
SURVBND
100
AcDbVertex
100
AcDb2dVertex
 10
121.7963129999999
 20
728.401596
 30
0.0
  0
VERTEX
  5
231
330
27
100
AcDbEntity
  8
SURVBND
100
AcDbVertex
100
AcDb2dVertex
 10
121.589758
 20
728.401596
 30
0.0
  0
VERTEX
  5
232
330
27
100
AcDbEntity
  8
SURVBND
100
AcDbVertex
100
AcDb2dVertex
 10
121.348776
 20
728.347088
 30
0.0
  0
VERTEX
  5
233
330
27
100
AcDbEntity
  8
SURVBND
100
AcDbVertex
100
AcDb2dVertex
 10
121.113532
 20
728.3184
 30
0.0
  0
VERTEX
  5
234
330
27
100
AcDbEntity
  8
SURVBND
100
AcDbVertex
100
AcDb2dVertex
 10
120.955747
 20
728.347088
 30
0.0
  0
VERTEX
  5
235
330
27
100
AcDbEntity
  8
SURVBND
100
AcDbVertex
100
AcDb2dVertex
 10
120.8036989999999
 20
728.3929889999999
 30
0.0
  0
VERTEX
  5
236
330
27
100
AcDbEntity
  8
SURVBND
100
AcDbVertex
100
AcDb2dVertex
 10
120.6889459999999
 20
728.4761859999999
 30
0.0
  0
VERTEX
  5
237
330
27
100
AcDbEntity
  8
SURVBND
100
AcDbVertex
100
AcDb2dVertex
 10
120.536898
 20
728.49053
 30
0.0
  0
VERTEX
  5
238
330
27
100
AcDbEntity
  8
SURVBND
100
AcDbVertex
100
AcDb2dVertex
 10
120.3131289999999
 20
728.444628
 30
0.0
  0
VERTEX
  5
239
330
27
100
AcDbEntity
  8
SURVBND
100
AcDbVertex
100
AcDb2dVertex
 10
120.11518
 20
728.3843829999999
 30
0.0
  0
VERTEX
  5
23A
330
27
100
AcDbEntity
  8
SURVBND
100
AcDbVertex
100
AcDb2dVertex
 10
120.060673
 20
728.298318
 30
0.0
  0
VERTEX
  5
23B
330
27
100
AcDbEntity
  8
SURVBND
100
AcDbVertex
100
AcDb2dVertex
 10
120.023378
 20
728.1548759999999
 30
0.0
  0
VERTEX
  5
23C
330
27
100
AcDbEntity
  8
SURVBND
100
AcDbVertex
100
AcDb2dVertex
 10
120.0147709999999
 20
728.054467
 30
0.0
  0
VERTEX
  5
23D
330
27
100
AcDbEntity
  8
SURVBND
100
AcDbVertex
100
AcDb2dVertex
 10
119.9000179999999
 20
728.0458599999999
 30
0.0
  0
VERTEX
  5
23E
330
27
100
AcDbEntity
  8
SURVBND
100
AcDbVertex
100
AcDb2dVertex
 10
119.793872
 20
728.0085650000001
 30
0.0
  0
VERTEX
  5
23F
330
27
100
AcDbEntity
  8
SURVBND
100
AcDbVertex
100
AcDb2dVertex
 10
119.656168
 20
727.925369
 30
0.0
  0
VERTEX
  5
240
330
27
100
AcDbEntity
  8
SURVBND
100
AcDbVertex
100
AcDb2dVertex
 10
119.4725629999999
 20
727.9081559999999
 30
0.0
  0
VERTEX
  5
241
330
27
100
AcDbEntity
  8
SURVBND
100
AcDbVertex
100
AcDb2dVertex
 10
119.2574009999999
 20
727.8794679999999
 30
0.0
  0
VERTEX
  5
242
330
27
100
AcDbEntity
  8
SURVBND
100
AcDbVertex
100
AcDb2dVertex
 10
119.1799429999999
 20
727.7934029999999
 30
0.0
  0
VERTEX
  5
243
330
27
100
AcDbEntity
  8
SURVBND
100
AcDbVertex
100
AcDb2dVertex
 10
119.2115
 20
727.641354
 30
0.0
  0
VERTEX
  5
244
330
27
100
AcDbEntity
  8
SURVBND
100
AcDbVertex
100
AcDb2dVertex
 10
119.225844
 20
727.5122569999999
 30
0.0
  0
VERTEX
  5
245
330
27
100
AcDbEntity
  8
SURVBND
100
AcDbVertex
100
AcDb2dVertex
 10
119.2717449999999
 20
727.4347979999999
 30
0.0
  0
VERTEX
  5
246
330
27
100
AcDbEntity
  8
SURVBND
100
AcDbVertex
100
AcDb2dVertex
 10
119.288958
 20
727.3429949999999
 30
0.0
  0
VERTEX
  5
247
330
27
100
AcDbEntity
  8
SURVBND
100
AcDbVertex
100
AcDb2dVertex
 10
119.303302
 20
727.2138980000001
 30
0.0
  0
VERTEX
  5
248
330
27
100
AcDbEntity
  8
SURVBND
100
AcDbVertex
100
AcDb2dVertex
 10
119.35781
 20
727.090538
 30
0.0
  0
VERTEX
  5
249
330
27
100
AcDbEntity
  8
SURVBND
100
AcDbVertex
100
AcDb2dVertex
 10
119.395105
 20
727.0130789999999
 30
0.0
  0
VERTEX
  5
24A
330
27
100
AcDbEntity
  8
SURVBND
100
AcDbVertex
100
AcDb2dVertex
 10
119.4094489999999
 20
726.9356209999999
 30
0.0
  0
VERTEX
  5
24B
330
27
100
AcDbEntity
  8
SURVBND
100
AcDbVertex
100
AcDb2dVertex
 10
119.372154
 20
726.797917
 30
0.0
  0
VERTEX
  5
24C
330
27
100
AcDbEntity
  8
SURVBND
100
AcDbVertex
100
AcDb2dVertex
 10
119.3635479999999
 20
726.683163
 30
0.0
  0
VERTEX
  5
24D
330
27
100
AcDbEntity
  8
SURVBND
100
AcDbVertex
100
AcDb2dVertex
 10
119.3176459999999
 20
726.599967
 30
0.0
  0
VERTEX
  5
24E
330
27
100
AcDbEntity
  8
SURVBND
100
AcDbVertex
100
AcDb2dVertex
 10
119.2344499999999
 20
726.4536559999998
 30
0.0
  0
VERTEX
  5
24F
330
27
100
AcDbEntity
  8
SURVBND
100
AcDbVertex
100
AcDb2dVertex
 10
118.9906
 20
726.3159519999999
 30
0.0
  0
VERTEX
  5
250
330
27
100
AcDbEntity
  8
SURVBND
100
AcDbVertex
100
AcDb2dVertex
 10
118.821339
 20
726.178248
 30
0.0
  0
VERTEX
  5
251
330
27
100
AcDbEntity
  8
SURVBND
100
AcDbVertex
100
AcDb2dVertex
 10
118.752487
 20
726.095052
 30
0.0
  0
VERTEX
  5
252
330
27
100
AcDbEntity
  8
SURVBND
100
AcDbVertex
100
AcDb2dVertex
 10
118.72093
 20
725.965954
 30
0.0
  0
VERTEX
  5
253
330
27
100
AcDbEntity
  8
SURVBND
100
AcDbVertex
100
AcDb2dVertex
 10
118.6233899999999
 20
725.8971019999998
 30
0.0
  0
VERTEX
  5
254
330
27
100
AcDbEntity
  8
SURVBND
100
AcDbVertex
100
AcDb2dVertex
 10
118.560276
 20
725.782349
 30
0.0
  0
VERTEX
  5
255
330
27
100
AcDbEntity
  8
SURVBND
100
AcDbVertex
100
AcDb2dVertex
 10
118.468473
 20
725.6962839999999
 30
0.0
  0
VERTEX
  5
256
330
27
100
AcDbEntity
  8
SURVBND
100
AcDbVertex
100
AcDb2dVertex
 10
118.3393759999999
 20
725.6675959999999
 30
0.0
  0
VERTEX
  5
257
330
27
100
AcDbEntity
  8
SURVBND
100
AcDbVertex
100
AcDb2dVertex
 10
118.2160169999999
 20
725.6733329999999
 30
0.0
  0
VERTEX
  5
258
330
27
100
AcDbEntity
  8
SURVBND
100
AcDbVertex
100
AcDb2dVertex
 10
118.1328209999999
 20
725.690546
 30
0.0
  0
SEQEND
  5
259
330
27
100
AcDbEntity
  8
SURVBND
  0
TEXT
  5
28
330
2
100
AcDbEntity
  8
SITES
100
AcDbText
 10
125.533929808346
 20
738.014424631793
 30
0.0
 40
0.2
  1
VP701
100
AcDbText
  0
TEXT
  5
2A
330
2
100
AcDbEntity
  8
SITES
100
AcDbText
 10
125.6668504746193
 20
734.3561605582362
 30
0.0
 40
0.2
  1
VP1104
100
AcDbText
  0
POLYLINE
  5
2B
330
2
100
AcDbEntity
  8
SURVBND
100
AcDb2dPolyline
 66
     1
 10
0.0
 20
0.0
 30
0.0
  0
VERTEX
  5
25A
330
2B
100
AcDbEntity
  8
SURVBND
100
AcDbVertex
100
AcDb2dVertex
 10
115.9412971706377
 20
738.8658794981299
 30
0.0
  0
VERTEX
  5
25B
330
2B
100
AcDbEntity
  8
SURVBND
100
AcDbVertex
100
AcDb2dVertex
 10
115.9336909999999
 20
738.928691
 30
0.0
  0
VERTEX
  5
25C
330
2B
100
AcDbEntity
  8
SURVBND
100
AcDbVertex
100
AcDb2dVertex
 10
115.946976
 20
738.9725349999999
 30
0.0
  0
VERTEX
  5
25D
330
2B
100
AcDbEntity
  8
SURVBND
100
AcDbVertex
100
AcDb2dVertex
 10
115.983795
 20
739.089514
 30
0.0
  0
VERTEX
  5
25E
330
2B
100
AcDbEntity
  8
SURVBND
100
AcDbVertex
100
AcDb2dVertex
 10
116.010049
 20
739.168334
 30
0.0
  0
VERTEX
  5
25F
330
2B
100
AcDbEntity
  8
SURVBND
100
AcDbVertex
100
AcDb2dVertex
 10
116.035882
 20
739.202704
 30
0.0
  0
VERTEX
  5
260
330
2B
100
AcDbEntity
  8
SURVBND
100
AcDbVertex
100
AcDb2dVertex
 10
116.0971389999999
 20
739.207224
 30
0.0
  0
VERTEX
  5
261
330
2B
100
AcDbEntity
  8
SURVBND
100
AcDbVertex
100
AcDb2dVertex
 10
116.1939429999999
 20
739.194645
 30
0.0
  0
VERTEX
  5
262
330
2B
100
AcDbEntity
  8
SURVBND
100
AcDbVertex
100
AcDb2dVertex
 10
116.2869719999999
 20
739.1682559999999
 30
0.0
  0
VERTEX
  5
263
330
2B
100
AcDbEntity
  8
SURVBND
100
AcDbVertex
100
AcDb2dVertex
 10
116.365879
 20
739.15111
 30
0.0
  0
VERTEX
  5
264
330
2B
100
AcDbEntity
  8
SURVBND
100
AcDbVertex
100
AcDb2dVertex
 10
116.4406909999999
 20
739.124894
 30
0.0
  0
VERTEX
  5
265
330
2B
100
AcDbEntity
  8
SURVBND
100
AcDbVertex
100
AcDb2dVertex
 10
116.538879
 20
739.1046499999999
 30
0.0
  0
VERTEX
  5
266
330
2B
100
AcDbEntity
  8
SURVBND
100
AcDbVertex
100
AcDb2dVertex
 10
116.647161
 20
739.1112749999999
 30
0.0
  0
VERTEX
  5
267
330
2B
100
AcDbEntity
  8
SURVBND
100
AcDbVertex
100
AcDb2dVertex
 10
116.753257
 20
739.117919
 30
0.0
  0
VERTEX
  5
268
330
2B
100
AcDbEntity
  8
SURVBND
100
AcDbVertex
100
AcDb2dVertex
 10
116.852856
 20
739.131185
 30
0.0
  0
VERTEX
  5
269
330
2B
100
AcDbEntity
  8
SURVBND
100
AcDbVertex
100
AcDb2dVertex
 10
116.92588
 20
739.1468879999999
 30
0.0
  0
VERTEX
  5
26A
330
2B
100
AcDbEntity
  8
SURVBND
100
AcDbVertex
100
AcDb2dVertex
 10
116.974133
 20
739.124932
 30
0.0
  0
VERTEX
  5
26B
330
2B
100
AcDbEntity
  8
SURVBND
100
AcDbVertex
100
AcDb2dVertex
 10
117.0255909999999
 20
739.05667
 30
0.0
  0
VERTEX
  5
26C
330
2B
100
AcDbEntity
  8
SURVBND
100
AcDbVertex
100
AcDb2dVertex
 10
117.060753
 20
738.99913
 30
0.0
  0
VERTEX
  5
26D
330
2B
100
AcDbEntity
  8
SURVBND
100
AcDbVertex
100
AcDb2dVertex
 10
117.131666
 20
738.945987
 30
0.0
  0
VERTEX
  5
26E
330
2B
100
AcDbEntity
  8
SURVBND
100
AcDbVertex
100
AcDb2dVertex
 10
117.192512
 20
738.9071509999999
 30
0.0
  0
VERTEX
  5
26F
330
2B
100
AcDbEntity
  8
SURVBND
100
AcDbVertex
100
AcDb2dVertex
 10
117.2587009999999
 20
738.893769
 30
0.0
  0
VERTEX
  5
270
330
2B
100
AcDbEntity
  8
SURVBND
100
AcDbVertex
100
AcDb2dVertex
 10
117.334303
 20
738.912363
 30
0.0
  0
VERTEX
  5
271
330
2B
100
AcDbEntity
  8
SURVBND
100
AcDbVertex
100
AcDb2dVertex
 10
117.4005259999999
 20
738.9026259999999
 30
0.0
  0
VERTEX
  5
272
330
2B
100
AcDbEntity
  8
SURVBND
100
AcDbVertex
100
AcDb2dVertex
 10
117.416462
 20
738.8540129999999
 30
0.0
  0
VERTEX
  5
273
330
2B
100
AcDbEntity
  8
SURVBND
100
AcDbVertex
100
AcDb2dVertex
 10
117.445696
 20
738.8245849999999
 30
0.0
  0
VERTEX
  5
274
330
2B
100
AcDbEntity
  8
SURVBND
100
AcDbVertex
100
AcDb2dVertex
 10
117.4659399999999
 20
738.807632
 30
0.0
  0
VERTEX
  5
275
330
2B
100
AcDbEntity
  8
SURVBND
100
AcDbVertex
100
AcDb2dVertex
 10
117.469197
 20
738.766791
 30
0.0
  0
VERTEX
  5
276
330
2B
100
AcDbEntity
  8
SURVBND
100
AcDbVertex
100
AcDb2dVertex
 10
117.4960259999999
 20
738.752691
 30
0.0
  0
VERTEX
  5
277
330
2B
100
AcDbEntity
  8
SURVBND
100
AcDbVertex
100
AcDb2dVertex
 10
117.5827639999999
 20
738.7544179999999
 30
0.0
  0
VERTEX
  5
278
330
2B
100
AcDbEntity
  8
SURVBND
100
AcDbVertex
100
AcDb2dVertex
 10
117.6493879999999
 20
738.7869429999999
 30
0.0
  0
VERTEX
  5
279
330
2B
100
AcDbEntity
  8
SURVBND
100
AcDbVertex
100
AcDb2dVertex
 10
117.6817649999999
 20
738.819794
 30
0.0
  0
VERTEX
  5
27A
330
2B
100
AcDbEntity
  8
SURVBND
100
AcDbVertex
100
AcDb2dVertex
 10
117.735541
 20
738.8422389999999
 30
0.0
  0
VERTEX
  5
27B
330
2B
100
AcDbEntity
  8
SURVBND
100
AcDbVertex
100
AcDb2dVertex
 10
117.800345
 20
738.836523
 30
0.0
  0
VERTEX
  5
27C
330
2B
100
AcDbEntity
  8
SURVBND
100
AcDbVertex
100
AcDb2dVertex
 10
117.868949
 20
738.808908
 30
0.0
  0
VERTEX
  5
27D
330
2B
100
AcDbEntity
  8
SURVBND
100
AcDbVertex
100
AcDb2dVertex
 10
117.9184769999999
 20
738.767628
 30
0.0
  0
VERTEX
  5
27E
330
2B
100
AcDbEntity
  8
SURVBND
100
AcDbVertex
100
AcDb2dVertex
 10
117.938555
 20
738.733187
 30
0.0
  0
VERTEX
  5
27F
330
2B
100
AcDbEntity
  8
SURVBND
100
AcDbVertex
100
AcDb2dVertex
 10
117.98796
 20
738.7174139999999
 30
0.0
  0
VERTEX
  5
280
330
2B
100
AcDbEntity
  8
SURVBND
100
AcDbVertex
100
AcDb2dVertex
 10
118.0458159999999
 20
738.747472
 30
0.0
  0
VERTEX
  5
281
330
2B
100
AcDbEntity
  8
SURVBND
100
AcDbVertex
100
AcDb2dVertex
 10
118.09556
 20
738.7674049999999
 30
0.0
  0
VERTEX
  5
282
330
2B
100
AcDbEntity
  8
SURVBND
100
AcDbVertex
100
AcDb2dVertex
 10
118.176868
 20
738.734568
 30
0.0
  0
VERTEX
  5
283
330
2B
100
AcDbEntity
  8
SURVBND
100
AcDbVertex
100
AcDb2dVertex
 10
118.2815449999999
 20
738.7069759999999
 30
0.0
  0
VERTEX
  5
284
330
2B
100
AcDbEntity
  8
SURVBND
100
AcDbVertex
100
AcDb2dVertex
 10
118.351219
 20
738.6768
 30
0.0
  0
VERTEX
  5
285
330
2B
100
AcDbEntity
  8
SURVBND
100
AcDbVertex
100
AcDb2dVertex
 10
118.398113
 20
738.6268
 30
0.0
  0
VERTEX
  5
286
330
2B
100
AcDbEntity
  8
SURVBND
100
AcDbVertex
100
AcDb2dVertex
 10
118.4026909999999
 20
738.571736
 30
0.0
  0
VERTEX
  5
287
330
2B
100
AcDbEntity
  8
SURVBND
100
AcDbVertex
100
AcDb2dVertex
 10
118.365117
 20
738.5287329999999
 30
0.0
  0
VERTEX
  5
288
330
2B
100
AcDbEntity
  8
SURVBND
100
AcDbVertex
100
AcDb2dVertex
 10
118.312702
 20
738.496072
 30
0.0
  0
VERTEX
  5
289
330
2B
100
AcDbEntity
  8
SURVBND
100
AcDbVertex
100
AcDb2dVertex
 10
118.252233
 20
738.45948
 30
0.0
  0
VERTEX
  5
28A
330
2B
100
AcDbEntity
  8
SURVBND
100
AcDbVertex
100
AcDb2dVertex
 10
118.2042629999999
 20
738.39617
 30
0.0
  0
VERTEX
  5
28B
330
2B
100
AcDbEntity
  8
SURVBND
100
AcDbVertex
100
AcDb2dVertex
 10
118.187131
 20
738.318721
 30
0.0
  0
VERTEX
  5
28C
330
2B
100
AcDbEntity
  8
SURVBND
100
AcDbVertex
100
AcDb2dVertex
 10
118.229883
 20
738.2545499999999
 30
0.0
  0
VERTEX
  5
28D
330
2B
100
AcDbEntity
  8
SURVBND
100
AcDbVertex
100
AcDb2dVertex
 10
118.325998
 20
738.1694679999999
 30
0.0
  0
VERTEX
  5
28E
330
2B
100
AcDbEntity
  8
SURVBND
100
AcDbVertex
100
AcDb2dVertex
 10
118.413743
 20
738.123817
 30
0.0
  0
VERTEX
  5
28F
330
2B
100
AcDbEntity
  8
SURVBND
100
AcDbVertex
100
AcDb2dVertex
 10
118.51898
 20
738.0783639999999
 30
0.0
  0
VERTEX
  5
290
330
2B
100
AcDbEntity
  8
SURVBND
100
AcDbVertex
100
AcDb2dVertex
 10
118.6043439999999
 20
738.0505910000001
 30
0.0
  0
VERTEX
  5
291
330
2B
100
AcDbEntity
  8
SURVBND
100
AcDbVertex
100
AcDb2dVertex
 10
118.688182
 20
738.0155440000001
 30
0.0
  0
VERTEX
  5
292
330
2B
100
AcDbEntity
  8
SURVBND
100
AcDbVertex
100
AcDb2dVertex
 10
118.8054129999999
 20
738.0053219999999
 30
0.0
  0
VERTEX
  5
293
330
2B
100
AcDbEntity
  8
SURVBND
100
AcDbVertex
100
AcDb2dVertex
 10
118.923727
 20
737.993996
 30
0.0
  0
VERTEX
  5
294
330
2B
100
AcDbEntity
  8
SURVBND
100
AcDbVertex
100
AcDb2dVertex
 10
119.001637
 20
737.987063
 30
0.0
  0
VERTEX
  5
295
330
2B
100
AcDbEntity
  8
SURVBND
100
AcDbVertex
100
AcDb2dVertex
 10
119.0312459999999
 20
737.9815469999999
 30
0.0
  0
SEQEND
  5
296
330
2B
100
AcDbEntity
  8
SURVBND
  0
POLYLINE
  5
2C
330
2
100
AcDbEntity
  8
SURVBND
100
AcDb2dPolyline
 66
     1
 10
0.0
 20
0.0
 30
0.0
  0
VERTEX
  5
297
330
2C
100
AcDbEntity
  8
SURVBND
100
AcDbVertex
100
AcDb2dVertex
 10
118.1281639999999
 20
725.695636
 30
0.0
  0
VERTEX
  5
298
330
2C
100
AcDbEntity
  8
SURVBND
100
AcDbVertex
100
AcDb2dVertex
 10
118.055362
 20
725.512678
 30
0.0
  0
VERTEX
  5
299
330
2C
100
AcDbEntity
  8
SURVBND
100
AcDbVertex
100
AcDb2dVertex
 10
118.046756
 20
725.3233349999999
 30
0.0
  0
VERTEX
  5
29A
330
2C
100
AcDbEntity
  8
SURVBND
100
AcDbVertex
100
AcDb2dVertex
 10
118.0410179999999
 20
725.1798929999999
 30
0.0
  0
VERTEX
  5
29B
330
2C
100
AcDbEntity
  8
SURVBND
100
AcDbVertex
100
AcDb2dVertex
 10
118.032412
 20
725.045058
 30
0.0
  0
VERTEX
  5
29C
330
2C
100
AcDbEntity
  8
SURVBND
100
AcDbVertex
100
AcDb2dVertex
 10
118.020936
 20
724.907354
 30
0.0
  0
VERTEX
  5
29D
330
2C
100
AcDbEntity
  8
SURVBND
100
AcDbVertex
100
AcDb2dVertex
 10
118.0037229999999
 20
724.7725189999999
 30
0.0
  0
VERTEX
  5
29E
330
2C
100
AcDbEntity
  8
SURVBND
100
AcDbVertex
100
AcDb2dVertex
 10
117.9954289999999
 20
724.750226
 30
0.0
  0
VERTEX
  5
29F
330
2C
100
AcDbEntity
  8
SURVBND
100
AcDbVertex
100
AcDb2dVertex
 10
117.9796779999999
 20
724.7530239999999
 30
0.0
  0
VERTEX
  5
2A0
330
2C
100
AcDbEntity
  8
SURVBND
100
AcDbVertex
100
AcDb2dVertex
 10
117.965902
 20
724.7508179999999
 30
0.0
  0
VERTEX
  5
2A1
330
2C
100
AcDbEntity
  8
SURVBND
100
AcDbVertex
100
AcDb2dVertex
 10
117.936587
 20
724.7362139999999
 30
0.0
  0
VERTEX
  5
2A2
330
2C
100
AcDbEntity
  8
SURVBND
100
AcDbVertex
100
AcDb2dVertex
 10
117.9022889999999
 20
724.7134110000001
 30
0.0
  0
VERTEX
  5
2A3
330
2C
100
AcDbEntity
  8
SURVBND
100
AcDbVertex
100
AcDb2dVertex
 10
117.883377
 20
724.680192
 30
0.0
  0
VERTEX
  5
2A4
330
2C
100
AcDbEntity
  8
SURVBND
100
AcDbVertex
100
AcDb2dVertex
 10
117.8619019999999
 20
724.6427269999998
 30
0.0
  0
VERTEX
  5
2A5
330
2C
100
AcDbEntity
  8
SURVBND
100
AcDbVertex
100
AcDb2dVertex
 10
117.8360599999999
 20
724.6409530000001
 30
0.0
  0
VERTEX
  5
2A6
330
2C
100
AcDbEntity
  8
SURVBND
100
AcDbVertex
100
AcDb2dVertex
 10
117.8065689999999
 20
724.640586
 30
0.0
  0
VERTEX
  5
2A7
330
2C
100
AcDbEntity
  8
SURVBND
100
AcDbVertex
100
AcDb2dVertex
 10
117.7837479999999
 20
724.62955
 30
0.0
  0
VERTEX
  5
2A8
330
2C
100
AcDbEntity
  8
SURVBND
100
AcDbVertex
100
AcDb2dVertex
 10
117.7693399999999
 20
724.608011
 30
0.0
  0
VERTEX
  5
2A9
330
2C
100
AcDbEntity
  8
SURVBND
100
AcDbVertex
100
AcDb2dVertex
 10
117.7496139999999
 20
724.593526
 30
0.0
  0
VERTEX
  5
2AA
330
2C
100
AcDbEntity
  8
SURVBND
100
AcDbVertex
100
AcDb2dVertex
 10
117.713231
 20
724.5747660000001
 30
0.0
  0
VERTEX
  5
2AB
330
2C
100
AcDbEntity
  8
SURVBND
100
AcDbVertex
100
AcDb2dVertex
 10
117.6961629999999
 20
724.5568269999999
 30
0.0
  0
VERTEX
  5
2AC
330
2C
100
AcDbEntity
  8
SURVBND
100
AcDbVertex
100
AcDb2dVertex
 10
117.6729879999999
 20
724.5392469999999
 30
0.0
  0
VERTEX
  5
2AD
330
2C
100
AcDbEntity
  8
SURVBND
100
AcDbVertex
100
AcDb2dVertex
 10
117.618383
 20
724.5135759999999
 30
0.0
  0
VERTEX
  5
2AE
330
2C
100
AcDbEntity
  8
SURVBND
100
AcDbVertex
100
AcDb2dVertex
 10
117.58953
 20
724.496943
 30
0.0
  0
VERTEX
  5
2AF
330
2C
100
AcDbEntity
  8
SURVBND
100
AcDbVertex
100
AcDb2dVertex
 10
117.5822479999999
 20
724.474912
 30
0.0
  0
VERTEX
  5
2B0
330
2C
100
AcDbEntity
  8
SURVBND
100
AcDbVertex
100
AcDb2dVertex
 10
117.565712
 20
724.449279
 30
0.0
  0
VERTEX
  5
2B1
330
2C
100
AcDbEntity
  8
SURVBND
100
AcDbVertex
100
AcDb2dVertex
 10
117.5309139999999
 20
724.431555
 30
0.0
  0
VERTEX
  5
2B2
330
2C
100
AcDbEntity
  8
SURVBND
100
AcDbVertex
100
AcDb2dVertex
 10
117.4933299999999
 20
724.4276
 30
0.0
  0
VERTEX
  5
2B3
330
2C
100
AcDbEntity
  8
SURVBND
100
AcDbVertex
100
AcDb2dVertex
 10
117.4663659999999
 20
724.4226150000001
 30
0.0
  0
VERTEX
  5
2B4
330
2C
100
AcDbEntity
  8
SURVBND
100
AcDbVertex
100
AcDb2dVertex
 10
117.433274
 20
724.431357
 30
0.0
  0
VERTEX
  5
2B5
330
2C
100
AcDbEntity
  8
SURVBND
100
AcDbVertex
100
AcDb2dVertex
 10
117.4119479999999
 20
724.428622
 30
0.0
  0
VERTEX
  5
2B6
330
2C
100
AcDbEntity
  8
SURVBND
100
AcDbVertex
100
AcDb2dVertex
 10
117.394875
 20
724.4111189999999
 30
0.0
  0
VERTEX
  5
2B7
330
2C
100
AcDbEntity
  8
SURVBND
100
AcDbVertex
100
AcDb2dVertex
 10
117.359983
 20
724.389325
 30
0.0
  0
VERTEX
  5
2B8
330
2C
100
AcDbEntity
  8
SURVBND
100
AcDbVertex
100
AcDb2dVertex
 10
117.323562
 20
724.373616
 30
0.0
  0
VERTEX
  5
2B9
330
2C
100
AcDbEntity
  8
SURVBND
100
AcDbVertex
100
AcDb2dVertex
 10
117.2932379999999
 20
724.3584179999999
 30
0.0
  0
VERTEX
  5
2BA
330
2C
100
AcDbEntity
  8
SURVBND
100
AcDbVertex
100
AcDb2dVertex
 10
117.270202
 20
724.329652
 30
0.0
  0
VERTEX
  5
2BB
330
2C
100
AcDbEntity
  8
SURVBND
100
AcDbVertex
100
AcDb2dVertex
 10
117.2536909999999
 20
724.3019839999999
 30
0.0
  0
VERTEX
  5
2BC
330
2C
100
AcDbEntity
  8
SURVBND
100
AcDbVertex
100
AcDb2dVertex
 10
117.246742
 20
724.288239
 30
0.0
  0
VERTEX
  5
2BD
330
2C
100
AcDbEntity
  8
SURVBND
100
AcDbVertex
100
AcDb2dVertex
 10
117.226701
 20
724.264015
 30
0.0
  0
VERTEX
  5
2BE
330
2C
100
AcDbEntity
  8
SURVBND
100
AcDbVertex
100
AcDb2dVertex
 10
117.20432
 20
724.2643179999999
 30
0.0
  0
VERTEX
  5
2BF
330
2C
100
AcDbEntity
  8
SURVBND
100
AcDbVertex
100
AcDb2dVertex
 10
117.179611
 20
724.2532579999999
 30
0.0
  0
VERTEX
  5
2C0
330
2C
100
AcDbEntity
  8
SURVBND
100
AcDbVertex
100
AcDb2dVertex
 10
117.1543519999999
 20
724.239722
 30
0.0
  0
VERTEX
  5
2C1
330
2C
100
AcDbEntity
  8
SURVBND
100
AcDbVertex
100
AcDb2dVertex
 10
117.133135
 20
724.228269
 30
0.0
  0
VERTEX
  5
2C2
330
2C
100
AcDbEntity
  8
SURVBND
100
AcDbVertex
100
AcDb2dVertex
 10
117.103282
 20
724.210171
 30
0.0
  0
VERTEX
  5
2C3
330
2C
100
AcDbEntity
  8
SURVBND
100
AcDbVertex
100
AcDb2dVertex
 10
117.090355
 20
724.1864719999999
 30
0.0
  0
VERTEX
  5
2C4
330
2C
100
AcDbEntity
  8
SURVBND
100
AcDbVertex
100
AcDb2dVertex
 10
117.0931649999999
 20
724.170814
 30
0.0
  0
VERTEX
  5
2C5
330
2C
100
AcDbEntity
  8
SURVBND
100
AcDbVertex
100
AcDb2dVertex
 10
117.088282
 20
724.154479
 30
0.0
  0
VERTEX
  5
2C6
330
2C
100
AcDbEntity
  8
SURVBND
100
AcDbVertex
100
AcDb2dVertex
 10
117.069069
 20
724.145522
 30
0.0
  0
VERTEX
  5
2C7
330
2C
100
AcDbEntity
  8
SURVBND
100
AcDbVertex
100
AcDb2dVertex
 10
117.0435429999999
 20
724.1533419999999
 30
0.0
  0
VERTEX
  5
2C8
330
2C
100
AcDbEntity
  8
SURVBND
100
AcDbVertex
100
AcDb2dVertex
 10
117.0201649999999
 20
724.1404089999999
 30
0.0
  0
VERTEX
  5
2C9
330
2C
100
AcDbEntity
  8
SURVBND
100
AcDbVertex
100
AcDb2dVertex
 10
116.999461
 20
724.1344849999999
 30
0.0
  0
VERTEX
  5
2CA
330
2C
100
AcDbEntity
  8
SURVBND
100
AcDbVertex
100
AcDb2dVertex
 10
116.974554
 20
724.127637
 30
0.0
  0
VERTEX
  5
2CB
330
2C
100
AcDbEntity
  8
SURVBND
100
AcDbVertex
100
AcDb2dVertex
 10
116.9583459999999
 20
724.12235
 30
0.0
  0
VERTEX
  5
2CC
330
2C
100
AcDbEntity
  8
SURVBND
100
AcDbVertex
100
AcDb2dVertex
 10
116.944336
 20
724.103867
 30
0.0
  0
VERTEX
  5
2CD
330
2C
100
AcDbEntity
  8
SURVBND
100
AcDbVertex
100
AcDb2dVertex
 10
116.9248379999999
 20
724.0827009999999
 30
0.0
  0
VERTEX
  5
2CE
330
2C
100
AcDbEntity
  8
SURVBND
100
AcDbVertex
100
AcDb2dVertex
 10
116.926473
 20
724.068046
 30
0.0
  0
VERTEX
  5
2CF
330
2C
100
AcDbEntity
  8
SURVBND
100
AcDbVertex
100
AcDb2dVertex
 10
116.9429159999999
 20
724.0544469999999
 30
0.0
  0
VERTEX
  5
2D0
330
2C
100
AcDbEntity
  8
SURVBND
100
AcDbVertex
100
AcDb2dVertex
 10
116.963035
 20
724.0374059999999
 30
0.0
  0
VERTEX
  5
2D1
330
2C
100
AcDbEntity
  8
SURVBND
100
AcDbVertex
100
AcDb2dVertex
 10
116.9581899999999
 20
724.018021
 30
0.0
  0
VERTEX
  5
2D2
330
2C
100
AcDbEntity
  8
SURVBND
100
AcDbVertex
100
AcDb2dVertex
 10
116.9524049999999
 20
723.9925209999999
 30
0.0
  0
VERTEX
  5
2D3
330
2C
100
AcDbEntity
  8
SURVBND
100
AcDbVertex
100
AcDb2dVertex
 10
116.947712
 20
723.960932
 30
0.0
  0
VERTEX
  5
2D4
330
2C
100
AcDbEntity
  8
SURVBND
100
AcDbVertex
100
AcDb2dVertex
 10
116.9454639999999
 20
723.931407
 30
0.0
  0
VERTEX
  5
2D5
330
2C
100
AcDbEntity
  8
SURVBND
100
AcDbVertex
100
AcDb2dVertex
 10
116.940252
 20
723.9064959999999
 30
0.0
  0
VERTEX
  5
2D6
330
2C
100
AcDbEntity
  8
SURVBND
100
AcDbVertex
100
AcDb2dVertex
 10
116.921626
 20
723.885341
 30
0.0
  0
VERTEX
  5
2D7
330
2C
100
AcDbEntity
  8
SURVBND
100
AcDbVertex
100
AcDb2dVertex
 10
116.909978
 20
723.8872299999999
 30
0.0
  0
VERTEX
  5
2D8
330
2C
100
AcDbEntity
  8
SURVBND
100
AcDbVertex
100
AcDb2dVertex
 10
116.889974
 20
723.895118
 30
0.0
  0
VERTEX
  5
2D9
330
2C
100
AcDbEntity
  8
SURVBND
100
AcDbVertex
100
AcDb2dVertex
 10
116.87746
 20
723.9199539999999
 30
0.0
  0
VERTEX
  5
2DA
330
2C
100
AcDbEntity
  8
SURVBND
100
AcDbVertex
100
AcDb2dVertex
 10
116.8680029999999
 20
723.944248
 30
0.0
  0
VERTEX
  5
2DB
330
2C
100
AcDbEntity
  8
SURVBND
100
AcDbVertex
100
AcDb2dVertex
 10
116.847084
 20
723.9556119999999
 30
0.0
  0
VERTEX
  5
2DC
330
2C
100
AcDbEntity
  8
SURVBND
100
AcDbVertex
100
AcDb2dVertex
 10
116.8261129999999
 20
723.959419
 30
0.0
  0
VERTEX
  5
2DD
330
2C
100
AcDbEntity
  8
SURVBND
100
AcDbVertex
100
AcDb2dVertex
 10
116.812532
 20
723.9531480000001
 30
0.0
  0
VERTEX
  5
2DE
330
2C
100
AcDbEntity
  8
SURVBND
100
AcDbVertex
100
AcDb2dVertex
 10
116.790203
 20
723.949383
 30
0.0
  0
VERTEX
  5
2DF
330
2C
100
AcDbEntity
  8
SURVBND
100
AcDbVertex
100
AcDb2dVertex
 10
116.761981
 20
723.963707
 30
0.0
  0
VERTEX
  5
2E0
330
2C
100
AcDbEntity
  8
SURVBND
100
AcDbVertex
100
AcDb2dVertex
 10
116.7357659999999
 20
723.9802359999999
 30
0.0
  0
VERTEX
  5
2E1
330
2C
100
AcDbEntity
  8
SURVBND
100
AcDbVertex
100
AcDb2dVertex
 10
116.726399
 20
723.997411
 30
0.0
  0
VERTEX
  5
2E2
330
2C
100
AcDbEntity
  8
SURVBND
100
AcDbVertex
100
AcDb2dVertex
 10
116.712585
 20
724.0098799999999
 30
0.0
  0
VERTEX
  5
2E3
330
2C
100
AcDbEntity
  8
SURVBND
100
AcDbVertex
100
AcDb2dVertex
 10
116.696585
 20
724.022904
 30
0.0
  0
VERTEX
  5
2E4
330
2C
100
AcDbEntity
  8
SURVBND
100
AcDbVertex
100
AcDb2dVertex
 10
116.6851199999999
 20
724.0451379999999
 30
0.0
  0
VERTEX
  5
2E5
330
2C
100
AcDbEntity
  8
SURVBND
100
AcDbVertex
100
AcDb2dVertex
 10
116.6853979999999
 20
724.0695519999999
 30
0.0
  0
VERTEX
  5
2E6
330
2C
100
AcDbEntity
  8
SURVBND
100
AcDbVertex
100
AcDb2dVertex
 10
116.6948089999999
 20
724.0839089999999
 30
0.0
  0
VERTEX
  5
2E7
330
2C
100
AcDbEntity
  8
SURVBND
100
AcDbVertex
100
AcDb2dVertex
 10
116.6925659999999
 20
724.100736
 30
0.0
  0
VERTEX
  5
2E8
330
2C
100
AcDbEntity
  8
SURVBND
100
AcDbVertex
100
AcDb2dVertex
 10
116.6871899999999
 20
724.124063
 30
0.0
  0
VERTEX
  5
2E9
330
2C
100
AcDbEntity
  8
SURVBND
100
AcDbVertex
100
AcDb2dVertex
 10
116.675007
 20
724.1223129999999
 30
0.0
  0
VERTEX
  5
2EA
330
2C
100
AcDbEntity
  8
SURVBND
100
AcDbVertex
100
AcDb2dVertex
 10
116.6696679999999
 20
724.107571
 30
0.0
  0
VERTEX
  5
2EB
330
2C
100
AcDbEntity
  8
SURVBND
100
AcDbVertex
100
AcDb2dVertex
 10
116.659587
 20
724.100326
 30
0.0
  0
VERTEX
  5
2EC
330
2C
100
AcDbEntity
  8
SURVBND
100
AcDbVertex
100
AcDb2dVertex
 10
116.6376749999999
 20
724.098019
 30
0.0
  0
VERTEX
  5
2ED
330
2C
100
AcDbEntity
  8
SURVBND
100
AcDbVertex
100
AcDb2dVertex
 10
116.6147269999999
 20
724.108922
 30
0.0
  0
VERTEX
  5
2EE
330
2C
100
AcDbEntity
  8
SURVBND
100
AcDbVertex
100
AcDb2dVertex
 10
116.610533
 20
724.119041
 30
0.0
  0
VERTEX
  5
2EF
330
2C
100
AcDbEntity
  8
SURVBND
100
AcDbVertex
100
AcDb2dVertex
 10
116.622004
 20
724.131389
 30
0.0
  0
VERTEX
  5
2F0
330
2C
100
AcDbEntity
  8
SURVBND
100
AcDbVertex
100
AcDb2dVertex
 10
116.620406
 20
724.1429929999999
 30
0.0
  0
VERTEX
  5
2F1
330
2C
100
AcDbEntity
  8
SURVBND
100
AcDbVertex
100
AcDb2dVertex
 10
116.5982719999999
 20
724.1585559999999
 30
0.0
  0
VERTEX
  5
2F2
330
2C
100
AcDbEntity
  8
SURVBND
100
AcDbVertex
100
AcDb2dVertex
 10
116.567259
 20
724.1636909999999
 30
0.0
  0
VERTEX
  5
2F3
330
2C
100
AcDbEntity
  8
SURVBND
100
AcDbVertex
100
AcDb2dVertex
 10
116.5345389999999
 20
724.177524
 30
0.0
  0
VERTEX
  5
2F4
330
2C
100
AcDbEntity
  8
SURVBND
100
AcDbVertex
100
AcDb2dVertex
 10
116.528777
 20
724.1851529999999
 30
0.0
  0
VERTEX
  5
2F5
330
2C
100
AcDbEntity
  8
SURVBND
100
AcDbVertex
100
AcDb2dVertex
 10
116.5362489999999
 20
724.2035549999999
 30
0.0
  0
VERTEX
  5
2F6
330
2C
100
AcDbEntity
  8
SURVBND
100
AcDbVertex
100
AcDb2dVertex
 10
116.5293769999999
 20
724.2187259999999
 30
0.0
  0
VERTEX
  5
2F7
330
2C
100
AcDbEntity
  8
SURVBND
100
AcDbVertex
100
AcDb2dVertex
 10
116.5177919999999
 20
724.2155299999999
 30
0.0
  0
VERTEX
  5
2F8
330
2C
100
AcDbEntity
  8
SURVBND
100
AcDbVertex
100
AcDb2dVertex
 10
116.5083569999999
 20
724.1914379999999
 30
0.0
  0
VERTEX
  5
2F9
330
2C
100
AcDbEntity
  8
SURVBND
100
AcDbVertex
100
AcDb2dVertex
 10
116.486646
 20
724.1846289999999
 30
0.0
  0
VERTEX
  5
2FA
330
2C
100
AcDbEntity
  8
SURVBND
100
AcDbVertex
100
AcDb2dVertex
 10
116.459157
 20
724.186758
 30
0.0
  0
VERTEX
  5
2FB
330
2C
100
AcDbEntity
  8
SURVBND
100
AcDbVertex
100
AcDb2dVertex
 10
116.4407699999999
 20
724.1814429999999
 30
0.0
  0
VERTEX
  5
2FC
330
2C
100
AcDbEntity
  8
SURVBND
100
AcDbVertex
100
AcDb2dVertex
 10
116.431927
 20
724.1564869999999
 30
0.0
  0
VERTEX
  5
2FD
330
2C
100
AcDbEntity
  8
SURVBND
100
AcDbVertex
100
AcDb2dVertex
 10
116.4260979999999
 20
724.134474
 30
0.0
  0
VERTEX
  5
2FE
330
2C
100
AcDbEntity
  8
SURVBND
100
AcDbVertex
100
AcDb2dVertex
 10
116.411936
 20
724.128195
 30
0.0
  0
VERTEX
  5
2FF
330
2C
100
AcDbEntity
  8
SURVBND
100
AcDbVertex
100
AcDb2dVertex
 10
116.3937629999999
 20
724.1173619999999
 30
0.0
  0
VERTEX
  5
300
330
2C
100
AcDbEntity
  8
SURVBND
100
AcDbVertex
100
AcDb2dVertex
 10
116.3803409999999
 20
724.0983049999999
 30
0.0
  0
VERTEX
  5
301
330
2C
100
AcDbEntity
  8
SURVBND
100
AcDbVertex
100
AcDb2dVertex
 10
116.371391
 20
724.0819199999999
 30
0.0
  0
VERTEX
  5
302
330
2C
100
AcDbEntity
  8
SURVBND
100
AcDbVertex
100
AcDb2dVertex
 10
116.3675889999999
 20
724.060513
 30
0.0
  0
VERTEX
  5
303
330
2C
100
AcDbEntity
  8
SURVBND
100
AcDbVertex
100
AcDb2dVertex
 10
116.3842199999999
 20
724.0318049999999
 30
0.0
  0
VERTEX
  5
304
330
2C
100
AcDbEntity
  8
SURVBND
100
AcDbVertex
100
AcDb2dVertex
 10
116.390039
 20
724.007903
 30
0.0
  0
VERTEX
  5
305
330
2C
100
AcDbEntity
  8
SURVBND
100
AcDbVertex
100
AcDb2dVertex
 10
116.397283
 20
723.962804
 30
0.0
  0
VERTEX
  5
306
330
2C
100
AcDbEntity
  8
SURVBND
100
AcDbVertex
100
AcDb2dVertex
 10
116.40439
 20
723.9171219999999
 30
0.0
  0
VERTEX
  5
307
330
2C
100
AcDbEntity
  8
SURVBND
100
AcDbVertex
100
AcDb2dVertex
 10
116.394343
 20
723.872098
 30
0.0
  0
VERTEX
  5
308
330
2C
100
AcDbEntity
  8
SURVBND
100
AcDbVertex
100
AcDb2dVertex
 10
116.3827519999999
 20
723.8226969999999
 30
0.0
  0
VERTEX
  5
309
330
2C
100
AcDbEntity
  8
SURVBND
100
AcDbVertex
100
AcDb2dVertex
 10
116.3623199999999
 20
723.783211
 30
0.0
  0
VERTEX
  5
30A
330
2C
100
AcDbEntity
  8
SURVBND
100
AcDbVertex
100
AcDb2dVertex
 10
116.360759
 20
723.7451219999999
 30
0.0
  0
VERTEX
  5
30B
330
2C
100
AcDbEntity
  8
SURVBND
100
AcDbVertex
100
AcDb2dVertex
 10
116.381617
 20
723.7036799999999
 30
0.0
  0
VERTEX
  5
30C
330
2C
100
AcDbEntity
  8
SURVBND
100
AcDbVertex
100
AcDb2dVertex
 10
116.3973209999999
 20
723.6676949999999
 30
0.0
  0
VERTEX
  5
30D
330
2C
100
AcDbEntity
  8
SURVBND
100
AcDbVertex
100
AcDb2dVertex
 10
116.410023
 20
723.674537
 30
0.0
  0
VERTEX
  5
30E
330
2C
100
AcDbEntity
  8
SURVBND
100
AcDbVertex
100
AcDb2dVertex
 10
116.4353659999999
 20
723.6813909999999
 30
0.0
  0
VERTEX
  5
30F
330
2C
100
AcDbEntity
  8
SURVBND
100
AcDbVertex
100
AcDb2dVertex
 10
116.477175
 20
723.672757
 30
0.0
  0
VERTEX
  5
310
330
2C
100
AcDbEntity
  8
SURVBND
100
AcDbVertex
100
AcDb2dVertex
 10
116.478981
 20
723.656069
 30
0.0
  0
VERTEX
  5
311
330
2C
100
AcDbEntity
  8
SURVBND
100
AcDbVertex
100
AcDb2dVertex
 10
116.4681929999999
 20
723.623823
 30
0.0
  0
VERTEX
  5
312
330
2C
100
AcDbEntity
  8
SURVBND
100
AcDbVertex
100
AcDb2dVertex
 10
116.470008
 20
723.594785
 30
0.0
  0
VERTEX
  5
313
330
2C
100
AcDbEntity
  8
SURVBND
100
AcDbVertex
100
AcDb2dVertex
 10
116.488849
 20
723.5986519999999
 30
0.0
  0
VERTEX
  5
314
330
2C
100
AcDbEntity
  8
SURVBND
100
AcDbVertex
100
AcDb2dVertex
 10
116.5083919999999
 20
723.6161860000001
 30
0.0
  0
VERTEX
  5
315
330
2C
100
AcDbEntity
  8
SURVBND
100
AcDbVertex
100
AcDb2dVertex
 10
116.5260139999999
 20
723.636312
 30
0.0
  0
VERTEX
  5
316
330
2C
100
AcDbEntity
  8
SURVBND
100
AcDbVertex
100
AcDb2dVertex
 10
116.546125
 20
723.6548700000001
 30
0.0
  0
VERTEX
  5
317
330
2C
100
AcDbEntity
  8
SURVBND
100
AcDbVertex
100
AcDb2dVertex
 10
116.570123
 20
723.6413650000001
 30
0.0
  0
VERTEX
  5
318
330
2C
100
AcDbEntity
  8
SURVBND
100
AcDbVertex
100
AcDb2dVertex
 10
116.583224
 20
723.6161
 30
0.0
  0
VERTEX
  5
319
330
2C
100
AcDbEntity
  8
SURVBND
100
AcDbVertex
100
AcDb2dVertex
 10
116.566271
 20
723.5888629999999
 30
0.0
  0
VERTEX
  5
31A
330
2C
100
AcDbEntity
  8
SURVBND
100
AcDbVertex
100
AcDb2dVertex
 10
116.550423
 20
723.589683
 30
0.0
  0
VERTEX
  5
31B
330
2C
100
AcDbEntity
  8
SURVBND
100
AcDbVertex
100
AcDb2dVertex
 10
116.52611
 20
723.581825
 30
0.0
  0
VERTEX
  5
31C
330
2C
100
AcDbEntity
  8
SURVBND
100
AcDbVertex
100
AcDb2dVertex
 10
116.50876
 20
723.5515309999999
 30
0.0
  0
VERTEX
  5
31D
330
2C
100
AcDbEntity
  8
SURVBND
100
AcDbVertex
100
AcDb2dVertex
 10
116.489886
 20
723.515262
 30
0.0
  0
VERTEX
  5
31E
330
2C
100
AcDbEntity
  8
SURVBND
100
AcDbVertex
100
AcDb2dVertex
 10
116.4647149999999
 20
723.4946059999999
 30
0.0
  0
VERTEX
  5
31F
330
2C
100
AcDbEntity
  8
SURVBND
100
AcDbVertex
100
AcDb2dVertex
 10
116.451161
 20
723.474531
 30
0.0
  0
VERTEX
  5
320
330
2C
100
AcDbEntity
  8
SURVBND
100
AcDbVertex
100
AcDb2dVertex
 10
116.427341
 20
723.4270119999999
 30
0.0
  0
VERTEX
  5
321
330
2C
100
AcDbEntity
  8
SURVBND
100
AcDbVertex
100
AcDb2dVertex
 10
116.4056439999999
 20
723.407417
 30
0.0
  0
VERTEX
  5
322
330
2C
100
AcDbEntity
  8
SURVBND
100
AcDbVertex
100
AcDb2dVertex
 10
116.3878639999999
 20
723.4117
 30
0.0
  0
VERTEX
  5
323
330
2C
100
AcDbEntity
  8
SURVBND
100
AcDbVertex
100
AcDb2dVertex
 10
116.3652889999999
 20
723.427693
 30
0.0
  0
VERTEX
  5
324
330
2C
100
AcDbEntity
  8
SURVBND
100
AcDbVertex
100
AcDb2dVertex
 10
116.352555
 20
723.4234659999999
 30
0.0
  0
VERTEX
  5
325
330
2C
100
AcDbEntity
  8
SURVBND
100
AcDbVertex
100
AcDb2dVertex
 10
116.341646
 20
723.4009539999999
 30
0.0
  0
VERTEX
  5
326
330
2C
100
AcDbEntity
  8
SURVBND
100
AcDbVertex
100
AcDb2dVertex
 10
116.318635
 20
723.4169419999999
 30
0.0
  0
VERTEX
  5
327
330
2C
100
AcDbEntity
  8
SURVBND
100
AcDbVertex
100
AcDb2dVertex
 10
116.291479
 20
723.4273559999999
 30
0.0
  0
VERTEX
  5
328
330
2C
100
AcDbEntity
  8
SURVBND
100
AcDbVertex
100
AcDb2dVertex
 10
116.2810949999999
 20
723.444518
 30
0.0
  0
VERTEX
  5
329
330
2C
100
AcDbEntity
  8
SURVBND
100
AcDbVertex
100
AcDb2dVertex
 10
116.253264
 20
723.474104
 30
0.0
  0
VERTEX
  5
32A
330
2C
100
AcDbEntity
  8
SURVBND
100
AcDbVertex
100
AcDb2dVertex
 10
116.2479189999999
 20
723.494961
 30
0.0
  0
VERTEX
  5
32B
330
2C
100
AcDbEntity
  8
SURVBND
100
AcDbVertex
100
AcDb2dVertex
 10
116.248128
 20
723.5248959999999
 30
0.0
  0
VERTEX
  5
32C
330
2C
100
AcDbEntity
  8
SURVBND
100
AcDbVertex
100
AcDb2dVertex
 10
116.2480889999999
 20
723.5631099999999
 30
0.0
  0
VERTEX
  5
32D
330
2C
100
AcDbEntity
  8
SURVBND
100
AcDbVertex
100
AcDb2dVertex
 10
116.2411719999999
 20
723.5935379999999
 30
0.0
  0
VERTEX
  5
32E
330
2C
100
AcDbEntity
  8
SURVBND
100
AcDbVertex
100
AcDb2dVertex
 10
116.218627
 20
723.607061
 30
0.0
  0
VERTEX
  5
32F
330
2C
100
AcDbEntity
  8
SURVBND
100
AcDbVertex
100
AcDb2dVertex
 10
116.213776
 20
723.623274
 30
0.0
  0
VERTEX
  5
330
330
2C
100
AcDbEntity
  8
SURVBND
100
AcDbVertex
100
AcDb2dVertex
 10
116.2021919999999
 20
723.6550969999999
 30
0.0
  0
VERTEX
  5
331
330
2C
100
AcDbEntity
  8
SURVBND
100
AcDbVertex
100
AcDb2dVertex
 10
116.1862159999999
 20
723.6778559999999
 30
0.0
  0
VERTEX
  5
332
330
2C
100
AcDbEntity
  8
SURVBND
100
AcDbVertex
100
AcDb2dVertex
 10
116.169907
 20
723.680704
 30
0.0
  0
VERTEX
  5
333
330
2C
100
AcDbEntity
  8
SURVBND
100
AcDbVertex
100
AcDb2dVertex
 10
116.135867
 20
723.672144
 30
0.0
  0
VERTEX
  5
334
330
2C
100
AcDbEntity
  8
SURVBND
100
AcDbVertex
100
AcDb2dVertex
 10
116.112712
 20
723.652967
 30
0.0
  0
VERTEX
  5
335
330
2C
100
AcDbEntity
  8
SURVBND
100
AcDbVertex
100
AcDb2dVertex
 10
116.087534
 20
723.6328929999999
 30
0.0
  0
VERTEX
  5
336
330
2C
100
AcDbEntity
  8
SURVBND
100
AcDbVertex
100
AcDb2dVertex
 10
116.0591799999999
 20
723.622805
 30
0.0
  0
VERTEX
  5
337
330
2C
100
AcDbEntity
  8
SURVBND
100
AcDbVertex
100
AcDb2dVertex
 10
116.029972
 20
723.6346469999999
 30
0.0
  0
VERTEX
  5
338
330
2C
100
AcDbEntity
  8
SURVBND
100
AcDbVertex
100
AcDb2dVertex
 10
116.0085699999999
 20
723.6848
 30
0.0
  0
VERTEX
  5
339
330
2C
100
AcDbEntity
  8
SURVBND
100
AcDbVertex
100
AcDb2dVertex
 10
115.975939
 20
723.726532
 30
0.0
  0
VERTEX
  5
33A
330
2C
100
AcDbEntity
  8
SURVBND
100
AcDbVertex
100
AcDb2dVertex
 10
115.95397
 20
723.7404989999999
 30
0.0
  0
VERTEX
  5
33B
330
2C
100
AcDbEntity
  8
SURVBND
100
AcDbVertex
100
AcDb2dVertex
 10
115.941924
 20
723.727708
 30
0.0
  0
VERTEX
  5
33C
330
2C
100
AcDbEntity
  8
SURVBND
100
AcDbVertex
100
AcDb2dVertex
 10
115.9499459999999
 20
723.690174
 30
0.0
  0
VERTEX
  5
33D
330
2C
100
AcDbEntity
  8
SURVBND
100
AcDbVertex
100
AcDb2dVertex
 10
115.9538509999999
 20
723.6682819999999
 30
0.0
  0
VERTEX
  5
33E
330
2C
100
AcDbEntity
  8
SURVBND
100
AcDbVertex
100
AcDb2dVertex
 10
115.945501
 20
723.6386819999999
 30
0.0
  0
VERTEX
  5
33F
330
2C
100
AcDbEntity
  8
SURVBND
100
AcDbVertex
100
AcDb2dVertex
 10
115.9378139999999
 20
723.6025509999999
 30
0.0
  0
VERTEX
  5
340
330
2C
100
AcDbEntity
  8
SURVBND
100
AcDbVertex
100
AcDb2dVertex
 10
115.9308989999999
 20
723.586046
 30
0.0
  0
VERTEX
  5
341
330
2C
100
AcDbEntity
  8
SURVBND
100
AcDbVertex
100
AcDb2dVertex
 10
115.912214
 20
723.581309
 30
0.0
  0
VERTEX
  5
342
330
2C
100
AcDbEntity
  8
SURVBND
100
AcDbVertex
100
AcDb2dVertex
 10
115.875181
 20
723.5680620000001
 30
0.0
  0
VERTEX
  5
343
330
2C
100
AcDbEntity
  8
SURVBND
100
AcDbVertex
100
AcDb2dVertex
 10
115.87188
 20
723.557634
 30
0.0
  0
VERTEX
  5
344
330
2C
100
AcDbEntity
  8
SURVBND
100
AcDbVertex
100
AcDb2dVertex
 10
115.86767
 20
723.56299
 30
0.0
  0
VERTEX
  5
345
330
2C
100
AcDbEntity
  8
SURVBND
100
AcDbVertex
100
AcDb2dVertex
 10
115.8450329999999
 20
723.54489
 30
0.0
  0
VERTEX
  5
346
330
2C
100
AcDbEntity
  8
SURVBND
100
AcDbVertex
100
AcDb2dVertex
 10
115.795328
 20
723.5305889999999
 30
0.0
  0
VERTEX
  5
347
330
2C
100
AcDbEntity
  8
SURVBND
100
AcDbVertex
100
AcDb2dVertex
 10
115.7522319999999
 20
723.5093779999999
 30
0.0
  0
VERTEX
  5
348
330
2C
100
AcDbEntity
  8
SURVBND
100
AcDbVertex
100
AcDb2dVertex
 10
115.715734
 20
723.4968069999999
 30
0.0
  0
VERTEX
  5
349
330
2C
100
AcDbEntity
  8
SURVBND
100
AcDbVertex
100
AcDb2dVertex
 10
115.671687
 20
723.4689009999999
 30
0.0
  0
VERTEX
  5
34A
330
2C
100
AcDbEntity
  8
SURVBND
100
AcDbVertex
100
AcDb2dVertex
 10
115.644932
 20
723.4558459999999
 30
0.0
  0
VERTEX
  5
34B
330
2C
100
AcDbEntity
  8
SURVBND
100
AcDbVertex
100
AcDb2dVertex
 10
115.613855
 20
723.453502
 30
0.0
  0
VERTEX
  5
34C
330
2C
100
AcDbEntity
  8
SURVBND
100
AcDbVertex
100
AcDb2dVertex
 10
115.577821
 20
723.452708
 30
0.0
  0
VERTEX
  5
34D
330
2C
100
AcDbEntity
  8
SURVBND
100
AcDbVertex
100
AcDb2dVertex
 10
115.559674
 20
723.4362499999999
 30
0.0
  0
VERTEX
  5
34E
330
2C
100
AcDbEntity
  8
SURVBND
100
AcDbVertex
100
AcDb2dVertex
 10
115.540005
 20
723.4120749999999
 30
0.0
  0
VERTEX
  5
34F
330
2C
100
AcDbEntity
  8
SURVBND
100
AcDbVertex
100
AcDb2dVertex
 10
115.5045649999999
 20
723.3954459999999
 30
0.0
  0
VERTEX
  5
350
330
2C
100
AcDbEntity
  8
SURVBND
100
AcDbVertex
100
AcDb2dVertex
 10
115.4625199999999
 20
723.385436
 30
0.0
  0
VERTEX
  5
351
330
2C
100
AcDbEntity
  8
SURVBND
100
AcDbVertex
100
AcDb2dVertex
 10
115.436438
 20
723.392297
 30
0.0
  0
VERTEX
  5
352
330
2C
100
AcDbEntity
  8
SURVBND
100
AcDbVertex
100
AcDb2dVertex
 10
115.4080989999999
 20
723.4215159999999
 30
0.0
  0
VERTEX
  5
353
330
2C
100
AcDbEntity
  8
SURVBND
100
AcDbVertex
100
AcDb2dVertex
 10
115.38443
 20
723.448748
 30
0.0
  0
VERTEX
  5
354
330
2C
100
AcDbEntity
  8
SURVBND
100
AcDbVertex
100
AcDb2dVertex
 10
115.360649
 20
723.443425
 30
0.0
  0
VERTEX
  5
355
330
2C
100
AcDbEntity
  8
SURVBND
100
AcDbVertex
100
AcDb2dVertex
 10
115.323444
 20
723.44349
 30
0.0
  0
VERTEX
  5
356
330
2C
100
AcDbEntity
  8
SURVBND
100
AcDbVertex
100
AcDb2dVertex
 10
115.278297
 20
723.438536
 30
0.0
  0
VERTEX
  5
357
330
2C
100
AcDbEntity
  8
SURVBND
100
AcDbVertex
100
AcDb2dVertex
 10
115.243187
 20
723.4325179999999
 30
0.0
  0
VERTEX
  5
358
330
2C
100
AcDbEntity
  8
SURVBND
100
AcDbVertex
100
AcDb2dVertex
 10
115.214199
 20
723.439351
 30
0.0
  0
VERTEX
  5
359
330
2C
100
AcDbEntity
  8
SURVBND
100
AcDbVertex
100
AcDb2dVertex
 10
115.1737139999999
 20
723.462346
 30
0.0
  0
VERTEX
  5
35A
330
2C
100
AcDbEntity
  8
SURVBND
100
AcDbVertex
100
AcDb2dVertex
 10
115.144149
 20
723.468736
 30
0.0
  0
VERTEX
  5
35B
330
2C
100
AcDbEntity
  8
SURVBND
100
AcDbVertex
100
AcDb2dVertex
 10
115.121179
 20
723.484203
 30
0.0
  0
VERTEX
  5
35C
330
2C
100
AcDbEntity
  8
SURVBND
100
AcDbVertex
100
AcDb2dVertex
 10
115.1075159999999
 20
723.469825
 30
0.0
  0
VERTEX
  5
35D
330
2C
100
AcDbEntity
  8
SURVBND
100
AcDbVertex
100
AcDb2dVertex
 10
115.095932
 20
723.4509619999999
 30
0.0
  0
VERTEX
  5
35E
330
2C
100
AcDbEntity
  8
SURVBND
100
AcDbVertex
100
AcDb2dVertex
 10
115.0537909999999
 20
723.4505429999999
 30
0.0
  0
VERTEX
  5
35F
330
2C
100
AcDbEntity
  8
SURVBND
100
AcDbVertex
100
AcDb2dVertex
 10
115.0202439999999
 20
723.4481739999999
 30
0.0
  0
VERTEX
  5
360
330
2C
100
AcDbEntity
  8
SURVBND
100
AcDbVertex
100
AcDb2dVertex
 10
115.0028709999999
 20
723.45614
 30
0.0
  0
VERTEX
  5
361
330
2C
100
AcDbEntity
  8
SURVBND
100
AcDbVertex
100
AcDb2dVertex
 10
114.990265
 20
723.496125
 30
0.0
  0
VERTEX
  5
362
330
2C
100
AcDbEntity
  8
SURVBND
100
AcDbVertex
100
AcDb2dVertex
 10
114.975756
 20
723.5230109999999
 30
0.0
  0
VERTEX
  5
363
330
2C
100
AcDbEntity
  8
SURVBND
100
AcDbVertex
100
AcDb2dVertex
 10
114.953974
 20
723.5650849999999
 30
0.0
  0
VERTEX
  5
364
330
2C
100
AcDbEntity
  8
SURVBND
100
AcDbVertex
100
AcDb2dVertex
 10
114.941112
 20
723.602701
 30
0.0
  0
VERTEX
  5
365
330
2C
100
AcDbEntity
  8
SURVBND
100
AcDbVertex
100
AcDb2dVertex
 10
114.936947
 20
723.6077719999999
 30
0.0
  0
SEQEND
  5
366
330
2C
100
AcDbEntity
  8
SURVBND
  0
POLYLINE
  5
2D
330
2
100
AcDbEntity
  8
SITES
100
AcDb2dPolyline
 66
     1
 10
0.0
 20
0.0
 30
0.0
 70
     1
 40
0.120874062325532
 41
0.120874062325532
  0
VERTEX
  5
367
330
2D
100
AcDbEntity
  8
SITES
100
AcDbVertex
100
AcDb2dVertex
 10
116.142022955377
 20
726.9882064584971
 30
0.0
 42
1.0
  0
VERTEX
  5
368
330
2D
100
AcDbEntity
  8
SITES
100
AcDbVertex
100
AcDb2dVertex
 10
116.2711488930515
 20
726.9882064584971
 30
0.0
 42
1.0
  0
SEQEND
  5
369
330
2D
100
AcDbEntity
  8
SITES
  0
TEXT
  5
2E
330
2
100
AcDbEntity
  8
SITES
100
AcDbText
 10
115.7237994255486
 20
727.297187495725
 30
0.0
 40
0.2
  1
VP918
100
AcDbText
  0
TEXT
  5
2F
330
2
100
AcDbEntity
  8
SITES
100
AcDbText
 10
115.4244148883672
 20
731.0277004026337
 30
0.0
 40
0.2
  1
VP771
100
AcDbText
  0
TEXT
  5
30
330
2
100
AcDbEntity
  8
SITES
100
AcDbText
 10
115.3292199274503
 20
724.3308473323602
 30
0.0
 40
0.2
  1
VP447
100
AcDbText
  0
TEXT
  5
31
330
2
100
AcDbEntity
  8
SITES
100
AcDbText
 10
115.4694534635186
 20
733.237542438453
 30
0.0
 40
0.2
  1
VP183
100
AcDbText
  0
TEXT
  5
32
330
2
100
AcDbEntity
  8
SITES
100
AcDbText
 10
115.928204942946
 20
728.5347092979422
 30
0.0
 40
0.2
  1
VP1355
100
AcDbText
  0
POLYLINE
  5
33
330
2
100
AcDbEntity
  8
SURVBND
100
AcDb2dPolyline
 66
     1
 10
0.0
 20
0.0
 30
0.0
  0
VERTEX
  5
36A
330
33
100
AcDbEntity
  8
SURVBND
100
AcDbVertex
100
AcDb2dVertex
 10
114.896259
 20
723.9465769999999
 30
0.0
  0
VERTEX
  5
36B
330
33
100
AcDbEntity
  8
SURVBND
100
AcDbVertex
100
AcDb2dVertex
 10
114.8567409999999
 20
723.9309239999999
 30
0.0
  0
VERTEX
  5
36C
330
33
100
AcDbEntity
  8
SURVBND
100
AcDbVertex
100
AcDb2dVertex
 10
114.809804
 20
723.930457
 30
0.0
  0
VERTEX
  5
36D
330
33
100
AcDbEntity
  8
SURVBND
100
AcDbVertex
100
AcDb2dVertex
 10
114.7573399999999
 20
723.945194
 30
0.0
  0
VERTEX
  5
36E
330
33
100
AcDbEntity
  8
SURVBND
100
AcDbVertex
100
AcDb2dVertex
 10
114.722893
 20
723.974788
 30
0.0
  0
VERTEX
  5
36F
330
33
100
AcDbEntity
  8
SURVBND
100
AcDbVertex
100
AcDb2dVertex
 10
114.6984439999999
 20
723.9781780000001
 30
0.0
  0
VERTEX
  5
370
330
33
100
AcDbEntity
  8
SURVBND
100
AcDbVertex
100
AcDb2dVertex
 10
114.667675
 20
723.95956
 30
0.0
  0
VERTEX
  5
371
330
33
100
AcDbEntity
  8
SURVBND
100
AcDbVertex
100
AcDb2dVertex
 10
114.6479999999999
 20
723.9359669999999
 30
0.0
  0
VERTEX
  5
372
330
33
100
AcDbEntity
  8
SURVBND
100
AcDbVertex
100
AcDb2dVertex
 10
114.620308
 20
723.9147639999999
 30
0.0
  0
VERTEX
  5
373
330
33
100
AcDbEntity
  8
SURVBND
100
AcDbVertex
100
AcDb2dVertex
 10
114.588805
 20
723.911399
 30
0.0
  0
VERTEX
  5
374
330
33
100
AcDbEntity
  8
SURVBND
100
AcDbVertex
100
AcDb2dVertex
 10
114.553472
 20
723.927905
 30
0.0
  0
VERTEX
  5
375
330
33
100
AcDbEntity
  8
SURVBND
100
AcDbVertex
100
AcDb2dVertex
 10
114.501347
 20
723.9522369999999
 30
0.0
  0
VERTEX
  5
376
330
33
100
AcDbEntity
  8
SURVBND
100
AcDbVertex
100
AcDb2dVertex
 10
114.479852
 20
723.945863
 30
0.0
  0
VERTEX
  5
377
330
33
100
AcDbEntity
  8
SURVBND
100
AcDbVertex
100
AcDb2dVertex
 10
114.491256
 20
723.932973
 30
0.0
  0
VERTEX
  5
378
330
33
100
AcDbEntity
  8
SURVBND
100
AcDbVertex
100
AcDb2dVertex
 10
114.536027
 20
723.9128369999999
 30
0.0
  0
VERTEX
  5
379
330
33
100
AcDbEntity
  8
SURVBND
100
AcDbVertex
100
AcDb2dVertex
 10
114.602796
 20
723.870443
 30
0.0
  0
VERTEX
  5
37A
330
33
100
AcDbEntity
  8
SURVBND
100
AcDbVertex
100
AcDb2dVertex
 10
114.6642919999999
 20
723.8406509999999
 30
0.0
  0
VERTEX
  5
37B
330
33
100
AcDbEntity
  8
SURVBND
100
AcDbVertex
100
AcDb2dVertex
 10
114.7229499999999
 20
723.7947429999999
 30
0.0
  0
VERTEX
  5
37C
330
33
100
AcDbEntity
  8
SURVBND
100
AcDbVertex
100
AcDb2dVertex
 10
114.747433
 20
723.7678519999999
 30
0.0
  0
VERTEX
  5
37D
330
33
100
AcDbEntity
  8
SURVBND
100
AcDbVertex
100
AcDb2dVertex
 10
114.7480889999999
 20
723.7124259999999
 30
0.0
  0
VERTEX
  5
37E
330
33
100
AcDbEntity
  8
SURVBND
100
AcDbVertex
100
AcDb2dVertex
 10
114.743766
 20
723.668298
 30
0.0
  0
VERTEX
  5
37F
330
33
100
AcDbEntity
  8
SURVBND
100
AcDbVertex
100
AcDb2dVertex
 10
114.741884
 20
723.6307099999999
 30
0.0
  0
VERTEX
  5
380
330
33
100
AcDbEntity
  8
SURVBND
100
AcDbVertex
100
AcDb2dVertex
 10
114.7247829999999
 20
723.588998
 30
0.0
  0
VERTEX
  5
381
330
33
100
AcDbEntity
  8
SURVBND
100
AcDbVertex
100
AcDb2dVertex
 10
114.720233
 20
723.579034
 30
0.0
  0
VERTEX
  5
382
330
33
100
AcDbEntity
  8
SURVBND
100
AcDbVertex
100
AcDb2dVertex
 10
114.715207
 20
723.5789839999999
 30
0.0
  0
VERTEX
  5
383
330
33
100
AcDbEntity
  8
SURVBND
100
AcDbVertex
100
AcDb2dVertex
 10
114.692203
 20
723.583261
 30
0.0
  0
VERTEX
  5
384
330
33
100
AcDbEntity
  8
SURVBND
100
AcDbVertex
100
AcDb2dVertex
 10
114.656479
 20
723.595112
 30
0.0
  0
VERTEX
  5
385
330
33
100
AcDbEntity
  8
SURVBND
100
AcDbVertex
100
AcDb2dVertex
 10
114.6202189999999
 20
723.6171320000001
 30
0.0
  0
VERTEX
  5
386
330
33
100
AcDbEntity
  8
SURVBND
100
AcDbVertex
100
AcDb2dVertex
 10
114.585943
 20
723.62958
 30
0.0
  0
VERTEX
  5
387
330
33
100
AcDbEntity
  8
SURVBND
100
AcDbVertex
100
AcDb2dVertex
 10
114.5694959999999
 20
723.6467099999999
 30
0.0
  0
VERTEX
  5
388
330
33
100
AcDbEntity
  8
SURVBND
100
AcDbVertex
100
AcDb2dVertex
 10
114.5794449999999
 20
723.6691889999999
 30
0.0
  0
VERTEX
  5
389
330
33
100
AcDbEntity
  8
SURVBND
100
AcDbVertex
100
AcDb2dVertex
 10
114.573842
 20
723.677272
 30
0.0
  0
VERTEX
  5
38A
330
33
100
AcDbEntity
  8
SURVBND
100
AcDbVertex
100
AcDb2dVertex
 10
114.55367
 20
723.6597769999999
 30
0.0
  0
VERTEX
  5
38B
330
33
100
AcDbEntity
  8
SURVBND
100
AcDbVertex
100
AcDb2dVertex
 10
114.538519
 20
723.6488719999999
 30
0.0
  0
VERTEX
  5
38C
330
33
100
AcDbEntity
  8
SURVBND
100
AcDbVertex
100
AcDb2dVertex
 10
114.5149729999999
 20
723.6492189999999
 30
0.0
  0
VERTEX
  5
38D
330
33
100
AcDbEntity
  8
SURVBND
100
AcDbVertex
100
AcDb2dVertex
 10
114.4820739999999
 20
723.6401719999999
 30
0.0
  0
VERTEX
  5
38E
330
33
100
AcDbEntity
  8
SURVBND
100
AcDbVertex
100
AcDb2dVertex
 10
114.456942
 20
723.653728
 30
0.0
  0
VERTEX
  5
38F
330
33
100
AcDbEntity
  8
SURVBND
100
AcDbVertex
100
AcDb2dVertex
 10
114.4424949999999
 20
723.674366
 30
0.0
  0
VERTEX
  5
390
330
33
100
AcDbEntity
  8
SURVBND
100
AcDbVertex
100
AcDb2dVertex
 10
114.4605209999999
 20
723.7030289999999
 30
0.0
  0
VERTEX
  5
391
330
33
100
AcDbEntity
  8
SURVBND
100
AcDbVertex
100
AcDb2dVertex
 10
114.484731
 20
723.723616
 30
0.0
  0
VERTEX
  5
392
330
33
100
AcDbEntity
  8
SURVBND
100
AcDbVertex
100
AcDb2dVertex
 10
114.487529
 20
723.7490769999999
 30
0.0
  0
VERTEX
  5
393
330
33
100
AcDbEntity
  8
SURVBND
100
AcDbVertex
100
AcDb2dVertex
 10
114.483803
 20
723.773019
 30
0.0
  0
VERTEX
  5
394
330
33
100
AcDbEntity
  8
SURVBND
100
AcDbVertex
100
AcDb2dVertex
 10
114.4891379999999
 20
723.791819
 30
0.0
  0
VERTEX
  5
395
330
33
100
AcDbEntity
  8
SURVBND
100
AcDbVertex
100
AcDb2dVertex
 10
114.496551
 20
723.820958
 30
0.0
  0
VERTEX
  5
396
330
33
100
AcDbEntity
  8
SURVBND
100
AcDbVertex
100
AcDb2dVertex
 10
114.5015969999999
 20
723.854723
 30
0.0
  0
VERTEX
  5
397
330
33
100
AcDbEntity
  8
SURVBND
100
AcDbVertex
100
AcDb2dVertex
 10
114.4835709999999
 20
723.854723
 30
0.0
  0
VERTEX
  5
398
330
33
100
AcDbEntity
  8
SURVBND
100
AcDbVertex
100
AcDb2dVertex
 10
114.4533639999999
 20
723.8460899999999
 30
0.0
  0
VERTEX
  5
399
330
33
100
AcDbEntity
  8
SURVBND
100
AcDbVertex
100
AcDb2dVertex
 10
114.423157
 20
723.841774
 30
0.0
  0
VERTEX
  5
39A
330
33
100
AcDbEntity
  8
SURVBND
100
AcDbVertex
100
AcDb2dVertex
 10
114.397265
 20
723.8374579999999
 30
0.0
  0
VERTEX
  5
39B
330
33
100
AcDbEntity
  8
SURVBND
100
AcDbVertex
100
AcDb2dVertex
 10
114.3843189999999
 20
723.828825
 30
0.0
  0
VERTEX
  5
39C
330
33
100
AcDbEntity
  8
SURVBND
100
AcDbVertex
100
AcDb2dVertex
 10
114.362742
 20
723.820192
 30
0.0
  0
VERTEX
  5
39D
330
33
100
AcDbEntity
  8
SURVBND
100
AcDbVertex
100
AcDb2dVertex
 10
114.345481
 20
723.807244
 30
0.0
  0
VERTEX
  5
39E
330
33
100
AcDbEntity
  8
SURVBND
100
AcDbVertex
100
AcDb2dVertex
 10
114.3195889999999
 20
723.789978
 30
0.0
  0
VERTEX
  5
39F
330
33
100
AcDbEntity
  8
SURVBND
100
AcDbVertex
100
AcDb2dVertex
 10
114.293697
 20
723.7813459999999
 30
0.0
  0
VERTEX
  5
3A0
330
33
100
AcDbEntity
  8
SURVBND
100
AcDbVertex
100
AcDb2dVertex
 10
114.29015
 20
723.7817399999999
 30
0.0
  0
VERTEX
  5
3A1
330
33
100
AcDbEntity
  8
SURVBND
100
AcDbVertex
100
AcDb2dVertex
 10
114.2894279999999
 20
723.7802389999999
 30
0.0
  0
VERTEX
  5
3A2
330
33
100
AcDbEntity
  8
SURVBND
100
AcDbVertex
100
AcDb2dVertex
 10
114.2736389999999
 20
723.7312519999999
 30
0.0
  0
VERTEX
  5
3A3
330
33
100
AcDbEntity
  8
SURVBND
100
AcDbVertex
100
AcDb2dVertex
 10
114.252855
 20
723.6730589999999
 30
0.0
  0
VERTEX
  5
3A4
330
33
100
AcDbEntity
  8
SURVBND
100
AcDbVertex
100
AcDb2dVertex
 10
114.2645469999999
 20
723.666491
 30
0.0
  0
VERTEX
  5
3A5
330
33
100
AcDbEntity
  8
SURVBND
100
AcDbVertex
100
AcDb2dVertex
 10
114.2921969999999
 20
723.648019
 30
0.0
  0
VERTEX
  5
3A6
330
33
100
AcDbEntity
  8
SURVBND
100
AcDbVertex
100
AcDb2dVertex
 10
114.3275209999999
 20
723.6325289999999
 30
0.0
  0
VERTEX
  5
3A7
330
33
100
AcDbEntity
  8
SURVBND
100
AcDbVertex
100
AcDb2dVertex
 10
114.356078
 20
723.625257
 30
0.0
  0
VERTEX
  5
3A8
330
33
100
AcDbEntity
  8
SURVBND
100
AcDbVertex
100
AcDb2dVertex
 10
114.3633499999999
 20
723.61007
 30
0.0
  0
VERTEX
  5
3A9
330
33
100
AcDbEntity
  8
SURVBND
100
AcDbVertex
100
AcDb2dVertex
 10
114.352308
 20
723.595136
 30
0.0
  0
VERTEX
  5
3AA
330
33
100
AcDbEntity
  8
SURVBND
100
AcDbVertex
100
AcDb2dVertex
 10
114.3402079999999
 20
723.584407
 30
0.0
  0
VERTEX
  5
3AB
330
33
100
AcDbEntity
  8
SURVBND
100
AcDbVertex
100
AcDb2dVertex
 10
114.320052
 20
723.5653139999999
 30
0.0
  0
VERTEX
  5
3AC
330
33
100
AcDbEntity
  8
SURVBND
100
AcDbVertex
100
AcDb2dVertex
 10
114.2908669999999
 20
723.533487
 30
0.0
  0
VERTEX
  5
3AD
330
33
100
AcDbEntity
  8
SURVBND
100
AcDbVertex
100
AcDb2dVertex
 10
114.265109
 20
723.507798
 30
0.0
  0
VERTEX
  5
3AE
330
33
100
AcDbEntity
  8
SURVBND
100
AcDbVertex
100
AcDb2dVertex
 10
114.241036
 20
723.473407
 30
0.0
  0
VERTEX
  5
3AF
330
33
100
AcDbEntity
  8
SURVBND
100
AcDbVertex
100
AcDb2dVertex
 10
114.2240989999999
 20
723.4376329999999
 30
0.0
  0
VERTEX
  5
3B0
330
33
100
AcDbEntity
  8
SURVBND
100
AcDbVertex
100
AcDb2dVertex
 10
114.2131929999999
 20
723.40904
 30
0.0
  0
VERTEX
  5
3B1
330
33
100
AcDbEntity
  8
SURVBND
100
AcDbVertex
100
AcDb2dVertex
 10
114.190521
 20
723.379894
 30
0.0
  0
VERTEX
  5
3B2
330
33
100
AcDbEntity
  8
SURVBND
100
AcDbVertex
100
AcDb2dVertex
 10
114.1623129999999
 20
723.3521459999999
 30
0.0
  0
VERTEX
  5
3B3
330
33
100
AcDbEntity
  8
SURVBND
100
AcDbVertex
100
AcDb2dVertex
 10
114.148376
 20
723.3214889999999
 30
0.0
  0
VERTEX
  5
3B4
330
33
100
AcDbEntity
  8
SURVBND
100
AcDbVertex
100
AcDb2dVertex
 10
114.1355379999999
 20
723.282704
 30
0.0
  0
VERTEX
  5
3B5
330
33
100
AcDbEntity
  8
SURVBND
100
AcDbVertex
100
AcDb2dVertex
 10
114.1185649999999
 20
723.2504169999999
 30
0.0
  0
VERTEX
  5
3B6
330
33
100
AcDbEntity
  8
SURVBND
100
AcDbVertex
100
AcDb2dVertex
 10
114.090347
 20
723.223687
 30
0.0
  0
VERTEX
  5
3B7
330
33
100
AcDbEntity
  8
SURVBND
100
AcDbVertex
100
AcDb2dVertex
 10
114.0579489999999
 20
723.2081049999999
 30
0.0
  0
VERTEX
  5
3B8
330
33
100
AcDbEntity
  8
SURVBND
100
AcDbVertex
100
AcDb2dVertex
 10
114.02512
 20
723.191937
 30
0.0
  0
VERTEX
  5
3B9
330
33
100
AcDbEntity
  8
SURVBND
100
AcDbVertex
100
AcDb2dVertex
 10
114.007206
 20
723.195828
 30
0.0
  0
VERTEX
  5
3BA
330
33
100
AcDbEntity
  8
SURVBND
100
AcDbVertex
100
AcDb2dVertex
 10
113.990784
 20
723.2104879999999
 30
0.0
  0
VERTEX
  5
3BB
330
33
100
AcDbEntity
  8
SURVBND
100
AcDbVertex
100
AcDb2dVertex
 10
113.9745139999999
 20
723.209745
 30
0.0
  0
VERTEX
  5
3BC
330
33
100
AcDbEntity
  8
SURVBND
100
AcDbVertex
100
AcDb2dVertex
 10
113.961011
 20
723.193915
 30
0.0
  0
VERTEX
  5
3BD
330
33
100
AcDbEntity
  8
SURVBND
100
AcDbVertex
100
AcDb2dVertex
 10
113.9494999999999
 20
723.1677869999999
 30
0.0
  0
VERTEX
  5
3BE
330
33
100
AcDbEntity
  8
SURVBND
100
AcDbVertex
100
AcDb2dVertex
 10
113.9391649999999
 20
723.1402169999999
 30
0.0
  0
VERTEX
  5
3BF
330
33
100
AcDbEntity
  8
SURVBND
100
AcDbVertex
100
AcDb2dVertex
 10
113.9274659999999
 20
723.132979
 30
0.0
  0
VERTEX
  5
3C0
330
33
100
AcDbEntity
  8
SURVBND
100
AcDbVertex
100
AcDb2dVertex
 10
113.90652
 20
723.134805
 30
0.0
  0
VERTEX
  5
3C1
330
33
100
AcDbEntity
  8
SURVBND
100
AcDbVertex
100
AcDb2dVertex
 10
113.88955
 20
723.16065
 30
0.0
  0
VERTEX
  5
3C2
330
33
100
AcDbEntity
  8
SURVBND
100
AcDbVertex
100
AcDb2dVertex
 10
113.8714129999999
 20
723.186919
 30
0.0
  0
VERTEX
  5
3C3
330
33
100
AcDbEntity
  8
SURVBND
100
AcDbVertex
100
AcDb2dVertex
 10
113.8391909999999
 20
723.2120309999999
 30
0.0
  0
VERTEX
  5
3C4
330
33
100
AcDbEntity
  8
SURVBND
100
AcDbVertex
100
AcDb2dVertex
 10
113.8088989999999
 20
723.2330929999999
 30
0.0
  0
VERTEX
  5
3C5
330
33
100
AcDbEntity
  8
SURVBND
100
AcDbVertex
100
AcDb2dVertex
 10
113.8077199999999
 20
723.249357
 30
0.0
  0
VERTEX
  5
3C6
330
33
100
AcDbEntity
  8
SURVBND
100
AcDbVertex
100
AcDb2dVertex
 10
113.8187709999999
 20
723.263274
 30
0.0
  0
VERTEX
  5
3C7
330
33
100
AcDbEntity
  8
SURVBND
100
AcDbVertex
100
AcDb2dVertex
 10
113.842957
 20
723.2863309999999
 30
0.0
  0
VERTEX
  5
3C8
330
33
100
AcDbEntity
  8
SURVBND
100
AcDbVertex
100
AcDb2dVertex
 10
113.863548
 20
723.3201069999999
 30
0.0
  0
VERTEX
  5
3C9
330
33
100
AcDbEntity
  8
SURVBND
100
AcDbVertex
100
AcDb2dVertex
 10
113.885126
 20
723.342266
 30
0.0
  0
VERTEX
  5
3CA
330
33
100
AcDbEntity
  8
SURVBND
100
AcDbVertex
100
AcDb2dVertex
 10
113.9036889999999
 20
723.37544
 30
0.0
  0
VERTEX
  5
3CB
330
33
100
AcDbEntity
  8
SURVBND
100
AcDbVertex
100
AcDb2dVertex
 10
113.926325
 20
723.393541
 30
0.0
  0
VERTEX
  5
3CC
330
33
100
AcDbEntity
  8
SURVBND
100
AcDbVertex
100
AcDb2dVertex
 10
113.9439309999999
 20
723.4206019999999
 30
0.0
  0
VERTEX
  5
3CD
330
33
100
AcDbEntity
  8
SURVBND
100
AcDbVertex
100
AcDb2dVertex
 10
113.959841
 20
723.457383
 30
0.0
  0
VERTEX
  5
3CE
330
33
100
AcDbEntity
  8
SURVBND
100
AcDbVertex
100
AcDb2dVertex
 10
113.9455139999999
 20
723.46596
 30
0.0
  0
VERTEX
  5
3CF
330
33
100
AcDbEntity
  8
SURVBND
100
AcDbVertex
100
AcDb2dVertex
 10
113.9199889999999
 20
723.4752969999999
 30
0.0
  0
VERTEX
  5
3D0
330
33
100
AcDbEntity
  8
SURVBND
100
AcDbVertex
100
AcDb2dVertex
 10
113.890424
 20
723.4816879999999
 30
0.0
  0
VERTEX
  5
3D1
330
33
100
AcDbEntity
  8
SURVBND
100
AcDbVertex
100
AcDb2dVertex
 10
113.8581269999999
 20
723.499678
 30
0.0
  0
VERTEX
  5
3D2
330
33
100
AcDbEntity
  8
SURVBND
100
AcDbVertex
100
AcDb2dVertex
 10
113.819235
 20
723.52327
 30
0.0
  0
VERTEX
  5
3D3
330
33
100
AcDbEntity
  8
SURVBND
100
AcDbVertex
100
AcDb2dVertex
 10
113.778916
 20
723.5442309999999
 30
0.0
  0
VERTEX
  5
3D4
330
33
100
AcDbEntity
  8
SURVBND
100
AcDbVertex
100
AcDb2dVertex
 10
113.761098
 20
723.5564410000001
 30
0.0
  0
VERTEX
  5
3D5
330
33
100
AcDbEntity
  8
SURVBND
100
AcDbVertex
100
AcDb2dVertex
 10
113.7613159999999
 20
723.5586910000001
 30
0.0
  0
VERTEX
  5
3D6
330
33
100
AcDbEntity
  8
SURVBND
100
AcDbVertex
100
AcDb2dVertex
 10
113.758821
 20
723.5719190000001
 30
0.0
  0
VERTEX
  5
3D7
330
33
100
AcDbEntity
  8
SURVBND
100
AcDbVertex
100
AcDb2dVertex
 10
113.759227
 20
723.590241
 30
0.0
  0
VERTEX
  5
3D8
330
33
100
AcDbEntity
  8
SURVBND
100
AcDbVertex
100
AcDb2dVertex
 10
113.763252
 20
723.6177299999999
 30
0.0
  0
VERTEX
  5
3D9
330
33
100
AcDbEntity
  8
SURVBND
100
AcDbVertex
100
AcDb2dVertex
 10
113.7520379999999
 20
723.6278900000001
 30
0.0
  0
VERTEX
  5
3DA
330
33
100
AcDbEntity
  8
SURVBND
100
AcDbVertex
100
AcDb2dVertex
 10
113.727168
 20
723.630901
 30
0.0
  0
VERTEX
  5
3DB
330
33
100
AcDbEntity
  8
SURVBND
100
AcDbVertex
100
AcDb2dVertex
 10
113.697069
 20
723.630851
 30
0.0
  0
VERTEX
  5
3DC
330
33
100
AcDbEntity
  8
SURVBND
100
AcDbVertex
100
AcDb2dVertex
 10
113.644137
 20
723.6327969999999
 30
0.0
  0
VERTEX
  5
3DD
330
33
100
AcDbEntity
  8
SURVBND
100
AcDbVertex
100
AcDb2dVertex
 10
113.57753
 20
723.6387919999999
 30
0.0
  0
VERTEX
  5
3DE
330
33
100
AcDbEntity
  8
SURVBND
100
AcDbVertex
100
AcDb2dVertex
 10
113.556154
 20
723.639337
 30
0.0
  0
VERTEX
  5
3DF
330
33
100
AcDbEntity
  8
SURVBND
100
AcDbVertex
100
AcDb2dVertex
 10
113.535257
 20
723.6147279999999
 30
0.0
  0
VERTEX
  5
3E0
330
33
100
AcDbEntity
  8
SURVBND
100
AcDbVertex
100
AcDb2dVertex
 10
113.502727
 20
723.590245
 30
0.0
  0
VERTEX
  5
3E1
330
33
100
AcDbEntity
  8
SURVBND
100
AcDbVertex
100
AcDb2dVertex
 10
113.456936
 20
723.5826059999999
 30
0.0
  0
VERTEX
  5
3E2
330
33
100
AcDbEntity
  8
SURVBND
100
AcDbVertex
100
AcDb2dVertex
 10
113.4080839999999
 20
723.57947
 30
0.0
  0
VERTEX
  5
3E3
330
33
100
AcDbEntity
  8
SURVBND
100
AcDbVertex
100
AcDb2dVertex
 10
113.377571
 20
723.566187
 30
0.0
  0
VERTEX
  5
3E4
330
33
100
AcDbEntity
  8
SURVBND
100
AcDbVertex
100
AcDb2dVertex
 10
113.3443989999999
 20
723.577763
 30
0.0
  0
VERTEX
  5
3E5
330
33
100
AcDbEntity
  8
SURVBND
100
AcDbVertex
100
AcDb2dVertex
 10
113.2971219999999
 20
723.58888
 30
0.0
  0
VERTEX
  5
3E6
330
33
100
AcDbEntity
  8
SURVBND
100
AcDbVertex
100
AcDb2dVertex
 10
113.270095
 20
723.5776379999999
 30
0.0
  0
VERTEX
  5
3E7
330
33
100
AcDbEntity
  8
SURVBND
100
AcDbVertex
100
AcDb2dVertex
 10
113.2422229999999
 20
723.550109
 30
0.0
  0
VERTEX
  5
3E8
330
33
100
AcDbEntity
  8
SURVBND
100
AcDbVertex
100
AcDb2dVertex
 10
113.191211
 20
723.534755
 30
0.0
  0
VERTEX
  5
3E9
330
33
100
AcDbEntity
  8
SURVBND
100
AcDbVertex
100
AcDb2dVertex
 10
113.1596789999999
 20
723.522051
 30
0.0
  0
VERTEX
  5
3EA
330
33
100
AcDbEntity
  8
SURVBND
100
AcDbVertex
100
AcDb2dVertex
 10
113.119531
 20
723.531144
 30
0.0
  0
VERTEX
  5
3EB
330
33
100
AcDbEntity
  8
SURVBND
100
AcDbVertex
100
AcDb2dVertex
 10
113.0842949999999
 20
723.559003
 30
0.0
  0
VERTEX
  5
3EC
330
33
100
AcDbEntity
  8
SURVBND
100
AcDbVertex
100
AcDb2dVertex
 10
113.045116
 20
723.5971799999999
 30
0.0
  0
VERTEX
  5
3ED
330
33
100
AcDbEntity
  8
SURVBND
100
AcDbVertex
100
AcDb2dVertex
 10
113.01148
 20
723.625041
 30
0.0
  0
VERTEX
  5
3EE
330
33
100
AcDbEntity
  8
SURVBND
100
AcDbVertex
100
AcDb2dVertex
 10
112.971189
 20
723.6326799999999
 30
0.0
  0
VERTEX
  5
3EF
330
33
100
AcDbEntity
  8
SURVBND
100
AcDbVertex
100
AcDb2dVertex
 10
112.926973
 20
723.63973
 30
0.0
  0
VERTEX
  5
3F0
330
33
100
AcDbEntity
  8
SURVBND
100
AcDbVertex
100
AcDb2dVertex
 10
112.887697
 20
723.649406
 30
0.0
  0
VERTEX
  5
3F1
330
33
100
AcDbEntity
  8
SURVBND
100
AcDbVertex
100
AcDb2dVertex
 10
112.8809659999999
 20
723.67426
 30
0.0
  0
VERTEX
  5
3F2
330
33
100
AcDbEntity
  8
SURVBND
100
AcDbVertex
100
AcDb2dVertex
 10
112.892131
 20
723.6925999999999
 30
0.0
  0
VERTEX
  5
3F3
330
33
100
AcDbEntity
  8
SURVBND
100
AcDbVertex
100
AcDb2dVertex
 10
112.906934
 20
723.7099289999999
 30
0.0
  0
VERTEX
  5
3F4
330
33
100
AcDbEntity
  8
SURVBND
100
AcDbVertex
100
AcDb2dVertex
 10
112.904271
 20
723.73697
 30
0.0
  0
VERTEX
  5
3F5
330
33
100
AcDbEntity
  8
SURVBND
100
AcDbVertex
100
AcDb2dVertex
 10
112.904216
 20
723.769541
 30
0.0
  0
VERTEX
  5
3F6
330
33
100
AcDbEntity
  8
SURVBND
100
AcDbVertex
100
AcDb2dVertex
 10
112.925646
 20
723.822942
 30
0.0
  0
VERTEX
  5
3F7
330
33
100
AcDbEntity
  8
SURVBND
100
AcDbVertex
100
AcDb2dVertex
 10
112.938249
 20
723.851463
 30
0.0
  0
VERTEX
  5
3F8
330
33
100
AcDbEntity
  8
SURVBND
100
AcDbVertex
100
AcDb2dVertex
 10
112.9381809999999
 20
723.8917409999999
 30
0.0
  0
VERTEX
  5
3F9
330
33
100
AcDbEntity
  8
SURVBND
100
AcDbVertex
100
AcDb2dVertex
 10
112.930569
 20
723.921682
 30
0.0
  0
VERTEX
  5
3FA
330
33
100
AcDbEntity
  8
SURVBND
100
AcDbVertex
100
AcDb2dVertex
 10
112.915226
 20
723.966006
 30
0.0
  0
VERTEX
  5
3FB
330
33
100
AcDbEntity
  8
SURVBND
100
AcDbVertex
100
AcDb2dVertex
 10
112.9099389999999
 20
723.997114
 30
0.0
  0
VERTEX
  5
3FC
330
33
100
AcDbEntity
  8
SURVBND
100
AcDbVertex
100
AcDb2dVertex
 10
112.9145559999999
 20
724.018497
 30
0.0
  0
VERTEX
  5
3FD
330
33
100
AcDbEntity
  8
SURVBND
100
AcDbVertex
100
AcDb2dVertex
 10
112.90786
 20
724.022994
 30
0.0
  0
VERTEX
  5
3FE
330
33
100
AcDbEntity
  8
SURVBND
100
AcDbVertex
100
AcDb2dVertex
 10
112.884484
 20
724.002161
 30
0.0
  0
VERTEX
  5
3FF
330
33
100
AcDbEntity
  8
SURVBND
100
AcDbVertex
100
AcDb2dVertex
 10
112.856002
 20
723.9913529999999
 30
0.0
  0
VERTEX
  5
400
330
33
100
AcDbEntity
  8
SURVBND
100
AcDbVertex
100
AcDb2dVertex
 10
112.830077
 20
724.0167549999999
 30
0.0
  0
VERTEX
  5
401
330
33
100
AcDbEntity
  8
SURVBND
100
AcDbVertex
100
AcDb2dVertex
 10
112.812175
 20
724.0269040000001
 30
0.0
  0
VERTEX
  5
402
330
33
100
AcDbEntity
  8
SURVBND
100
AcDbVertex
100
AcDb2dVertex
 10
112.783209
 20
724.044158
 30
0.0
  0
VERTEX
  5
403
330
33
100
AcDbEntity
  8
SURVBND
100
AcDbVertex
100
AcDb2dVertex
 10
112.7398499999999
 20
724.060371
 30
0.0
  0
VERTEX
  5
404
330
33
100
AcDbEntity
  8
SURVBND
100
AcDbVertex
100
AcDb2dVertex
 10
112.711351
 20
724.060323
 30
0.0
  0
VERTEX
  5
405
330
33
100
AcDbEntity
  8
SURVBND
100
AcDbVertex
100
AcDb2dVertex
 10
112.671234
 20
724.051094
 30
0.0
  0
VERTEX
  5
406
330
33
100
AcDbEntity
  8
SURVBND
100
AcDbVertex
100
AcDb2dVertex
 10
112.629934
 20
724.0530599999999
 30
0.0
  0
VERTEX
  5
407
330
33
100
AcDbEntity
  8
SURVBND
100
AcDbVertex
100
AcDb2dVertex
 10
112.589665
 20
724.047903
 30
0.0
  0
VERTEX
  5
408
330
33
100
AcDbEntity
  8
SURVBND
100
AcDbVertex
100
AcDb2dVertex
 10
112.5458889999999
 20
724.0529190000001
 30
0.0
  0
VERTEX
  5
409
330
33
100
AcDbEntity
  8
SURVBND
100
AcDbVertex
100
AcDb2dVertex
 10
112.512896
 20
724.044284
 30
0.0
  0
VERTEX
  5
40A
330
33
100
AcDbEntity
  8
SURVBND
100
AcDbVertex
100
AcDb2dVertex
 10
112.4746659999999
 20
724.036513
 30
0.0
  0
VERTEX
  5
40B
330
33
100
AcDbEntity
  8
SURVBND
100
AcDbVertex
100
AcDb2dVertex
 10
112.42676
 20
724.076128
 30
0.0
  0
VERTEX
  5
40C
330
33
100
AcDbEntity
  8
SURVBND
100
AcDbVertex
100
AcDb2dVertex
 10
112.424246
 20
724.101134
 30
0.0
  0
VERTEX
  5
40D
330
33
100
AcDbEntity
  8
SURVBND
100
AcDbVertex
100
AcDb2dVertex
 10
112.425196
 20
724.1418499999999
 30
0.0
  0
VERTEX
  5
40E
330
33
100
AcDbEntity
  8
SURVBND
100
AcDbVertex
100
AcDb2dVertex
 10
112.417999
 20
724.1840059999999
 30
0.0
  0
VERTEX
  5
40F
330
33
100
AcDbEntity
  8
SURVBND
100
AcDbVertex
100
AcDb2dVertex
 10
112.431599
 20
724.2248889999999
 30
0.0
  0
VERTEX
  5
410
330
33
100
AcDbEntity
  8
SURVBND
100
AcDbVertex
100
AcDb2dVertex
 10
112.447395
 20
724.256469
 30
0.0
  0
VERTEX
  5
411
330
33
100
AcDbEntity
  8
SURVBND
100
AcDbVertex
100
AcDb2dVertex
 10
112.442709
 20
724.276237
 30
0.0
  0
VERTEX
  5
412
330
33
100
AcDbEntity
  8
SURVBND
100
AcDbVertex
100
AcDb2dVertex
 10
112.412135
 20
724.298578
 30
0.0
  0
VERTEX
  5
413
330
33
100
AcDbEntity
  8
SURVBND
100
AcDbVertex
100
AcDb2dVertex
 10
112.378069
 20
724.3225129999999
 30
0.0
  0
VERTEX
  5
414
330
33
100
AcDbEntity
  8
SURVBND
100
AcDbVertex
100
AcDb2dVertex
 10
112.3454549999999
 20
724.3479039999999
 30
0.0
  0
VERTEX
  5
415
330
33
100
AcDbEntity
  8
SURVBND
100
AcDbVertex
100
AcDb2dVertex
 10
112.319378
 20
724.376796
 30
0.0
  0
VERTEX
  5
416
330
33
100
AcDbEntity
  8
SURVBND
100
AcDbVertex
100
AcDb2dVertex
 10
112.285732
 20
724.4109110000001
 30
0.0
  0
VERTEX
  5
417
330
33
100
AcDbEntity
  8
SURVBND
100
AcDbVertex
100
AcDb2dVertex
 10
112.2734689999999
 20
724.4398259999999
 30
0.0
  0
VERTEX
  5
418
330
33
100
AcDbEntity
  8
SURVBND
100
AcDbVertex
100
AcDb2dVertex
 10
112.296804
 20
724.484651
 30
0.0
  0
VERTEX
  5
419
330
33
100
AcDbEntity
  8
SURVBND
100
AcDbVertex
100
AcDb2dVertex
 10
112.328855
 20
724.534144
 30
0.0
  0
VERTEX
  5
41A
330
33
100
AcDbEntity
  8
SURVBND
100
AcDbVertex
100
AcDb2dVertex
 10
112.361781
 20
724.58262
 30
0.0
  0
VERTEX
  5
41B
330
33
100
AcDbEntity
  8
SURVBND
100
AcDbVertex
100
AcDb2dVertex
 10
112.395883
 20
724.623828
 30
0.0
  0
VERTEX
  5
41C
330
33
100
AcDbEntity
  8
SURVBND
100
AcDbVertex
100
AcDb2dVertex
 10
112.430855
 20
724.665619
 30
0.0
  0
VERTEX
  5
41D
330
33
100
AcDbEntity
  8
SURVBND
100
AcDbVertex
100
AcDb2dVertex
 10
112.433852
 20
724.6992139999999
 30
0.0
  0
VERTEX
  5
41E
330
33
100
AcDbEntity
  8
SURVBND
100
AcDbVertex
100
AcDb2dVertex
 10
112.423603
 20
724.740929
 30
0.0
  0
VERTEX
  5
41F
330
33
100
AcDbEntity
  8
SURVBND
100
AcDbVertex
100
AcDb2dVertex
 10
112.3909559999999
 20
724.786241
 30
0.0
  0
VERTEX
  5
420
330
33
100
AcDbEntity
  8
SURVBND
100
AcDbVertex
100
AcDb2dVertex
 10
112.343635
 20
724.8238219999999
 30
0.0
  0
VERTEX
  5
421
330
33
100
AcDbEntity
  8
SURVBND
100
AcDbVertex
100
AcDb2dVertex
 10
112.3098629999999
 20
724.845721
 30
0.0
  0
VERTEX
  5
422
330
33
100
AcDbEntity
  8
SURVBND
100
AcDbVertex
100
AcDb2dVertex
 10
112.261
 20
724.8491289999999
 30
0.0
  0
VERTEX
  5
423
330
33
100
AcDbEntity
  8
SURVBND
100
AcDbVertex
100
AcDb2dVertex
 10
112.2212929999999
 20
724.8557499999999
 30
0.0
  0
VERTEX
  5
424
330
33
100
AcDbEntity
  8
SURVBND
100
AcDbVertex
100
AcDb2dVertex
 10
112.2029759999999
 20
724.8531019999999
 30
0.0
  0
VERTEX
  5
425
330
33
100
AcDbEntity
  8
SURVBND
100
AcDbVertex
100
AcDb2dVertex
 10
112.177556
 20
724.837355
 30
0.0
  0
VERTEX
  5
426
330
33
100
AcDbEntity
  8
SURVBND
100
AcDbVertex
100
AcDb2dVertex
 10
112.145603
 20
724.815345
 30
0.0
  0
VERTEX
  5
427
330
33
100
AcDbEntity
  8
SURVBND
100
AcDbVertex
100
AcDb2dVertex
 10
112.1043379999999
 20
724.79739
 30
0.0
  0
VERTEX
  5
428
330
33
100
AcDbEntity
  8
SURVBND
100
AcDbVertex
100
AcDb2dVertex
 10
112.062601
 20
724.799937
 30
0.0
  0
VERTEX
  5
429
330
33
100
AcDbEntity
  8
SURVBND
100
AcDbVertex
100
AcDb2dVertex
 10
112.04021
 20
724.7988809999999
 30
0.0
  0
VERTEX
  5
42A
330
33
100
AcDbEntity
  8
SURVBND
100
AcDbVertex
100
AcDb2dVertex
 10
112.0087009999999
 20
724.7723639999999
 30
0.0
  0
VERTEX
  5
42B
330
33
100
AcDbEntity
  8
SURVBND
100
AcDbVertex
100
AcDb2dVertex
 10
111.96236
 20
724.746258
 30
0.0
  0
VERTEX
  5
42C
330
33
100
AcDbEntity
  8
SURVBND
100
AcDbVertex
100
AcDb2dVertex
 10
111.928366
 20
724.727879
 30
0.0
  0
VERTEX
  5
42D
330
33
100
AcDbEntity
  8
SURVBND
100
AcDbVertex
100
AcDb2dVertex
 10
111.8983
 20
724.708053
 30
0.0
  0
VERTEX
  5
42E
330
33
100
AcDbEntity
  8
SURVBND
100
AcDbVertex
100
AcDb2dVertex
 10
111.867786
 20
724.6952049999999
 30
0.0
  0
VERTEX
  5
42F
330
33
100
AcDbEntity
  8
SURVBND
100
AcDbVertex
100
AcDb2dVertex
 10
111.82608
 20
724.6794309999999
 30
0.0
  0
VERTEX
  5
430
330
33
100
AcDbEntity
  8
SURVBND
100
AcDbVertex
100
AcDb2dVertex
 10
111.778824
 20
724.6787699999999
 30
0.0
  0
VERTEX
  5
431
330
33
100
AcDbEntity
  8
SURVBND
100
AcDbVertex
100
AcDb2dVertex
 10
111.7578299999999
 20
724.7113059999999
 30
0.0
  0
VERTEX
  5
432
330
33
100
AcDbEntity
  8
SURVBND
100
AcDbVertex
100
AcDb2dVertex
 10
111.742156
 20
724.6935389999999
 30
0.0
  0
VERTEX
  5
433
330
33
100
AcDbEntity
  8
SURVBND
100
AcDbVertex
100
AcDb2dVertex
 10
111.7283959999999
 20
724.661381
 30
0.0
  0
VERTEX
  5
434
330
33
100
AcDbEntity
  8
SURVBND
100
AcDbVertex
100
AcDb2dVertex
 10
111.720317
 20
724.6237070000001
 30
0.0
  0
VERTEX
  5
435
330
33
100
AcDbEntity
  8
SURVBND
100
AcDbVertex
100
AcDb2dVertex
 10
111.6969929999999
 20
724.5723379999999
 30
0.0
  0
VERTEX
  5
436
330
33
100
AcDbEntity
  8
SURVBND
100
AcDbVertex
100
AcDb2dVertex
 10
111.6852949999999
 20
724.524916
 30
0.0
  0
VERTEX
  5
437
330
33
100
AcDbEntity
  8
SURVBND
100
AcDbVertex
100
AcDb2dVertex
 10
111.690014
 20
724.4856630000001
 30
0.0
  0
VERTEX
  5
438
330
33
100
AcDbEntity
  8
SURVBND
100
AcDbVertex
100
AcDb2dVertex
 10
111.691077
 20
724.4592009999999
 30
0.0
  0
VERTEX
  5
439
330
33
100
AcDbEntity
  8
SURVBND
100
AcDbVertex
100
AcDb2dVertex
 10
111.676313
 20
724.4190429999999
 30
0.0
  0
VERTEX
  5
43A
330
33
100
AcDbEntity
  8
SURVBND
100
AcDbVertex
100
AcDb2dVertex
 10
111.6641669999999
 20
724.3783089999999
 30
0.0
  0
VERTEX
  5
43B
330
33
100
AcDbEntity
  8
SURVBND
100
AcDbVertex
100
AcDb2dVertex
 10
111.643834
 20
724.364461
 30
0.0
  0
VERTEX
  5
43C
330
33
100
AcDbEntity
  8
SURVBND
100
AcDbVertex
100
AcDb2dVertex
 10
111.608167
 20
724.389411
 30
0.0
  0
VERTEX
  5
43D
330
33
100
AcDbEntity
  8
SURVBND
100
AcDbVertex
100
AcDb2dVertex
 10
111.5785919999999
 20
724.42295
 30
0.0
  0
VERTEX
  5
43E
330
33
100
AcDbEntity
  8
SURVBND
100
AcDbVertex
100
AcDb2dVertex
 10
111.572422
 20
724.4600189999999
 30
0.0
  0
VERTEX
  5
43F
330
33
100
AcDbEntity
  8
SURVBND
100
AcDbVertex
100
AcDb2dVertex
 10
111.5662469999999
 20
724.5007219999999
 30
0.0
  0
VERTEX
  5
440
330
33
100
AcDbEntity
  8
SURVBND
100
AcDbVertex
100
AcDb2dVertex
 10
111.5580519999999
 20
724.53139
 30
0.0
  0
VERTEX
  5
441
330
33
100
AcDbEntity
  8
SURVBND
100
AcDbVertex
100
AcDb2dVertex
 10
111.5600159999999
 20
724.5741429999999
 30
0.0
  0
VERTEX
  5
442
330
33
100
AcDbEntity
  8
SURVBND
100
AcDbVertex
100
AcDb2dVertex
 10
111.5660719999999
 20
724.604107
 30
0.0
  0
VERTEX
  5
443
330
33
100
AcDbEntity
  8
SURVBND
100
AcDbVertex
100
AcDb2dVertex
 10
111.5482859999999
 20
724.631559
 30
0.0
  0
VERTEX
  5
444
330
33
100
AcDbEntity
  8
SURVBND
100
AcDbVertex
100
AcDb2dVertex
 10
111.5303469999999
 20
724.6636639999999
 30
0.0
  0
VERTEX
  5
445
330
33
100
AcDbEntity
  8
SURVBND
100
AcDbVertex
100
AcDb2dVertex
 10
111.509958
 20
724.6823879999999
 30
0.0
  0
VERTEX
  5
446
330
33
100
AcDbEntity
  8
SURVBND
100
AcDbVertex
100
AcDb2dVertex
 10
111.459633
 20
724.690445
 30
0.0
  0
VERTEX
  5
447
330
33
100
AcDbEntity
  8
SURVBND
100
AcDbVertex
100
AcDb2dVertex
 10
111.39737
 20
724.707644
 30
0.0
  0
VERTEX
  5
448
330
33
100
AcDbEntity
  8
SURVBND
100
AcDbVertex
100
AcDb2dVertex
 10
111.3627029999999
 20
724.743211
 30
0.0
  0
VERTEX
  5
449
330
33
100
AcDbEntity
  8
SURVBND
100
AcDbVertex
100
AcDb2dVertex
 10
111.351017
 20
724.774744
 30
0.0
  0
VERTEX
  5
44A
330
33
100
AcDbEntity
  8
SURVBND
100
AcDbVertex
100
AcDb2dVertex
 10
111.343234
 20
724.8196619999999
 30
0.0
  0
VERTEX
  5
44B
330
33
100
AcDbEntity
  8
SURVBND
100
AcDbVertex
100
AcDb2dVertex
 10
111.320342
 20
724.8572839999999
 30
0.0
  0
VERTEX
  5
44C
330
33
100
AcDbEntity
  8
SURVBND
100
AcDbVertex
100
AcDb2dVertex
 10
111.2938669999999
 20
724.8633469999999
 30
0.0
  0
VERTEX
  5
44D
330
33
100
AcDbEntity
  8
SURVBND
100
AcDbVertex
100
AcDb2dVertex
 10
111.2607239999999
 20
724.85762
 30
0.0
  0
VERTEX
  5
44E
330
33
100
AcDbEntity
  8
SURVBND
100
AcDbVertex
100
AcDb2dVertex
 10
111.2246679999999
 20
724.854506
 30
0.0
  0
VERTEX
  5
44F
330
33
100
AcDbEntity
  8
SURVBND
100
AcDbVertex
100
AcDb2dVertex
 10
111.1985959999999
 20
724.88049
 30
0.0
  0
VERTEX
  5
450
330
33
100
AcDbEntity
  8
SURVBND
100
AcDbVertex
100
AcDb2dVertex
 10
111.1737199999999
 20
724.887573
 30
0.0
  0
VERTEX
  5
451
330
33
100
AcDbEntity
  8
SURVBND
100
AcDbVertex
100
AcDb2dVertex
 10
111.147228
 20
724.903814
 30
0.0
  0
VERTEX
  5
452
330
33
100
AcDbEntity
  8
SURVBND
100
AcDbVertex
100
AcDb2dVertex
 10
111.150684
 20
724.923595
 30
0.0
  0
VERTEX
  5
453
330
33
100
AcDbEntity
  8
SURVBND
100
AcDbVertex
100
AcDb2dVertex
 10
111.170981
 20
724.959254
 30
0.0
  0
VERTEX
  5
454
330
33
100
AcDbEntity
  8
SURVBND
100
AcDbVertex
100
AcDb2dVertex
 10
111.172954
 20
724.996482
 30
0.0
  0
VERTEX
  5
455
330
33
100
AcDbEntity
  8
SURVBND
100
AcDbVertex
100
AcDb2dVertex
 10
111.1907679999999
 20
725.03868
 30
0.0
  0
VERTEX
  5
456
330
33
100
AcDbEntity
  8
SURVBND
100
AcDbVertex
100
AcDb2dVertex
 10
111.172812
 20
725.0809639999999
 30
0.0
  0
VERTEX
  5
457
330
33
100
AcDbEntity
  8
SURVBND
100
AcDbVertex
100
AcDb2dVertex
 10
111.175385
 20
725.106851
 30
0.0
  0
VERTEX
  5
458
330
33
100
AcDbEntity
  8
SURVBND
100
AcDbVertex
100
AcDb2dVertex
 10
111.1824149999999
 20
725.1634259999999
 30
0.0
  0
VERTEX
  5
459
330
33
100
AcDbEntity
  8
SURVBND
100
AcDbVertex
100
AcDb2dVertex
 10
111.1746499999999
 20
725.19802
 30
0.0
  0
VERTEX
  5
45A
330
33
100
AcDbEntity
  8
SURVBND
100
AcDbVertex
100
AcDb2dVertex
 10
111.1578739999999
 20
725.2301269999999
 30
0.0
  0
VERTEX
  5
45B
330
33
100
AcDbEntity
  8
SURVBND
100
AcDbVertex
100
AcDb2dVertex
 10
111.169022
 20
725.2586459999999
 30
0.0
  0
VERTEX
  5
45C
330
33
100
AcDbEntity
  8
SURVBND
100
AcDbVertex
100
AcDb2dVertex
 10
111.164308
 20
725.294699
 30
0.0
  0
VERTEX
  5
45D
330
33
100
AcDbEntity
  8
SURVBND
100
AcDbVertex
100
AcDb2dVertex
 10
111.1551179999999
 20
725.312569
 30
0.0
  0
VERTEX
  5
45E
330
33
100
AcDbEntity
  8
SURVBND
100
AcDbVertex
100
AcDb2dVertex
 10
111.133751
 20
725.307444
 30
0.0
  0
VERTEX
  5
45F
330
33
100
AcDbEntity
  8
SURVBND
100
AcDbVertex
100
AcDb2dVertex
 10
111.1164709999999
 20
725.2936009999999
 30
0.0
  0
VERTEX
  5
460
330
33
100
AcDbEntity
  8
SURVBND
100
AcDbVertex
100
AcDb2dVertex
 10
111.0924669999999
 20
725.300249
 30
0.0
  0
VERTEX
  5
461
330
33
100
AcDbEntity
  8
SURVBND
100
AcDbVertex
100
AcDb2dVertex
 10
111.058859
 20
725.3113889999999
 30
0.0
  0
VERTEX
  5
462
330
33
100
AcDbEntity
  8
SURVBND
100
AcDbVertex
100
AcDb2dVertex
 10
111.024811
 20
725.325
 30
0.0
  0
VERTEX
  5
463
330
33
100
AcDbEntity
  8
SURVBND
100
AcDbVertex
100
AcDb2dVertex
 10
111.0196909999999
 20
725.322983
 30
0.0
  0
VERTEX
  5
464
330
33
100
AcDbEntity
  8
SURVBND
100
AcDbVertex
100
AcDb2dVertex
 10
110.996882
 20
725.327679
 30
0.0
  0
VERTEX
  5
465
330
33
100
AcDbEntity
  8
SURVBND
100
AcDbVertex
100
AcDb2dVertex
 10
110.949779
 20
725.34427
 30
0.0
  0
VERTEX
  5
466
330
33
100
AcDbEntity
  8
SURVBND
100
AcDbVertex
100
AcDb2dVertex
 10
110.911712
 20
725.364868
 30
0.0
  0
VERTEX
  5
467
330
33
100
AcDbEntity
  8
SURVBND
100
AcDbVertex
100
AcDb2dVertex
 10
110.880707
 20
725.377282
 30
0.0
  0
VERTEX
  5
468
330
33
100
AcDbEntity
  8
SURVBND
100
AcDbVertex
100
AcDb2dVertex
 10
110.848304
 20
725.397841
 30
0.0
  0
VERTEX
  5
469
330
33
100
AcDbEntity
  8
SURVBND
100
AcDbVertex
100
AcDb2dVertex
 10
110.8230229999999
 20
725.4187879999999
 30
0.0
  0
VERTEX
  5
46A
330
33
100
AcDbEntity
  8
SURVBND
100
AcDbVertex
100
AcDb2dVertex
 10
110.8278419999999
 20
725.443742
 30
0.0
  0
VERTEX
  5
46B
330
33
100
AcDbEntity
  8
SURVBND
100
AcDbVertex
100
AcDb2dVertex
 10
110.835205
 20
725.479721
 30
0.0
  0
VERTEX
  5
46C
330
33
100
AcDbEntity
  8
SURVBND
100
AcDbVertex
100
AcDb2dVertex
 10
110.833562
 20
725.5372620000001
 30
0.0
  0
VERTEX
  5
46D
330
33
100
AcDbEntity
  8
SURVBND
100
AcDbVertex
100
AcDb2dVertex
 10
110.8321859999999
 20
725.5698129999999
 30
0.0
  0
VERTEX
  5
46E
330
33
100
AcDbEntity
  8
SURVBND
100
AcDbVertex
100
AcDb2dVertex
 10
110.850759
 20
725.609348
 30
0.0
  0
VERTEX
  5
46F
330
33
100
AcDbEntity
  8
SURVBND
100
AcDbVertex
100
AcDb2dVertex
 10
110.868918
 20
725.6519359999999
 30
0.0
  0
VERTEX
  5
470
330
33
100
AcDbEntity
  8
SURVBND
100
AcDbVertex
100
AcDb2dVertex
 10
110.883839
 20
725.688444
 30
0.0
  0
VERTEX
  5
471
330
33
100
AcDbEntity
  8
SURVBND
100
AcDbVertex
100
AcDb2dVertex
 10
110.910054
 20
725.7193549999999
 30
0.0
  0
VERTEX
  5
472
330
33
100
AcDbEntity
  8
SURVBND
100
AcDbVertex
100
AcDb2dVertex
 10
110.9296309999999
 20
725.7568489999999
 30
0.0
  0
VERTEX
  5
473
330
33
100
AcDbEntity
  8
SURVBND
100
AcDbVertex
100
AcDb2dVertex
 10
110.937568
 20
725.791807
 30
0.0
  0
VERTEX
  5
474
330
33
100
AcDbEntity
  8
SURVBND
100
AcDbVertex
100
AcDb2dVertex
 10
110.9438389999999
 20
725.8167519999999
 30
0.0
  0
VERTEX
  5
475
330
33
100
AcDbEntity
  8
SURVBND
100
AcDbVertex
100
AcDb2dVertex
 10
110.950667
 20
725.859417
 30
0.0
  0
VERTEX
  5
476
330
33
100
AcDbEntity
  8
SURVBND
100
AcDbVertex
100
AcDb2dVertex
 10
110.9468209999999
 20
725.8919849999999
 30
0.0
  0
VERTEX
  5
477
330
33
100
AcDbEntity
  8
SURVBND
100
AcDbVertex
100
AcDb2dVertex
 10
110.948585
 20
725.916379
 30
0.0
  0
VERTEX
  5
478
330
33
100
AcDbEntity
  8
SURVBND
100
AcDbVertex
100
AcDb2dVertex
 10
110.960985
 20
725.945351
 30
0.0
  0
VERTEX
  5
479
330
33
100
AcDbEntity
  8
SURVBND
100
AcDbVertex
100
AcDb2dVertex
 10
110.986525
 20
725.9624650000001
 30
0.0
  0
VERTEX
  5
47A
330
33
100
AcDbEntity
  8
SURVBND
100
AcDbVertex
100
AcDb2dVertex
 10
111.002237
 20
725.965845
 30
0.0
  0
VERTEX
  5
47B
330
33
100
AcDbEntity
  8
SURVBND
100
AcDbVertex
100
AcDb2dVertex
 10
111.0336679999999
 20
725.9519749999999
 30
0.0
  0
VERTEX
  5
47C
330
33
100
AcDbEntity
  8
SURVBND
100
AcDbVertex
100
AcDb2dVertex
 10
111.075232
 20
725.9328059999999
 30
0.0
  0
VERTEX
  5
47D
330
33
100
AcDbEntity
  8
SURVBND
100
AcDbVertex
100
AcDb2dVertex
 10
111.105781
 20
725.9387
 30
0.0
  0
VERTEX
  5
47E
330
33
100
AcDbEntity
  8
SURVBND
100
AcDbVertex
100
AcDb2dVertex
 10
111.128225
 20
725.949298
 30
0.0
  0
VERTEX
  5
47F
330
33
100
AcDbEntity
  8
SURVBND
100
AcDbVertex
100
AcDb2dVertex
 10
111.1446649999999
 20
725.9740289999999
 30
0.0
  0
VERTEX
  5
480
330
33
100
AcDbEntity
  8
SURVBND
100
AcDbVertex
100
AcDb2dVertex
 10
111.164135
 20
725.995833
 30
0.0
  0
VERTEX
  5
481
330
33
100
AcDbEntity
  8
SURVBND
100
AcDbVertex
100
AcDb2dVertex
 10
111.177482
 20
726.014483
 30
0.0
  0
VERTEX
  5
482
330
33
100
AcDbEntity
  8
SURVBND
100
AcDbVertex
100
AcDb2dVertex
 10
111.1878439999999
 20
726.0428870000001
 30
0.0
  0
VERTEX
  5
483
330
33
100
AcDbEntity
  8
SURVBND
100
AcDbVertex
100
AcDb2dVertex
 10
111.199767
 20
726.06576
 30
0.0
  0
VERTEX
  5
484
330
33
100
AcDbEntity
  8
SURVBND
100
AcDbVertex
100
AcDb2dVertex
 10
111.2127309999999
 20
726.092112
 30
0.0
  0
VERTEX
  5
485
330
33
100
AcDbEntity
  8
SURVBND
100
AcDbVertex
100
AcDb2dVertex
 10
111.2365999999999
 20
726.0984869999999
 30
0.0
  0
VERTEX
  5
486
330
33
100
AcDbEntity
  8
SURVBND
100
AcDbVertex
100
AcDb2dVertex
 10
111.262174
 20
726.1206859999999
 30
0.0
  0
VERTEX
  5
487
330
33
100
AcDbEntity
  8
SURVBND
100
AcDbVertex
100
AcDb2dVertex
 10
111.2785959999999
 20
726.1429469999999
 30
0.0
  0
VERTEX
  5
488
330
33
100
AcDbEntity
  8
SURVBND
100
AcDbVertex
100
AcDb2dVertex
 10
111.28697
 20
726.1780469999999
 30
0.0
  0
VERTEX
  5
489
330
33
100
AcDbEntity
  8
SURVBND
100
AcDbVertex
100
AcDb2dVertex
 10
111.273471
 20
726.201093
 30
0.0
  0
VERTEX
  5
48A
330
33
100
AcDbEntity
  8
SURVBND
100
AcDbVertex
100
AcDb2dVertex
 10
111.2415319999999
 20
726.225716
 30
0.0
  0
VERTEX
  5
48B
330
33
100
AcDbEntity
  8
SURVBND
100
AcDbVertex
100
AcDb2dVertex
 10
111.219343
 20
726.252744
 30
0.0
  0
VERTEX
  5
48C
330
33
100
AcDbEntity
  8
SURVBND
100
AcDbVertex
100
AcDb2dVertex
 10
111.1925279999999
 20
726.282998
 30
0.0
  0
VERTEX
  5
48D
330
33
100
AcDbEntity
  8
SURVBND
100
AcDbVertex
100
AcDb2dVertex
 10
111.1832539999999
 20
726.2651919999999
 30
0.0
  0
VERTEX
  5
48E
330
33
100
AcDbEntity
  8
SURVBND
100
AcDbVertex
100
AcDb2dVertex
 10
111.1846789999999
 20
726.2397589999999
 30
0.0
  0
VERTEX
  5
48F
330
33
100
AcDbEntity
  8
SURVBND
100
AcDbVertex
100
AcDb2dVertex
 10
111.1763779999999
 20
726.215409
 30
0.0
  0
VERTEX
  5
490
330
33
100
AcDbEntity
  8
SURVBND
100
AcDbVertex
100
AcDb2dVertex
 10
111.1517649999999
 20
726.185068
 30
0.0
  0
VERTEX
  5
491
330
33
100
AcDbEntity
  8
SURVBND
100
AcDbVertex
100
AcDb2dVertex
 10
111.11845
 20
726.15682
 30
0.0
  0
VERTEX
  5
492
330
33
100
AcDbEntity
  8
SURVBND
100
AcDbVertex
100
AcDb2dVertex
 10
111.0863409999999
 20
726.1351019999999
 30
0.0
  0
VERTEX
  5
493
330
33
100
AcDbEntity
  8
SURVBND
100
AcDbVertex
100
AcDb2dVertex
 10
111.066004
 20
726.13524
 30
0.0
  0
VERTEX
  5
494
330
33
100
AcDbEntity
  8
SURVBND
100
AcDbVertex
100
AcDb2dVertex
 10
111.045161
 20
726.146568
 30
0.0
  0
VERTEX
  5
495
330
33
100
AcDbEntity
  8
SURVBND
100
AcDbVertex
100
AcDb2dVertex
 10
111.01793
 20
726.1798759999999
 30
0.0
  0
VERTEX
  5
496
330
33
100
AcDbEntity
  8
SURVBND
100
AcDbVertex
100
AcDb2dVertex
 10
110.9821449999999
 20
726.2157129999999
 30
0.0
  0
VERTEX
  5
497
330
33
100
AcDbEntity
  8
SURVBND
100
AcDbVertex
100
AcDb2dVertex
 10
110.9563489999999
 20
726.2463959999999
 30
0.0
  0
VERTEX
  5
498
330
33
100
AcDbEntity
  8
SURVBND
100
AcDbVertex
100
AcDb2dVertex
 10
110.929056
 20
726.2705519999999
 30
0.0
  0
VERTEX
  5
499
330
33
100
AcDbEntity
  8
SURVBND
100
AcDbVertex
100
AcDb2dVertex
 10
110.919648
 20
726.297057
 30
0.0
  0
VERTEX
  5
49A
330
33
100
AcDbEntity
  8
SURVBND
100
AcDbVertex
100
AcDb2dVertex
 10
110.9110929999999
 20
726.32094
 30
0.0
  0
VERTEX
  5
49B
330
33
100
AcDbEntity
  8
SURVBND
100
AcDbVertex
100
AcDb2dVertex
 10
110.910233
 20
726.3438999999999
 30
0.0
  0
VERTEX
  5
49C
330
33
100
AcDbEntity
  8
SURVBND
100
AcDbVertex
100
AcDb2dVertex
 10
110.911028
 20
726.37542
 30
0.0
  0
VERTEX
  5
49D
330
33
100
AcDbEntity
  8
SURVBND
100
AcDbVertex
100
AcDb2dVertex
 10
110.925786
 20
726.387958
 30
0.0
  0
VERTEX
  5
49E
330
33
100
AcDbEntity
  8
SURVBND
100
AcDbVertex
100
AcDb2dVertex
 10
110.940587
 20
726.385388
 30
0.0
  0
VERTEX
  5
49F
330
33
100
AcDbEntity
  8
SURVBND
100
AcDbVertex
100
AcDb2dVertex
 10
110.9669919999999
 20
726.380124
 30
0.0
  0
VERTEX
  5
4A0
330
33
100
AcDbEntity
  8
SURVBND
100
AcDbVertex
100
AcDb2dVertex
 10
110.9923519999999
 20
726.370799
 30
0.0
  0
VERTEX
  5
4A1
330
33
100
AcDbEntity
  8
SURVBND
100
AcDbVertex
100
AcDb2dVertex
 10
111.021233
 20
726.366535
 30
0.0
  0
VERTEX
  5
4A2
330
33
100
AcDbEntity
  8
SURVBND
100
AcDbVertex
100
AcDb2dVertex
 10
111.023429
 20
726.390345
 30
0.0
  0
VERTEX
  5
4A3
330
33
100
AcDbEntity
  8
SURVBND
100
AcDbVertex
100
AcDb2dVertex
 10
111.013506
 20
726.426587
 30
0.0
  0
VERTEX
  5
4A4
330
33
100
AcDbEntity
  8
SURVBND
100
AcDbVertex
100
AcDb2dVertex
 10
111.000524
 20
726.461687
 30
0.0
  0
VERTEX
  5
4A5
330
33
100
AcDbEntity
  8
SURVBND
100
AcDbVertex
100
AcDb2dVertex
 10
110.99418
 20
726.4902039999999
 30
0.0
  0
VERTEX
  5
4A6
330
33
100
AcDbEntity
  8
SURVBND
100
AcDbVertex
100
AcDb2dVertex
 10
111.0064329999999
 20
726.497385
 30
0.0
  0
VERTEX
  5
4A7
330
33
100
AcDbEntity
  8
SURVBND
100
AcDbVertex
100
AcDb2dVertex
 10
111.039384
 20
726.4935289999999
 30
0.0
  0
VERTEX
  5
4A8
330
33
100
AcDbEntity
  8
SURVBND
100
AcDbVertex
100
AcDb2dVertex
 10
111.079061
 20
726.495874
 30
0.0
  0
VERTEX
  5
4A9
330
33
100
AcDbEntity
  8
SURVBND
100
AcDbVertex
100
AcDb2dVertex
 10
111.1091939999999
 20
726.5048219999999
 30
0.0
  0
VERTEX
  5
4AA
330
33
100
AcDbEntity
  8
SURVBND
100
AcDbVertex
100
AcDb2dVertex
 10
111.12498
 20
726.5189519999998
 30
0.0
  0
VERTEX
  5
4AB
330
33
100
AcDbEntity
  8
SURVBND
100
AcDbVertex
100
AcDb2dVertex
 10
111.120684
 20
726.549489
 30
0.0
  0
VERTEX
  5
4AC
330
33
100
AcDbEntity
  8
SURVBND
100
AcDbVertex
100
AcDb2dVertex
 10
111.099502
 20
726.5750559999998
 30
0.0
  0
VERTEX
  5
4AD
330
33
100
AcDbEntity
  8
SURVBND
100
AcDbVertex
100
AcDb2dVertex
 10
111.0837709999999
 20
726.5904169999999
 30
0.0
  0
VERTEX
  5
4AE
330
33
100
AcDbEntity
  8
SURVBND
100
AcDbVertex
100
AcDb2dVertex
 10
111.0346009999999
 20
726.601938
 30
0.0
  0
VERTEX
  5
4AF
330
33
100
AcDbEntity
  8
SURVBND
100
AcDbVertex
100
AcDb2dVertex
 10
111.020454
 20
726.615254
 30
0.0
  0
VERTEX
  5
4B0
330
33
100
AcDbEntity
  8
SURVBND
100
AcDbVertex
100
AcDb2dVertex
 10
111.0068749999999
 20
726.647889
 30
0.0
  0
VERTEX
  5
4B1
330
33
100
AcDbEntity
  8
SURVBND
100
AcDbVertex
100
AcDb2dVertex
 10
110.993932
 20
726.688654
 30
0.0
  0
VERTEX
  5
4B2
330
33
100
AcDbEntity
  8
SURVBND
100
AcDbVertex
100
AcDb2dVertex
 10
110.975461
 20
726.728441
 30
0.0
  0
VERTEX
  5
4B3
330
33
100
AcDbEntity
  8
SURVBND
100
AcDbVertex
100
AcDb2dVertex
 10
110.947272
 20
726.7703269999999
 30
0.0
  0
VERTEX
  5
4B4
330
33
100
AcDbEntity
  8
SURVBND
100
AcDbVertex
100
AcDb2dVertex
 10
110.933371
 20
726.819816
 30
0.0
  0
VERTEX
  5
4B5
330
33
100
AcDbEntity
  8
SURVBND
100
AcDbVertex
100
AcDb2dVertex
 10
110.939704
 20
726.8537669999999
 30
0.0
  0
VERTEX
  5
4B6
330
33
100
AcDbEntity
  8
SURVBND
100
AcDbVertex
100
AcDb2dVertex
 10
110.954611
 20
726.8882419999999
 30
0.0
  0
VERTEX
  5
4B7
330
33
100
AcDbEntity
  8
SURVBND
100
AcDbVertex
100
AcDb2dVertex
 10
110.9839689999999
 20
726.9327879999999
 30
0.0
  0
VERTEX
  5
4B8
330
33
100
AcDbEntity
  8
SURVBND
100
AcDbVertex
100
AcDb2dVertex
 10
111.0141439999999
 20
726.969192
 30
0.0
  0
VERTEX
  5
4B9
330
33
100
AcDbEntity
  8
SURVBND
100
AcDbVertex
100
AcDb2dVertex
 10
111.047487
 20
727.001508
 30
0.0
  0
VERTEX
  5
4BA
330
33
100
AcDbEntity
  8
SURVBND
100
AcDbVertex
100
AcDb2dVertex
 10
111.0795949999999
 20
727.023226
 30
0.0
  0
VERTEX
  5
4BB
330
33
100
AcDbEntity
  8
SURVBND
100
AcDbVertex
100
AcDb2dVertex
 10
111.0970489999999
 20
727.047514
 30
0.0
  0
VERTEX
  5
4BC
330
33
100
AcDbEntity
  8
SURVBND
100
AcDbVertex
100
AcDb2dVertex
 10
111.1338949999999
 20
727.0822749999999
 30
0.0
  0
VERTEX
  5
4BD
330
33
100
AcDbEntity
  8
SURVBND
100
AcDbVertex
100
AcDb2dVertex
 10
111.179486
 20
727.12119
 30
0.0
  0
VERTEX
  5
4BE
330
33
100
AcDbEntity
  8
SURVBND
100
AcDbVertex
100
AcDb2dVertex
 10
111.224007
 20
727.152413
 30
0.0
  0
VERTEX
  5
4BF
330
33
100
AcDbEntity
  8
SURVBND
100
AcDbVertex
100
AcDb2dVertex
 10
111.25061
 20
727.1762019999999
 30
0.0
  0
VERTEX
  5
4C0
330
33
100
AcDbEntity
  8
SURVBND
100
AcDbVertex
100
AcDb2dVertex
 10
111.2560009999999
 20
727.2213469999999
 30
0.0
  0
VERTEX
  5
4C1
330
33
100
AcDbEntity
  8
SURVBND
100
AcDbVertex
100
AcDb2dVertex
 10
111.2705939999999
 20
727.2736929999999
 30
0.0
  0
VERTEX
  5
4C2
330
33
100
AcDbEntity
  8
SURVBND
100
AcDbVertex
100
AcDb2dVertex
 10
111.28758
 20
727.314691
 30
0.0
  0
VERTEX
  5
4C3
330
33
100
AcDbEntity
  8
SURVBND
100
AcDbVertex
100
AcDb2dVertex
 10
111.3051159999999
 20
727.351181
 30
0.0
  0
VERTEX
  5
4C4
330
33
100
AcDbEntity
  8
SURVBND
100
AcDbVertex
100
AcDb2dVertex
 10
111.3384939999999
 20
727.388726
 30
0.0
  0
VERTEX
  5
4C5
330
33
100
AcDbEntity
  8
SURVBND
100
AcDbVertex
100
AcDb2dVertex
 10
111.374798
 20
727.429157
 30
0.0
  0
VERTEX
  5
4C6
330
33
100
AcDbEntity
  8
SURVBND
100
AcDbVertex
100
AcDb2dVertex
 10
111.4123739999999
 20
727.48585
 30
0.0
  0
VERTEX
  5
4C7
330
33
100
AcDbEntity
  8
SURVBND
100
AcDbVertex
100
AcDb2dVertex
 10
111.412211
 20
727.547303
 30
0.0
  0
VERTEX
  5
4C8
330
33
100
AcDbEntity
  8
SURVBND
100
AcDbVertex
100
AcDb2dVertex
 10
111.3900719999999
 20
727.581594
 30
0.0
  0
VERTEX
  5
4C9
330
33
100
AcDbEntity
  8
SURVBND
100
AcDbVertex
100
AcDb2dVertex
 10
111.3430279999999
 20
727.6067559999999
 30
0.0
  0
VERTEX
  5
4CA
330
33
100
AcDbEntity
  8
SURVBND
100
AcDbVertex
100
AcDb2dVertex
 10
111.273862
 20
727.6047570000001
 30
0.0
  0
VERTEX
  5
4CB
330
33
100
AcDbEntity
  8
SURVBND
100
AcDbVertex
100
AcDb2dVertex
 10
111.2157639999999
 20
727.585249
 30
0.0
  0
VERTEX
  5
4CC
330
33
100
AcDbEntity
  8
SURVBND
100
AcDbVertex
100
AcDb2dVertex
 10
111.152921
 20
727.5516809999999
 30
0.0
  0
VERTEX
  5
4CD
330
33
100
AcDbEntity
  8
SURVBND
100
AcDbVertex
100
AcDb2dVertex
 10
111.099257
 20
727.5219739999999
 30
0.0
  0
VERTEX
  5
4CE
330
33
100
AcDbEntity
  8
SURVBND
100
AcDbVertex
100
AcDb2dVertex
 10
111.0520759999999
 20
727.5269429999999
 30
0.0
  0
VERTEX
  5
4CF
330
33
100
AcDbEntity
  8
SURVBND
100
AcDbVertex
100
AcDb2dVertex
 10
111.0156989999999
 20
727.561186
 30
0.0
  0
VERTEX
  5
4D0
330
33
100
AcDbEntity
  8
SURVBND
100
AcDbVertex
100
AcDb2dVertex
 10
110.9951539999999
 20
727.61624
 30
0.0
  0
VERTEX
  5
4D1
330
33
100
AcDbEntity
  8
SURVBND
100
AcDbVertex
100
AcDb2dVertex
 10
110.9751199999999
 20
727.6611219999999
 30
0.0
  0
VERTEX
  5
4D2
330
33
100
AcDbEntity
  8
SURVBND
100
AcDbVertex
100
AcDb2dVertex
 10
110.9699879999999
 20
727.71825
 30
0.0
  0
VERTEX
  5
4D3
330
33
100
AcDbEntity
  8
SURVBND
100
AcDbVertex
100
AcDb2dVertex
 10
110.962281
 20
727.7813530000001
 30
0.0
  0
VERTEX
  5
4D4
330
33
100
AcDbEntity
  8
SURVBND
100
AcDbVertex
100
AcDb2dVertex
 10
110.9712669999999
 20
727.842308
 30
0.0
  0
VERTEX
  5
4D5
330
33
100
AcDbEntity
  8
SURVBND
100
AcDbVertex
100
AcDb2dVertex
 10
110.99873
 20
727.9072059999999
 30
0.0
  0
VERTEX
  5
4D6
330
33
100
AcDbEntity
  8
SURVBND
100
AcDbVertex
100
AcDb2dVertex
 10
111.002436
 20
727.9157579999999
 30
0.0
  0
VERTEX
  5
4D7
330
33
100
AcDbEntity
  8
SURVBND
100
AcDbVertex
100
AcDb2dVertex
 10
111.002499
 20
727.9374299999999
 30
0.0
  0
VERTEX
  5
4D8
330
33
100
AcDbEntity
  8
SURVBND
100
AcDbVertex
100
AcDb2dVertex
 10
110.9968389999999
 20
730.1634139999999
 30
0.0
  0
VERTEX
  5
4D9
330
33
100
AcDbEntity
  8
SURVBND
100
AcDbVertex
100
AcDb2dVertex
 10
111.00816
 20
730.23417
 30
0.0
  0
VERTEX
  5
4DA
330
33
100
AcDbEntity
  8
SURVBND
100
AcDbVertex
100
AcDb2dVertex
 10
111.0421219999999
 20
730.337474
 30
0.0
  0
VERTEX
  5
4DB
330
33
100
AcDbEntity
  8
SURVBND
100
AcDbVertex
100
AcDb2dVertex
 10
111.0888209999999
 20
730.4266259999999
 30
0.0
  0
VERTEX
  5
4DC
330
33
100
AcDbEntity
  8
SURVBND
100
AcDbVertex
100
AcDb2dVertex
 10
111.1921249999999
 20
730.52993
 30
0.0
  0
VERTEX
  5
4DD
330
33
100
AcDbEntity
  8
SURVBND
100
AcDbVertex
100
AcDb2dVertex
 10
111.342127
 20
730.64597
 30
0.0
  0
VERTEX
  5
4DE
330
33
100
AcDbEntity
  8
SURVBND
100
AcDbVertex
100
AcDb2dVertex
 10
111.499205
 20
730.7577639999999
 30
0.0
  0
VERTEX
  5
4DF
330
33
100
AcDbEntity
  8
SURVBND
100
AcDbVertex
100
AcDb2dVertex
 10
111.691661
 20
730.865313
 30
0.0
  0
VERTEX
  5
4E0
330
33
100
AcDbEntity
  8
SURVBND
100
AcDbVertex
100
AcDb2dVertex
 10
111.9308149999999
 20
730.9997499999999
 30
0.0
  0
VERTEX
  5
4E1
330
33
100
AcDbEntity
  8
SURVBND
100
AcDbVertex
100
AcDb2dVertex
 10
111.9860399592055
 20
731.0318291198477
 30
0.0
  0
SEQEND
  5
4E2
330
33
100
AcDbEntity
  8
SURVBND
  0
TEXT
  5
34
330
2
100
AcDbEntity
  8
SITES
100
AcDbText
 10
110.1215892649213
 20
737.204308827667
 30
0.0
 40
0.2
  1
VP2105
100
AcDbText
  0
TEXT
  5
35
330
2
100
AcDbEntity
  8
SITES
100
AcDbText
 10
107.0718066231117
 20
739.084003528168
 30
0.0
 40
0.2
  1
VP1552
100
AcDbText
  0
POLYLINE
  5
36
330
2
100
AcDbEntity
  8
SITES
100
AcDb2dPolyline
 66
     1
 10
0.0
 20
0.0
 30
0.0
 70
     1
 40
0.120874062325532
 41
0.120874062325532
  0
VERTEX
  5
4E3
330
36
100
AcDbEntity
  8
SITES
100
AcDbVertex
100
AcDb2dVertex
 10
107.7303482717523
 20
738.7742918341642
 30
0.0
 42
1.0
  0
VERTEX
  5
4E4
330
36
100
AcDbEntity
  8
SITES
100
AcDbVertex
100
AcDb2dVertex
 10
107.8594742094268
 20
738.7742918341642
 30
0.0
 42
1.0
  0
SEQEND
  5
4E5
330
36
100
AcDbEntity
  8
SITES
  0
TEXT
  5
37
330
2
100
AcDbEntity
  8
SITES
100
AcDbText
 10
108.919331798576
 20
735.0515270912884
 30
0.0
 40
0.2
  1
VP2438
100
AcDbText
  0
POLYLINE
  5
38
330
2
100
AcDbEntity
  8
SITES
100
AcDb2dPolyline
 66
     1
 10
0.0
 20
0.0
 30
0.0
 70
     1
 40
0.120874062325532
 41
0.120874062325532
  0
VERTEX
  5
4E6
330
38
100
AcDbEntity
  8
SITES
100
AcDbVertex
100
AcDb2dVertex
 10
110.430636304281
 20
735.0499244495103
 30
0.0
 42
1.0
  0
VERTEX
  5
4E7
330
38
100
AcDbEntity
  8
SITES
100
AcDbVertex
100
AcDb2dVertex
 10
110.5597622419555
 20
735.0499244495103
 30
0.0
 42
1.0
  0
SEQEND
  5
4E8
330
38
100
AcDbEntity
  8
SITES
  0
POLYLINE
  5
39
330
2
100
AcDbEntity
  8
SITES
100
AcDb2dPolyline
 66
     1
 10
0.0
 20
0.0
 30
0.0
 70
     1
 40
0.120874062325532
 41
0.120874062325532
  0
VERTEX
  5
4E9
330
39
100
AcDbEntity
  8
SITES
100
AcDbVertex
100
AcDb2dVertex
 10
110.7600089838351
 20
736.8626814112273
 30
0.0
 42
1.0
  0
VERTEX
  5
4EA
330
39
100
AcDbEntity
  8
SITES
100
AcDbVertex
100
AcDb2dVertex
 10
110.8891349215096
 20
736.8626814112273
 30
0.0
 42
1.0
  0
SEQEND
  5
4EB
330
39
100
AcDbEntity
  8
SITES
  0
TEXT
  5
3A
330
2
100
AcDbEntity
  8
SITES
100
AcDbText
 10
112.6852768197008
 20
734.7023803742457
 30
0.0
 40
0.2
  1
VP1633
100
AcDbText
  0
TEXT
  5
3B
330
2
100
AcDbEntity
  8
SITES
100
AcDbText
 10
112.9687921217408
 20
735.5128995319431
 30
0.0
 40
0.2
  1
VP1632
100
AcDbText
  0
TEXT
  5
3C
330
2
100
AcDbEntity
  8
SITES
100
AcDbText
 10
111.8450125793849
 20
736.1919457800529
 30
0.0
 40
0.2
  1
VP1535
100
AcDbText
  0
TEXT
  5
3D
330
2
100
AcDbEntity
  8
SITES
100
AcDbText
 10
111.085211205946
 20
735.2809766388362
 30
0.0
 40
0.2
  1
VP1634
100
AcDbText
  0
POLYLINE
  5
3E
330
2
100
AcDbEntity
  8
SITES
100
AcDb2dPolyline
 66
     1
 10
0.0
 20
0.0
 30
0.0
 70
     1
 40
0.120874062325532
 41
0.120874062325532
  0
VERTEX
  5
4EC
330
3E
100
AcDbEntity
  8
SITES
100
AcDbVertex
100
AcDb2dVertex
 10
112.7532677466356
 20
735.5759165386047
 30
0.0
 42
1.0
  0
VERTEX
  5
4ED
330
3E
100
AcDbEntity
  8
SITES
100
AcDbVertex
100
AcDb2dVertex
 10
112.8823936843101
 20
735.5759165386047
 30
0.0
 42
1.0
  0
SEQEND
  5
4EE
330
3E
100
AcDbEntity
  8
SITES
  0
POLYLINE
  5
3F
330
2
100
AcDbEntity
  8
SITES
100
AcDb2dPolyline
 66
     1
 10
0.0
 20
0.0
 30
0.0
 70
     1
 40
0.120874062325532
 41
0.120874062325532
  0
VERTEX
  5
4EF
330
3F
100
AcDbEntity
  8
SITES
100
AcDbVertex
100
AcDb2dVertex
 10
112.3719280652869
 20
735.8256571585322
 30
0.0
 42
1.0
  0
VERTEX
  5
4F0
330
3F
100
AcDbEntity
  8
SITES
100
AcDbVertex
100
AcDb2dVertex
 10
112.5010540029613
 20
735.8256571585322
 30
0.0
 42
1.0
  0
SEQEND
  5
4F1
330
3F
100
AcDbEntity
  8
SITES
  0
POLYLINE
  5
40
330
2
100
AcDbEntity
  8
SITES
100
AcDb2dPolyline
 66
     1
 10
0.0
 20
0.0
 30
0.0
 70
     1
 40
0.120874062325532
 41
0.120874062325532
  0
VERTEX
  5
4F2
330
40
100
AcDbEntity
  8
SITES
100
AcDbVertex
100
AcDb2dVertex
 10
112.4392172646687
 20
735.3678079111873
 30
0.0
 42
1.0
  0
VERTEX
  5
4F3
330
40
100
AcDbEntity
  8
SITES
100
AcDbVertex
100
AcDb2dVertex
 10
112.5683432023431
 20
735.3678079111873
 30
0.0
 42
1.0
  0
SEQEND
  5
4F4
330
40
100
AcDbEntity
  8
SITES
  0
POLYLINE
  5
41
330
2
100
AcDbEntity
  8
SITES
100
AcDb2dPolyline
 66
     1
 10
0.0
 20
0.0
 30
0.0
 70
     1
 40
0.120874062325532
 41
0.120874062325532
  0
VERTEX
  5
4F5
330
41
100
AcDbEntity
  8
SITES
100
AcDbVertex
100
AcDb2dVertex
 10
112.6763375530886
 20
735.2653520811657
 30
0.0
 42
1.0
  0
VERTEX
  5
4F6
330
41
100
AcDbEntity
  8
SITES
100
AcDbVertex
100
AcDb2dVertex
 10
112.805463490763
 20
735.2653520811657
 30
0.0
 42
1.0
  0
SEQEND
  5
4F7
330
41
100
AcDbEntity
  8
SITES
  0
POLYLINE
  5
42
330
2
100
AcDbEntity
  8
SURVBND
100
AcDb2dPolyline
 66
     1
 10
0.0
 20
0.0
 30
0.0
  0
VERTEX
  5
4F8
330
42
100
AcDbEntity
  8
SURVBND
100
AcDbVertex
100
AcDb2dVertex
 10
114.936947
 20
723.6077719999999
 30
0.0
  0
VERTEX
  5
4F9
330
42
100
AcDbEntity
  8
SURVBND
100
AcDbVertex
100
AcDb2dVertex
 10
114.899652
 20
723.682361
 30
0.0
  0
VERTEX
  5
4FA
330
42
100
AcDbEntity
  8
SURVBND
100
AcDbVertex
100
AcDb2dVertex
 10
114.873833
 20
723.7799019999999
 30
0.0
  0
VERTEX
  5
4FB
330
42
100
AcDbEntity
  8
SURVBND
100
AcDbVertex
100
AcDb2dVertex
 10
114.8680949999999
 20
723.880311
 30
0.0
  0
VERTEX
  5
4FC
330
42
100
AcDbEntity
  8
SURVBND
100
AcDbVertex
100
AcDb2dVertex
 10
114.8899379999999
 20
723.944073
 30
0.0
  0
SEQEND
  5
4FD
330
42
100
AcDbEntity
  8
SURVBND
  0
POLYLINE
  5
43
330
2
100
AcDbEntity
  8
SITES
100
AcDb2dPolyline
 66
     1
 10
0.0
 20
0.0
 30
0.0
 70
     1
 40
0.120874062325532
 41
0.120874062325532
  0
VERTEX
  5
4FE
330
43
100
AcDbEntity
  8
SITES
100
AcDbVertex
100
AcDb2dVertex
 10
115.6966785280676
 20
728.6368942098312
 30
0.0
 42
1.0
  0
VERTEX
  5
4FF
330
43
100
AcDbEntity
  8
SITES
100
AcDbVertex
100
AcDb2dVertex
 10
115.8258044657421
 20
728.6368942098312
 30
0.0
 42
1.0
  0
SEQEND
  5
500
330
43
100
AcDbEntity
  8
SITES
  0
POLYLINE
  5
44
330
2
100
AcDbEntity
  8
SITES
100
AcDb2dPolyline
 66
     1
 10
0.0
 20
0.0
 30
0.0
 70
     1
 40
0.120874062325532
 41
0.120874062325532
  0
VERTEX
  5
501
330
44
100
AcDbEntity
  8
SITES
100
AcDbVertex
100
AcDb2dVertex
 10
115.2540819769316
 20
731.9495913880581
 30
0.0
 42
1.0
  0
VERTEX
  5
502
330
44
100
AcDbEntity
  8
SITES
100
AcDbVertex
100
AcDb2dVertex
 10
115.3832079146061
 20
731.9495913880581
 30
0.0
 42
1.0
  0
SEQEND
  5
503
330
44
100
AcDbEntity
  8
SITES
  0
POLYLINE
  5
45
330
2
100
AcDbEntity
  8
SITES
100
AcDb2dPolyline
 66
     1
 10
0.0
 20
0.0
 30
0.0
 70
     1
 40
0.120874062325532
 41
0.120874062325532
  0
VERTEX
  5
504
330
45
100
AcDbEntity
  8
SITES
100
AcDbVertex
100
AcDb2dVertex
 10
115.6013883498537
 20
732.9751933612515
 30
0.0
 42
1.0
  0
VERTEX
  5
505
330
45
100
AcDbEntity
  8
SITES
100
AcDbVertex
100
AcDb2dVertex
 10
115.7305142875282
 20
732.9751933612515
 30
0.0
 42
1.0
  0
SEQEND
  5
506
330
45
100
AcDbEntity
  8
SITES
  0
TEXT
  5
46
330
2
100
AcDbEntity
  8
SITES
100
AcDbText
 10
114.896557821914
 20
732.2767388432762
 30
0.0
 40
0.2
  1
VP177
100
AcDbText
  0
POLYLINE
  5
47
330
2
100
AcDbEntity
  8
SURVBND
100
AcDb2dPolyline
 66
     1
 10
0.0
 20
0.0
 30
0.0
  0
VERTEX
  5
507
330
47
100
AcDbEntity
  8
SURVBND
100
AcDbVertex
100
AcDb2dVertex
 10
120.8263929999999
 20
738.852945
 30
0.0
  0
VERTEX
  5
508
330
47
100
AcDbEntity
  8
SURVBND
100
AcDbVertex
100
AcDb2dVertex
 10
120.779225
 20
738.838164
 30
0.0
  0
VERTEX
  5
509
330
47
100
AcDbEntity
  8
SURVBND
100
AcDbVertex
100
AcDb2dVertex
 10
120.703092
 20
738.8402219999999
 30
0.0
  0
VERTEX
  5
50A
330
47
100
AcDbEntity
  8
SURVBND
100
AcDbVertex
100
AcDb2dVertex
 10
120.619757
 20
738.864914
 30
0.0
  0
VERTEX
  5
50B
330
47
100
AcDbEntity
  8
SURVBND
100
AcDbVertex
100
AcDb2dVertex
 10
120.5569979999999
 20
738.8988649999999
 30
0.0
  0
VERTEX
  5
50C
330
47
100
AcDbEntity
  8
SURVBND
100
AcDbVertex
100
AcDb2dVertex
 10
120.5569979999999
 20
738.9533929999999
 30
0.0
  0
VERTEX
  5
50D
330
47
100
AcDbEntity
  8
SURVBND
100
AcDbVertex
100
AcDb2dVertex
 10
120.538479
 20
739.014094
 30
0.0
  0
VERTEX
  5
50E
330
47
100
AcDbEntity
  8
SURVBND
100
AcDbVertex
100
AcDb2dVertex
 10
120.446914
 20
739.0655360000001
 30
0.0
  0
VERTEX
  5
50F
330
47
100
AcDbEntity
  8
SURVBND
100
AcDbVertex
100
AcDb2dVertex
 10
120.363579
 20
739.1190349999999
 30
0.0
  0
VERTEX
  5
510
330
47
100
AcDbEntity
  8
SURVBND
100
AcDbVertex
100
AcDb2dVertex
 10
120.3069929999999
 20
739.1848799999999
 30
0.0
  0
VERTEX
  5
511
330
47
100
AcDbEntity
  8
SURVBND
100
AcDbVertex
100
AcDb2dVertex
 10
120.264811
 20
739.279533
 30
0.0
  0
VERTEX
  5
512
330
47
100
AcDbEntity
  8
SURVBND
100
AcDbVertex
100
AcDb2dVertex
 10
120.270984
 20
739.389617
 30
0.0
  0
VERTEX
  5
513
330
47
100
AcDbEntity
  8
SURVBND
100
AcDbVertex
100
AcDb2dVertex
 10
120.2956759999999
 20
739.461636
 30
0.0
  0
VERTEX
  5
514
330
47
100
AcDbEntity
  8
SURVBND
100
AcDbVertex
100
AcDb2dVertex
 10
120.32757
 20
739.5285099999999
 30
0.0
  0
VERTEX
  5
515
330
47
100
AcDbEntity
  8
SURVBND
100
AcDbVertex
100
AcDb2dVertex
 10
120.3316849999999
 20
739.5511439999999
 30
0.0
  0
VERTEX
  5
516
330
47
100
AcDbEntity
  8
SURVBND
100
AcDbVertex
100
AcDb2dVertex
 10
120.3316849999999
 20
739.5595339999999
 30
0.0
  0
VERTEX
  5
517
330
47
100
AcDbEntity
  8
SURVBND
100
AcDbVertex
100
AcDb2dVertex
 10
120.3618999999999
 20
739.647431
 30
0.0
  0
VERTEX
  5
518
330
47
100
AcDbEntity
  8
SURVBND
100
AcDbVertex
100
AcDb2dVertex
 10
120.381981
 20
739.730628
 30
0.0
  0
VERTEX
  5
519
330
47
100
AcDbEntity
  8
SURVBND
100
AcDbVertex
100
AcDb2dVertex
 10
120.4135379999999
 20
739.7621849999999
 30
0.0
  0
VERTEX
  5
51A
330
47
100
AcDbEntity
  8
SURVBND
100
AcDbVertex
100
AcDb2dVertex
 10
120.519685
 20
739.782267
 30
0.0
  0
VERTEX
  5
51B
330
47
100
AcDbEntity
  8
SURVBND
100
AcDbVertex
100
AcDb2dVertex
 10
120.545504
 20
739.802348
 30
0.0
  0
VERTEX
  5
51C
330
47
100
AcDbEntity
  8
SURVBND
100
AcDbVertex
100
AcDb2dVertex
 10
120.648782
 20
739.963003
 30
0.0
  0
VERTEX
  5
51D
330
47
100
AcDbEntity
  8
SURVBND
100
AcDbVertex
100
AcDb2dVertex
 10
120.9672219999999
 20
740.060544
 30
0.0
  0
VERTEX
  5
51E
330
47
100
AcDbEntity
  8
SURVBND
100
AcDbVertex
100
AcDb2dVertex
 10
121.0848439999999
 20
740.166691
 30
0.0
  0
VERTEX
  5
51F
330
47
100
AcDbEntity
  8
SURVBND
100
AcDbVertex
100
AcDb2dVertex
 10
121.1594339999999
 20
740.235543
 30
0.0
  0
VERTEX
  5
520
330
47
100
AcDbEntity
  8
SURVBND
100
AcDbVertex
100
AcDb2dVertex
 10
121.239761
 20
740.235543
 30
0.0
  0
VERTEX
  5
521
330
47
100
AcDbEntity
  8
SURVBND
100
AcDbVertex
100
AcDb2dVertex
 10
121.300006
 20
740.175297
 30
0.0
  0
VERTEX
  5
522
330
47
100
AcDbEntity
  8
SURVBND
100
AcDbVertex
100
AcDb2dVertex
 10
121.38894
 20
740.166691
 30
0.0
  0
VERTEX
  5
523
330
47
100
AcDbEntity
  8
SURVBND
100
AcDbVertex
100
AcDb2dVertex
 10
121.526643
 20
740.272838
 30
0.0
  0
VERTEX
  5
524
330
47
100
AcDbEntity
  8
SURVBND
100
AcDbVertex
100
AcDb2dVertex
 10
121.684429
 20
740.384722
 30
0.0
  0
VERTEX
  5
525
330
47
100
AcDbEntity
  8
SURVBND
100
AcDbVertex
100
AcDb2dVertex
 10
121.833608
 20
740.4736559999999
 30
0.0
  0
VERTEX
  5
526
330
47
100
AcDbEntity
  8
SURVBND
100
AcDbVertex
100
AcDb2dVertex
 10
121.948361
 20
740.5166889999999
 30
0.0
  0
VERTEX
  5
527
330
47
100
AcDbEntity
  8
SURVBND
100
AcDbVertex
100
AcDb2dVertex
 10
122.043032
 20
740.5511149999999
 30
0.0
  0
VERTEX
  5
528
330
47
100
AcDbEntity
  8
SURVBND
100
AcDbVertex
100
AcDb2dVertex
 10
122.077458
 20
740.622835
 30
0.0
  0
VERTEX
  5
529
330
47
100
AcDbEntity
  8
SURVBND
100
AcDbVertex
100
AcDb2dVertex
 10
122.12336
 20
740.717507
 30
0.0
  0
VERTEX
  5
52A
330
47
100
AcDbEntity
  8
SURVBND
100
AcDbVertex
100
AcDb2dVertex
 10
122.1491789999999
 20
740.8322599999999
 30
0.0
  0
VERTEX
  5
52B
330
47
100
AcDbEntity
  8
SURVBND
100
AcDbVertex
100
AcDb2dVertex
 10
122.209424
 20
740.883899
 30
0.0
  0
VERTEX
  5
52C
330
47
100
AcDbEntity
  8
SURVBND
100
AcDbVertex
100
AcDb2dVertex
 10
122.306965
 20
740.8925059999999
 30
0.0
  0
VERTEX
  5
52D
330
47
100
AcDbEntity
  8
SURVBND
100
AcDbVertex
100
AcDb2dVertex
 10
122.4188489999999
 20
740.8925059999999
 30
0.0
  0
VERTEX
  5
52E
330
47
100
AcDbEntity
  8
SURVBND
100
AcDbVertex
100
AcDb2dVertex
 10
122.507782
 20
740.9355389999999
 30
0.0
  0
VERTEX
  5
52F
330
47
100
AcDbEntity
  8
SURVBND
100
AcDbVertex
100
AcDb2dVertex
 10
122.576634
 20
740.978571
 30
0.0
  0
VERTEX
  5
530
330
47
100
AcDbEntity
  8
SURVBND
100
AcDbVertex
100
AcDb2dVertex
 10
122.691387
 20
740.978571
 30
0.0
  0
VERTEX
  5
531
330
47
100
AcDbEntity
  8
SURVBND
100
AcDbVertex
100
AcDb2dVertex
 10
122.883599
 20
741.1363569999999
 30
0.0
  0
VERTEX
  5
532
330
47
100
AcDbEntity
  8
SURVBND
100
AcDbVertex
100
AcDb2dVertex
 10
122.9180249999999
 20
741.182258
 30
0.0
  0
VERTEX
  5
533
330
47
100
AcDbEntity
  8
SURVBND
100
AcDbVertex
100
AcDb2dVertex
 10
122.883599
 20
741.3830769999999
 30
0.0
  0
VERTEX
  5
534
330
47
100
AcDbEntity
  8
SURVBND
100
AcDbVertex
100
AcDb2dVertex
 10
122.883599
 20
741.5408629999999
 30
0.0
  0
VERTEX
  5
535
330
47
100
AcDbEntity
  8
SURVBND
100
AcDbVertex
100
AcDb2dVertex
 10
122.9094179999999
 20
741.652747
 30
0.0
  0
VERTEX
  5
536
330
47
100
AcDbEntity
  8
SURVBND
100
AcDbVertex
100
AcDb2dVertex
 10
122.9352379999999
 20
741.7330749999999
 30
0.0
  0
VERTEX
  5
537
330
47
100
AcDbEntity
  8
SURVBND
100
AcDbVertex
100
AcDb2dVertex
 10
123.0020149999999
 20
741.735288
 30
0.0
  0
VERTEX
  5
538
330
47
100
AcDbEntity
  8
SURVBND
100
AcDbVertex
100
AcDb2dVertex
 10
123.003421
 20
741.7334089999999
 30
0.0
  0
SEQEND
  5
539
330
47
100
AcDbEntity
  8
SURVBND
  0
TEXT
  5
48
330
2
100
AcDbEntity
  8
SITES
100
AcDbText
 10
120.5706564488033
 20
733.4521289102299
 30
0.0
 40
0.2
  1
VP618
100
AcDbText
  0
TEXT
  5
49
330
2
100
AcDbEntity
  8
SITES
100
AcDbText
 10
120.221350262933
 20
737.9098104677442
 30
0.0
 40
0.2
  1
VP1852
100
AcDbText
  0
TEXT
  5
4A
330
2
100
AcDbEntity
  8
SITES
100
AcDbText
 10
121.1515455766356
 20
739.7806218026564
 30
0.0
 40
0.2
  1
VP1445
100
AcDbText
  0
TEXT
  5
4B
330
2
100
AcDbEntity
  8
SITES
100
AcDbText
 10
118.3510549668622
 20
733.2779153813908
 30
0.0
 40
0.2
  1
VP548
100
AcDbText
  0
TEXT
  5
4C
330
2
100
AcDbEntity
  8
SITES
100
AcDbText
 10
117.6537131594053
 20
731.2088226377734
 30
0.0
 40
0.2
  1
VP1128
100
AcDbText
  0
POLYLINE
  5
4D
330
2
100
AcDbEntity
  8
SITES
100
AcDb2dPolyline
 66
     1
 10
0.0
 20
0.0
 30
0.0
 70
     1
 40
0.120874062325532
 41
0.120874062325532
  0
VERTEX
  5
53A
330
4D
100
AcDbEntity
  8
SITES
100
AcDbVertex
100
AcDb2dVertex
 10
117.3529323148778
 20
731.5073717327979
 30
0.0
 42
1.0
  0
VERTEX
  5
53B
330
4D
100
AcDbEntity
  8
SITES
100
AcDbVertex
100
AcDb2dVertex
 10
117.4820582525523
 20
731.5073717327979
 30
0.0
 42
1.0
  0
SEQEND
  5
53C
330
4D
100
AcDbEntity
  8
SITES
  0
POLYLINE
  5
4E
330
2
100
AcDbEntity
  8
SITES
100
AcDb2dPolyline
 66
     1
 10
0.0
 20
0.0
 30
0.0
 70
     1
 40
0.120874062325532
 41
0.120874062325532
  0
VERTEX
  5
53D
330
4E
100
AcDbEntity
  8
SITES
100
AcDbVertex
100
AcDb2dVertex
 10
117.2764906946498
 20
725.2521615819147
 30
0.0
 42
1.0
  0
VERTEX
  5
53E
330
4E
100
AcDbEntity
  8
SITES
100
AcDbVertex
100
AcDb2dVertex
 10
117.4056166323243
 20
725.2521615819147
 30
0.0
 42
1.0
  0
SEQEND
  5
53F
330
4E
100
AcDbEntity
  8
SITES
  0
POLYLINE
  5
4F
330
2
100
AcDbEntity
  8
SITES
100
AcDb2dPolyline
 66
     1
 10
0.0
 20
0.0
 30
0.0
 70
     1
 40
0.120874062325532
 41
0.120874062325532
  0
VERTEX
  5
540
330
4F
100
AcDbEntity
  8
SITES
100
AcDbVertex
100
AcDb2dVertex
 10
117.2271129509187
 20
731.1305419607558
 30
0.0
 42
1.0
  0
VERTEX
  5
541
330
4F
100
AcDbEntity
  8
SITES
100
AcDbVertex
100
AcDb2dVertex
 10
117.3562388885931
 20
731.1305419607558
 30
0.0
 42
1.0
  0
SEQEND
  5
542
330
4F
100
AcDbEntity
  8
SITES
  0
TEXT
  5
50
330
2
100
AcDbEntity
  8
SITES
100
AcDbText
 10
116.8108427197343
 20
725.519449335622
 30
0.0
 40
0.2
  1
VP462
100
AcDbText
  0
TEXT
  5
51
330
2
100
AcDbEntity
  8
SITES
100
AcDbText
 10
117.1703265603185
 20
730.5063008351725
 30
0.0
 40
0.2
  1
VP1125
100
AcDbText
  0
TEXT
  5
52
330
2
100
AcDbEntity
  8
SITES
100
AcDbText
 10
116.8697675695494
 20
726.4528254453636
 30
0.0
 40
0.2
  1
VP1042
100
AcDbText
  0
POLYLINE
  5
53
330
2
100
AcDbEntity
  8
SITES
100
AcDb2dPolyline
 66
     1
 10
0.0
 20
0.0
 30
0.0
 70
     1
 40
0.120874062325532
 41
0.120874062325532
  0
VERTEX
  5
543
330
53
100
AcDbEntity
  8
SITES
100
AcDbVertex
100
AcDb2dVertex
 10
116.6208014215549
 20
726.2231252477274
 30
0.0
 42
1.0
  0
VERTEX
  5
544
330
53
100
AcDbEntity
  8
SITES
100
AcDbVertex
100
AcDb2dVertex
 10
116.7499273592294
 20
726.2231252477274
 30
0.0
 42
1.0
  0
SEQEND
  5
545
330
53
100
AcDbEntity
  8
SITES
  0
POLYLINE
  5
54
330
2
100
AcDbEntity
  8
SITES
100
AcDb2dPolyline
 66
     1
 10
0.0
 20
0.0
 30
0.0
 70
     1
 40
0.120874062325532
 41
0.120874062325532
  0
VERTEX
  5
546
330
54
100
AcDbEntity
  8
SITES
100
AcDbVertex
100
AcDb2dVertex
 10
116.5598802510368
 20
731.2974572777192
 30
0.0
 42
1.0
  0
VERTEX
  5
547
330
54
100
AcDbEntity
  8
SITES
100
AcDbVertex
100
AcDb2dVertex
 10
116.6890061887113
 20
731.2974572777192
 30
0.0
 42
1.0
  0
SEQEND
  5
548
330
54
100
AcDbEntity
  8
SITES
  0
POLYLINE
  5
55
330
2
100
AcDbEntity
  8
SITES
100
AcDb2dPolyline
 66
     1
 10
0.0
 20
0.0
 30
0.0
 70
     1
 40
0.120874062325532
 41
0.120874062325532
  0
VERTEX
  5
549
330
55
100
AcDbEntity
  8
SITES
100
AcDbVertex
100
AcDb2dVertex
 10
116.662387266044
 20
724.1445965851657
 30
0.0
 42
1.0
  0
VERTEX
  5
54A
330
55
100
AcDbEntity
  8
SITES
100
AcDbVertex
100
AcDb2dVertex
 10
116.7915132037185
 20
724.1445965851657
 30
0.0
 42
1.0
  0
SEQEND
  5
54B
330
55
100
AcDbEntity
  8
SITES
  0
POLYLINE
  5
56
330
2
100
AcDbEntity
  8
SURVBND
100
AcDb2dPolyline
 66
     1
 10
0.0
 20
0.0
 30
0.0
  0
VERTEX
  5
54C
330
56
100
AcDbEntity
  8
SURVBND
100
AcDbVertex
100
AcDb2dVertex
 10
118.1328209999999
 20
725.690546
 30
0.0
  0
VERTEX
  5
54D
330
56
100
AcDbEntity
  8
SURVBND
100
AcDbVertex
100
AcDb2dVertex
 10
118.130287
 20
725.6847269999999
 30
0.0
  0
VERTEX
  5
54E
330
56
100
AcDbEntity
  8
SURVBND
100
AcDbVertex
100
AcDb2dVertex
 10
118.1281639999999
 20
725.695636
 30
0.0
  0
VERTEX
  5
54F
330
56
100
AcDbEntity
  8
SURVBND
100
AcDbVertex
100
AcDb2dVertex
 10
118.062036
 20
725.715105
 30
0.0
  0
VERTEX
  5
550
330
56
100
AcDbEntity
  8
SURVBND
100
AcDbVertex
100
AcDb2dVertex
 10
117.993883
 20
725.741383
 30
0.0
  0
SEQEND
  5
551
330
56
100
AcDbEntity
  8
SURVBND
  0
POLYLINE
  5
57
330
2
100
AcDbEntity
  8
SITES
100
AcDb2dPolyline
 66
     1
 10
0.0
 20
0.0
 30
0.0
 70
     1
 40
0.120874062325532
 41
0.120874062325532
  0
VERTEX
  5
552
330
57
100
AcDbEntity
  8
SITES
100
AcDbVertex
100
AcDb2dVertex
 10
119.6052932266733
 20
733.0756887453929
 30
0.0
 42
1.0
  0
VERTEX
  5
553
330
57
100
AcDbEntity
  8
SITES
100
AcDbVertex
100
AcDb2dVertex
 10
119.7344191643478
 20
733.0756887453929
 30
0.0
 42
1.0
  0
SEQEND
  5
554
330
57
100
AcDbEntity
  8
SITES
  0
POLYLINE
  5
58
330
2
100
AcDbEntity
  8
SITES
100
AcDb2dPolyline
 66
     1
 10
0.0
 20
0.0
 30
0.0
 70
     1
 40
0.120874062325532
 41
0.120874062325532
  0
VERTEX
  5
555
330
58
100
AcDbEntity
  8
SITES
100
AcDbVertex
100
AcDb2dVertex
 10
120.3111340504189
 20
733.2276963205109
 30
0.0
 42
1.0
  0
VERTEX
  5
556
330
58
100
AcDbEntity
  8
SITES
100
AcDbVertex
100
AcDb2dVertex
 10
120.4402599880934
 20
733.2276963205109
 30
0.0
 42
1.0
  0
SEQEND
  5
557
330
58
100
AcDbEntity
  8
SITES
  0
POLYLINE
  5
59
330
2
100
AcDbEntity
  8
SURVBND
100
AcDb2dPolyline
 66
     1
 10
0.0
 20
0.0
 30
0.0
  0
VERTEX
  5
558
330
59
100
AcDbEntity
  8
SURVBND
100
AcDbVertex
100
AcDb2dVertex
 10
119.031245953535
 20
737.9815470225072
 30
0.0
  0
VERTEX
  5
559
330
59
100
AcDbEntity
  8
SURVBND
100
AcDbVertex
100
AcDb2dVertex
 10
119.07091
 20
738.019929
 30
0.0
  0
VERTEX
  5
55A
330
59
100
AcDbEntity
  8
SURVBND
100
AcDbVertex
100
AcDb2dVertex
 10
119.229105
 20
738.149124
 30
0.0
  0
VERTEX
  5
55B
330
59
100
AcDbEntity
  8
SURVBND
100
AcDbVertex
100
AcDb2dVertex
 10
119.3567669999999
 20
738.228298
 30
0.0
  0
VERTEX
  5
55C
330
59
100
AcDbEntity
  8
SURVBND
100
AcDbVertex
100
AcDb2dVertex
 10
119.452552
 20
738.244046
 30
0.0
  0
VERTEX
  5
55D
330
59
100
AcDbEntity
  8
SURVBND
100
AcDbVertex
100
AcDb2dVertex
 10
119.5522149999999
 20
738.222298
 30
0.0
  0
VERTEX
  5
55E
330
59
100
AcDbEntity
  8
SURVBND
100
AcDbVertex
100
AcDb2dVertex
 10
119.634642
 20
738.2502299999999
 30
0.0
  0
VERTEX
  5
55F
330
59
100
AcDbEntity
  8
SURVBND
100
AcDbVertex
100
AcDb2dVertex
 10
119.692336
 20
738.3355889999998
 30
0.0
  0
VERTEX
  5
560
330
59
100
AcDbEntity
  8
SURVBND
100
AcDbVertex
100
AcDb2dVertex
 10
119.7302149999999
 20
738.4691690000001
 30
0.0
  0
VERTEX
  5
561
330
59
100
AcDbEntity
  8
SURVBND
100
AcDbVertex
100
AcDb2dVertex
 10
119.758436
 20
738.620795
 30
0.0
  0
VERTEX
  5
562
330
59
100
AcDbEntity
  8
SURVBND
100
AcDbVertex
100
AcDb2dVertex
 10
119.758808
 20
738.70567
 30
0.0
  0
VERTEX
  5
563
330
59
100
AcDbEntity
  8
SURVBND
100
AcDbVertex
100
AcDb2dVertex
 10
119.7791139999999
 20
738.769882
 30
0.0
  0
VERTEX
  5
564
330
59
100
AcDbEntity
  8
SURVBND
100
AcDbVertex
100
AcDb2dVertex
 10
119.8711089999999
 20
738.759191
 30
0.0
  0
VERTEX
  5
565
330
59
100
AcDbEntity
  8
SURVBND
100
AcDbVertex
100
AcDb2dVertex
 10
119.9525149999999
 20
738.72154
 30
0.0
  0
VERTEX
  5
566
330
59
100
AcDbEntity
  8
SURVBND
100
AcDbVertex
100
AcDb2dVertex
 10
119.9903179999999
 20
738.7194839999999
 30
0.0
  0
VERTEX
  5
567
330
59
100
AcDbEntity
  8
SURVBND
100
AcDbVertex
100
AcDb2dVertex
 10
120.018175
 20
738.708261
 30
0.0
  0
VERTEX
  5
568
330
59
100
AcDbEntity
  8
SURVBND
100
AcDbVertex
100
AcDb2dVertex
 10
120.1660159999999
 20
738.7762669999999
 30
0.0
  0
VERTEX
  5
569
330
59
100
AcDbEntity
  8
SURVBND
100
AcDbVertex
100
AcDb2dVertex
 10
120.2332139999999
 20
738.8406849999999
 30
0.0
  0
VERTEX
  5
56A
330
59
100
AcDbEntity
  8
SURVBND
100
AcDbVertex
100
AcDb2dVertex
 10
120.302824
 20
738.885636
 30
0.0
  0
VERTEX
  5
56B
330
59
100
AcDbEntity
  8
SURVBND
100
AcDbVertex
100
AcDb2dVertex
 10
120.382994
 20
738.860001
 30
0.0
  0
VERTEX
  5
56C
330
59
100
AcDbEntity
  8
SURVBND
100
AcDbVertex
100
AcDb2dVertex
 10
120.4707669999999
 20
738.822117
 30
0.0
  0
VERTEX
  5
56D
330
59
100
AcDbEntity
  8
SURVBND
100
AcDbVertex
100
AcDb2dVertex
 10
120.536185
 20
738.811506
 30
0.0
  0
VERTEX
  5
56E
330
59
100
AcDbEntity
  8
SURVBND
100
AcDbVertex
100
AcDb2dVertex
 10
120.537354
 20
738.813769
 30
0.0
  0
VERTEX
  5
56F
330
59
100
AcDbEntity
  8
SURVBND
100
AcDbVertex
100
AcDb2dVertex
 10
120.579176
 20
738.791707
 30
0.0
  0
VERTEX
  5
570
330
59
100
AcDbEntity
  8
SURVBND
100
AcDbVertex
100
AcDb2dVertex
 10
120.6941719999999
 20
738.7789709999999
 30
0.0
  0
VERTEX
  5
571
330
59
100
AcDbEntity
  8
SURVBND
100
AcDbVertex
100
AcDb2dVertex
 10
120.7755929999999
 20
738.805785
 30
0.0
  0
VERTEX
  5
572
330
59
100
AcDbEntity
  8
SURVBND
100
AcDbVertex
100
AcDb2dVertex
 10
120.826430319349
 20
738.8529215286943
 30
0.0
  0
SEQEND
  5
573
330
59
100
AcDbEntity
  8
SURVBND
  0
POLYLINE
  5
5A
330
2
100
AcDbEntity
  8
SITES
100
AcDb2dPolyline
 66
     1
 10
0.0
 20
0.0
 30
0.0
 70
     1
 40
0.120874062325532
 41
0.120874062325532
  0
VERTEX
  5
574
330
5A
100
AcDbEntity
  8
SITES
100
AcDbVertex
100
AcDb2dVertex
 10
120.790434159289
 20
738.4697784172893
 30
0.0
 42
1.0
  0
VERTEX
  5
575
330
5A
100
AcDbEntity
  8
SITES
100
AcDbVertex
100
AcDb2dVertex
 10
120.9195600969635
 20
738.4697784172893
 30
0.0
 42
1.0
  0
SEQEND
  5
576
330
5A
100
AcDbEntity
  8
SITES
  0
POLYLINE
  5
5B
330
2
100
AcDbEntity
  8
SITES
100
AcDb2dPolyline
 66
     1
 10
0.0
 20
0.0
 30
0.0
 70
     1
 40
0.120874062325532
 41
0.120874062325532
  0
VERTEX
  5
577
330
5B
100
AcDbEntity
  8
SITES
100
AcDbVertex
100
AcDb2dVertex
 10
120.8278572015481
 20
739.9109513600182
 30
0.0
 42
1.0
  0
VERTEX
  5
578
330
5B
100
AcDbEntity
  8
SITES
100
AcDbVertex
100
AcDb2dVertex
 10
120.9569831392226
 20
739.9109513600182
 30
0.0
 42
1.0
  0
SEQEND
  5
579
330
5B
100
AcDbEntity
  8
SITES
  0
POLYLINE
  5
5C
330
2
100
AcDbEntity
  8
SITES
100
AcDb2dPolyline
 66
     1
 10
0.0
 20
0.0
 30
0.0
 70
     1
 40
0.120874062325532
 41
0.120874062325532
  0
VERTEX
  5
57A
330
5C
100
AcDbEntity
  8
SITES
100
AcDbVertex
100
AcDb2dVertex
 10
122.7417916466569
 20
738.1182612975696
 30
0.0
 42
1.0
  0
VERTEX
  5
57B
330
5C
100
AcDbEntity
  8
SITES
100
AcDbVertex
100
AcDb2dVertex
 10
122.8709175843313
 20
738.1182612975696
 30
0.0
 42
1.0
  0
SEQEND
  5
57C
330
5C
100
AcDbEntity
  8
SITES
  0
TEXT
  5
5D
330
2
100
AcDbEntity
  8
SITES
100
AcDbText
 10
122.6139245411097
 20
738.4575079172026
 30
0.0
 40
0.2
  1
VP1156
100
AcDbText
  0
POLYLINE
  5
5E
330
2
100
AcDbEntity
  8
SITES
100
AcDb2dPolyline
 66
     1
 10
0.0
 20
0.0
 30
0.0
 70
     1
 40
0.120874062325532
 41
0.120874062325532
  0
VERTEX
  5
57D
330
5E
100
AcDbEntity
  8
SITES
100
AcDbVertex
100
AcDb2dVertex
 10
125.3623922548534
 20
734.5016857685181
 30
0.0
 42
1.0
  0
VERTEX
  5
57E
330
5E
100
AcDbEntity
  8
SITES
100
AcDbVertex
100
AcDb2dVertex
 10
125.4915181925279
 20
734.5016857685181
 30
0.0
 42
1.0
  0
SEQEND
  5
57F
330
5E
100
AcDbEntity
  8
SITES
  0
POLYLINE
  5
5F
330
2
100
AcDbEntity
  8
SITES
100
AcDb2dPolyline
 66
     1
 10
0.0
 20
0.0
 30
0.0
 70
     1
 40
0.120874062325532
 41
0.120874062325532
  0
VERTEX
  5
580
330
5F
100
AcDbEntity
  8
SITES
100
AcDbVertex
100
AcDb2dVertex
 10
125.0155441758491
 20
738.3057035030026
 30
0.0
 42
1.0
  0
VERTEX
  5
581
330
5F
100
AcDbEntity
  8
SITES
100
AcDbVertex
100
AcDb2dVertex
 10
125.1446701135236
 20
738.3057035030026
 30
0.0
 42
1.0
  0
SEQEND
  5
582
330
5F
100
AcDbEntity
  8
SITES
  0
TEXT
  5
60
330
2
100
AcDbEntity
  8
SITES
100
AcDbText
 10
124.6778197386145
 20
740.2111609172131
 30
0.0
 40
0.2
  1
VP817
100
AcDbText
  0
POLYLINE
  5
61
330
2
100
AcDbEntity
  8
SITES
100
AcDb2dPolyline
 66
     1
 10
0.0
 20
0.0
 30
0.0
 70
     1
 40
0.120874062325532
 41
0.120874062325532
  0
VERTEX
  5
583
330
61
100
AcDbEntity
  8
SITES
100
AcDbVertex
100
AcDb2dVertex
 10
125.0963228074365
 20
739.8997565767131
 30
0.0
 42
1.0
  0
VERTEX
  5
584
330
61
100
AcDbEntity
  8
SITES
100
AcDbVertex
100
AcDb2dVertex
 10
125.2254487451109
 20
739.8997565767131
 30
0.0
 42
1.0
  0
SEQEND
  5
585
330
61
100
AcDbEntity
  8
SITES
  0
POLYLINE
  5
62
330
2
100
AcDbEntity
  8
SURVBND
100
AcDb2dPolyline
 66
     1
 10
0.0
 20
0.0
 30
0.0
  0
VERTEX
  5
586
330
62
100
AcDbEntity
  8
SURVBND
100
AcDbVertex
100
AcDb2dVertex
 10
129.6185189999999
 20
737.534182
 30
0.0
  0
VERTEX
  5
587
330
62
100
AcDbEntity
  8
SURVBND
100
AcDbVertex
100
AcDb2dVertex
 10
129.671245
 20
737.676541
 30
0.0
  0
VERTEX
  5
588
330
62
100
AcDbEntity
  8
SURVBND
100
AcDbVertex
100
AcDb2dVertex
 10
129.654032
 20
737.822852
 30
0.0
  0
VERTEX
  5
589
330
62
100
AcDbEntity
  8
SURVBND
100
AcDbVertex
100
AcDb2dVertex
 10
129.628212
 20
737.977769
 30
0.0
  0
VERTEX
  5
58A
330
62
100
AcDbEntity
  8
SURVBND
100
AcDbVertex
100
AcDb2dVertex
 10
129.685589
 20
738.1240799999999
 30
0.0
  0
VERTEX
  5
58B
330
62
100
AcDbEntity
  8
SURVBND
100
AcDbVertex
100
AcDb2dVertex
 10
129.6626379999999
 20
738.3765369999999
 30
0.0
  0
VERTEX
  5
58C
330
62
100
AcDbEntity
  8
SURVBND
100
AcDbVertex
100
AcDb2dVertex
 10
129.654032
 20
738.669158
 30
0.0
  0
VERTEX
  5
58D
330
62
100
AcDbEntity
  8
SURVBND
100
AcDbVertex
100
AcDb2dVertex
 10
129.6454249999999
 20
738.8900589999999
 30
0.0
  0
VERTEX
  5
58E
330
62
100
AcDbEntity
  8
SURVBND
100
AcDbVertex
100
AcDb2dVertex
 10
129.5966549999999
 20
739.0191559999999
 30
0.0
  0
VERTEX
  5
58F
330
62
100
AcDbEntity
  8
SURVBND
100
AcDbVertex
100
AcDb2dVertex
 10
129.5392789999999
 20
739.263007
 30
0.0
  0
VERTEX
  5
590
330
62
100
AcDbEntity
  8
SURVBND
100
AcDbVertex
100
AcDb2dVertex
 10
129.4991149999999
 20
739.532678
 30
0.0
  0
VERTEX
  5
591
330
62
100
AcDbEntity
  8
SURVBND
100
AcDbVertex
100
AcDb2dVertex
 10
129.524934
 20
739.6789889999999
 30
0.0
  0
VERTEX
  5
592
330
62
100
AcDbEntity
  8
SURVBND
100
AcDbVertex
100
AcDb2dVertex
 10
129.516328
 20
739.891282
 30
0.0
  0
VERTEX
  5
593
330
62
100
AcDbEntity
  8
SURVBND
100
AcDbVertex
100
AcDb2dVertex
 10
129.4646889999999
 20
740.1093139999999
 30
0.0
  0
VERTEX
  5
594
330
62
100
AcDbEntity
  8
SURVBND
100
AcDbVertex
100
AcDb2dVertex
 10
129.398706
 20
740.238411
 30
0.0
  0
VERTEX
  5
595
330
62
100
AcDbEntity
  8
SURVBND
100
AcDbVertex
100
AcDb2dVertex
 10
129.258133
 20
740.419148
 30
0.0
  0
VERTEX
  5
596
330
62
100
AcDbEntity
  8
SURVBND
100
AcDbVertex
100
AcDb2dVertex
 10
129.074528
 20
740.628573
 30
0.0
  0
VERTEX
  5
597
330
62
100
AcDbEntity
  8
SURVBND
100
AcDbVertex
100
AcDb2dVertex
 10
128.9339559999999
 20
740.777753
 30
0.0
  0
VERTEX
  5
598
330
62
100
AcDbEntity
  8
SURVBND
100
AcDbVertex
100
AcDb2dVertex
 10
128.758957
 20
740.9039809999999
 30
0.0
  0
VERTEX
  5
599
330
62
100
AcDbEntity
  8
SURVBND
100
AcDbVertex
100
AcDb2dVertex
 10
128.5437949999999
 20
741.018735
 30
0.0
  0
VERTEX
  5
59A
330
62
100
AcDbEntity
  8
SURVBND
100
AcDbVertex
100
AcDb2dVertex
 10
128.53725
 20
741.022735
 30
0.0
  0
SEQEND
  5
59B
330
62
100
AcDbEntity
  8
SURVBND
  0
ENDSEC
  0
SECTION
  2
OBJECTS
  0
DICTIONARY
  5
7
330
0
100
AcDbDictionary
  3
ACAD_GROUP
350
1F
  3
ACAD_LAYOUT
350
B
  3
ACAD_MLINESTYLE
350
20
  3
ACAD_PLOTSETTINGS
350
21
1001
ACAD
1000
TREAT_AS_HARD
1070
     0
  0
DICTIONARY
  5
63
330
2
100
AcDbDictionary
  3
ACAD_LAYOUTSELFREF
350
64
  0
DICTIONARY
  5
65
330
C
100
AcDbDictionary
  3
ACAD_LAYOUTSELFREF
350
66
  0
DICTIONARY
  5
1F
102
{ACAD_REACTORS
330
7
102
}
330
7
100
AcDbDictionary
1001
ACAD
1000
TREAT_AS_HARD
1070
     0
  0
DICTIONARY
  5
B
102
{ACAD_REACTORS
330
7
102
}
330
7
100
AcDbDictionary
1001
ACAD
1000
TREAT_AS_HARD
1070
     0
  0
DICTIONARY
  5
20
102
{ACAD_REACTORS
330
7
102
}
330
7
100
AcDbDictionary
  3
STANDARD
350
23
1001
ACAD
1000
TREAT_AS_HARD
1070
     0
  0
DICTIONARY
  5
21
102
{ACAD_REACTORS
330
7
102
}
330
7
100
AcDbDictionary
1001
ACAD
1000
TREAT_AS_HARD
1070
     0
  0
XRECORD
  5
64
102
{ACAD_REACTORS
330
63
102
}
330
63
100
AcDbXrecord
340
2
  0
XRECORD
  5
66
102
{ACAD_REACTORS
330
65
102
}
330
65
100
AcDbXrecord
340
C
  0
MLINESTYLE
  5
23
102
{ACAD_REACTORS
330
20
102
}
330
20
100
AcDbMlineStyle
  2
STANDARD
 70
     0
  3

 62
   256
 51
90.0
 52
90.0
 71
     2
 49
0.5
 62
   256
  6
BYLAYER
 49
-0.5
 62
   256
  6
BYLAYER
  0
ENDSEC
  0
EOF
