  0
SECTION
  2
HEADER
  9
$ACADVER
  1
AC1009
  9
$INSBASE
 10
0.0
 20
0.0
 30
0.0
  9
$EXTMIN
 10
499944.513281914
 20
386814.76988541801
 30
-0.0792900070246105
  9
$EXTMAX
 10
833384.97952031018
 20
719471.2977785063
 30
5200.0793626546174
  9
$LIMMIN
 10
0.0
 20
0.0
  9
$LIMMAX
 10
12.0
 20
9.0
  9
$ORTHOMODE
 70
     0
  9
$REGENMODE
 70
     1
  9
$FILLMODE
 70
     1
  9
$QTEXTMODE
 70
     0
  9
$MIRRTEXT
 70
     0
  9
$DRAGMODE
 70
     2
  9
$LTSCALE
 40
1.0
  9
$OSMODE
 70
    37
  9
$ATTMODE
 70
     1
  9
$TEXTSIZE
 40
1200.0
  9
$TRACEWID
 40
0.05
  9
$TEXTSTYLE
  7
STANDARD
  9
$CLAYER
  8
LEIVA_SOIL_LABELS
  9
$CELTYPE
  6
BYLAYER
  9
$CECOLOR
 62
   256
  9
$DIMSCALE
 40
1.0
  9
$DIMASZ
 40
0.18
  9
$DIMEXO
 40
0.0625
  9
$DIMDLI
 40
0.38
  9
$DIMRND
 40
0.0
  9
$DIMDLE
 40
0.0
  9
$DIMEXE
 40
0.18
  9
$DIMTP
 40
0.0
  9
$DIMTM
 40
0.0
  9
$DIMTXT
 40
0.18
  9
$DIMCEN
 40
0.09
  9
$DIMTSZ
 40
0.0
  9
$DIMTOL
 70
     0
  9
$DIMLIM
 70
     0
  9
$DIMTIH
 70
     1
  9
$DIMTOH
 70
     1
  9
$DIMSE1
 70
     0
  9
$DIMSE2
 70
     0
  9
$DIMTAD
 70
     0
  9
$DIMZIN
 70
     0
  9
$DIMBLK
  1

  9
$DIMASO
 70
     1
  9
$DIMSHO
 70
     1
  9
$DIMPOST
  1

  9
$DIMAPOST
  1

  9
$DIMALT
 70
     0
  9
$DIMALTD
 70
     2
  9
$DIMALTF
 40
25.399999999999999
  9
$DIMLFAC
 40
1.0
  9
$DIMTOFL
 70
     0
  9
$DIMTVP
 40
0.0
  9
$DIMTIX
 70
     0
  9
$DIMSOXD
 70
     0
  9
$DIMSAH
 70
     0
  9
$DIMBLK1
  1

  9
$DIMBLK2
  1

  9
$DIMSTYLE
  2
STANDARD
  9
$DIMCLRD
 70
     0
  9
$DIMCLRE
 70
     0
  9
$DIMCLRT
 70
     0
  9
$DIMTFAC
 40
1.0
  9
$DIMGAP
 40
0.09
  9
$LUNITS
 70
     2
  9
$LUPREC
 70
     4
  9
$SKETCHINC
 40
0.1
  9
$FILLETRAD
 40
0.0
  9
$AUNITS
 70
     0
  9
$AUPREC
 70
     0
  9
$MENU
  1
.
  9
$ELEVATION
 40
0.0
  9
$PELEVATION
 40
0.0
  9
$THICKNESS
 40
0.0
  9
$LIMCHECK
 70
     0
  9
$BLIPMODE
 70
     0
  9
$CHAMFERA
 40
0.0
  9
$CHAMFERB
 40
0.0
  9
$SKPOLY
 70
     0
  9
$TDCREATE
 40
2455804.6739510992
  9
$TDUPDATE
 40
2457176.6257854048
  9
$TDINDWG
 40
0.5542186806
  9
$TDUSRTIMER
 40
0.5542130903
  9
$USRTIMER
 70
     1
  9
$ANGBASE
 50
0.0
  9
$ANGDIR
 70
     0
  9
$PDMODE
 70
     0
  9
$PDSIZE
 40
0.0
  9
$PLINEWID
 40
0.0
  9
$COORDS
 70
     1
  9
$SPLFRAME
 70
     0
  9
$SPLINETYPE
 70
     6
  9
$SPLINESEGS
 70
     8
  9
$ATTDIA
 70
     1
  9
$ATTREQ
 70
     1
  9
$HANDLING
 70
     1
  9
$HANDSEED
  5
766
  9
$SURFTAB1
 70
     6
  9
$SURFTAB2
 70
     6
  9
$SURFTYPE
 70
     6
  9
$SURFU
 70
     6
  9
$SURFV
 70
     6
  9
$UCSNAME
  2

  9
$UCSORG
 10
0.0
 20
0.0
 30
0.0
  9
$UCSXDIR
 10
1.0
 20
0.0
 30
0.0
  9
$UCSYDIR
 10
0.0
 20
1.0
 30
0.0
  9
$PUCSNAME
  2

  9
$PUCSORG
 10
0.0
 20
0.0
 30
0.0
  9
$PUCSXDIR
 10
1.0
 20
0.0
 30
0.0
  9
$PUCSYDIR
 10
0.0
 20
1.0
 30
0.0
  9
$USERI1
 70
     0
  9
$USERI2
 70
     0
  9
$USERI3
 70
     0
  9
$USERI4
 70
     0
  9
$USERI5
 70
     0
  9
$USERR1
 40
0.0
  9
$USERR2
 40
0.0
  9
$USERR3
 40
0.0
  9
$USERR4
 40
0.0
  9
$USERR5
 40
0.0
  9
$WORLDVIEW
 70
     1
  9
$SHADEDGE
 70
     3
  9
$SHADEDIF
 70
    70
  9
$TILEMODE
 70
     1
  9
$MAXACTVP
 70
    64
  9
$PLIMCHECK
 70
     0
  9
$PEXTMIN
 10
1.049999952316284
 20
0.7999999523162842
 30
0.0
  9
$PEXTMAX
 10
9.4499995708465594
 20
7.1999995708465576
 30
0.0
  9
$PLIMMIN
 10
-0.2500002402958907
 20
-0.2499999962453767
  9
$PLIMMAX
 10
10.74999951940822
 20
8.2499997634587334
  9
$UNITMODE
 70
     0
  9
$VISRETAIN
 70
     1
  9
$PLINEGEN
 70
     0
  9
$PSLTSCALE
 70
     1
  0
ENDSEC
  0
SECTION
  2
TABLES
  0
TABLE
  2
VPORT
 70
     1
  0
VPORT
  2
*ACTIVE
 70
     0
 10
0.0
 20
0.0
 11
1.0
 21
1.0
 12
655309.29478347499
 22
626477.03080340754
 13
0.0
 23
0.0
 14
0.5
 24
0.5
 15
0.5
 25
0.5
 16
0.0
 26
0.0
 36
1.0
 17
0.0
 27
0.0
 37
0.0
 40
32916.276829355171
 41
2.0149439601494392
 42
50.0
 43
0.0
 44
0.0
 50
0.0
 51
0.0
 71
     0
 72
  1000
 73
     1
 74
     3
 75
     0
 76
     0
 77
     0
 78
     0
  0
ENDTAB
  0
TABLE
  2
LTYPE
 70
     1
  0
LTYPE
  2
CONTINUOUS
 70
     0
  3
Solid line
 72
    65
 73
     0
 40
0.0
  0
ENDTAB
  0
TABLE
  2
LAYER
 70
     3
  0
LAYER
  2
0
 70
     4
 62
    -7
  6
CONTINUOUS
  0
LAYER
  2
LEIVA_SOIL_LIMITS
 70
     0
 62
     1
  6
CONTINUOUS
  0
LAYER
  2
LEIVA_SOIL_LABELS
 70
     2
 62
    50
  6
CONTINUOUS
  0
ENDTAB
  0
TABLE
  2
STYLE
 70
     1
  0
STYLE
  2
STANDARD
 70
     0
 40
0.0
 41
1.0
 50
0.0
 71
     0
 42
1200.0
  3
txt
  4

  0
ENDTAB
  0
TABLE
  2
VIEW
 70
     0
  0
ENDTAB
  0
TABLE
  2
UCS
 70
     0
  0
ENDTAB
  0
TABLE
  2
APPID
 70
     5
  0
APPID
  2
ACAD
 70
     0
  0
APPID
  2
ADE
 70
     0
  0
APPID
  2
ACAD_NAV_VCDISPLAY
 70
     0
  0
APPID
  2
ACAD_PSEXT
 70
     0
  0
APPID
  2
ADE_PROJECTION
 70
     0
  0
ENDTAB
  0
TABLE
  2
DIMSTYLE
 70
     1
  0
DIMSTYLE
  2
STANDARD
 70
     0
  3

  4

  5

  6

  7

 40
1.0
 41
0.18
 42
0.0625
 43
0.38
 44
0.18
 45
0.0
 46
0.0
 47
0.0
 48
0.0
140
0.18
141
0.09
142
0.0
143
25.399999999999999
144
1.0
145
0.0
146
1.0
147
0.09
 71
     0
 72
     0
 73
     1
 74
     1
 75
     0
 76
     0
 77
     0
 78
     0
170
     0
171
     2
172
     0
173
     0
174
     0
175
     0
176
     0
177
     0
178
     0
  0
ENDTAB
  0
ENDSEC
  0
SECTION
  2
BLOCKS
  0
BLOCK
  8
0
  2
$MODEL_SPACE
 70
     0
 10
0.0
 20
0.0
 30
0.0
  3
$MODEL_SPACE
  1

  0
ENDBLK
  5
16
  8
0
  0
BLOCK
 67
     1
  8
0
  2
$PAPER_SPACE
 70
     0
 10
0.0
 20
0.0
 30
0.0
  3
$PAPER_SPACE
  1

  0
ENDBLK
  5
1C
 67
     1
  8
0
  0
ENDSEC
  0
SECTION
  2
ENTITIES
  0
LINE
  5
64
  8
LEIVA_SOIL_LIMITS
 10
656348.86795949063
 20
623024.00337567355
 30
0.0
 11
656312.22037142538
 21
623233.4901368008
 31
0.0
  0
LINE
  5
66
  8
LEIVA_SOIL_LIMITS
 10
656312.22037142538
 20
623233.4901368008
 30
0.0
 11
656275.5803509003
 21
623433.86743522156
 31
0.0
  0
LINE
  5
67
  8
LEIVA_SOIL_LIMITS
 10
656275.5803509003
 20
623433.86743522156
 30
0.0
 11
656320.96305483545
 21
623679.86096588778
 31
0.0
  0
LINE
  5
68
  8
LEIVA_SOIL_LIMITS
 10
656320.96305483545
 20
623679.86096588778
 30
0.0
 11
656275.22819042648
 21
623852.90225941385
 31
0.0
  0
LINE
  5
69
  8
LEIVA_SOIL_LIMITS
 10
656275.22819042648
 20
623852.90225941385
 30
0.0
 11
656347.95693569956
 21
624108.0281953041
 31
0.0
  0
LINE
  5
6A
  8
LEIVA_SOIL_LIMITS
 10
656347.95693569956
 20
624108.0281953041
 30
0.0
 11
656356.9522559396
 21
624253.78712304053
 31
0.0
  0
LINE
  5
6B
  8
LEIVA_SOIL_LIMITS
 10
656356.9522559396
 20
624253.78712304053
 30
0.0
 11
656320.35060186114
 21
624408.61715406214
 31
0.0
  0
LINE
  5
6C
  8
LEIVA_SOIL_LIMITS
 10
656320.35060186114
 20
624408.61715406214
 30
0.0
 11
656393.263083003
 21
624445.11626091436
 31
0.0
  0
LINE
  5
6D
  8
LEIVA_SOIL_LIMITS
 10
656393.263083003
 20
624445.11626091436
 30
0.0
 11
656539.14911431354
 21
624445.23886479111
 31
0.0
  0
LINE
  5
6E
  8
LEIVA_SOIL_LIMITS
 10
656539.14911431354
 20
624445.23886479111
 30
0.0
 11
656712.35821994895
 21
624481.82226178958
 31
0.0
  0
LINE
  5
6F
  8
LEIVA_SOIL_LIMITS
 10
656712.35821994895
 20
624481.82226178958
 30
0.0
 11
656803.46047695226
 21
624572.9934241951
 31
0.0
  0
LINE
  5
70
  8
LEIVA_SOIL_LIMITS
 10
656803.46047695226
 20
624572.9934241951
 30
0.0
 11
656912.81375514553
 21
624645.96098678198
 31
0.0
  0
LINE
  5
71
  8
LEIVA_SOIL_LIMITS
 10
656912.81375514553
 20
624645.96098678198
 30
0.0
 11
657013.04156681022
 21
624728.03034931398
 31
0.0
  0
LINE
  5
72
  8
LEIVA_SOIL_LIMITS
 10
657013.04156681022
 20
624728.03034931398
 30
0.0
 11
657085.9156815043
 21
624810.07672356488
 31
0.0
  0
LINE
  5
73
  8
LEIVA_SOIL_LIMITS
 10
657085.9156815043
 20
624810.07672356488
 30
0.0
 11
657140.58470899565
 21
624855.66996752797
 31
0.0
  0
LINE
  5
74
  8
LEIVA_SOIL_LIMITS
 10
657140.58470899565
 20
624855.66996752797
 30
0.0
 11
657176.98731586256
 21
624937.68569080892
 31
0.0
  0
LINE
  5
75
  8
LEIVA_SOIL_LIMITS
 10
657176.98731586256
 20
624937.68569080892
 30
0.0
 11
657240.82774386974
 21
624919.52040472114
 31
0.0
  0
LINE
  5
76
  8
LEIVA_SOIL_LIMITS
 10
657240.82774386974
 20
624919.52040472114
 30
0.0
 11
657286.48605164792
 21
624837.57364613935
 31
0.0
  0
LINE
  5
77
  8
LEIVA_SOIL_LIMITS
 10
657286.48605164792
 20
624837.57364613935
 30
0.0
 11
657350.45671399881
 21
624664.54772382486
 31
0.0
  0
LINE
  5
78
  8
LEIVA_SOIL_LIMITS
 10
657350.45671399881
 20
624664.54772382486
 30
0.0
 11
657368.84553710965
 21
624482.37397938268
 31
0.0
  0
LINE
  5
79
  8
LEIVA_SOIL_LIMITS
 10
657368.84553710965
 20
624482.37397938268
 30
0.0
 11
657387.21913701075
 21
624318.41916028084
 31
0.0
  0
LINE
  5
7A
  8
LEIVA_SOIL_LIMITS
 10
657387.21913701075
 20
624318.41916028084
 30
0.0
 11
657323.51651092526
 21
624172.61430174508
 31
0.0
  0
LINE
  5
7B
  8
LEIVA_SOIL_LIMITS
 10
657323.51651092526
 20
624172.61430174508
 30
0.0
 11
657305.36492524727
 21
624072.39497864642
 31
0.0
  0
LINE
  5
7C
  8
LEIVA_SOIL_LIMITS
 10
657305.36492524727
 20
624072.39497864642
 30
0.0
 11
657259.89800900954
 21
623926.60544555716
 31
0.0
  0
LINE
  5
7D
  8
LEIVA_SOIL_LIMITS
 10
657259.89800900954
 20
623926.60544555716
 30
0.0
 11
657177.99786325905
 21
623735.23799402732
 31
0.0
  0
LINE
  5
7E
  8
LEIVA_SOIL_LIMITS
 10
657177.99786325905
 20
623735.23799402732
 30
0.0
 11
657096.05943923187
 21
623589.41776427755
 31
0.0
  0
LINE
  5
7F
  8
LEIVA_SOIL_LIMITS
 10
657096.05943923187
 20
623589.41776427755
 30
0.0
 11
657050.61548996856
 21
623416.29988898267
 31
0.0
  0
LINE
  5
80
  8
LEIVA_SOIL_LIMITS
 10
657050.61548996856
 20
623416.29988898267
 30
0.0
 11
657014.25881708832
 21
623279.62743559689
 31
0.0
  0
LINE
  5
81
  8
LEIVA_SOIL_LIMITS
 10
657014.25881708832
 20
623279.62743559689
 30
0.0
 11
657014.37365203537
 21
623142.98563317955
 31
0.0
  0
LINE
  5
82
  8
LEIVA_SOIL_LIMITS
 10
657014.37365203537
 20
623142.98563317955
 30
0.0
 11
656987.16550075135
 21
622969.88308340544
 31
0.0
  0
LINE
  5
83
  8
LEIVA_SOIL_LIMITS
 10
656987.16550075135
 20
622969.88308340544
 30
0.0
 11
656978.06291310256
 21
622951.65649537928
 31
0.0
  0
LINE
  5
84
  8
LEIVA_SOIL_LIMITS
 10
656978.06291310256
 20
622951.65649537928
 30
0.0
 11
656348.86795949063
 21
623024.00337567355
 31
0.0
  0
LINE
  5
85
  8
LEIVA_SOIL_LIMITS
 10
656980.95919268578
 20
622957.45586769097
 30
0.0
 11
656987.18081209285
 21
622951.66415814008
 31
0.0
  0
LINE
  5
86
  8
LEIVA_SOIL_LIMITS
 10
656987.18081209285
 20
622951.66415814008
 30
0.0
 11
657023.70590953901
 21
622887.92866206262
 31
0.0
  0
LINE
  5
87
  8
LEIVA_SOIL_LIMITS
 10
657023.70590953901
 20
622887.92866206262
 30
0.0
 11
657105.82806951215
 21
622815.12197139161
 31
0.0
  0
LINE
  5
88
  8
LEIVA_SOIL_LIMITS
 10
657105.82806951215
 20
622815.12197139161
 30
0.0
 11
657315.5393056199
 21
622815.29821451986
 31
0.0
  0
LINE
  5
89
  8
LEIVA_SOIL_LIMITS
 10
657315.5393056199
 20
622815.29821451986
 30
0.0
 11
657424.9078951166
 21
622870.04689753253
 31
0.0
  0
LINE
  5
8A
  8
LEIVA_SOIL_LIMITS
 10
657424.9078951166
 20
622870.04689753253
 30
0.0
 11
657424.74712622119
 21
623061.34538436227
 31
0.0
  0
LINE
  5
8B
  8
LEIVA_SOIL_LIMITS
 10
657424.74712622119
 20
623061.34538436227
 30
0.0
 11
657452.03948976856
 21
623134.24398225115
 31
0.0
  0
LINE
  5
8C
  8
LEIVA_SOIL_LIMITS
 10
657452.03948976856
 20
623134.24398225115
 30
0.0
 11
657470.07624049962
 21
623371.10510776681
 31
0.0
  0
LINE
  5
8D
  8
LEIVA_SOIL_LIMITS
 10
657470.07624049962
 20
623371.10510776681
 30
0.0
 11
657734.33401351934
 21
623562.62581421738
 31
0.0
  0
LINE
  5
8E
  8
LEIVA_SOIL_LIMITS
 10
657734.33401351934
 20
623562.62581421738
 30
0.0
 11
657825.36736956215
 21
623735.78204893367
 31
0.0
  0
LINE
  5
8F
  8
LEIVA_SOIL_LIMITS
 10
657825.36736956215
 20
623735.78204893367
 30
0.0
 11
657898.23382862378
 21
623826.93784012529
 31
0.0
  0
LINE
  5
90
  8
LEIVA_SOIL_LIMITS
 10
657898.23382862378
 20
623826.93784012529
 30
0.0
 11
658062.33269090159
 21
623854.40415742132
 31
0.0
  0
LINE
  5
91
  8
LEIVA_SOIL_LIMITS
 10
658062.33269090159
 20
623854.40415742132
 30
0.0
 11
658107.96803170629
 21
623799.78574104607
 31
0.0
  0
LINE
  5
92
  8
LEIVA_SOIL_LIMITS
 10
658107.96803170629
 20
623799.78574104607
 30
0.0
 11
658135.39054150367
 21
623717.82365694293
 31
0.0
  0
LINE
  5
93
  8
LEIVA_SOIL_LIMITS
 10
658135.39054150367
 20
623717.82365694293
 30
0.0
 11
658162.82845073775
 21
623617.64269333973
 31
0.0
  0
LINE
  5
94
  8
LEIVA_SOIL_LIMITS
 10
658162.82845073775
 20
623617.64269333973
 30
0.0
 11
658290.58595147636
 21
623490.21763198427
 31
0.0
  0
LINE
  5
95
  8
LEIVA_SOIL_LIMITS
 10
658290.58595147636
 20
623490.21763198427
 30
0.0
 11
658418.2668955843
 21
623453.88710557332
 31
0.0
  0
LINE
  5
96
  8
LEIVA_SOIL_LIMITS
 10
658418.2668955843
 20
623453.88710557332
 30
0.0
 11
658536.82228506939
 21
623426.65833334404
 31
0.0
  0
LINE
  5
97
  8
LEIVA_SOIL_LIMITS
 10
658536.82228506939
 20
623426.65833334404
 30
0.0
 11
658637.16484351014
 21
623372.0859390765
 31
0.0
  0
LINE
  5
98
  8
LEIVA_SOIL_LIMITS
 10
658637.16484351014
 20
623372.0859390765
 30
0.0
 11
658801.40925155021
 21
623226.47260349896
 31
0.0
  0
LINE
  5
99
  8
LEIVA_SOIL_LIMITS
 10
658801.40925155021
 20
623226.47260349896
 30
0.0
 11
658783.25001020206
 21
623135.3627430331
 31
0.0
  0
LINE
  5
9A
  8
LEIVA_SOIL_LIMITS
 10
658783.25001020206
 20
623135.3627430331
 30
0.0
 11
658683.02985416935
 21
623044.1839635584
 31
0.0
  0
LINE
  5
9B
  8
LEIVA_SOIL_LIMITS
 10
658683.02985416935
 20
623044.1839635584
 30
0.0
 11
658564.58164399909
 21
622943.88035031268
 31
0.0
  0
LINE
  5
9C
  8
LEIVA_SOIL_LIMITS
 10
658564.58164399909
 20
622943.88035031268
 30
0.0
 11
658409.60068067326
 21
622916.4217414693
 31
0.0
  0
LINE
  5
9D
  8
LEIVA_SOIL_LIMITS
 10
658409.60068067326
 20
622916.4217414693
 30
0.0
 11
658190.80216822028
 21
622879.80003073963
 31
0.0
  0
LINE
  5
9E
  8
LEIVA_SOIL_LIMITS
 10
658190.80216822028
 20
622879.80003073963
 30
0.0
 11
658099.66163290129
 21
622834.17613580707
 31
0.0
  0
LINE
  5
9F
  8
LEIVA_SOIL_LIMITS
 10
658099.66163290129
 20
622834.17613580707
 30
0.0
 11
657972.08786807
 21
622742.97432243382
 31
0.0
  0
LINE
  5
A0
  8
LEIVA_SOIL_LIMITS
 10
657972.08786807
 20
622742.97432243382
 30
0.0
 11
657798.89407377655
 21
622688.17200016906
 31
0.0
  0
LINE
  5
A1
  8
LEIVA_SOIL_LIMITS
 10
657798.89407377655
 20
622688.17200016906
 30
0.0
 11
657707.75353841879
 21
622642.54815092869
 31
0.0
  0
LINE
  5
A2
  8
LEIVA_SOIL_LIMITS
 10
657707.75353841879
 20
622642.54815092869
 30
0.0
 11
657607.54112622794
 21
622542.25986320409
 31
0.0
  0
LINE
  5
A3
  8
LEIVA_SOIL_LIMITS
 10
657607.54112622794
 20
622542.25986320409
 30
0.0
 11
657571.14617503178
 21
622451.13467729045
 31
0.0
  0
LINE
  5
A4
  8
LEIVA_SOIL_LIMITS
 10
657571.14617503178
 20
622451.13467729045
 30
0.0
 11
657461.80046437832
 21
622369.05765199615
 31
0.0
  0
LINE
  5
A5
  8
LEIVA_SOIL_LIMITS
 10
657461.80046437832
 20
622369.05765199615
 30
0.0
 11
657388.90338267153
 21
622314.33966564515
 31
0.0
  0
LINE
  5
A6
  8
LEIVA_SOIL_LIMITS
 10
657388.90338267153
 20
622314.33966564515
 30
0.0
 11
657306.85777936783
 21
622296.05177567969
 31
0.0
  0
LINE
  5
A7
  8
LEIVA_SOIL_LIMITS
 10
657306.85777936783
 20
622296.05177567969
 30
0.0
 11
657197.35138795024
 21
622405.27323729114
 31
0.0
  0
LINE
  5
A8
  8
LEIVA_SOIL_LIMITS
 10
657197.35138795024
 20
622405.27323729114
 30
0.0
 11
657069.70872212015
 21
622396.05654192145
 31
0.0
  0
LINE
  5
A9
  8
LEIVA_SOIL_LIMITS
 10
657069.70872212015
 20
622396.05654192145
 30
0.0
 11
657051.50354678556
 21
622359.60341155902
 31
0.0
  0
LINE
  5
AA
  8
LEIVA_SOIL_LIMITS
 10
657051.50354678556
 20
622359.60341155902
 30
0.0
 11
656987.72436410678
 21
622304.89304227638
 31
0.0
  0
LINE
  5
AB
  8
LEIVA_SOIL_LIMITS
 10
656987.72436410678
 20
622304.89304227638
 30
0.0
 11
656860.10466528975
 21
622268.34795900842
 31
0.0
  0
LINE
  5
AC
  8
LEIVA_SOIL_LIMITS
 10
656860.10466528975
 20
622268.34795900842
 30
0.0
 11
656696.01337051135
 21
622231.77222469694
 31
0.0
  0
LINE
  5
AD
  8
LEIVA_SOIL_LIMITS
 10
656696.01337051135
 20
622231.77222469694
 30
0.0
 11
656586.62181404198
 21
622204.35188389081
 31
0.0
  0
LINE
  5
AE
  8
LEIVA_SOIL_LIMITS
 10
656586.62181404198
 20
622204.35188389081
 30
0.0
 11
656477.20729055884
 21
622204.25993098342
 31
0.0
  0
LINE
  5
AF
  8
LEIVA_SOIL_LIMITS
 10
656477.20729055884
 20
622204.25993098342
 30
0.0
 11
656285.70879728615
 21
622231.4274012011
 31
0.0
  0
LINE
  5
B0
  8
LEIVA_SOIL_LIMITS
 10
656285.70879728615
 20
622231.4274012011
 30
0.0
 11
656158.02785317914
 21
622267.757927611
 31
0.0
  0
LINE
  5
B1
  8
LEIVA_SOIL_LIMITS
 10
656158.02785317914
 20
622267.757927611
 30
0.0
 11
656167.07685120835
 21
622349.75066268374
 31
0.0
  0
LINE
  5
B2
  8
LEIVA_SOIL_LIMITS
 10
656167.07685120835
 20
622349.75066268374
 30
0.0
 11
656249.0535535895
 21
622450.02357926941
 31
0.0
  0
LINE
  5
B3
  8
LEIVA_SOIL_LIMITS
 10
656249.0535535895
 20
622450.02357926941
 30
0.0
 11
656276.23873786116
 21
622650.45451694145
 31
0.0
  0
LINE
  5
B4
  8
LEIVA_SOIL_LIMITS
 10
656276.23873786116
 20
622650.45451694145
 30
0.0
 11
656276.13155858486
 21
622777.98685672495
 31
0.0
  0
LINE
  5
B5
  8
LEIVA_SOIL_LIMITS
 10
656276.13155858486
 20
622777.98685672495
 30
0.0
 11
656312.54190925416
 21
622850.89311744762
 31
0.0
  0
LINE
  5
B6
  8
LEIVA_SOIL_LIMITS
 10
656312.54190925416
 20
622850.89311744762
 30
0.0
 11
656348.95982742519
 21
622914.68996115588
 31
0.0
  0
LINE
  5
B7
  8
LEIVA_SOIL_LIMITS
 10
656348.95982742519
 20
622914.68996115588
 30
0.0
 11
656357.89939833549
 21
623022.96491148893
 31
0.0
  0
LINE
  5
B8
  8
LEIVA_SOIL_LIMITS
 10
652239.64097805182
 20
623543.24256937345
 30
0.0
 11
652357.79370277026
 21
623508.63174143969
 31
0.0
  0
LINE
  5
B9
  8
LEIVA_SOIL_LIMITS
 10
652357.79370277026
 20
623508.63174143969
 30
0.0
 11
652514.17683167988
 21
623399.46033675235
 31
0.0
  0
LINE
  5
BA
  8
LEIVA_SOIL_LIMITS
 10
652514.17683167988
 20
623399.46033675235
 30
0.0
 11
652576.79832135316
 21
623274.59542665398
 31
0.0
  0
LINE
  5
BB
  8
LEIVA_SOIL_LIMITS
 10
652576.79832135316
 20
623274.59542665398
 30
0.0
 11
652592.51930732222
 21
623165.30580829177
 31
0.0
  0
LINE
  5
BC
  8
LEIVA_SOIL_LIMITS
 10
652592.51930732222
 20
623165.30580829177
 30
0.0
 11
652577.00828471943
 21
623024.76056791446
 31
0.0
  0
LINE
  5
BD
  8
LEIVA_SOIL_LIMITS
 10
652577.00828471943
 20
623024.76056791446
 30
0.0
 11
652577.07389827771
 21
622946.68716700631
 31
0.0
  0
LINE
  5
BE
  8
LEIVA_SOIL_LIMITS
 10
652577.07389827771
 20
622946.68716700631
 30
0.0
 11
652577.1657572526
 21
622837.38441379019
 31
0.0
  0
LINE
  5
BF
  8
LEIVA_SOIL_LIMITS
 10
652577.1657572526
 20
622837.38441379019
 30
0.0
 11
652483.50909968314
 21
622696.77349914925
 31
0.0
  0
LINE
  5
C0
  8
LEIVA_SOIL_LIMITS
 10
652483.50909968314
 20
622696.77349914925
 30
0.0
 11
652436.70045495324
 21
622603.0460376686
 31
0.0
  0
LINE
  5
C1
  8
LEIVA_SOIL_LIMITS
 10
652436.70045495324
 20
622603.0460376686
 30
0.0
 11
652417.43524008046
 21
622593.40209131723
 31
0.0
  0
LINE
  5
C2
  8
LEIVA_SOIL_LIMITS
 10
651558.03396789846
 20
619463.20084645122
 30
0.0
 11
651584.00807023793
 21
619580.44085011666
 31
0.0
  0
LINE
  5
C3
  8
LEIVA_SOIL_LIMITS
 10
651584.00807023793
 20
619580.44085011666
 30
0.0
 11
651619.64180478139
 21
619687.54295495478
 31
0.0
  0
LINE
  5
C4
  8
LEIVA_SOIL_LIMITS
 10
651619.64180478139
 20
619687.54295495478
 30
0.0
 11
651662.45023124234
 21
619758.96037015156
 31
0.0
  0
LINE
  5
C5
  8
LEIVA_SOIL_LIMITS
 10
651662.45023124234
 20
619758.96037015156
 30
0.0
 11
651683.80049274734
 21
619858.91231911676
 31
0.0
  0
LINE
  5
C6
  8
LEIVA_SOIL_LIMITS
 10
651683.80049274734
 20
619858.91231911676
 30
0.0
 11
651719.42222936952
 21
619980.29071770958
 31
0.0
  0
LINE
  5
C7
  8
LEIVA_SOIL_LIMITS
 10
651719.42222936952
 20
619980.29071770958
 30
0.0
 11
651798.00836524565
 21
619987.49491409282
 31
0.0
  0
LINE
  5
C8
  8
LEIVA_SOIL_LIMITS
 10
651798.00836524565
 20
619987.49491409282
 30
0.0
 11
651905.23351234652
 21
619923.34174032102
 31
0.0
  0
LINE
  5
C9
  8
LEIVA_SOIL_LIMITS
 10
651905.23351234652
 20
619923.34174032102
 30
0.0
 11
652005.27789090748
 21
619902.01136272214
 31
0.0
  0
LINE
  5
CA
  8
LEIVA_SOIL_LIMITS
 10
652005.27789090748
 20
619902.01136272214
 30
0.0
 11
652119.58782331925
 21
619909.24558169278
 31
0.0
  0
LINE
  5
CB
  8
LEIVA_SOIL_LIMITS
 10
652119.58782331925
 20
619909.24558169278
 30
0.0
 11
652198.11396966316
 21
619987.83116628753
 31
0.0
  0
LINE
  5
CC
  8
LEIVA_SOIL_LIMITS
 10
652198.11396966316
 20
619987.83116628753
 30
0.0
 11
652290.85767827835
 21
620152.08640162845
 31
0.0
  0
LINE
  5
CD
  8
LEIVA_SOIL_LIMITS
 10
652290.85767827835
 20
620152.08640162845
 30
0.0
 11
652297.96038274502
 21
620202.059393954
 31
0.0
  0
LINE
  5
CE
  8
LEIVA_SOIL_LIMITS
 10
652297.96038274502
 20
620202.059393954
 30
0.0
 11
652305.03916909674
 21
620280.58493357198
 31
0.0
  0
LINE
  5
CF
  8
LEIVA_SOIL_LIMITS
 10
652305.03916909674
 20
620280.58493357198
 30
0.0
 11
652376.43261620798
 21
620344.88821994746
 31
0.0
  0
LINE
  5
D0
  8
LEIVA_SOIL_LIMITS
 10
652376.43261620798
 20
620344.88821994746
 30
0.0
 11
652412.12034132401
 21
620387.74708345055
 31
0.0
  0
LINE
  5
D1
  8
LEIVA_SOIL_LIMITS
 10
652412.12034132401
 20
620387.74708345055
 30
0.0
 11
652526.42419711663
 21
620402.11940895324
 31
0.0
  0
LINE
  5
D2
  8
LEIVA_SOIL_LIMITS
 10
652526.42419711663
 20
620402.11940895324
 30
0.0
 11
652619.32387849165
 21
620380.78306716867
 31
0.0
  0
LINE
  5
D3
  8
LEIVA_SOIL_LIMITS
 10
652619.32387849165
 20
620380.78306716867
 30
0.0
 11
652697.92801124859
 21
620366.57282292203
 31
0.0
  0
LINE
  5
D4
  8
LEIVA_SOIL_LIMITS
 10
652697.92801124859
 20
620366.57282292203
 30
0.0
 11
652797.93039712403
 21
620395.20943318307
 31
0.0
  0
LINE
  5
D5
  8
LEIVA_SOIL_LIMITS
 10
652797.93039712403
 20
620395.20943318307
 30
0.0
 11
652855.08236384974
 21
620402.39561610599
 31
0.0
  0
LINE
  5
D6
  8
LEIVA_SOIL_LIMITS
 10
652855.08236384974
 20
620402.39561610599
 30
0.0
 11
652876.56460230635
 21
620345.30853517447
 31
0.0
  0
LINE
  5
D7
  8
LEIVA_SOIL_LIMITS
 10
652876.56460230635
 20
620345.30853517447
 30
0.0
 11
652883.77536564507
 21
620266.79500461614
 31
0.0
  0
LINE
  5
D8
  8
LEIVA_SOIL_LIMITS
 10
652883.77536564507
 20
620266.79500461614
 30
0.0
 11
652898.1428240228
 21
620174.01122504915
 31
0.0
  0
LINE
  5
D9
  8
LEIVA_SOIL_LIMITS
 10
652898.1428240228
 20
620174.01122504915
 30
0.0
 11
652926.82974920014
 21
620045.54872009205
 31
0.0
  0
LINE
  5
DA
  8
LEIVA_SOIL_LIMITS
 10
652926.82974920014
 20
620045.54872009205
 30
0.0
 11
652919.7569617742
 21
619959.88507387601
 31
0.0
  0
LINE
  5
DB
  8
LEIVA_SOIL_LIMITS
 10
652919.7569617742
 20
619959.88507387601
 30
0.0
 11
652876.98452903866
 21
619845.63881769637
 31
0.0
  0
LINE
  5
DC
  8
LEIVA_SOIL_LIMITS
 10
652876.98452903866
 20
619845.63881769637
 30
0.0
 11
652841.33279765025
 21
619759.95111320936
 31
0.0
  0
LINE
  5
DD
  8
LEIVA_SOIL_LIMITS
 10
652841.33279765025
 20
619759.95111320936
 30
0.0
 11
652841.42278194998
 21
619652.87903089286
 31
0.0
  0
LINE
  5
DE
  8
LEIVA_SOIL_LIMITS
 10
652841.42278194998
 20
619652.87903089286
 30
0.0
 11
652870.04971755948
 21
619595.79795442591
 31
0.0
  0
LINE
  5
DF
  8
LEIVA_SOIL_LIMITS
 10
652870.04971755948
 20
619595.79795442591
 30
0.0
 11
652977.23887096648
 21
619574.47358135693
 31
0.0
  0
LINE
  5
E0
  8
LEIVA_SOIL_LIMITS
 10
652977.23887096648
 20
619574.47358135693
 30
0.0
 11
653091.48281488544
 21
619660.22733541555
 31
0.0
  0
LINE
  5
E1
  8
LEIVA_SOIL_LIMITS
 10
653091.48281488544
 20
619660.22733541555
 30
0.0
 11
653105.68830154301
 21
619760.17327985074
 31
0.0
  0
LINE
  5
E2
  8
LEIVA_SOIL_LIMITS
 10
653105.68830154301
 20
619760.17327985074
 30
0.0
 11
653177.08174865425
 21
619824.47656622727
 31
0.0
  0
LINE
  5
E3
  8
LEIVA_SOIL_LIMITS
 10
653177.08174865425
 20
619824.47656622727
 30
0.0
 11
653227.08294157556
 21
619838.79489149665
 31
0.0
  0
LINE
  5
E4
  8
LEIVA_SOIL_LIMITS
 10
653227.08294157556
 20
619838.79489149665
 30
0.0
 11
653291.47558871331
 21
619731.77684969222
 31
0.0
  0
LINE
  5
E5
  8
LEIVA_SOIL_LIMITS
 10
653291.47558871331
 20
619731.77684969222
 30
0.0
 11
653341.56076700753
 21
619646.16119924292
 31
0.0
  0
LINE
  5
E6
  8
LEIVA_SOIL_LIMITS
 10
653341.56076700753
 20
619646.16119924292
 30
0.0
 11
653405.89342461305
 21
619610.52454564825
 31
0.0
  0
LINE
  5
E7
  8
LEIVA_SOIL_LIMITS
 10
653405.89342461305
 20
619610.52454564825
 30
0.0
 11
653555.93907378765
 21
619603.51249338535
 31
0.0
  0
LINE
  5
E8
  8
LEIVA_SOIL_LIMITS
 10
653555.93907378765
 20
619603.51249338535
 30
0.0
 11
653691.67717639054
 21
619617.90287269303
 31
0.0
  0
LINE
  5
E9
  8
LEIVA_SOIL_LIMITS
 10
653691.67717639054
 20
619617.90287269303
 30
0.0
 11
653798.82433711039
 21
619646.54548748385
 31
0.0
  0
LINE
  5
EA
  8
LEIVA_SOIL_LIMITS
 10
653798.82433711039
 20
619646.54548748385
 30
0.0
 11
653834.51206222596
 21
619689.40435098717
 31
0.0
  0
LINE
  5
EB
  8
LEIVA_SOIL_LIMITS
 10
653834.51206222596
 20
619689.40435098717
 30
0.0
 11
653777.25211432017
 21
619810.70469101158
 31
0.0
  0
LINE
  5
EC
  8
LEIVA_SOIL_LIMITS
 10
653777.25211432017
 20
619810.70469101158
 30
0.0
 11
653712.93745359476
 21
619824.92690397496
 31
0.0
  0
LINE
  5
ED
  8
LEIVA_SOIL_LIMITS
 10
653712.93745359476
 20
619824.92690397496
 30
0.0
 11
653598.66351487627
 21
619774.86388430116
 31
0.0
  0
LINE
  5
EE
  8
LEIVA_SOIL_LIMITS
 10
653598.66351487627
 20
619774.86388430116
 30
0.0
 11
653548.62032926909
 21
619810.51254689135
 31
0.0
  0
LINE
  5
EF
  8
LEIVA_SOIL_LIMITS
 10
653548.62032926909
 20
619810.51254689135
 30
0.0
 11
653562.87980649993
 21
619846.21524999244
 31
0.0
  0
LINE
  5
F0
  8
LEIVA_SOIL_LIMITS
 10
653562.87980649993
 20
619846.21524999244
 30
0.0
 11
653512.77663135971
 21
619953.24530079192
 31
0.0
  0
LINE
  5
F1
  8
LEIVA_SOIL_LIMITS
 10
653512.77663135971
 20
619953.24530079192
 30
0.0
 11
653448.48596644204
 21
619938.91496652726
 31
0.0
  0
LINE
  5
F2
  8
LEIVA_SOIL_LIMITS
 10
653448.48596644204
 20
619938.91496652726
 30
0.0
 11
653441.28120206227
 21
620010.29035020806
 31
0.0
  0
LINE
  5
F3
  8
LEIVA_SOIL_LIMITS
 10
653441.28120206227
 20
620010.29035020806
 30
0.0
 11
653455.49868660688
 21
620095.96004116884
 31
0.0
  0
LINE
  5
F4
  8
LEIVA_SOIL_LIMITS
 10
653455.49868660688
 20
620095.96004116884
 30
0.0
 11
653419.69705907884
 21
620188.72580727609
 31
0.0
  0
LINE
  5
F5
  8
LEIVA_SOIL_LIMITS
 10
653419.69705907884
 20
620188.72580727609
 30
0.0
 11
653476.82495230529
 21
620224.46453736245
 31
0.0
  0
LINE
  5
F6
  8
LEIVA_SOIL_LIMITS
 10
653476.82495230529
 20
620224.46453736245
 30
0.0
 11
653469.63226350606
 21
620281.56366763485
 31
0.0
  0
LINE
  5
F7
  8
LEIVA_SOIL_LIMITS
 10
653469.63226350606
 20
620281.56366763485
 30
0.0
 11
653455.28872324084
 21
620345.79489990789
 31
0.0
  0
LINE
  5
F8
  8
LEIVA_SOIL_LIMITS
 10
653455.28872324084
 20
620345.79489990789
 30
0.0
 11
653440.90926694323
 21
620452.85497322911
 31
0.0
  0
LINE
  5
F9
  8
LEIVA_SOIL_LIMITS
 10
653440.90926694323
 20
620452.85497322911
 30
0.0
 11
653476.54300148576
 21
620559.957078067
 31
0.0
  0
LINE
  5
FA
  8
LEIVA_SOIL_LIMITS
 10
653476.54300148576
 20
620559.957078067
 30
0.0
 11
653505.05003572186
 21
620645.63877808838
 31
0.0
  0
LINE
  5
FB
  8
LEIVA_SOIL_LIMITS
 10
653505.05003572186
 20
620645.63877808838
 30
0.0
 11
653562.10594152869
 21
620767.03514986171
 31
0.0
  0
LINE
  5
FC
  8
LEIVA_SOIL_LIMITS
 10
653562.10594152869
 20
620767.03514986171
 30
0.0
 11
653633.48139176052
 21
620852.75287686766
 31
0.0
  0
LINE
  5
FD
  8
LEIVA_SOIL_LIMITS
 10
653633.48139176052
 20
620852.75287686766
 30
0.0
 11
653740.6045566739
 21
620909.94803888816
 31
0.0
  0
LINE
  5
FE
  8
LEIVA_SOIL_LIMITS
 10
653740.6045566739
 20
620909.94803888816
 30
0.0
 11
653826.28147682338
 21
620981.40148113645
 31
0.0
  0
LINE
  5
FF
  8
LEIVA_SOIL_LIMITS
 10
653826.28147682338
 20
620981.40148113645
 30
0.0
 11
653954.82089170034
 21
621060.02909731329
 31
0.0
  0
LINE
  5
100
  8
LEIVA_SOIL_LIMITS
 10
653954.82089170034
 20
621060.02909731329
 30
0.0
 11
654061.91398415447
 21
621152.91495337291
 31
0.0
  0
LINE
  5
101
  8
LEIVA_SOIL_LIMITS
 10
654061.91398415447
 20
621152.91495337291
 30
0.0
 11
654133.30143227195
 21
621224.35642690537
 31
0.0
  0
LINE
  5
102
  8
LEIVA_SOIL_LIMITS
 10
654133.30143227195
 20
621224.35642690537
 30
0.0
 11
654233.29182026023
 21
621267.26929064095
 31
0.0
  0
LINE
  5
103
  8
LEIVA_SOIL_LIMITS
 10
654233.29182026023
 20
621267.26929064095
 30
0.0
 11
654326.12551314104
 21
621324.45248394436
 31
0.0
  0
LINE
  5
104
  8
LEIVA_SOIL_LIMITS
 10
654326.12551314104
 20
621324.45248394436
 30
0.0
 11
654461.83362101135
 21
621374.53351707757
 31
0.0
  0
LINE
  5
105
  8
LEIVA_SOIL_LIMITS
 10
654461.83362101135
 20
621374.53351707757
 30
0.0
 11
654611.84319876786
 21
621410.35030573234
 31
0.0
  0
LINE
  5
106
  8
LEIVA_SOIL_LIMITS
 10
654611.84319876786
 20
621410.35030573234
 30
0.0
 11
654711.84566230024
 21
621438.98695633747
 31
0.0
  0
LINE
  5
107
  8
LEIVA_SOIL_LIMITS
 10
654711.84566230024
 20
621438.98695633747
 30
0.0
 11
654876.1627089337
 21
621453.40131335589
 31
0.0
  0
LINE
  5
108
  8
LEIVA_SOIL_LIMITS
 10
654876.1627089337
 20
621453.40131335589
 30
0.0
 11
654997.64733326528
 21
621424.95084268576
 31
0.0
  0
LINE
  5
109
  8
LEIVA_SOIL_LIMITS
 10
654997.64733326528
 20
621424.95084268576
 30
0.0
 11
655090.58900732629
 21
621353.64751304197
 31
0.0
  0
LINE
  5
10A
  8
LEIVA_SOIL_LIMITS
 10
655090.58900732629
 20
621353.64751304197
 30
0.0
 11
655126.37871466228
 21
621275.15800047386
 31
0.0
  0
LINE
  5
10B
  8
LEIVA_SOIL_LIMITS
 10
655126.37871466228
 20
621275.15800047386
 30
0.0
 11
655190.77136180061
 21
621168.1399586685
 31
0.0
  0
LINE
  5
10C
  8
LEIVA_SOIL_LIMITS
 10
655190.77136180061
 20
621168.1399586685
 30
0.0
 11
655176.56587514281
 21
621068.19401423365
 31
0.0
  0
LINE
  5
10D
  8
LEIVA_SOIL_LIMITS
 10
655176.56587514281
 20
621068.19401423365
 30
0.0
 11
655148.07683775225
 21
620961.09791386058
 31
0.0
  0
LINE
  5
10E
  8
LEIVA_SOIL_LIMITS
 10
655148.07683775225
 20
620961.09791386058
 30
0.0
 11
655141.03412281955
 21
620839.74353332515
 31
0.0
  0
LINE
  5
10F
  8
LEIVA_SOIL_LIMITS
 10
655141.03412281955
 20
620839.74353332515
 30
0.0
 11
655155.38358435081
 21
620768.37415410916
 31
0.0
  0
LINE
  5
110
  8
LEIVA_SOIL_LIMITS
 10
655155.38358435081
 20
620768.37415410916
 30
0.0
 11
655162.64233930351
 21
620632.75552909425
 31
0.0
  0
LINE
  5
111
  8
LEIVA_SOIL_LIMITS
 10
655162.64233930351
 20
620632.75552909425
 30
0.0
 11
655205.67272705119
 21
620440.06179179752
 31
0.0
  0
LINE
  5
112
  8
LEIVA_SOIL_LIMITS
 10
655205.67272705119
 20
620440.06179179752
 30
0.0
 11
655341.39883176854
 21
620468.72842457995
 31
0.0
  0
LINE
  5
113
  8
LEIVA_SOIL_LIMITS
 10
655341.39883176854
 20
620468.72842457995
 30
0.0
 11
655427.02176131029
 21
620604.42514844099
 31
0.0
  0
LINE
  5
114
  8
LEIVA_SOIL_LIMITS
 10
655427.02176131029
 20
620604.42514844099
 30
0.0
 11
655476.95096681116
 21
620704.40111539722
 31
0.0
  0
LINE
  5
115
  8
LEIVA_SOIL_LIMITS
 10
655476.95096681116
 20
620704.40111539722
 30
0.0
 11
655569.82065341971
 21
620718.75546771789
 31
0.0
  0
LINE
  5
116
  8
LEIVA_SOIL_LIMITS
 10
655569.82065341971
 20
620718.75546771789
 30
0.0
 11
655655.60555474949
 21
620661.72238701885
 31
0.0
  0
LINE
  5
117
  8
LEIVA_SOIL_LIMITS
 10
655655.60555474949
 20
620661.72238701885
 30
0.0
 11
655684.21449351264
 21
620626.0557109036
 31
0.0
  0
LINE
  5
118
  8
LEIVA_SOIL_LIMITS
 10
655684.21449351264
 20
620626.0557109036
 30
0.0
 11
655712.82950892858
 21
620583.25088797696
 31
0.0
  0
LINE
  5
119
  8
LEIVA_SOIL_LIMITS
 10
655712.82950892858
 20
620583.25088797696
 30
0.0
 11
655820.02466126112
 21
620554.78840831108
 31
0.0
  0
LINE
  5
11A
  8
LEIVA_SOIL_LIMITS
 10
655820.02466126112
 20
620554.78840831108
 30
0.0
 11
655927.21373694204
 21
620533.46407545661
 31
0.0
  0
LINE
  5
11B
  8
LEIVA_SOIL_LIMITS
 10
655927.21373694204
 20
620533.46407545661
 30
0.0
 11
655998.62518089951
 21
620576.35296148155
 31
0.0
  0
LINE
  5
11C
  8
LEIVA_SOIL_LIMITS
 10
655998.62518089951
 20
620576.35296148155
 30
0.0
 11
656012.79467383155
 21
620719.12774689845
 31
0.0
  0
LINE
  5
11D
  8
LEIVA_SOIL_LIMITS
 10
656012.79467383155
 20
620719.12774689845
 30
0.0
 11
655998.43321441358
 21
620804.77337958943
 31
0.0
  0
LINE
  5
11E
  8
LEIVA_SOIL_LIMITS
 10
655998.43321441358
 20
620804.77337958943
 30
0.0
 11
655969.78828192467
 21
620883.26889668754
 31
0.0
  0
LINE
  5
11F
  8
LEIVA_SOIL_LIMITS
 10
655969.78828192467
 20
620883.26889668754
 30
0.0
 11
655941.14334943308
 21
620961.76441378449
 31
0.0
  0
LINE
  5
120
  8
LEIVA_SOIL_LIMITS
 10
655941.14334943308
 20
620961.76441378449
 30
0.0
 11
655948.28204762633
 21
620968.90856512624
 31
0.0
  0
LINE
  5
121
  8
LEIVA_SOIL_LIMITS
 10
655948.28204762633
 20
620968.90856512624
 30
0.0
 11
655991.12054654723
 21
621004.63528628368
 31
0.0
  0
LINE
  5
122
  8
LEIVA_SOIL_LIMITS
 10
655991.12054654723
 20
621004.63528628368
 30
0.0
 11
656048.23044292768
 21
621061.78841672256
 31
0.0
  0
LINE
  5
123
  8
LEIVA_SOIL_LIMITS
 10
656048.23044292768
 20
621061.78841672256
 30
0.0
 11
656069.59270231787
 21
621147.46411221253
 31
0.0
  0
LINE
  5
124
  8
LEIVA_SOIL_LIMITS
 10
656069.59270231787
 20
621147.46411221253
 30
0.0
 11
656133.83537562401
 21
621218.89954093494
 31
0.0
  0
LINE
  5
125
  8
LEIVA_SOIL_LIMITS
 10
656133.83537562401
 20
621218.89954093494
 30
0.0
 11
656162.36040674045
 21
621283.16680032539
 31
0.0
  0
LINE
  5
126
  8
LEIVA_SOIL_LIMITS
 10
656162.36040674045
 20
621283.16680032539
 30
0.0
 11
656190.88536016503
 21
621347.43405965075
 31
0.0
  0
LINE
  5
127
  8
LEIVA_SOIL_LIMITS
 10
656190.88536016503
 20
621347.43405965075
 30
0.0
 11
656212.27161536145
 21
621404.55720791291
 31
0.0
  0
LINE
  5
128
  8
LEIVA_SOIL_LIMITS
 10
656212.27161536145
 20
621404.55720791291
 30
0.0
 11
656219.30833136733
 21
621533.04969504569
 31
0.0
  0
LINE
  5
129
  8
LEIVA_SOIL_LIMITS
 10
656219.30833136733
 20
621533.04969504569
 30
0.0
 11
656176.32593526714
 21
621668.6382976051
 31
0.0
  0
LINE
  5
12A
  8
LEIVA_SOIL_LIMITS
 10
656176.32593526714
 20
621668.6382976051
 30
0.0
 11
656161.95247792848
 21
621768.56022405042
 31
0.0
  0
LINE
  5
12B
  8
LEIVA_SOIL_LIMITS
 10
656161.95247792848
 20
621768.56022405042
 30
0.0
 11
656176.0499834076
 21
621996.99269143329
 31
0.0
  0
LINE
  5
12C
  8
LEIVA_SOIL_LIMITS
 10
656176.0499834076
 20
621996.99269143329
 30
0.0
 11
656183.11077291262
 21
622096.93263140297
 31
0.0
  0
LINE
  5
12D
  8
LEIVA_SOIL_LIMITS
 10
656183.11077291262
 20
622096.93263140297
 30
0.0
 11
656147.29706977098
 21
622203.97469119937
 31
0.0
  0
LINE
  5
12E
  8
LEIVA_SOIL_LIMITS
 10
656147.29706977098
 20
622203.97469119937
 30
0.0
 11
656161.22634037072
 21
622266.8478252911
 31
0.0
  0
LINE
  5
12F
  8
LEIVA_SOIL_LIMITS
 10
651558.03396789846
 20
619463.20084645122
 30
0.0
 11
651577.69383384124
 21
619421.9237308912
 31
0.0
  0
LINE
  5
130
  8
LEIVA_SOIL_LIMITS
 10
661190.4373698337
 20
625751.24659022782
 30
0.0
 11
661047.56948215375
 21
625813.90714695072
 31
0.0
  0
LINE
  5
131
  8
LEIVA_SOIL_LIMITS
 10
661047.56948215375
 20
625813.90714695072
 30
0.0
 11
660742.76931691705
 21
625965.84641390573
 31
0.0
  0
LINE
  5
132
  8
LEIVA_SOIL_LIMITS
 10
660742.76931691705
 20
625965.84641390573
 30
0.0
 11
660438.086399097
 21
625978.2732875892
 31
0.0
  0
LINE
  5
133
  8
LEIVA_SOIL_LIMITS
 10
660438.086399097
 20
625978.2732875892
 30
0.0
 11
660298.46630038228
 21
625952.7900457168
 31
0.0
  0
LINE
  5
134
  8
LEIVA_SOIL_LIMITS
 10
660298.46630038228
 20
625952.7900457168
 30
0.0
 11
660057.28873020969
 21
625927.22145407065
 31
0.0
  0
LINE
  5
135
  8
LEIVA_SOIL_LIMITS
 10
660057.28873020969
 20
625927.22145407065
 30
0.0
 11
659854.18460152193
 21
625914.36783178162
 31
0.0
  0
LINE
  5
136
  8
LEIVA_SOIL_LIMITS
 10
659854.18460152193
 20
625914.36783178162
 30
0.0
 11
659714.57508398429
 21
625876.20162669267
 31
0.0
  0
LINE
  5
137
  8
LEIVA_SOIL_LIMITS
 10
659714.57508398429
 20
625876.20162669267
 30
0.0
 11
659511.5135907142
 21
625812.61623235559
 31
0.0
  0
LINE
  5
138
  8
LEIVA_SOIL_LIMITS
 10
659511.5135907142
 20
625812.61623235559
 30
0.0
 11
659422.7361420067
 21
625711.07800726499
 31
0.0
  0
LINE
  5
139
  8
LEIVA_SOIL_LIMITS
 10
659422.7361420067
 20
625711.07800726499
 30
0.0
 11
659333.96927447827
 21
625596.85681895795
 31
0.0
  0
LINE
  5
13A
  8
LEIVA_SOIL_LIMITS
 10
659333.96927447827
 20
625596.85681895795
 30
0.0
 11
659283.25453072297
 21
625520.71648603084
 31
0.0
  0
LINE
  5
13B
  8
LEIVA_SOIL_LIMITS
 10
659283.25453072297
 20
625520.71648603084
 30
0.0
 11
659257.90781770088
 21
625469.96337655559
 31
0.0
  0
LINE
  5
13C
  8
LEIVA_SOIL_LIMITS
 10
659257.90781770088
 20
625469.96337655559
 30
0.0
 11
659219.90906587546
 21
625368.46782631835
 31
0.0
  0
LINE
  5
13D
  8
LEIVA_SOIL_LIMITS
 10
659219.90906587546
 20
625368.46782631835
 30
0.0
 11
659397.65590036265
 21
625343.25130234857
 31
0.0
  0
LINE
  5
13E
  8
LEIVA_SOIL_LIMITS
 10
659397.65590036265
 20
625343.25130234857
 30
0.0
 11
659461.20388342929
 21
625254.5240649723
 31
0.0
  0
LINE
  5
13F
  8
LEIVA_SOIL_LIMITS
 10
659461.20388342929
 20
625254.5240649723
 30
0.0
 11
659448.63711546338
 21
625102.3180801135
 31
0.0
  0
LINE
  5
140
  8
LEIVA_SOIL_LIMITS
 10
659448.63711546338
 20
625102.3180801135
 30
0.0
 11
659550.22648580687
 21
625064.35458064685
 31
0.0
  0
LINE
  5
141
  8
LEIVA_SOIL_LIMITS
 10
659550.22648580687
 20
625064.35458064685
 30
0.0
 11
659804.04543590918
 21
625153.34857620625
 31
0.0
  0
LINE
  5
142
  8
LEIVA_SOIL_LIMITS
 10
659804.04543590918
 20
625153.34857620625
 30
0.0
 11
659930.84295415075
 21
625331.01646551013
 31
0.0
  0
LINE
  5
143
  8
LEIVA_SOIL_LIMITS
 10
659930.84295415075
 20
625331.01646551013
 30
0.0
 11
660070.3990997395
 21
625432.59736545442
 31
0.0
  0
LINE
  5
144
  8
LEIVA_SOIL_LIMITS
 10
660070.3990997395
 20
625432.59736545442
 30
0.0
 11
660184.64058657782
 21
625445.37630681368
 31
0.0
  0
LINE
  5
145
  8
LEIVA_SOIL_LIMITS
 10
660184.64058657782
 20
625445.37630681368
 30
0.0
 11
660286.21929805016
 21
625420.09577049664
 31
0.0
  0
LINE
  5
146
  8
LEIVA_SOIL_LIMITS
 10
660286.21929805016
 20
625420.09577049664
 30
0.0
 11
660362.49393191747
 21
625293.33035265747
 31
0.0
  0
LINE
  5
147
  8
LEIVA_SOIL_LIMITS
 10
660362.49393191747
 20
625293.33035265747
 30
0.0
 11
660425.99927956611
 21
625255.33488732926
 31
0.0
  0
LINE
  5
148
  8
LEIVA_SOIL_LIMITS
 10
660425.99927956611
 20
625255.33488732926
 30
0.0
 11
660552.93536293355
 21
625268.1244973361
 31
0.0
  0
LINE
  5
149
  8
LEIVA_SOIL_LIMITS
 10
660552.93536293355
 20
625268.1244973361
 30
0.0
 11
660692.5448804698
 21
625306.29070242646
 31
0.0
  0
LINE
  5
14A
  8
LEIVA_SOIL_LIMITS
 10
660692.5448804698
 20
625306.29070242646
 30
0.0
 11
660744.87502065639
 21
625319.40787994105
 31
0.0
  0
LINE
  5
14B
  8
LEIVA_SOIL_LIMITS
 10
658693.16574477125
 20
625568.16218876245
 30
0.0
 11
658775.37155450729
 21
625634.4362446731
 31
0.0
  0
LINE
  5
14C
  8
LEIVA_SOIL_LIMITS
 10
658775.37155450729
 20
625634.4362446731
 30
0.0
 11
658991.08516427386
 21
625748.76407983724
 31
0.0
  0
LINE
  5
14D
  8
LEIVA_SOIL_LIMITS
 10
658991.08516427386
 20
625748.76407983724
 30
0.0
 11
659371.76550805138
 21
625939.32830656203
 31
0.0
  0
LINE
  5
14E
  8
LEIVA_SOIL_LIMITS
 10
659371.76550805138
 20
625939.32830656203
 30
0.0
 11
659739.79389075376
 21
626079.15005231195
 31
0.0
  0
LINE
  5
14F
  8
LEIVA_SOIL_LIMITS
 10
659739.79389075376
 20
626079.15005231195
 30
0.0
 11
660031.70752238925
 21
626155.4930908602
 31
0.0
  0
LINE
  5
150
  8
LEIVA_SOIL_LIMITS
 10
660031.70752238925
 20
626155.4930908602
 30
0.0
 11
660336.34780479025
 21
626193.79798922571
 31
0.0
  0
LINE
  5
151
  8
LEIVA_SOIL_LIMITS
 10
660336.34780479025
 20
626193.79798922571
 30
0.0
 11
660488.67323659849
 21
626206.60893665953
 31
0.0
  0
LINE
  5
152
  8
LEIVA_SOIL_LIMITS
 10
660488.67323659849
 20
626206.60893665953
 30
0.0
 11
660666.39875337633
 21
626206.75829871395
 31
0.0
  0
LINE
  5
153
  8
LEIVA_SOIL_LIMITS
 10
660666.39875337633
 20
626206.75829871395
 30
0.0
 11
660831.40820053336
 21
626232.26287801377
 31
0.0
  0
LINE
  5
154
  8
LEIVA_SOIL_LIMITS
 10
660831.40820053336
 20
626232.26287801377
 30
0.0
 11
660958.34428386483
 21
626245.05252830114
 31
0.0
  0
LINE
  5
155
  8
LEIVA_SOIL_LIMITS
 10
660958.34428386483
 20
626245.05252830114
 30
0.0
 11
661085.26978605345
 21
626270.52510152524
 31
0.0
  0
LINE
  5
156
  8
LEIVA_SOIL_LIMITS
 10
661085.26978605345
 20
626270.52510152524
 30
0.0
 11
661164.02314403036
 21
626300.1058028515
 31
0.0
  0
LINE
  5
157
  8
LEIVA_SOIL_LIMITS
 10
667597.59157246025
 20
628097.99007511046
 30
0.0
 11
667202.98685297184
 21
627566.87384481635
 31
0.0
  0
LINE
  5
158
  8
LEIVA_SOIL_LIMITS
 10
667202.98685297184
 20
627566.87384481635
 30
0.0
 11
666830.27926222014
 21
627149.99896751635
 31
0.0
  0
LINE
  5
159
  8
LEIVA_SOIL_LIMITS
 10
666830.27926222014
 20
627149.99896751635
 30
0.0
 11
666633.05454011052
 21
626820.96873593563
 31
0.0
  0
LINE
  5
15A
  8
LEIVA_SOIL_LIMITS
 10
666633.05454011052
 20
626820.96873593563
 30
0.0
 11
666501.70042135136
 21
626448.14523809426
 31
0.0
  0
LINE
  5
15B
  8
LEIVA_SOIL_LIMITS
 10
666501.70042135136
 20
626448.14523809426
 30
0.0
 11
666326.49393305473
 21
626031.43634242029
 31
0.0
  0
LINE
  5
15C
  8
LEIVA_SOIL_LIMITS
 10
666326.49393305473
 20
626031.43634242029
 30
0.0
 11
666019.6385203182
 21
625592.69245533529
 31
0.0
  0
LINE
  5
15D
  8
LEIVA_SOIL_LIMITS
 10
666019.6385203182
 20
625592.69245533529
 30
0.0
 11
665559.35540117789
 21
624934.57666498912
 31
0.0
  0
LINE
  5
15E
  8
LEIVA_SOIL_LIMITS
 10
665559.35540117789
 20
624934.57666498912
 30
0.0
 11
665471.85349650169
 21
624605.63864540868
 31
0.0
  0
LINE
  5
15F
  8
LEIVA_SOIL_LIMITS
 10
665471.85349650169
 20
624605.63864540868
 30
0.0
 11
665252.70266735123
 21
624254.66567469831
 31
0.0
  0
LINE
  5
160
  8
LEIVA_SOIL_LIMITS
 10
665252.70266735123
 20
624254.66567469831
 30
0.0
 11
665077.47775372048
 21
623859.8810355016
 31
0.0
  0
LINE
  5
161
  8
LEIVA_SOIL_LIMITS
 10
665077.47775372048
 20
623859.8810355016
 30
0.0
 11
664968.03131663532
 21
623530.92457354721
 31
0.0
  0
LINE
  5
162
  8
LEIVA_SOIL_LIMITS
 10
664968.03131663532
 20
623530.92457354721
 30
0.0
 11
664902.47394436796
 21
623202.00499634189
 31
0.0
  0
LINE
  5
163
  8
LEIVA_SOIL_LIMITS
 10
664902.47394436796
 20
623202.00499634189
 30
0.0
 11
664880.75051623513
 21
622938.89515400538
 31
0.0
  0
LINE
  5
164
  8
LEIVA_SOIL_LIMITS
 10
664880.75051623513
 20
622938.89515400538
 30
0.0
 11
664683.58107019612
 21
622544.09207243484
 31
0.0
  0
LINE
  5
165
  8
LEIVA_SOIL_LIMITS
 10
664683.58107019612
 20
622544.09207243484
 30
0.0
 11
664464.41181567777
 21
622215.0433984797
 31
0.0
  0
LINE
  5
166
  8
LEIVA_SOIL_LIMITS
 10
664464.41181567777
 20
622215.0433984797
 30
0.0
 11
664245.18720739684
 21
621951.76757445117
 31
0.0
  0
LINE
  5
167
  8
LEIVA_SOIL_LIMITS
 10
664245.18720739684
 20
621951.76757445117
 30
0.0
 11
664047.85193314962
 21
621754.28304285265
 31
0.0
  0
LINE
  5
168
  8
LEIVA_SOIL_LIMITS
 10
664047.85193314962
 20
621754.28304285265
 30
0.0
 11
663784.64613327885
 21
621600.59173730039
 31
0.0
  0
LINE
  5
169
  8
LEIVA_SOIL_LIMITS
 10
663784.64613327885
 20
621600.59173730039
 30
0.0
 11
663543.40329115081
 21
621424.99461764493
 31
0.0
  0
LINE
  5
16A
  8
LEIVA_SOIL_LIMITS
 10
663543.40329115081
 20
621424.99461764493
 30
0.0
 11
663324.14190986205
 21
621205.56734691584
 31
0.0
  0
LINE
  5
16B
  8
LEIVA_SOIL_LIMITS
 10
663324.14190986205
 20
621205.56734691584
 30
0.0
 11
663039.17575343186
 21
620832.61479247524
 31
0.0
  0
LINE
  5
16C
  8
LEIVA_SOIL_LIMITS
 10
663039.17575343186
 20
620832.61479247524
 30
0.0
 11
662754.32014917245
 21
620328.11649777461
 31
0.0
  0
LINE
  5
16D
  8
LEIVA_SOIL_LIMITS
 10
662754.32014917245
 20
620328.11649777461
 30
0.0
 11
662842.48536668206
 21
619867.78031746531
 31
0.0
  0
LINE
  5
16E
  8
LEIVA_SOIL_LIMITS
 10
662842.48536668206
 20
619867.78031746531
 30
0.0
 11
662908.63227265142
 21
619495.12284146575
 31
0.0
  0
LINE
  5
16F
  8
LEIVA_SOIL_LIMITS
 10
662908.63227265142
 20
619495.12284146575
 30
0.0
 11
663062.64959044999
 21
619012.91769158852
 31
0.0
  0
LINE
  5
170
  8
LEIVA_SOIL_LIMITS
 10
663062.64959044999
 20
619012.91769158852
 30
0.0
 11
663392.14977685595
 21
618618.55722771049
 31
0.0
  0
LINE
  5
171
  8
LEIVA_SOIL_LIMITS
 10
663392.14977685595
 20
618618.55722771049
 30
0.0
 11
663721.31830684713
 21
618618.83386377688
 31
0.0
  0
LINE
  5
172
  8
LEIVA_SOIL_LIMITS
 10
663721.31830684713
 20
618618.83386377688
 30
0.0
 11
664006.59761663363
 21
618619.07361496496
 31
0.0
  0
LINE
  5
173
  8
LEIVA_SOIL_LIMITS
 10
664006.59761663363
 20
618619.07361496496
 30
0.0
 11
664423.56285701576
 21
618597.49972390151
 31
0.0
  0
LINE
  5
174
  8
LEIVA_SOIL_LIMITS
 10
664423.56285701576
 20
618597.49972390151
 30
0.0
 11
664972.12174580304
 21
618663.7336339585
 31
0.0
  0
LINE
  5
175
  8
LEIVA_SOIL_LIMITS
 10
664972.12174580304
 20
618663.7336339585
 30
0.0
 11
665081.80771249975
 21
618707.67443947238
 31
0.0
  0
LINE
  5
176
  8
LEIVA_SOIL_LIMITS
 10
665081.80771249975
 20
618707.67443947238
 30
0.0
 11
665388.93950561725
 21
618817.55403632461
 31
0.0
  0
LINE
  5
177
  8
LEIVA_SOIL_LIMITS
 10
665388.93950561725
 20
618817.55403632461
 30
0.0
 11
665540.85184600577
 21
618851.95931002311
 31
0.0
  0
LINE
  5
178
  8
LEIVA_SOIL_LIMITS
 10
668648.91415859875
 20
627100.79551578104
 30
0.0
 11
668449.44344049739
 21
627167.03811606392
 31
0.0
  0
LINE
  5
179
  8
LEIVA_SOIL_LIMITS
 10
668449.44344049739
 20
627167.03811606392
 30
0.0
 11
668083.79373731615
 21
627233.14105809759
 31
0.0
  0
LINE
  5
17A
  8
LEIVA_SOIL_LIMITS
 10
668083.79373731615
 20
627233.14105809759
 30
0.0
 11
667817.99093888269
 21
627133.30231934926
 31
0.0
  0
LINE
  5
17B
  8
LEIVA_SOIL_LIMITS
 10
667817.99093888269
 20
627133.30231934926
 30
0.0
 11
667718.47882658115
 21
626900.78289862117
 31
0.0
  0
LINE
  5
17C
  8
LEIVA_SOIL_LIMITS
 10
667718.47882658115
 20
626900.78289862117
 30
0.0
 11
667751.93791696231
 21
626635.17010943918
 31
0.0
  0
LINE
  5
17D
  8
LEIVA_SOIL_LIMITS
 10
667751.93791696231
 20
626635.17010943918
 30
0.0
 11
667885.07647703856
 21
626402.84617005987
 31
0.0
  0
LINE
  5
17E
  8
LEIVA_SOIL_LIMITS
 10
667885.07647703856
 20
626402.84617005987
 30
0.0
 11
667918.50766157184
 21
626170.43847602175
 31
0.0
  0
LINE
  5
17F
  8
LEIVA_SOIL_LIMITS
 10
667918.50766157184
 20
626170.43847602175
 30
0.0
 11
667619.77606149158
 21
625705.31579934806
 31
0.0
  0
LINE
  5
180
  8
LEIVA_SOIL_LIMITS
 10
667619.77606149158
 20
625705.31579934806
 30
0.0
 11
667553.47180931515
 21
625506.02936510742
 31
0.0
  0
LINE
  5
181
  8
LEIVA_SOIL_LIMITS
 10
667553.47180931515
 20
625506.02936510742
 30
0.0
 11
667586.90299384843
 21
625273.62167107034
 31
0.0
  0
LINE
  5
182
  8
LEIVA_SOIL_LIMITS
 10
667586.90299384843
 20
625273.62167107034
 30
0.0
 11
667587.01461723959
 21
625140.80129049509
 31
0.0
  0
LINE
  5
183
  8
LEIVA_SOIL_LIMITS
 10
667587.01461723959
 20
625140.80129049509
 30
0.0
 11
668052.42758531868
 21
625008.37195317564
 31
0.0
  0
LINE
  5
184
  8
LEIVA_SOIL_LIMITS
 10
668052.42758531868
 20
625008.37195317564
 30
0.0
 11
668218.49502470123
 21
625141.331992066
 31
0.0
  0
LINE
  5
185
  8
LEIVA_SOIL_LIMITS
 10
668218.49502470123
 20
625141.331992066
 30
0.0
 11
668484.1861997759
 21
625373.99107110919
 31
0.0
  0
LINE
  5
186
  8
LEIVA_SOIL_LIMITS
 10
668484.1861997759
 20
625373.99107110919
 30
0.0
 11
668616.85036044009
 21
625706.15374917281
 31
0.0
  0
LINE
  5
187
  8
LEIVA_SOIL_LIMITS
 10
668616.85036044009
 20
625706.15374917281
 30
0.0
 11
668716.30666104588
 21
626005.08336018887
 31
0.0
  0
LINE
  5
188
  8
LEIVA_SOIL_LIMITS
 10
668716.30666104588
 20
626005.08336018887
 30
0.0
 11
668716.11132014473
 21
626237.5189859157
 31
0.0
  0
LINE
  5
189
  8
LEIVA_SOIL_LIMITS
 10
668716.11132014473
 20
626237.5189859157
 30
0.0
 11
668649.50018133549
 21
626403.4885983218
 31
0.0
  0
LINE
  5
18A
  8
LEIVA_SOIL_LIMITS
 10
668649.50018133549
 20
626403.4885983218
 30
0.0
 11
668549.68110474059
 21
626536.22518389416
 31
0.0
  0
LINE
  5
18B
  8
LEIVA_SOIL_LIMITS
 10
668549.68110474059
 20
626536.22518389416
 30
0.0
 11
668715.66482661327
 21
626768.80046793644
 31
0.0
  0
LINE
  5
18C
  8
LEIVA_SOIL_LIMITS
 10
668715.66482661327
 20
626768.80046793644
 30
0.0
 11
668648.91415859875
 21
627100.79551578104
 31
0.0
  0
LINE
  5
18D
  8
LEIVA_SOIL_LIMITS
 10
660238.68843658059
 20
620431.89643134456
 30
0.0
 11
660369.8043436904
 21
620374.5392820558
 31
0.0
  0
LINE
  5
18E
  8
LEIVA_SOIL_LIMITS
 10
660369.8043436904
 20
620374.5392820558
 30
0.0
 11
660478.01522686065
 21
620327.97548983444
 31
0.0
  0
LINE
  5
18F
  8
LEIVA_SOIL_LIMITS
 10
660478.01522686065
 20
620327.97548983444
 30
0.0
 11
660566.61080745305
 21
620290.92990277405
 31
0.0
  0
LINE
  5
190
  8
LEIVA_SOIL_LIMITS
 10
660566.61080745305
 20
620290.92990277405
 30
0.0
 11
660638.88080682699
 21
620262.12736896996
 31
0.0
  0
LINE
  5
191
  8
LEIVA_SOIL_LIMITS
 10
660638.88080682699
 20
620262.12736896996
 30
0.0
 11
660698.11494634615
 21
620240.29273651727
 31
0.0
  0
LINE
  5
192
  8
LEIVA_SOIL_LIMITS
 10
660698.11494634615
 20
620240.29273651727
 30
0.0
 11
660747.60294736922
 21
620224.15085351013
 31
0.0
  0
LINE
  5
193
  8
LEIVA_SOIL_LIMITS
 10
660747.60294736922
 20
620224.15085351013
 30
0.0
 11
660790.63453125977
 21
620212.42656804284
 31
0.0
  0
LINE
  5
194
  8
LEIVA_SOIL_LIMITS
 10
660790.63453125977
 20
620212.42656804284
 30
0.0
 11
660830.49941937649
 21
620203.84472821397
 31
0.0
  0
LINE
  5
195
  8
LEIVA_SOIL_LIMITS
 10
660830.49941937649
 20
620203.84472821397
 30
0.0
 11
660869.85863779264
 21
620197.27262021624
 31
0.0
  0
LINE
  5
196
  8
LEIVA_SOIL_LIMITS
 10
660869.85863779264
 20
620197.27262021624
 30
0.0
 11
660908.85843142145
 21
620192.14728266886
 31
0.0
  0
LINE
  5
197
  8
LEIVA_SOIL_LIMITS
 10
660908.85843142145
 20
620192.14728266886
 30
0.0
 11
660947.01634988538
 21
620188.0481922878
 31
0.0
  0
LINE
  5
198
  8
LEIVA_SOIL_LIMITS
 10
660947.01634988538
 20
620188.0481922878
 30
0.0
 11
660983.84994280897
 21
620184.55482579244
 31
0.0
  0
LINE
  5
199
  8
LEIVA_SOIL_LIMITS
 10
660983.84994280897
 20
620184.55482579244
 30
0.0
 11
661018.87675981375
 21
620181.24665990076
 31
0.0
  0
LINE
  5
19A
  8
LEIVA_SOIL_LIMITS
 10
661018.87675981375
 20
620181.24665990076
 30
0.0
 11
661051.61435052566
 21
620177.70317133085
 31
0.0
  0
LINE
  5
19B
  8
LEIVA_SOIL_LIMITS
 10
661051.61435052566
 20
620177.70317133085
 30
0.0
 11
661081.58026456647
 21
620173.50383680221
 31
0.0
  0
LINE
  5
19C
  8
LEIVA_SOIL_LIMITS
 10
661081.58026456647
 20
620173.50383680221
 30
0.0
 11
661108.29205156048
 21
620168.2281330328
 31
0.0
  0
LINE
  5
19D
  8
LEIVA_SOIL_LIMITS
 10
661108.29205156048
 20
620168.2281330328
 30
0.0
 11
661131.43592825183
 21
620161.52051148645
 31
0.0
  0
LINE
  5
19E
  8
LEIVA_SOIL_LIMITS
 10
661131.43592825183
 20
620161.52051148645
 30
0.0
 11
661151.37277986133
 21
620153.285322621
 31
0.0
  0
LINE
  5
19F
  8
LEIVA_SOIL_LIMITS
 10
661151.37277986133
 20
620153.285322621
 30
0.0
 11
661168.63215873495
 21
620143.49189163325
 31
0.0
  0
LINE
  5
1A0
  8
LEIVA_SOIL_LIMITS
 10
661168.63215873495
 20
620143.49189163325
 30
0.0
 11
661183.74361721345
 21
620132.10954372829
 31
0.0
  0
LINE
  5
1A1
  8
LEIVA_SOIL_LIMITS
 10
661183.74361721345
 20
620132.10954372829
 30
0.0
 11
661197.23670764104
 21
620119.10760410549
 31
0.0
  0
LINE
  5
1A2
  8
LEIVA_SOIL_LIMITS
 10
661197.23670764104
 20
620119.10760410549
 30
0.0
 11
661209.64098236163
 21
620104.45539796865
 31
0.0
  0
LINE
  5
1A3
  8
LEIVA_SOIL_LIMITS
 10
661209.64098236163
 20
620104.45539796865
 30
0.0
 11
661221.48599371675
 21
620088.12225051515
 31
0.0
  0
LINE
  5
1A4
  8
LEIVA_SOIL_LIMITS
 10
661221.48599371675
 20
620088.12225051515
 30
0.0
 11
661233.30129405193
 21
620070.07748694962
 31
0.0
  0
LINE
  5
1A5
  8
LEIVA_SOIL_LIMITS
 10
661233.30129405193
 20
620070.07748694962
 30
0.0
 11
661245.5229507389
 21
620050.33703366481
 31
0.0
  0
LINE
  5
1A6
  8
LEIVA_SOIL_LIMITS
 10
661245.5229507389
 20
620050.33703366481
 30
0.0
 11
661258.21309127833
 21
620029.10322182789
 31
0.0
  0
LINE
  5
1A7
  8
LEIVA_SOIL_LIMITS
 10
661258.21309127833
 20
620029.10322182789
 30
0.0
 11
661271.34035820188
 21
620006.62498379569
 31
0.0
  0
LINE
  5
1A8
  8
LEIVA_SOIL_LIMITS
 10
661271.34035820188
 20
620006.62498379569
 30
0.0
 11
661284.8733940383
 21
619983.15125192807
 31
0.0
  0
LINE
  5
1A9
  8
LEIVA_SOIL_LIMITS
 10
661284.8733940383
 20
619983.15125192807
 30
0.0
 11
661298.78084132064
 21
619958.93095858442
 31
0.0
  0
LINE
  5
1AA
  8
LEIVA_SOIL_LIMITS
 10
661298.78084132064
 20
619958.93095858442
 30
0.0
 11
661313.03134257765
 21
619934.21303612215
 31
0.0
  0
LINE
  5
1AB
  8
LEIVA_SOIL_LIMITS
 10
661313.03134257765
 20
619934.21303612215
 30
0.0
 11
661327.59354034229
 21
619909.24641690007
 31
0.0
  0
LINE
  5
1AC
  8
LEIVA_SOIL_LIMITS
 10
661327.59354034229
 20
619909.24641690007
 30
0.0
 11
661342.43607714272
 21
619884.28003327851
 31
0.0
  0
LINE
  5
1AD
  8
LEIVA_SOIL_LIMITS
 10
661342.43607714272
 20
619884.28003327851
 30
0.0
 11
661357.50166872493
 21
619859.52648934664
 31
0.0
  0
LINE
  5
1AE
  8
LEIVA_SOIL_LIMITS
 10
661357.50166872493
 20
619859.52648934664
 30
0.0
 11
661372.62932368706
 21
619835.05307612382
 31
0.0
  0
LINE
  5
1AF
  8
LEIVA_SOIL_LIMITS
 10
661372.62932368706
 20
619835.05307612382
 30
0.0
 11
661387.6321238433
 21
619810.89075636142
 31
0.0
  0
LINE
  5
1B0
  8
LEIVA_SOIL_LIMITS
 10
661387.6321238433
 20
619810.89075636142
 30
0.0
 11
661402.32315100695
 21
619787.07049281197
 31
0.0
  0
LINE
  5
1B1
  8
LEIVA_SOIL_LIMITS
 10
661402.32315100695
 20
619787.07049281197
 30
0.0
 11
661416.51548698836
 21
619763.62324822438
 31
0.0
  0
LINE
  5
1B2
  8
LEIVA_SOIL_LIMITS
 10
661416.51548698836
 20
619763.62324822438
 30
0.0
 11
661430.02221360104
 21
619740.5799853527
 31
0.0
  0
LINE
  5
1B3
  8
LEIVA_SOIL_LIMITS
 10
661430.02221360104
 20
619740.5799853527
 30
0.0
 11
661442.65641266061
 21
619717.97166694736
 31
0.0
  0
LINE
  5
1B4
  8
LEIVA_SOIL_LIMITS
 10
661442.65641266061
 20
619717.97166694736
 30
0.0
 11
661454.23116597615
 21
619695.82925575855
 31
0.0
  0
LINE
  5
1B5
  8
LEIVA_SOIL_LIMITS
 10
661454.23116597615
 20
619695.82925575855
 30
0.0
 11
661464.61666123313
 21
619674.18376254383
 31
0.0
  0
LINE
  5
1B6
  8
LEIVA_SOIL_LIMITS
 10
661464.61666123313
 20
619674.18376254383
 30
0.0
 11
661473.91150959209
 21
619653.06639008084
 31
0.0
  0
LINE
  5
1B7
  8
LEIVA_SOIL_LIMITS
 10
661473.91150959209
 20
619653.06639008084
 30
0.0
 11
661482.27142808156
 21
619632.50838915445
 31
0.0
  0
LINE
  5
1B8
  8
LEIVA_SOIL_LIMITS
 10
661482.27142808156
 20
619632.50838915445
 30
0.0
 11
661489.85213373683
 21
619612.5410105465
 31
0.0
  0
LINE
  5
1B9
  8
LEIVA_SOIL_LIMITS
 10
661489.85213373683
 20
619612.5410105465
 30
0.0
 11
661496.80934358598
 21
619593.19550504303
 31
0.0
  0
LINE
  5
1BA
  8
LEIVA_SOIL_LIMITS
 10
661496.80934358598
 20
619593.19550504303
 30
0.0
 11
661503.2987746615
 21
619574.5031234253
 31
0.0
  0
LINE
  5
1BB
  8
LEIVA_SOIL_LIMITS
 10
661503.2987746615
 20
619574.5031234253
 30
0.0
 11
661509.47614399262
 21
619556.4951164776
 31
0.0
  0
LINE
  5
1BC
  8
LEIVA_SOIL_LIMITS
 10
661509.47614399262
 20
619556.4951164776
 30
0.0
 11
661515.49716861302
 21
619539.20273498399
 31
0.0
  0
LINE
  5
1BD
  8
LEIVA_SOIL_LIMITS
 10
661515.49716861302
 20
619539.20273498399
 30
0.0
 11
661521.48641257104
 21
619522.66239014582
 31
0.0
  0
LINE
  5
1BE
  8
LEIVA_SOIL_LIMITS
 10
661521.48641257104
 20
619522.66239014582
 30
0.0
 11
661527.4438279951
 21
619506.93113484583
 31
0.0
  0
LINE
  5
1BF
  8
LEIVA_SOIL_LIMITS
 10
661527.4438279951
 20
619506.93113484583
 30
0.0
 11
661533.33821403235
 21
619492.07118237973
 31
0.0
  0
LINE
  5
1C0
  8
LEIVA_SOIL_LIMITS
 10
661533.33821403235
 20
619492.07118237973
 30
0.0
 11
661539.13836983289
 21
619478.14474604884
 31
0.0
  0
LINE
  5
1C1
  8
LEIVA_SOIL_LIMITS
 10
661539.13836983289
 20
619478.14474604884
 30
0.0
 11
661544.81309454085
 21
619465.21403915156
 31
0.0
  0
LINE
  5
1C2
  8
LEIVA_SOIL_LIMITS
 10
661544.81309454085
 20
619465.21403915156
 30
0.0
 11
661550.3311873062
 21
619453.34127498895
 31
0.0
  0
LINE
  5
1C3
  8
LEIVA_SOIL_LIMITS
 10
661550.3311873062
 20
619453.34127498895
 30
0.0
 11
661555.66144727485
 21
619442.58866685699
 31
0.0
  0
LINE
  5
1C4
  8
LEIVA_SOIL_LIMITS
 10
661555.66144727485
 20
619442.58866685699
 30
0.0
 11
661560.77267359663
 21
619433.0184280565
 31
0.0
  0
LINE
  5
1C5
  8
LEIVA_SOIL_LIMITS
 10
661560.77267359663
 20
619433.0184280565
 30
0.0
 11
661565.67525352759
 21
619424.62538055866
 31
0.0
  0
LINE
  5
1C6
  8
LEIVA_SOIL_LIMITS
 10
661565.67525352759
 20
619424.62538055866
 30
0.0
 11
661570.54592676903
 21
619417.13478102628
 31
0.0
  0
LINE
  5
1C7
  8
LEIVA_SOIL_LIMITS
 10
661570.54592676903
 20
619417.13478102628
 30
0.0
 11
661575.60302113241
 21
619410.2044947932
 31
0.0
  0
LINE
  5
1C8
  8
LEIVA_SOIL_LIMITS
 10
661575.60302113241
 20
619410.2044947932
 30
0.0
 11
661581.06486442953
 21
619403.49238719465
 31
0.0
  0
LINE
  5
1C9
  8
LEIVA_SOIL_LIMITS
 10
661581.06486442953
 20
619403.49238719465
 30
0.0
 11
661587.14978447068
 21
619396.65632356401
 31
0.0
  0
LINE
  5
1CA
  8
LEIVA_SOIL_LIMITS
 10
661587.14978447068
 20
619396.65632356401
 30
0.0
 11
661594.07610906707
 21
619389.35416923708
 31
0.0
  0
LINE
  5
1CB
  8
LEIVA_SOIL_LIMITS
 10
661594.07610906707
 20
619389.35416923708
 30
0.0
 11
661602.06216603203
 21
619381.24378954666
 31
0.0
  0
LINE
  5
1CC
  8
LEIVA_SOIL_LIMITS
 10
661602.06216603203
 20
619381.24378954666
 30
0.0
 11
661611.32628317422
 21
619371.98304982774
 31
0.0
  0
LINE
  5
1CD
  8
LEIVA_SOIL_LIMITS
 10
661611.32628317422
 20
619371.98304982774
 30
0.0
 11
661622.0555438397
 21
619361.34389522148
 31
0.0
  0
LINE
  5
1CE
  8
LEIVA_SOIL_LIMITS
 10
661622.0555438397
 20
619361.34389522148
 30
0.0
 11
661634.31205350603
 21
619349.55459008645
 31
0.0
  0
LINE
  5
1CF
  8
LEIVA_SOIL_LIMITS
 10
661634.31205350603
 20
619349.55459008645
 30
0.0
 11
661648.12667318305
 21
619336.95747858624
 31
0.0
  0
LINE
  5
1D0
  8
LEIVA_SOIL_LIMITS
 10
661648.12667318305
 20
619336.95747858624
 30
0.0
 11
661663.53026388225
 21
619323.89490488661
 31
0.0
  0
LINE
  5
1D1
  8
LEIVA_SOIL_LIMITS
 10
661663.53026388225
 20
619323.89490488661
 30
0.0
 11
661680.55368661333
 21
619310.70921315229
 31
0.0
  0
LINE
  5
1D2
  8
LEIVA_SOIL_LIMITS
 10
661680.55368661333
 20
619310.70921315229
 30
0.0
 11
661699.22780238616
 21
619297.74274754687
 31
0.0
  0
LINE
  5
1D3
  8
LEIVA_SOIL_LIMITS
 10
661699.22780238616
 20
619297.74274754687
 30
0.0
 11
661719.58347221324
 21
619285.33785223681
 31
0.0
  0
LINE
  5
1D4
  8
LEIVA_SOIL_LIMITS
 10
661719.58347221324
 20
619285.33785223681
 30
0.0
 11
661741.65155710396
 21
619273.83687138418
 31
0.0
  0
LINE
  5
1D5
  8
LEIVA_SOIL_LIMITS
 10
661741.65155710396
 20
619273.83687138418
 30
0.0
 11
661765.39030333585
 21
619263.50428853091
 31
0.0
  0
LINE
  5
1D6
  8
LEIVA_SOIL_LIMITS
 10
661765.39030333585
 20
619263.50428853091
 30
0.0
 11
661790.46749824937
 21
619254.29314472573
 31
0.0
  0
LINE
  5
1D7
  8
LEIVA_SOIL_LIMITS
 10
661790.46749824937
 20
619254.29314472573
 30
0.0
 11
661816.47831445036
 21
619246.07862039097
 31
0.0
  0
LINE
  5
1D8
  8
LEIVA_SOIL_LIMITS
 10
661816.47831445036
 20
619246.07862039097
 30
0.0
 11
661843.01792454906
 21
619238.73589594953
 31
0.0
  0
LINE
  5
1D9
  8
LEIVA_SOIL_LIMITS
 10
661843.01792454906
 20
619238.73589594953
 30
0.0
 11
661869.6815011485
 21
619232.14015182713
 31
0.0
  0
LINE
  5
1DA
  8
LEIVA_SOIL_LIMITS
 10
661869.6815011485
 20
619232.14015182713
 30
0.0
 11
661896.06421685882
 21
619226.16656844551
 31
0.0
  0
LINE
  5
1DB
  8
LEIVA_SOIL_LIMITS
 10
661896.06421685882
 20
619226.16656844551
 30
0.0
 11
661921.76124428574
 21
619220.69032622897
 31
0.0
  0
LINE
  5
1DC
  8
LEIVA_SOIL_LIMITS
 10
661921.76124428574
 20
619220.69032622897
 30
0.0
 11
661946.36775603681
 21
619215.58660560241
 31
0.0
  0
LINE
  5
1DD
  8
LEIVA_SOIL_LIMITS
 10
661946.36775603681
 20
619215.58660560241
 30
0.0
 11
661969.5412176277
 21
619210.73582598008
 31
0.0
  0
LINE
  5
1DE
  8
LEIVA_SOIL_LIMITS
 10
661969.5412176277
 20
619210.73582598008
 30
0.0
 11
661991.18826621503
 21
619206.0393627407
 31
0.0
  0
LINE
  5
1DF
  8
LEIVA_SOIL_LIMITS
 10
661991.18826621503
 20
619206.0393627407
 30
0.0
 11
662011.27783186594
 21
619201.40383025748
 31
0.0
  0
LINE
  5
1E0
  8
LEIVA_SOIL_LIMITS
 10
662011.27783186594
 20
619201.40383025748
 30
0.0
 11
662029.77884464501
 21
619196.73584290151
 31
0.0
  0
LINE
  5
1E1
  8
LEIVA_SOIL_LIMITS
 10
662029.77884464501
 20
619196.73584290151
 30
0.0
 11
662046.66023461916
 21
619191.94201504625
 31
0.0
  0
LINE
  5
1E2
  8
LEIVA_SOIL_LIMITS
 10
662046.66023461916
 20
619191.94201504625
 30
0.0
 11
662061.89093185391
 21
619186.92896106094
 31
0.0
  0
LINE
  5
1E3
  8
LEIVA_SOIL_LIMITS
 10
662061.89093185391
 20
619186.92896106094
 30
0.0
 11
662075.43986641546
 21
619181.60329531739
 31
0.0
  0
LINE
  5
1E4
  8
LEIVA_SOIL_LIMITS
 10
662075.43986641546
 20
619181.60329531739
 30
0.0
 11
662087.27596836886
 21
619175.87163218809
 31
0.0
  0
LINE
  5
1E5
  8
LEIVA_SOIL_LIMITS
 10
662087.27596836886
 20
619175.87163218809
 30
0.0
 11
662097.40450341813
 21
619169.6458032215
 31
0.0
  0
LINE
  5
1E6
  8
LEIVA_SOIL_LIMITS
 10
662097.40450341813
 20
619169.6458032215
 30
0.0
 11
662105.97607981134
 21
619162.8585086714
 31
0.0
  0
LINE
  5
1E7
  8
LEIVA_SOIL_LIMITS
 10
662105.97607981134
 20
619162.8585086714
 30
0.0
 11
662113.1776414339
 21
619155.44766596961
 31
0.0
  0
LINE
  5
1E8
  8
LEIVA_SOIL_LIMITS
 10
662113.1776414339
 20
619155.44766596961
 30
0.0
 11
662119.1961321712
 21
619147.35119254817
 31
0.0
  0
LINE
  5
1E9
  8
LEIVA_SOIL_LIMITS
 10
662119.1961321712
 20
619147.35119254817
 30
0.0
 11
662124.21849590715
 21
619138.50700583705
 31
0.0
  0
LINE
  5
1EA
  8
LEIVA_SOIL_LIMITS
 10
662124.21849590715
 20
619138.50700583705
 30
0.0
 11
662128.43167652888
 21
619128.85302326805
 31
0.0
  0
LINE
  5
1EB
  8
LEIVA_SOIL_LIMITS
 10
662128.43167652888
 20
619128.85302326805
 30
0.0
 11
662132.02261792112
 21
619118.3271622723
 31
0.0
  0
LINE
  5
1EC
  8
LEIVA_SOIL_LIMITS
 10
662132.02261792112
 20
619118.3271622723
 30
0.0
 11
662135.17826396879
 21
619106.86734028195
 31
0.0
  0
LINE
  5
1ED
  8
LEIVA_SOIL_LIMITS
 10
662135.17826396879
 20
619106.86734028195
 30
0.0
 11
662138.06996243808
 21
619094.43739481946
 31
0.0
  0
LINE
  5
1EE
  8
LEIVA_SOIL_LIMITS
 10
662138.06996243808
 20
619094.43739481946
 30
0.0
 11
662140.80667662818
 21
619081.10484377644
 31
0.0
  0
LINE
  5
1EF
  8
LEIVA_SOIL_LIMITS
 10
662140.80667662818
 20
619081.10484377644
 30
0.0
 11
662143.48177371174
 21
619066.96312513575
 31
0.0
  0
LINE
  5
1F0
  8
LEIVA_SOIL_LIMITS
 10
662143.48177371174
 20
619066.96312513575
 30
0.0
 11
662146.1886208686
 21
619052.10567688313
 31
0.0
  0
LINE
  5
1F1
  8
LEIVA_SOIL_LIMITS
 10
662146.1886208686
 20
619052.10567688313
 30
0.0
 11
662149.02058527665
 21
619036.62593700015
 31
0.0
  0
LINE
  5
1F2
  8
LEIVA_SOIL_LIMITS
 10
662149.02058527665
 20
619036.62593700015
 30
0.0
 11
662152.07103411341
 21
619020.61734347069
 31
0.0
  0
LINE
  5
1F3
  8
LEIVA_SOIL_LIMITS
 10
662152.07103411341
 20
619020.61734347069
 30
0.0
 11
662155.43333455489
 21
619004.17333427735
 31
0.0
  0
LINE
  5
1F4
  8
LEIVA_SOIL_LIMITS
 10
662155.43333455489
 20
619004.17333427735
 30
0.0
 11
662159.20085377875
 21
618987.38734740554
 31
0.0
  0
LINE
  5
1F5
  8
LEIVA_SOIL_LIMITS
 10
662159.20085377875
 20
618987.38734740554
 30
0.0
 11
662163.42544497992
 21
618970.33203938929
 31
0.0
  0
LINE
  5
1F6
  8
LEIVA_SOIL_LIMITS
 10
662163.42544497992
 20
618970.33203938929
 30
0.0
 11
662167.99290541327
 21
618952.99694097345
 31
0.0
  0
LINE
  5
1F7
  8
LEIVA_SOIL_LIMITS
 10
662167.99290541327
 20
618952.99694097345
 30
0.0
 11
662172.74751835281
 21
618935.35080145195
 31
0.0
  0
LINE
  5
1F8
  8
LEIVA_SOIL_LIMITS
 10
662172.74751835281
 20
618935.35080145195
 30
0.0
 11
662177.53356706898
 21
618917.36237012059
 31
0.0
  0
LINE
  5
1F9
  8
LEIVA_SOIL_LIMITS
 10
662177.53356706898
 20
618917.36237012059
 30
0.0
 11
662182.19533483544
 21
618899.00039627426
 31
0.0
  0
LINE
  5
1FA
  8
LEIVA_SOIL_LIMITS
 10
662182.19533483544
 20
618899.00039627426
 30
0.0
 11
662186.57710492413
 21
618880.23362920969
 31
0.0
  0
LINE
  5
1FB
  8
LEIVA_SOIL_LIMITS
 10
662186.57710492413
 20
618880.23362920969
 30
0.0
 11
662190.52316060779
 21
618861.03081822116
 31
0.0
  0
LINE
  5
1FC
  8
LEIVA_SOIL_LIMITS
 10
662190.52316060779
 20
618861.03081822116
 30
0.0
 11
662193.87778515811
 21
618841.3607126039
 31
0.0
  0
LINE
  5
1FD
  8
LEIVA_SOIL_LIMITS
 10
662193.87778515811
 20
618841.3607126039
 30
0.0
 11
662196.52675406425
 21
618821.23877628206
 31
0.0
  0
LINE
  5
1FE
  8
LEIVA_SOIL_LIMITS
 10
662196.52675406425
 20
618821.23877628206
 30
0.0
 11
662198.52181167179
 21
618800.86733169667
 31
0.0
  0
LINE
  5
1FF
  8
LEIVA_SOIL_LIMITS
 10
662198.52181167179
 20
618800.86733169667
 30
0.0
 11
662199.95619454351
 21
618780.49541591515
 31
0.0
  0
LINE
  5
200
  8
LEIVA_SOIL_LIMITS
 10
662199.95619454351
 20
618780.49541591515
 30
0.0
 11
662200.92313924152
 21
618760.37206600583
 31
0.0
  0
LINE
  5
201
  8
LEIVA_SOIL_LIMITS
 10
662200.92313924152
 20
618760.37206600583
 30
0.0
 11
662201.51588232943
 21
618740.74631903809
 31
0.0
  0
LINE
  5
202
  8
LEIVA_SOIL_LIMITS
 10
662201.51588232943
 20
618740.74631903809
 30
0.0
 11
662201.82766036806
 21
618721.8672120804
 31
0.0
  0
LINE
  5
203
  8
LEIVA_SOIL_LIMITS
 10
662201.82766036806
 20
618721.8672120804
 30
0.0
 11
662201.95170992101
 21
618703.98378220131
 31
0.0
  0
LINE
  5
204
  8
LEIVA_SOIL_LIMITS
 10
662201.95170992101
 20
618703.98378220131
 30
0.0
 11
662201.98126755049
 21
618687.34506646881
 31
0.0
  0
LINE
  5
205
  8
LEIVA_SOIL_LIMITS
 10
662201.98126755049
 20
618687.34506646881
 30
0.0
 11
662201.99405218556
 21
618672.13266259432
 31
0.0
  0
LINE
  5
206
  8
LEIVA_SOIL_LIMITS
 10
662201.99405218556
 20
618672.13266259432
 30
0.0
 11
662202.00571222627
 21
618658.25841084961
 31
0.0
  0
LINE
  5
207
  8
LEIVA_SOIL_LIMITS
 10
662202.00571222627
 20
618658.25841084961
 30
0.0
 11
662202.01637843903
 21
618645.56671215175
 31
0.0
  0
LINE
  5
208
  8
LEIVA_SOIL_LIMITS
 10
662202.01637843903
 20
618645.56671215175
 30
0.0
 11
662202.02618159109
 21
618633.90196741396
 31
0.0
  0
LINE
  5
209
  8
LEIVA_SOIL_LIMITS
 10
662202.02618159109
 20
618633.90196741396
 30
0.0
 11
662202.03525244875
 21
618623.10857755283
 31
0.0
  0
LINE
  5
20A
  8
LEIVA_SOIL_LIMITS
 10
662202.03525244875
 20
618623.10857755283
 30
0.0
 11
662202.04372177925
 21
618613.03094348172
 31
0.0
  0
LINE
  5
20B
  8
LEIVA_SOIL_LIMITS
 10
662202.04372177925
 20
618613.03094348172
 30
0.0
 11
662202.05172034912
 21
618603.51346611697
 31
0.0
  0
LINE
  5
20C
  8
LEIVA_SOIL_LIMITS
 10
662202.05172034912
 20
618603.51346611697
 30
0.0
 11
662202.05937892525
 21
618594.40054637287
 31
0.0
  0
LINE
  5
20D
  8
LEIVA_SOIL_LIMITS
 10
662202.05937892525
 20
618594.40054637287
 30
0.0
 11
662202.06161503005
 21
618585.56251399638
 31
0.0
  0
LINE
  5
20E
  8
LEIVA_SOIL_LIMITS
 10
662202.06161503005
 20
618585.56251399638
 30
0.0
 11
662202.03249321133
 21
618576.9734140567
 31
0.0
  0
LINE
  5
20F
  8
LEIVA_SOIL_LIMITS
 10
662202.03249321133
 20
618576.9734140567
 30
0.0
 11
662201.94086476974
 21
618568.63322045514
 31
0.0
  0
LINE
  5
210
  8
LEIVA_SOIL_LIMITS
 10
662201.94086476974
 20
618568.63322045514
 30
0.0
 11
662201.75558100827
 21
618560.54190709256
 31
0.0
  0
LINE
  5
211
  8
LEIVA_SOIL_LIMITS
 10
662201.75558100827
 20
618560.54190709256
 30
0.0
 11
662201.44549322885
 21
618552.69944787025
 31
0.0
  0
LINE
  5
212
  8
LEIVA_SOIL_LIMITS
 10
662201.44549322885
 20
618552.69944787025
 30
0.0
 11
662200.97945273505
 21
618545.10581668862
 31
0.0
  0
LINE
  5
213
  8
LEIVA_SOIL_LIMITS
 10
662200.97945273505
 20
618545.10581668862
 30
0.0
 11
662200.32631082903
 21
618537.76098744851
 31
0.0
  0
LINE
  5
214
  8
LEIVA_SOIL_LIMITS
 10
662200.32631082903
 20
618537.76098744851
 30
0.0
 11
662199.45491881063
 21
618530.66493405262
 31
0.0
  0
LINE
  5
215
  8
LEIVA_SOIL_LIMITS
 10
662199.45491881063
 20
618530.66493405262
 30
0.0
 11
662198.35490686086
 21
618523.80208790605
 31
0.0
  0
LINE
  5
216
  8
LEIVA_SOIL_LIMITS
 10
662198.35490686086
 20
618523.80208790605
 30
0.0
 11
662197.0990206555
 21
618517.09471042606
 31
0.0
  0
LINE
  5
217
  8
LEIVA_SOIL_LIMITS
 10
662197.0990206555
 20
618517.09471042606
 30
0.0
 11
662195.78078474756
 21
618510.44952054112
 31
0.0
  0
LINE
  5
218
  8
LEIVA_SOIL_LIMITS
 10
662195.78078474756
 20
618510.44952054112
 30
0.0
 11
662194.49372369074
 21
618503.77323717298
 31
0.0
  0
LINE
  5
219
  8
LEIVA_SOIL_LIMITS
 10
662194.49372369074
 20
618503.77323717298
 30
0.0
 11
662193.33136203734
 21
618496.97257924825
 31
0.0
  0
LINE
  5
21A
  8
LEIVA_SOIL_LIMITS
 10
662193.33136203734
 20
618496.97257924825
 30
0.0
 11
662192.38722434104
 21
618489.95426569076
 31
0.0
  0
LINE
  5
21B
  8
LEIVA_SOIL_LIMITS
 10
662192.38722434104
 20
618489.95426569076
 30
0.0
 11
662191.75483515544
 21
618482.6250154248
 31
0.0
  0
LINE
  5
21C
  8
LEIVA_SOIL_LIMITS
 10
662191.75483515544
 20
618482.6250154248
 30
0.0
 11
662191.52771903144
 21
618474.89154737419
 31
0.0
  0
LINE
  5
21D
  8
LEIVA_SOIL_LIMITS
 10
662191.52771903144
 20
618474.89154737419
 30
0.0
 11
662191.79942657496
 21
618466.6294606874
 31
0.0
  0
LINE
  5
21E
  8
LEIVA_SOIL_LIMITS
 10
662191.79942657496
 20
618466.6294606874
 30
0.0
 11
662192.66361260111
 21
618457.58987539937
 31
0.0
  0
LINE
  5
21F
  8
LEIVA_SOIL_LIMITS
 10
662192.66361260111
 20
618457.58987539937
 30
0.0
 11
662194.21395797399
 21
618447.49279176898
 31
0.0
  0
LINE
  5
220
  8
LEIVA_SOIL_LIMITS
 10
662194.21395797399
 20
618447.49279176898
 30
0.0
 11
662196.54414356174
 21
618436.05821005243
 31
0.0
  0
LINE
  5
221
  8
LEIVA_SOIL_LIMITS
 10
662196.54414356174
 20
618436.05821005243
 30
0.0
 11
662199.74785022787
 21
618423.00613051024
 31
0.0
  0
LINE
  5
222
  8
LEIVA_SOIL_LIMITS
 10
662199.74785022787
 20
618423.00613051024
 30
0.0
 11
662203.918758841
 21
618408.05655339896
 31
0.0
  0
LINE
  5
223
  8
LEIVA_SOIL_LIMITS
 10
662203.918758841
 20
618408.05655339896
 30
0.0
 11
662209.15055026487
 21
618390.92947897757
 31
0.0
  0
LINE
  5
224
  8
LEIVA_SOIL_LIMITS
 10
662209.15055026487
 20
618390.92947897757
 30
0.0
 11
662215.53690536611
 21
618371.34490750195
 31
0.0
  0
LINE
  5
225
  8
LEIVA_SOIL_LIMITS
 10
662215.53690536611
 20
618371.34490750195
 30
0.0
 11
662223.15061295719
 21
618349.17323421757
 31
0.0
  0
LINE
  5
226
  8
LEIVA_SOIL_LIMITS
 10
662223.15061295719
 20
618349.17323421757
 30
0.0
 11
662231.9808936303
 21
618324.88643430057
 31
0.0
  0
LINE
  5
227
  8
LEIVA_SOIL_LIMITS
 10
662231.9808936303
 20
618324.88643430057
 30
0.0
 11
662241.99607592379
 21
618299.1068779151
 31
0.0
  0
LINE
  5
228
  8
LEIVA_SOIL_LIMITS
 10
662241.99607592379
 20
618299.1068779151
 30
0.0
 11
662253.16448837658
 21
618272.45693522179
 31
0.0
  0
LINE
  5
229
  8
LEIVA_SOIL_LIMITS
 10
662253.16448837658
 20
618272.45693522179
 30
0.0
 11
662265.45445952786
 21
618245.55897638551
 31
0.0
  0
LINE
  5
22A
  8
LEIVA_SOIL_LIMITS
 10
662265.45445952786
 20
618245.55897638551
 30
0.0
 11
662278.83431791607
 21
618219.03537156724
 31
0.0
  0
LINE
  5
22B
  8
LEIVA_SOIL_LIMITS
 10
662278.83431791607
 20
618219.03537156724
 30
0.0
 11
662293.27239208017
 21
618193.50849092961
 31
0.0
  0
LINE
  5
22C
  8
LEIVA_SOIL_LIMITS
 10
662293.27239208017
 20
618193.50849092961
 30
0.0
 11
662308.73701055837
 21
618169.60070463445
 31
0.0
  0
LINE
  5
22D
  8
LEIVA_SOIL_LIMITS
 10
662308.73701055837
 20
618169.60070463445
 30
0.0
 11
662325.21217203245
 21
618147.82028993964
 31
0.0
  0
LINE
  5
22E
  8
LEIVA_SOIL_LIMITS
 10
662325.21217203245
 20
618147.82028993964
 30
0.0
 11
662342.74455575668
 21
618128.21915247128
 31
0.0
  0
LINE
  5
22F
  8
LEIVA_SOIL_LIMITS
 10
662342.74455575668
 20
618128.21915247128
 30
0.0
 11
662361.39651113225
 21
618110.73510495119
 31
0.0
  0
LINE
  5
230
  8
LEIVA_SOIL_LIMITS
 10
662361.39651113225
 20
618110.73510495119
 30
0.0
 11
662381.23038755567
 21
618095.30596010038
 31
0.0
  0
LINE
  5
231
  8
LEIVA_SOIL_LIMITS
 10
662381.23038755567
 20
618095.30596010038
 30
0.0
 11
662402.30853442498
 21
618081.86953063868
 31
0.0
  0
LINE
  5
232
  8
LEIVA_SOIL_LIMITS
 10
662402.30853442498
 20
618081.86953063868
 30
0.0
 11
662424.69330113893
 21
618070.36362928932
 31
0.0
  0
LINE
  5
233
  8
LEIVA_SOIL_LIMITS
 10
662424.69330113893
 20
618070.36362928932
 30
0.0
 11
662448.44703709718
 21
618060.72606877121
 31
0.0
  0
LINE
  5
234
  8
LEIVA_SOIL_LIMITS
 10
662448.44703709718
 20
618060.72606877121
 30
0.0
 11
662473.63209169626
 21
618052.89466180583
 31
0.0
  0
LINE
  5
235
  8
LEIVA_SOIL_LIMITS
 10
662473.63209169626
 20
618052.89466180583
 30
0.0
 11
662500.2277470862
 21
618046.81233794498
 31
0.0
  0
LINE
  5
236
  8
LEIVA_SOIL_LIMITS
 10
662500.2277470862
 20
618046.81233794498
 30
0.0
 11
662527.88101642183
 21
618042.44249405526
 31
0.0
  0
LINE
  5
237
  8
LEIVA_SOIL_LIMITS
 10
662527.88101642183
 20
618042.44249405526
 30
0.0
 11
662556.15584560623
 21
618039.75364383415
 31
0.0
  0
LINE
  5
238
  8
LEIVA_SOIL_LIMITS
 10
662556.15584560623
 20
618039.75364383415
 30
0.0
 11
662584.61618054518
 21
618038.71430097986
 31
0.0
  0
LINE
  5
239
  8
LEIVA_SOIL_LIMITS
 10
662584.61618054518
 20
618038.71430097986
 30
0.0
 11
662612.82596714189
 21
618039.29297918954
 31
0.0
  0
LINE
  5
23A
  8
LEIVA_SOIL_LIMITS
 10
662612.82596714189
 20
618039.29297918954
 30
0.0
 11
662640.34915130085
 21
618041.45819215954
 31
0.0
  0
LINE
  5
23B
  8
LEIVA_SOIL_LIMITS
 10
662640.34915130085
 20
618041.45819215954
 30
0.0
 11
662666.74967892875
 21
618045.17845358793
 31
0.0
  0
LINE
  5
23C
  8
LEIVA_SOIL_LIMITS
 10
662666.74967892875
 20
618045.17845358793
 30
0.0
 11
662691.59149592766
 21
618050.42227717303
 31
0.0
  0
LINE
  5
23D
  8
LEIVA_SOIL_LIMITS
 10
662691.59149592766
 20
618050.42227717303
 30
0.0
 11
662714.57875170826
 21
618057.11680132162
 31
0.0
  0
LINE
  5
23E
  8
LEIVA_SOIL_LIMITS
 10
662714.57875170826
 20
618057.11680132162
 30
0.0
 11
662735.97640969686
 21
618065.02366327797
 31
0.0
  0
LINE
  5
23F
  8
LEIVA_SOIL_LIMITS
 10
662735.97640969686
 20
618065.02366327797
 30
0.0
 11
662756.18963682523
 21
618073.86312499666
 31
0.0
  0
LINE
  5
240
  8
LEIVA_SOIL_LIMITS
 10
662756.18963682523
 20
618073.86312499666
 30
0.0
 11
662775.62360002508
 21
618083.35544843506
 31
0.0
  0
LINE
  5
241
  8
LEIVA_SOIL_LIMITS
 10
662775.62360002508
 20
618083.35544843506
 30
0.0
 11
662794.68346622714
 21
618093.22089554695
 31
0.0
  0
LINE
  5
242
  8
LEIVA_SOIL_LIMITS
 10
662794.68346622714
 20
618093.22089554695
 30
0.0
 11
662813.77440236323
 21
618103.17972828727
 31
0.0
  0
LINE
  5
243
  8
LEIVA_SOIL_LIMITS
 10
662813.77440236323
 20
618103.17972828727
 30
0.0
 11
662833.30157536454
 21
618112.95220861072
 31
0.0
  0
LINE
  5
244
  8
LEIVA_SOIL_LIMITS
 10
662833.30157536454
 20
618112.95220861072
 30
0.0
 11
662853.67015216337
 21
618122.25859847199
 31
0.0
  0
LINE
  5
245
  8
LEIVA_SOIL_LIMITS
 10
662853.67015216337
 20
618122.25859847199
 30
0.0
 11
662875.16066176712
 21
618130.87092147826
 31
0.0
  0
LINE
  5
246
  8
LEIVA_SOIL_LIMITS
 10
662875.16066176712
 20
618130.87092147826
 30
0.0
 11
662897.55508148461
 21
618138.76824784209
 31
0.0
  0
LINE
  5
247
  8
LEIVA_SOIL_LIMITS
 10
662897.55508148461
 20
618138.76824784209
 30
0.0
 11
662920.51075070607
 21
618145.98140942794
 31
0.0
  0
LINE
  5
248
  8
LEIVA_SOIL_LIMITS
 10
662920.51075070607
 20
618145.98140942794
 30
0.0
 11
662943.68500881607
 21
618152.54123809887
 31
0.0
  0
LINE
  5
249
  8
LEIVA_SOIL_LIMITS
 10
662943.68500881607
 20
618152.54123809887
 30
0.0
 11
662966.73519520427
 21
618158.47856571805
 31
0.0
  0
LINE
  5
24A
  8
LEIVA_SOIL_LIMITS
 10
662966.73519520427
 20
618158.47856571805
 30
0.0
 11
662989.31864925625
 21
618163.8242241526
 31
0.0
  0
LINE
  5
24B
  8
LEIVA_SOIL_LIMITS
 10
662989.31864925625
 20
618163.8242241526
 30
0.0
 11
663011.09271035844
 21
618168.60904526361
 31
0.0
  0
LINE
  5
24C
  8
LEIVA_SOIL_LIMITS
 10
663011.09271035844
 20
618168.60904526361
 30
0.0
 11
663031.71471789945
 21
618172.86386091751
 31
0.0
  0
LINE
  5
24D
  8
LEIVA_SOIL_LIMITS
 10
663031.71471789945
 20
618172.86386091751
 30
0.0
 11
663050.96141420235
 21
618176.61960332305
 31
0.0
  0
LINE
  5
24E
  8
LEIVA_SOIL_LIMITS
 10
663050.96141420235
 20
618176.61960332305
 30
0.0
 11
663069.08715333417
 21
618179.9076060825
 31
0.0
  0
LINE
  5
24F
  8
LEIVA_SOIL_LIMITS
 10
663069.08715333417
 20
618179.9076060825
 30
0.0
 11
663086.46569229849
 21
618182.75930314395
 31
0.0
  0
LINE
  5
250
  8
LEIVA_SOIL_LIMITS
 10
663086.46569229849
 20
618182.75930314395
 30
0.0
 11
663103.47078810015
 21
618185.20612845186
 31
0.0
  0
LINE
  5
251
  8
LEIVA_SOIL_LIMITS
 10
663103.47078810015
 20
618185.20612845186
 30
0.0
 11
663120.47619774181
 21
618187.27951595734
 31
0.0
  0
LINE
  5
252
  8
LEIVA_SOIL_LIMITS
 10
663120.47619774181
 20
618187.27951595734
 30
0.0
 11
663137.85567822726
 21
618189.01089960535
 31
0.0
  0
LINE
  5
253
  8
LEIVA_SOIL_LIMITS
 10
663137.85567822726
 20
618189.01089960535
 30
0.0
 11
663155.98298656079
 21
618190.43171334499
 31
0.0
  0
LINE
  5
254
  8
LEIVA_SOIL_LIMITS
 10
663155.98298656079
 20
618190.43171334499
 30
0.0
 11
663175.23187974608
 21
618191.57339112391
 31
0.0
  0
LINE
  5
255
  8
LEIVA_SOIL_LIMITS
 10
663175.23187974608
 20
618191.57339112391
 30
0.0
 11
663195.84632895025
 21
618192.46725781565
 31
0.0
  0
LINE
  5
256
  8
LEIVA_SOIL_LIMITS
 10
663195.84632895025
 20
618192.46725781565
 30
0.0
 11
663217.55116200296
 21
618193.14420200326
 31
0.0
  0
LINE
  5
257
  8
LEIVA_SOIL_LIMITS
 10
663217.55116200296
 20
618193.14420200326
 30
0.0
 11
663239.94142089423
 21
618193.63500319386
 31
0.0
  0
LINE
  5
258
  8
LEIVA_SOIL_LIMITS
 10
663239.94142089423
 20
618193.63500319386
 30
0.0
 11
663262.61214761704
 21
618193.97044089669
 31
0.0
  0
LINE
  5
259
  8
LEIVA_SOIL_LIMITS
 10
663262.61214761704
 20
618193.97044089669
 30
0.0
 11
663285.1583841634
 21
618194.18129462213
 31
0.0
  0
LINE
  5
25A
  8
LEIVA_SOIL_LIMITS
 10
663285.1583841634
 20
618194.18129462213
 30
0.0
 11
663307.17517252313
 21
618194.29834387708
 31
0.0
  0
LINE
  5
25B
  8
LEIVA_SOIL_LIMITS
 10
663307.17517252313
 20
618194.29834387708
 30
0.0
 11
663328.25755469233
 21
618194.35236817156
 31
0.0
  0
LINE
  5
25C
  8
LEIVA_SOIL_LIMITS
 10
663328.25755469233
 20
618194.35236817156
 30
0.0
 11
663348.00057265814
 21
618194.37414701399
 31
0.0
  0
LINE
  5
25D
  8
LEIVA_SOIL_LIMITS
 10
663348.00057265814
 20
618194.37414701399
 30
0.0
 11
663366.12387156929
 21
618194.38419135031
 31
0.0
  0
LINE
  5
25E
  8
LEIVA_SOIL_LIMITS
 10
663366.12387156929
 20
618194.38419135031
 30
0.0
 11
663382.8455091886
 21
618194.36193787935
 31
0.0
  0
LINE
  5
25F
  8
LEIVA_SOIL_LIMITS
 10
663382.8455091886
 20
618194.36193787935
 30
0.0
 11
663398.50814643106
 21
618194.27655473817
 31
0.0
  0
LINE
  5
260
  8
LEIVA_SOIL_LIMITS
 10
663398.50814643106
 20
618194.27655473817
 30
0.0
 11
663413.45444421424
 21
618194.0972100615
 31
0.0
  0
LINE
  5
261
  8
LEIVA_SOIL_LIMITS
 10
663413.45444421424
 20
618194.0972100615
 30
0.0
 11
663428.02706345299
 21
618193.79307198594
 31
0.0
  0
LINE
  5
262
  8
LEIVA_SOIL_LIMITS
 10
663428.02706345299
 20
618193.79307198594
 30
0.0
 11
663442.5686650651
 21
618193.33330864995
 31
0.0
  0
LINE
  5
263
  8
LEIVA_SOIL_LIMITS
 10
663442.5686650651
 20
618193.33330864995
 30
0.0
 11
663457.42190996534
 21
618192.68708818592
 31
0.0
  0
LINE
  5
264
  8
LEIVA_SOIL_LIMITS
 10
663457.42190996534
 20
618192.68708818592
 30
0.0
 11
663472.92945907125
 21
618191.82357873244
 31
0.0
  0
LINE
  5
265
  8
LEIVA_SOIL_LIMITS
 10
663472.92945907125
 20
618191.82357873244
 30
0.0
 11
663489.38204585295
 21
618190.72746470408
 31
0.0
  0
LINE
  5
266
  8
LEIVA_SOIL_LIMITS
 10
663489.38204585295
 20
618190.72746470408
 30
0.0
 11
663506.86269399605
 21
618189.44549563411
 31
0.0
  0
LINE
  5
267
  8
LEIVA_SOIL_LIMITS
 10
663506.86269399605
 20
618189.44549563411
 30
0.0
 11
663525.40249973792
 21
618188.0399373339
 31
0.0
  0
LINE
  5
268
  8
LEIVA_SOIL_LIMITS
 10
663525.40249973792
 20
618188.0399373339
 30
0.0
 11
663545.0325593194
 21
618186.57305561379
 31
0.0
  0
LINE
  5
269
  8
LEIVA_SOIL_LIMITS
 10
663545.0325593194
 20
618186.57305561379
 30
0.0
 11
663565.78396898124
 21
618185.10711628594
 31
0.0
  0
LINE
  5
26A
  8
LEIVA_SOIL_LIMITS
 10
663565.78396898124
 20
618185.10711628594
 30
0.0
 11
663587.68782495754
 21
618183.7043851621
 31
0.0
  0
LINE
  5
26B
  8
LEIVA_SOIL_LIMITS
 10
663587.68782495754
 20
618183.7043851621
 30
0.0
 11
663610.77522349218
 21
618182.42712805246
 31
0.0
  0
LINE
  5
26C
  8
LEIVA_SOIL_LIMITS
 10
663610.77522349218
 20
618182.42712805246
 30
0.0
 11
663635.07726082136
 21
618181.33761077013
 31
0.0
  0
LINE
  5
26D
  8
LEIVA_SOIL_LIMITS
 10
663635.07726082136
 20
618181.33761077013
 30
0.0
 11
663660.56274471094
 21
618180.48767349939
 31
0.0
  0
LINE
  5
26E
  8
LEIVA_SOIL_LIMITS
 10
663660.56274471094
 20
618180.48767349939
 30
0.0
 11
663686.95132902358
 21
618179.88745391369
 31
0.0
  0
LINE
  5
26F
  8
LEIVA_SOIL_LIMITS
 10
663686.95132902358
 20
618179.88745391369
 30
0.0
 11
663713.90037914913
 21
618179.53666405939
 31
0.0
  0
LINE
  5
270
  8
LEIVA_SOIL_LIMITS
 10
663713.90037914913
 20
618179.53666405939
 30
0.0
 11
663741.06726047467
 21
618179.43501598411
 31
0.0
  0
LINE
  5
271
  8
LEIVA_SOIL_LIMITS
 10
663741.06726047467
 20
618179.43501598411
 30
0.0
 11
663768.10933839076
 21
618179.58222173527
 31
0.0
  0
LINE
  5
272
  8
LEIVA_SOIL_LIMITS
 10
663768.10933839076
 20
618179.58222173527
 30
0.0
 11
663794.68397828424
 21
618179.97799335956
 31
0.0
  0
LINE
  5
273
  8
LEIVA_SOIL_LIMITS
 10
663794.68397828424
 20
618179.97799335956
 30
0.0
 11
663820.44854554581
 21
618180.62204290275
 31
0.0
  0
LINE
  5
274
  8
LEIVA_SOIL_LIMITS
 10
663820.44854554581
 20
618180.62204290275
 30
0.0
 11
663845.06040556356
 21
618181.5140824127
 31
0.0
  0
LINE
  5
275
  8
LEIVA_SOIL_LIMITS
 10
663845.06040556356
 20
618181.5140824127
 30
0.0
 11
663868.32748400164
 21
618182.64357718953
 31
0.0
  0
LINE
  5
276
  8
LEIVA_SOIL_LIMITS
 10
663868.32748400164
 20
618182.64357718953
 30
0.0
 11
663890.65994762629
 21
618183.95900554245
 31
0.0
  0
LINE
  5
277
  8
LEIVA_SOIL_LIMITS
 10
663890.65994762629
 20
618183.95900554245
 30
0.0
 11
663912.61852348072
 21
618185.39859903138
 31
0.0
  0
LINE
  5
278
  8
LEIVA_SOIL_LIMITS
 10
663912.61852348072
 20
618185.39859903138
 30
0.0
 11
663934.76393860613
 21
618186.90058922034
 31
0.0
  0
LINE
  5
279
  8
LEIVA_SOIL_LIMITS
 10
663934.76393860613
 20
618186.90058922034
 30
0.0
 11
663957.65692004771
 21
618188.40320766997
 31
0.0
  0
LINE
  5
27A
  8
LEIVA_SOIL_LIMITS
 10
663957.65692004771
 20
618188.40320766997
 30
0.0
 11
663981.85819484445
 21
618189.8446859424
 31
0.0
  0
LINE
  5
27B
  8
LEIVA_SOIL_LIMITS
 10
663981.85819484445
 20
618189.8446859424
 30
0.0
 11
664007.92849003919
 21
618191.16325560003
 31
0.0
  0
LINE
  5
27C
  8
LEIVA_SOIL_LIMITS
 10
664007.92849003919
 20
618191.16325560003
 30
0.0
 11
664036.428532677
 21
618192.29714820522
 31
0.0
  0
LINE
  5
27D
  8
LEIVA_SOIL_LIMITS
 10
664036.428532677
 20
618192.29714820522
 30
0.0
 11
664067.60237235751
 21
618193.18432918005
 31
0.0
  0
LINE
  5
27E
  8
LEIVA_SOIL_LIMITS
 10
664067.60237235751
 20
618193.18432918005
 30
0.0
 11
664100.42734893109
 21
618193.76169939502
 31
0.0
  0
LINE
  5
27F
  8
LEIVA_SOIL_LIMITS
 10
664100.42734893109
 20
618193.76169939502
 30
0.0
 11
664133.56412480213
 21
618193.96589358081
 31
0.0
  0
LINE
  5
280
  8
LEIVA_SOIL_LIMITS
 10
664133.56412480213
 20
618193.96589358081
 30
0.0
 11
664165.67336238036
 21
618193.73354646994
 31
0.0
  0
LINE
  5
281
  8
LEIVA_SOIL_LIMITS
 10
664165.67336238036
 20
618193.73354646994
 30
0.0
 11
664195.41572407214
 21
618193.00129279064
 31
0.0
  0
LINE
  5
282
  8
LEIVA_SOIL_LIMITS
 10
664195.41572407214
 20
618193.00129279064
 30
0.0
 11
664221.45187228522
 21
618191.70576727716
 31
0.0
  0
LINE
  5
283
  8
LEIVA_SOIL_LIMITS
 10
664221.45187228522
 20
618191.70576727716
 30
0.0
 11
664242.44246942759
 21
618189.78360465926
 31
0.0
  0
LINE
  5
284
  8
LEIVA_SOIL_LIMITS
 10
664242.44246942759
 20
618189.78360465926
 30
0.0
 11
664257.04817790654
 21
618187.17143966933
 31
0.0
  0
LINE
  5
285
  8
LEIVA_SOIL_LIMITS
 10
664257.04817790654
 20
618187.17143966933
 30
0.0
 11
664264.32417423942
 21
618183.84773170878
 31
0.0
  0
LINE
  5
286
  8
LEIVA_SOIL_LIMITS
 10
664264.32417423942
 20
618183.84773170878
 30
0.0
 11
664264.90369138122
 21
618179.95823886804
 31
0.0
  0
LINE
  5
287
  8
LEIVA_SOIL_LIMITS
 10
664264.90369138122
 20
618179.95823886804
 30
0.0
 11
664259.81447639735
 21
618175.69054390804
 31
0.0
  0
LINE
  5
288
  8
LEIVA_SOIL_LIMITS
 10
664259.81447639735
 20
618175.69054390804
 30
0.0
 11
664250.08427635464
 21
618171.23222959111
 31
0.0
  0
LINE
  5
289
  8
LEIVA_SOIL_LIMITS
 10
664250.08427635464
 20
618171.23222959111
 30
0.0
 11
664236.74083831697
 21
618166.77087867726
 31
0.0
  0
LINE
  5
28A
  8
LEIVA_SOIL_LIMITS
 10
664236.74083831697
 20
618166.77087867726
 30
0.0
 11
664220.81190934905
 21
618162.49407392764
 31
0.0
  0
LINE
  5
28B
  8
LEIVA_SOIL_LIMITS
 10
664220.81190934905
 20
618162.49407392764
 30
0.0
 11
664203.3252365191
 21
618158.58939810575
 31
0.0
  0
LINE
  5
28C
  8
LEIVA_SOIL_LIMITS
 10
664203.3252365191
 20
618158.58939810575
 30
0.0
 11
664185.30856688891
 21
618155.24443397089
 31
0.0
  0
LINE
  5
28D
  8
LEIVA_SOIL_LIMITS
 10
664185.30856688891
 20
618155.24443397089
 30
0.0
 11
664167.56646377337
 21
618152.58952368156
 31
0.0
  0
LINE
  5
28E
  8
LEIVA_SOIL_LIMITS
 10
664167.56646377337
 20
618152.58952368156
 30
0.0
 11
664150.01075547514
 21
618150.52604698075
 31
0.0
  0
LINE
  5
28F
  8
LEIVA_SOIL_LIMITS
 10
664150.01075547514
 20
618150.52604698075
 30
0.0
 11
664132.33008654148
 21
618148.89814300719
 31
0.0
  0
LINE
  5
290
  8
LEIVA_SOIL_LIMITS
 10
664132.33008654148
 20
618148.89814300719
 30
0.0
 11
664114.21310152416
 21
618147.54995090119
 31
0.0
  0
LINE
  5
291
  8
LEIVA_SOIL_LIMITS
 10
664114.21310152416
 20
618147.54995090119
 30
0.0
 11
664095.34844497265
 21
618146.32560980087
 31
0.0
  0
LINE
  5
292
  8
LEIVA_SOIL_LIMITS
 10
664095.34844497265
 20
618146.32560980087
 30
0.0
 11
664075.42476143572
 21
618145.06925884634
 31
0.0
  0
LINE
  5
293
  8
LEIVA_SOIL_LIMITS
 10
664075.42476143572
 20
618145.06925884634
 30
0.0
 11
664054.13069546374
 21
618143.62503717723
 31
0.0
  0
LINE
  5
294
  8
LEIVA_SOIL_LIMITS
 10
664054.13069546374
 20
618143.62503717723
 30
0.0
 11
664031.15489160561
 21
618141.83708393178
 31
0.0
  0
LINE
  5
295
  8
LEIVA_SOIL_LIMITS
 10
664031.15489160561
 20
618141.83708393178
 30
0.0
 11
664006.3261545049
 21
618139.56002932205
 31
0.0
  0
LINE
  5
296
  8
LEIVA_SOIL_LIMITS
 10
664006.3261545049
 20
618139.56002932205
 30
0.0
 11
663980.03392917209
 21
618136.69046784309
 31
0.0
  0
LINE
  5
297
  8
LEIVA_SOIL_LIMITS
 10
663980.03392917209
 20
618136.69046784309
 30
0.0
 11
663952.80782071513
 21
618133.13548506342
 31
0.0
  0
LINE
  5
298
  8
LEIVA_SOIL_LIMITS
 10
663952.80782071513
 20
618133.13548506342
 30
0.0
 11
663925.17743423616
 21
618128.80216655077
 31
0.0
  0
LINE
  5
299
  8
LEIVA_SOIL_LIMITS
 10
663925.17743423616
 20
618128.80216655077
 30
0.0
 11
663897.67237484222
 21
618123.59759787284
 31
0.0
  0
LINE
  5
29A
  8
LEIVA_SOIL_LIMITS
 10
663897.67237484222
 20
618123.59759787284
 30
0.0
 11
663870.82224763779
 21
618117.42886459664
 31
0.0
  0
LINE
  5
29B
  8
LEIVA_SOIL_LIMITS
 10
663870.82224763779
 20
618117.42886459664
 30
0.0
 11
663845.15665772802
 21
618110.20305229095
 31
0.0
  0
LINE
  5
29C
  8
LEIVA_SOIL_LIMITS
 10
663845.15665772802
 20
618110.20305229095
 30
0.0
 11
663821.20521021925
 21
618101.82724652335
 31
0.0
  0
LINE
  5
29D
  8
LEIVA_SOIL_LIMITS
 10
663821.20521021925
 20
618101.82724652335
 30
0.0
 11
663799.3832592949
 21
618092.25511660241
 31
0.0
  0
LINE
  5
29E
  8
LEIVA_SOIL_LIMITS
 10
663799.3832592949
 20
618092.25511660241
 30
0.0
 11
663779.64915546821
 21
618081.62666680035
 31
0.0
  0
LINE
  5
29F
  8
LEIVA_SOIL_LIMITS
 10
663779.64915546821
 20
618081.62666680035
 30
0.0
 11
663761.84699833009
 21
618070.12848513271
 31
0.0
  0
LINE
  5
2A0
  8
LEIVA_SOIL_LIMITS
 10
663761.84699833009
 20
618070.12848513271
 30
0.0
 11
663745.82088747271
 21
618057.94715961139
 31
0.0
  0
LINE
  5
2A1
  8
LEIVA_SOIL_LIMITS
 10
663745.82088747271
 20
618057.94715961139
 30
0.0
 11
663731.41492248792
 21
618045.26927825087
 31
0.0
  0
LINE
  5
2A2
  8
LEIVA_SOIL_LIMITS
 10
663731.41492248792
 20
618045.26927825087
 30
0.0
 11
663718.47320296755
 21
618032.28142906586
 31
0.0
  0
LINE
  5
2A3
  8
LEIVA_SOIL_LIMITS
 10
663718.47320296755
 20
618032.28142906586
 30
0.0
 11
663706.83982850355
 21
618019.17020006874
 31
0.0
  0
LINE
  5
2A4
  8
LEIVA_SOIL_LIMITS
 10
663706.83982850355
 20
618019.17020006874
 30
0.0
 11
663696.35889868718
 21
618006.12217927468
 31
0.0
  0
LINE
  5
2A5
  8
LEIVA_SOIL_LIMITS
 10
663696.35889868718
 20
618006.12217927468
 30
0.0
 11
663686.84856916755
 21
617993.30837297346
 31
0.0
  0
LINE
  5
2A6
  8
LEIVA_SOIL_LIMITS
 10
663686.84856916755
 20
617993.30837297346
 30
0.0
 11
663678.02321981802
 21
617980.83746056375
 31
0.0
  0
LINE
  5
2A7
  8
LEIVA_SOIL_LIMITS
 10
663678.02321981802
 20
617980.83746056375
 30
0.0
 11
663669.57128656853
 21
617968.8025397216
 31
0.0
  0
LINE
  5
2A8
  8
LEIVA_SOIL_LIMITS
 10
663669.57128656853
 20
617968.8025397216
 30
0.0
 11
663661.18120534695
 21
617957.29670812399
 31
0.0
  0
LINE
  5
2A9
  8
LEIVA_SOIL_LIMITS
 10
663661.18120534695
 20
617957.29670812399
 30
0.0
 11
663652.54141208529
 21
617946.41306344524
 31
0.0
  0
LINE
  5
2AA
  8
LEIVA_SOIL_LIMITS
 10
663652.54141208529
 20
617946.41306344524
 30
0.0
 11
663643.34034271259
 21
617936.24470336153
 31
0.0
  0
LINE
  5
2AB
  8
LEIVA_SOIL_LIMITS
 10
663643.34034271259
 20
617936.24470336153
 30
0.0
 11
663633.26643315773
 21
617926.88472554914
 31
0.0
  0
LINE
  5
2AC
  8
LEIVA_SOIL_LIMITS
 10
663633.26643315773
 20
617926.88472554914
 30
0.0
 11
663622.0081193517
 21
617918.42622768355
 31
0.0
  0
LINE
  5
2AD
  8
LEIVA_SOIL_LIMITS
 10
663622.0081193517
 20
617918.42622768355
 30
0.0
 11
663609.32134753396
 21
617910.93643097719
 31
0.0
  0
LINE
  5
2AE
  8
LEIVA_SOIL_LIMITS
 10
663609.32134753396
 20
617910.93643097719
 30
0.0
 11
663595.23210518598
 21
617904.3790507915
 31
0.0
  0
LINE
  5
2AF
  8
LEIVA_SOIL_LIMITS
 10
663595.23210518598
 20
617904.3790507915
 30
0.0
 11
663579.83389010222
 21
617898.69192602695
 31
0.0
  0
LINE
  5
2B0
  8
LEIVA_SOIL_LIMITS
 10
663579.83389010222
 20
617898.69192602695
 30
0.0
 11
663563.22020007344
 21
617893.8128955781
 31
0.0
  0
LINE
  5
2B1
  8
LEIVA_SOIL_LIMITS
 10
663563.22020007344
 20
617893.8128955781
 30
0.0
 11
663545.48453289259
 21
617889.67979834625
 31
0.0
  0
LINE
  5
2B2
  8
LEIVA_SOIL_LIMITS
 10
663545.48453289259
 20
617889.67979834625
 30
0.0
 11
663526.72038635169
 21
617886.2304732285
 31
0.0
  0
LINE
  5
2B3
  8
LEIVA_SOIL_LIMITS
 10
663526.72038635169
 20
617886.2304732285
 30
0.0
 11
663507.02125824429
 21
617883.40275912452
 31
0.0
  0
LINE
  5
2B4
  8
LEIVA_SOIL_LIMITS
 10
663507.02125824429
 20
617883.40275912452
 30
0.0
 11
663486.48064636311
 21
617881.13449493202
 31
0.0
  0
LINE
  5
2B5
  8
LEIVA_SOIL_LIMITS
 10
663486.48064636311
 20
617881.13449493202
 30
0.0
 11
663465.15317167528
 21
617879.29346723831
 31
0.0
  0
LINE
  5
2B6
  8
LEIVA_SOIL_LIMITS
 10
663465.15317167528
 20
617879.29346723831
 30
0.0
 11
663442.93794784893
 21
617877.46725339303
 31
0.0
  0
LINE
  5
2B7
  8
LEIVA_SOIL_LIMITS
 10
663442.93794784893
 20
617877.46725339303
 30
0.0
 11
663419.69521173218
 21
617875.1733784317
 31
0.0
  0
LINE
  5
2B8
  8
LEIVA_SOIL_LIMITS
 10
663419.69521173218
 20
617875.1733784317
 30
0.0
 11
663395.28520016745
 21
617871.9293673943
 31
0.0
  0
LINE
  5
2B9
  8
LEIVA_SOIL_LIMITS
 10
663395.28520016745
 20
617871.9293673943
 30
0.0
 11
663369.56815000135
 21
617867.2527453166
 31
0.0
  0
LINE
  5
2BA
  8
LEIVA_SOIL_LIMITS
 10
663369.56815000135
 20
617867.2527453166
 30
0.0
 11
663342.40429807745
 21
617860.66103723785
 31
0.0
  0
LINE
  5
2BB
  8
LEIVA_SOIL_LIMITS
 10
663342.40429807745
 20
617860.66103723785
 30
0.0
 11
663313.65388124145
 21
617851.67176819535
 31
0.0
  0
LINE
  5
2BC
  8
LEIVA_SOIL_LIMITS
 10
663313.65388124145
 20
617851.67176819535
 30
0.0
 11
663283.17713633843
 21
617839.80246322649
 31
0.0
  0
LINE
  5
2BD
  8
LEIVA_SOIL_LIMITS
 10
663283.17713633843
 20
617839.80246322649
 30
0.0
 11
663251.39076059568
 21
617824.54102404113
 31
0.0
  0
LINE
  5
2BE
  8
LEIVA_SOIL_LIMITS
 10
663251.39076059568
 20
617824.54102404113
 30
0.0
 11
663220.93729277165
 21
617805.25685904222
 31
0.0
  0
LINE
  5
2BF
  8
LEIVA_SOIL_LIMITS
 10
663220.93729277165
 20
617805.25685904222
 30
0.0
 11
663195.01573201222
 21
617781.28975330375
 31
0.0
  0
LINE
  5
2C0
  8
LEIVA_SOIL_LIMITS
 10
663195.01573201222
 20
617781.28975330375
 30
0.0
 11
663176.82507745689
 21
617751.97949189972
 31
0.0
  0
LINE
  5
2C1
  8
LEIVA_SOIL_LIMITS
 10
663176.82507745689
 20
617751.97949189972
 30
0.0
 11
663169.56432824896
 21
617716.66585990391
 31
0.0
  0
LINE
  5
2C2
  8
LEIVA_SOIL_LIMITS
 10
663169.56432824896
 20
617716.66585990391
 30
0.0
 11
663176.4324835313
 21
617674.6886423924
 31
0.0
  0
LINE
  5
2C3
  8
LEIVA_SOIL_LIMITS
 10
663176.4324835313
 20
617674.6886423924
 30
0.0
 11
663200.62854244641
 21
617625.38762443815
 31
0.0
  0
LINE
  5
2C4
  8
LEIVA_SOIL_LIMITS
 10
663200.62854244641
 20
617625.38762443815
 30
0.0
 11
663245.35150413588
 21
617568.10259111575
 31
0.0
  0
LINE
  5
2C5
  8
LEIVA_SOIL_LIMITS
 10
660054.18602997996
 20
623280.99186871899
 30
0.0
 11
660318.36800965865
 21
623184.00365467276
 31
0.0
  0
LINE
  5
2C6
  8
LEIVA_SOIL_LIMITS
 10
660318.36800965865
 20
623184.00365467276
 30
0.0
 11
660394.91410882876
 21
623138.20584767987
 31
0.0
  0
LINE
  5
2C7
  8
LEIVA_SOIL_LIMITS
 10
661584.16558201658
 20
621918.65335280087
 30
0.0
 11
661595.98624191561
 21
621836.47805052635
 31
0.0
  0
LINE
  5
2C8
  8
LEIVA_SOIL_LIMITS
 10
661595.98624191561
 20
621836.47805052635
 30
0.0
 11
661478.76843700919
 21
621645.81658975314
 31
0.0
  0
LINE
  5
2C9
  8
LEIVA_SOIL_LIMITS
 10
661478.76843700919
 20
621645.81658975314
 30
0.0
 11
661537.70380035788
 21
621352.69235662743
 31
0.0
  0
LINE
  5
2CA
  8
LEIVA_SOIL_LIMITS
 10
661537.70380035788
 20
621352.69235662743
 30
0.0
 11
661772.57050726016
 21
621220.96153523517
 31
0.0
  0
LINE
  5
2CB
  8
LEIVA_SOIL_LIMITS
 10
661772.57050726016
 20
621220.96153523517
 30
0.0
 11
661992.60479966458
 21
621279.78119847528
 31
0.0
  0
LINE
  5
2CC
  8
LEIVA_SOIL_LIMITS
 10
661992.60479966458
 20
621279.78119847528
 30
0.0
 11
662256.53269084322
 21
621485.22467200994
 31
0.0
  0
LINE
  5
2CD
  8
LEIVA_SOIL_LIMITS
 10
662256.53269084322
 20
621485.22467200994
 30
0.0
 11
662285.66771314025
 21
621734.44685178087
 31
0.0
  0
LINE
  5
2CE
  8
LEIVA_SOIL_LIMITS
 10
662285.66771314025
 20
621734.44685178087
 30
0.0
 11
662366.28578498447
 21
621976.75563198677
 31
0.0
  0
LINE
  5
2CF
  8
LEIVA_SOIL_LIMITS
 10
660394.91410882957
 20
623138.20584767987
 30
0.0
 11
660475.96983298252
 21
623142.77312111645
 31
0.0
  0
LINE
  5
2D0
  8
LEIVA_SOIL_LIMITS
 10
660475.96983298252
 20
623142.77312111645
 30
0.0
 11
660659.70211063523
 21
623130.69069368904
 31
0.0
  0
LINE
  5
2D1
  8
LEIVA_SOIL_LIMITS
 10
660659.70211063523
 20
623130.69069368904
 30
0.0
 11
660904.67494923528
 21
623118.65977363673
 31
0.0
  0
LINE
  5
2D2
  8
LEIVA_SOIL_LIMITS
 10
660904.67494923528
 20
623118.65977363673
 30
0.0
 11
661039.40440093575
 21
623118.77300142776
 31
0.0
  0
LINE
  5
2D3
  8
LEIVA_SOIL_LIMITS
 10
661039.40440093575
 20
623118.77300142776
 30
0.0
 11
661284.40816900285
 21
623070.03163480456
 31
0.0
  0
LINE
  5
2D4
  8
LEIVA_SOIL_LIMITS
 10
661284.40816900285
 20
623070.03163480456
 30
0.0
 11
661382.48573063617
 21
622959.98268261738
 31
0.0
  0
LINE
  5
2D5
  8
LEIVA_SOIL_LIMITS
 10
661382.48573063617
 20
622959.98268261738
 30
0.0
 11
661492.77033094177
 21
622898.89125923032
 31
0.0
  0
LINE
  5
2D6
  8
LEIVA_SOIL_LIMITS
 10
661492.77033094177
 20
622898.89125923032
 30
0.0
 11
661566.35169922456
 21
622788.82176051114
 31
0.0
  0
LINE
  5
2D7
  8
LEIVA_SOIL_LIMITS
 10
661566.35169922456
 20
622788.82176051114
 30
0.0
 11
661615.46757058206
 21
622642.02122821414
 31
0.0
  0
LINE
  5
2D8
  8
LEIVA_SOIL_LIMITS
 10
661615.46757058206
 20
622642.02122821414
 30
0.0
 11
661627.82886806375
 21
622507.42660439014
 31
0.0
  0
LINE
  5
2D9
  8
LEIVA_SOIL_LIMITS
 10
661627.82886806375
 20
622507.42660439014
 30
0.0
 11
661591.23875920719
 21
622323.84357148479
 31
0.0
  0
LINE
  5
2DA
  8
LEIVA_SOIL_LIMITS
 10
661591.23875920719
 20
622323.84357148479
 30
0.0
 11
661591.37245017791
 21
622164.76503652544
 31
0.0
  0
LINE
  5
2DB
  8
LEIVA_SOIL_LIMITS
 10
661591.37245017791
 20
622164.76503652544
 30
0.0
 11
661615.92006307363
 21
622103.60159931658
 31
0.0
  0
LINE
  5
2DC
  8
LEIVA_SOIL_LIMITS
 10
661615.92006307363
 20
622103.60159931658
 30
0.0
 11
661628.24022487714
 21
622017.95421082235
 31
0.0
  0
LINE
  5
2DD
  8
LEIVA_SOIL_LIMITS
 10
661628.24022487714
 20
622017.95421082235
 30
0.0
 11
661584.16558201541
 21
621918.65335280087
 31
0.0
  0
LINE
  5
2DE
  8
LEIVA_SOIL_LIMITS
 10
657254.82192764618
 20
626983.01564696198
 30
0.0
 11
657200.05347960792
 21
626807.4007574576
 31
0.0
  0
LINE
  5
2DF
  8
LEIVA_SOIL_LIMITS
 10
657200.05347960792
 20
626807.4007574576
 30
0.0
 11
657075.0729545264
 21
626744.83693373902
 31
0.0
  0
LINE
  5
2E0
  8
LEIVA_SOIL_LIMITS
 10
657075.0729545264
 20
626744.83693373902
 30
0.0
 11
656965.70843367954
 21
626697.90098144836
 31
0.0
  0
LINE
  5
2E1
  8
LEIVA_SOIL_LIMITS
 10
656965.70843367954
 20
626697.90098144836
 30
0.0
 11
656871.99928527744
 21
626619.74877142254
 31
0.0
  0
LINE
  5
2E2
  8
LEIVA_SOIL_LIMITS
 10
656871.99928527744
 20
626619.74877142254
 30
0.0
 11
656809.53534582979
 21
626557.23752746149
 31
0.0
  0
LINE
  5
2E3
  8
LEIVA_SOIL_LIMITS
 10
656809.53534582979
 20
626557.23752746149
 30
0.0
 11
656731.52093797876
 21
626401.02505137958
 31
0.0
  0
LINE
  5
2E4
  8
LEIVA_SOIL_LIMITS
 10
656731.52093797876
 20
626401.02505137958
 30
0.0
 11
656731.61279695353
 21
626291.72229816439
 31
0.0
  0
LINE
  5
2E5
  8
LEIVA_SOIL_LIMITS
 10
656731.61279695353
 20
626291.72229816439
 30
0.0
 11
656700.42015652533
 21
626213.6226275505
 31
0.0
  0
LINE
  5
2E6
  8
LEIVA_SOIL_LIMITS
 10
656700.42015652533
 20
626213.6226275505
 30
0.0
 11
656606.81598978885
 21
626010.55300829397
 31
0.0
  0
LINE
  5
2E7
  8
LEIVA_SOIL_LIMITS
 10
656606.81598978885
 20
626010.55300829397
 30
0.0
 11
656544.41758620541
 21
625869.96836335841
 31
0.0
  0
LINE
  5
2E8
  8
LEIVA_SOIL_LIMITS
 10
656544.41758620541
 20
625869.96836335841
 30
0.0
 11
656528.82782735408
 21
625823.11117990513
 31
0.0
  0
LINE
  5
2E9
  8
LEIVA_SOIL_LIMITS
 10
656528.82782735408
 20
625823.11117990513
 30
0.0
 11
656435.0924335015
 21
625776.18836246617
 31
0.0
  0
LINE
  5
2EA
  8
LEIVA_SOIL_LIMITS
 10
656435.0924335015
 20
625776.18836246617
 30
0.0
 11
656247.63484624738
 21
625666.72799108108
 31
0.0
  0
LINE
  5
2EB
  8
LEIVA_SOIL_LIMITS
 10
656247.63484624738
 20
625666.72799108108
 30
0.0
 11
656122.69368927483
 21
625557.32015904202
 31
0.0
  0
LINE
  5
2EC
  8
LEIVA_SOIL_LIMITS
 10
656122.69368927483
 20
625557.32015904202
 30
0.0
 11
656013.34229118726
 21
625494.76947017806
 31
0.0
  0
LINE
  5
2ED
  8
LEIVA_SOIL_LIMITS
 10
656013.34229118726
 20
625494.76947017806
 30
0.0
 11
655950.93076487945
 21
625369.7995215361
 31
0.0
  0
LINE
  5
2EE
  8
LEIVA_SOIL_LIMITS
 10
655950.93076487945
 20
625369.7995215361
 30
0.0
 11
656122.89052994945
 21
625323.09995631722
 31
0.0
  0
LINE
  5
2EF
  8
LEIVA_SOIL_LIMITS
 10
656122.89052994945
 20
625323.09995631722
 30
0.0
 11
656247.93666858843
 21
625307.59037912625
 31
0.0
  0
LINE
  5
2F0
  8
LEIVA_SOIL_LIMITS
 10
656247.93666858843
 20
625307.59037912625
 30
0.0
 11
656341.82953497395
 21
625167.13704244106
 31
0.0
  0
LINE
  5
2F1
  8
LEIVA_SOIL_LIMITS
 10
656341.82953497395
 20
625167.13704244106
 30
0.0
 11
656357.52427549218
 21
625089.07681666478
 31
0.0
  0
LINE
  5
2F2
  8
LEIVA_SOIL_LIMITS
 10
656357.52427549218
 20
625089.07681666478
 30
0.0
 11
656232.54375041113
 21
625026.51299294655
 31
0.0
  0
LINE
  5
2F3
  8
LEIVA_SOIL_LIMITS
 10
656232.54375041113
 20
625026.51299294655
 30
0.0
 11
656091.89473016222
 21
625010.78012325708
 31
0.0
  0
LINE
  5
2F4
  8
LEIVA_SOIL_LIMITS
 10
656091.89473016222
 20
625010.78012325708
 30
0.0
 11
655966.88795963034
 21
624979.44569212676
 31
0.0
  0
LINE
  5
2F5
  8
LEIVA_SOIL_LIMITS
 10
655966.88795963034
 20
624979.44569212676
 30
0.0
 11
655920.01370137581
 21
624963.79159127385
 31
0.0
  0
LINE
  5
2F6
  8
LEIVA_SOIL_LIMITS
 10
655920.01370137581
 20
624963.79159127385
 30
0.0
 11
655841.88126679254
 21
624948.11126106104
 31
0.0
  0
LINE
  5
2F7
  8
LEIVA_SOIL_LIMITS
 10
655841.88126679254
 20
624948.11126106104
 30
0.0
 11
655716.87449629453
 21
624916.77678965172
 31
0.0
  0
LINE
  5
2F8
  8
LEIVA_SOIL_LIMITS
 10
655716.87449629453
 20
624916.77678965172
 30
0.0
 11
655607.49685275741
 21
624885.45549337345
 31
0.0
  0
LINE
  5
2F9
  8
LEIVA_SOIL_LIMITS
 10
655607.49685275741
 20
624885.45549337345
 30
0.0
 11
655545.0197128905
 21
624838.55894563999
 31
0.0
  0
LINE
  5
2FA
  8
LEIVA_SOIL_LIMITS
 10
655545.0197128905
 20
624838.55894563999
 30
0.0
 11
655560.75382158475
 21
624713.65463098371
 31
0.0
  0
LINE
  5
2FB
  8
LEIVA_SOIL_LIMITS
 10
655560.75382158475
 20
624713.65463098371
 30
0.0
 11
655592.10393454647
 21
624604.37814747379
 31
0.0
  0
LINE
  5
2FC
  8
LEIVA_SOIL_LIMITS
 10
655592.10393454647
 20
624604.37814747379
 30
0.0
 11
655639.05692908517
 21
624526.34415112389
 31
0.0
  0
LINE
  5
2FD
  8
LEIVA_SOIL_LIMITS
 10
655639.05692908517
 20
624526.34415112389
 30
0.0
 11
655717.25505488517
 21
624463.9511207738
 31
0.0
  0
LINE
  5
2FE
  8
LEIVA_SOIL_LIMITS
 10
655717.25505488517
 20
624463.9511207738
 30
0.0
 11
655732.93667271174
 21
624401.50555101153
 31
0.0
  0
LINE
  5
2FF
  8
LEIVA_SOIL_LIMITS
 10
655732.93667271174
 20
624401.50555101153
 30
0.0
 11
655670.51202371321
 21
624292.15025838395
 31
0.0
  0
LINE
  5
300
  8
LEIVA_SOIL_LIMITS
 10
655670.51202371321
 20
624292.15025838395
 30
0.0
 11
655576.77662989323
 21
624245.22740066517
 31
0.0
  0
LINE
  5
301
  8
LEIVA_SOIL_LIMITS
 10
655576.77662989323
 20
624245.22740066517
 30
0.0
 11
655451.87484102871
 21
624088.97556030471
 31
0.0
  0
LINE
  5
302
  8
LEIVA_SOIL_LIMITS
 10
655451.87484102871
 20
624088.97556030471
 30
0.0
 11
655436.36381846084
 21
623948.43027964956
 31
0.0
  0
LINE
  5
303
  8
LEIVA_SOIL_LIMITS
 10
655436.36381846084
 20
623948.43027964956
 30
0.0
 11
655420.81342771614
 21
623854.72908787383
 31
0.0
  0
LINE
  5
304
  8
LEIVA_SOIL_LIMITS
 10
655420.81342771614
 20
623854.72908787383
 30
0.0
 11
655342.7334840002
 21
623776.59001276654
 31
0.0
  0
LINE
  5
305
  8
LEIVA_SOIL_LIMITS
 10
655342.7334840002
 20
623776.59001276654
 30
0.0
 11
655280.30883500085
 21
623667.23472013907
 31
0.0
  0
LINE
  5
306
  8
LEIVA_SOIL_LIMITS
 10
655280.30883500085
 20
623667.23472013907
 30
0.0
 11
655217.88418600254
 21
623557.87942751125
 31
0.0
  0
LINE
  5
307
  8
LEIVA_SOIL_LIMITS
 10
655217.88418600254
 20
623557.87942751125
 30
0.0
 11
655186.74403640698
 21
623417.32105228282
 31
0.0
  0
LINE
  5
308
  8
LEIVA_SOIL_LIMITS
 10
655186.74403640698
 20
623417.32105228282
 30
0.0
 11
655046.18687513168
 21
623292.28542937618
 31
0.0
  0
LINE
  5
309
  8
LEIVA_SOIL_LIMITS
 10
655046.18687513168
 20
623292.28542937618
 30
0.0
 11
654905.65595930698
 21
623136.0204138835
 31
0.0
  0
LINE
  5
30A
  8
LEIVA_SOIL_LIMITS
 10
654905.65595930698
 20
623136.0204138835
 30
0.0
 11
654827.57601559046
 21
623057.88133877586
 31
0.0
  0
LINE
  5
30B
  8
LEIVA_SOIL_LIMITS
 10
654827.57601559046
 20
623057.88133877586
 30
0.0
 11
654686.99260889867
 21
622964.07506817719
 31
0.0
  0
LINE
  5
30C
  8
LEIVA_SOIL_LIMITS
 10
654686.99260889867
 20
622964.07506817719
 30
0.0
 11
654515.13782552897
 21
622885.85718388716
 31
0.0
  0
LINE
  5
30D
  8
LEIVA_SOIL_LIMITS
 10
654515.13782552897
 20
622885.85718388716
 30
0.0
 11
654265.11123946833
 21
622838.80297770514
 31
0.0
  0
LINE
  5
30E
  8
LEIVA_SOIL_LIMITS
 10
654265.11123946833
 20
622838.80297770514
 30
0.0
 11
654093.28270151489
 21
622729.3557411083
 31
0.0
  0
LINE
  5
30F
  8
LEIVA_SOIL_LIMITS
 10
654093.28270151489
 20
622729.3557411083
 30
0.0
 11
653905.82503653504
 21
622619.89540993678
 31
0.0
  0
LINE
  5
310
  8
LEIVA_SOIL_LIMITS
 10
653905.82503653504
 20
622619.89540993678
 30
0.0
 11
653796.47371614014
 21
622557.34472113766
 31
0.0
  0
LINE
  5
311
  8
LEIVA_SOIL_LIMITS
 10
653796.47371614014
 20
622557.34472113766
 30
0.0
 11
653655.90343217365
 21
622447.92375424597
 31
0.0
  0
LINE
  5
312
  8
LEIVA_SOIL_LIMITS
 10
653655.90343217365
 20
622447.92375424597
 30
0.0
 11
653499.70402121427
 21
622338.48965250084
 31
0.0
  0
LINE
  5
313
  8
LEIVA_SOIL_LIMITS
 10
653499.70402121427
 20
622338.48965250084
 30
0.0
 11
653374.77598693175
 21
622213.46716444823
 31
0.0
  0
LINE
  5
314
  8
LEIVA_SOIL_LIMITS
 10
653374.77598693175
 20
622213.46716444823
 30
0.0
 11
653296.69604321523
 21
622135.32808934106
 31
0.0
  0
LINE
  5
315
  8
LEIVA_SOIL_LIMITS
 10
653296.69604321523
 20
622135.32808934106
 30
0.0
 11
653124.89375067991
 21
621994.65150043578
 31
0.0
  0
LINE
  5
316
  8
LEIVA_SOIL_LIMITS
 10
653124.89375067991
 20
621994.65150043578
 30
0.0
 11
653015.55547528365
 21
621916.48615555698
 31
0.0
  0
LINE
  5
317
  8
LEIVA_SOIL_LIMITS
 10
653015.55547528365
 20
621916.48615555698
 30
0.0
 11
652906.21719988773
 21
621838.32081067795
 31
0.0
  0
LINE
  5
318
  8
LEIVA_SOIL_LIMITS
 10
652906.21719988773
 20
621838.32081067795
 30
0.0
 11
652816.6578580495
 21
621796.93262755789
 31
0.0
  0
LINE
  5
319
  8
LEIVA_SOIL_LIMITS
 10
657446.63591776195
 20
627157.78683278966
 30
0.0
 11
657542.68754180055
 21
627180.7204267357
 31
0.0
  0
LINE
  5
31A
  8
LEIVA_SOIL_LIMITS
 10
657542.68754180055
 20
627180.7204267357
 30
0.0
 11
657847.41309503838
 21
627117.56178100395
 31
0.0
  0
LINE
  5
31B
  8
LEIVA_SOIL_LIMITS
 10
657847.41309503838
 20
627117.56178100395
 30
0.0
 11
658063.2545333663
 21
627079.69429995865
 31
0.0
  0
LINE
  5
31C
  8
LEIVA_SOIL_LIMITS
 10
658063.2545333663
 20
627079.69429995865
 30
0.0
 11
658152.15988832654
 21
627029.03720890498
 31
0.0
  0
LINE
  5
31D
  8
LEIVA_SOIL_LIMITS
 10
658152.15988832654
 20
627029.03720890498
 30
0.0
 11
658279.17066134978
 21
626953.04623803298
 31
0.0
  0
LINE
  5
31E
  8
LEIVA_SOIL_LIMITS
 10
658279.17066134978
 20
626953.04623803298
 30
0.0
 11
658393.47602359043
 21
626889.72756153403
 31
0.0
  0
LINE
  5
31F
  8
LEIVA_SOIL_LIMITS
 10
658393.47602359043
 20
626889.72756153403
 30
0.0
 11
658457.03466552752
 21
626788.31736100628
 31
0.0
  0
LINE
  5
320
  8
LEIVA_SOIL_LIMITS
 10
658457.03466552752
 20
626788.31736100628
 30
0.0
 11
658482.54126138496
 21
626648.8263051603
 31
0.0
  0
LINE
  5
321
  8
LEIVA_SOIL_LIMITS
 10
658482.54126138496
 20
626648.8263051603
 30
0.0
 11
658495.29988873308
 21
626572.73931580188
 31
0.0
  0
LINE
  5
322
  8
LEIVA_SOIL_LIMITS
 10
658495.29988873308
 20
626572.73931580188
 30
0.0
 11
658444.65975697653
 21
626407.81836165173
 31
0.0
  0
LINE
  5
323
  8
LEIVA_SOIL_LIMITS
 10
658444.65975697653
 20
626407.81836165173
 30
0.0
 11
658495.60899553052
 21
626204.93394831289
 31
0.0
  0
LINE
  5
324
  8
LEIVA_SOIL_LIMITS
 10
658495.60899553052
 20
626204.93394831289
 30
0.0
 11
658533.75697131886
 21
626128.86829638132
 31
0.0
  0
LINE
  5
325
  8
LEIVA_SOIL_LIMITS
 10
658533.75697131886
 20
626128.86829638132
 30
0.0
 11
658610.0636594242
 21
625964.05406971043
 31
0.0
  0
LINE
  5
326
  8
LEIVA_SOIL_LIMITS
 10
658610.0636594242
 20
625964.05406971043
 30
0.0
 11
658648.25427063135
 21
625837.25664573093
 31
0.0
  0
LINE
  5
327
  8
LEIVA_SOIL_LIMITS
 10
658648.25427063135
 20
625837.25664573093
 30
0.0
 11
658686.42356412881
 21
625735.8251077754
 31
0.0
  0
LINE
  5
328
  8
LEIVA_SOIL_LIMITS
 10
658686.42356412881
 20
625735.8251077754
 30
0.0
 11
658711.9301599852
 21
625596.33405193081
 31
0.0
  0
LINE
  5
329
  8
LEIVA_SOIL_LIMITS
 10
658711.9301599852
 20
625596.33405193081
 30
0.0
 11
658610.50067247543
 21
625444.05338607798
 31
0.0
  0
LINE
  5
32A
  8
LEIVA_SOIL_LIMITS
 10
658610.50067247543
 20
625444.05338607798
 30
0.0
 11
658559.82848644664
 21
625317.18128103775
 31
0.0
  0
LINE
  5
32B
  8
LEIVA_SOIL_LIMITS
 10
658559.82848644664
 20
625317.18128103775
 30
0.0
 11
658585.31384225446
 21
625203.05615156214
 31
0.0
  0
LINE
  5
32C
  8
LEIVA_SOIL_LIMITS
 10
658585.31384225446
 20
625203.05615156214
 30
0.0
 11
658598.1364227283
 21
625050.87150413007
 31
0.0
  0
LINE
  5
32D
  8
LEIVA_SOIL_LIMITS
 10
658598.1364227283
 20
625050.87150413007
 30
0.0
 11
658547.4962132792
 21
624885.95054991497
 31
0.0
  0
LINE
  5
32E
  8
LEIVA_SOIL_LIMITS
 10
658547.4962132792
 20
624885.95054991497
 30
0.0
 11
658509.49746145401
 21
624784.45499967854
 31
0.0
  0
LINE
  5
32F
  8
LEIVA_SOIL_LIMITS
 10
658509.49746145401
 20
624784.45499967854
 30
0.0
 11
658446.18397315242
 21
624594.15753107006
 31
0.0
  0
LINE
  5
330
  8
LEIVA_SOIL_LIMITS
 10
658446.18397315242
 20
624594.15753107006
 30
0.0
 11
658408.19588019839
 21
624479.97901768226
 31
0.0
  0
LINE
  5
331
  8
LEIVA_SOIL_LIMITS
 10
658408.19588019839
 20
624479.97901768226
 30
0.0
 11
658497.1758471583
 21
624340.54130540381
 31
0.0
  0
LINE
  5
332
  8
LEIVA_SOIL_LIMITS
 10
658497.1758471583
 20
624340.54130540381
 30
0.0
 11
658712.99604543485
 21
624328.03975072701
 31
0.0
  0
LINE
  5
333
  8
LEIVA_SOIL_LIMITS
 10
658712.99604543485
 20
624328.03975072701
 30
0.0
 11
658878.01615146315
 21
624340.86136687407
 31
0.0
  0
LINE
  5
334
  8
LEIVA_SOIL_LIMITS
 10
658878.01615146315
 20
624340.86136687407
 30
0.0
 11
659030.29902551067
 21
624404.40412670118
 31
0.0
  0
LINE
  5
335
  8
LEIVA_SOIL_LIMITS
 10
659030.29902551067
 20
624404.40412670118
 30
0.0
 11
659030.29902551067
 21
624404.40412670118
 31
0.0
  0
LINE
  5
336
  8
LEIVA_SOIL_LIMITS
 10
659030.29902551067
 20
624404.40412670118
 30
0.0
 11
659119.16174505395
 21
624404.47880769568
 31
0.0
  0
LINE
  5
337
  8
LEIVA_SOIL_LIMITS
 10
659119.16174505395
 20
624404.47880769568
 30
0.0
 11
659322.25521487184
 21
624430.01539313677
 31
0.0
  0
LINE
  5
338
  8
LEIVA_SOIL_LIMITS
 10
659322.25521487184
 20
624430.01539313677
 30
0.0
 11
659499.97007277876
 21
624442.84771834267
 31
0.0
  0
LINE
  5
339
  8
LEIVA_SOIL_LIMITS
 10
659499.97007277876
 20
624442.84771834267
 30
0.0
 11
659791.89436328551
 21
624506.50779373874
 31
0.0
  0
LINE
  5
33A
  8
LEIVA_SOIL_LIMITS
 10
659791.89436328551
 20
624506.50779373874
 30
0.0
 11
659944.16650080285
 21
624582.73347637337
 31
0.0
  0
LINE
  5
33B
  8
LEIVA_SOIL_LIMITS
 10
659944.16650080285
 20
624582.73347637337
 30
0.0
 11
660286.90146473784
 21
624608.38741772738
 31
0.0
  0
LINE
  5
33C
  8
LEIVA_SOIL_LIMITS
 10
660286.90146473784
 20
624608.38741772738
 30
0.0
 11
660363.09082776913
 21
624583.08554398443
 31
0.0
  0
LINE
  5
33D
  8
LEIVA_SOIL_LIMITS
 10
660363.09082776913
 20
624583.08554398443
 30
0.0
 11
660553.52159991371
 21
624570.56265181419
 31
0.0
  0
LINE
  5
33E
  8
LEIVA_SOIL_LIMITS
 10
660553.52159991371
 20
624570.56265181419
 30
0.0
 11
660705.88974483102
 21
624532.6418272662
 31
0.0
  0
LINE
  5
33F
  8
LEIVA_SOIL_LIMITS
 10
660705.88974483102
 20
624532.6418272662
 30
0.0
 11
660845.56313780206
 21
624494.71037421771
 31
0.0
  0
LINE
  5
340
  8
LEIVA_SOIL_LIMITS
 10
660845.56313780206
 20
624494.71037421771
 30
0.0
 11
661010.60463923099
 21
624482.16610440775
 31
0.0
  0
LINE
  5
341
  8
LEIVA_SOIL_LIMITS
 10
661010.60463923099
 20
624482.16610440775
 30
0.0
 11
661137.61533456296
 21
624406.17513346963
 31
0.0
  0
LINE
  5
342
  8
LEIVA_SOIL_LIMITS
 10
661137.61533456296
 20
624406.17513346963
 30
0.0
 11
661289.99406062555
 21
624355.57138598454
 31
0.0
  0
LINE
  5
343
  8
LEIVA_SOIL_LIMITS
 10
661289.99406062555
 20
624355.57138598454
 30
0.0
 11
661378.85685786139
 21
624355.64606704435
 31
0.0
  0
LINE
  5
344
  8
LEIVA_SOIL_LIMITS
 10
661378.85685786139
 20
624355.64606704435
 30
0.0
 11
661543.8876227272
 21
624355.78476031986
 31
0.0
  0
LINE
  5
345
  8
LEIVA_SOIL_LIMITS
 10
661543.8876227272
 20
624355.78476031986
 30
0.0
 11
661734.36103032227
 21
624292.53005582187
 31
0.0
  0
LINE
  5
346
  8
LEIVA_SOIL_LIMITS
 10
661734.36103032227
 20
624292.53005582187
 30
0.0
 11
661823.30909839424
 21
624191.14119278546
 31
0.0
  0
LINE
  5
347
  8
LEIVA_SOIL_LIMITS
 10
661823.30909839424
 20
624191.14119278546
 30
0.0
 11
661975.70914216572
 21
624115.17155927559
 31
0.0
  0
LINE
  5
348
  8
LEIVA_SOIL_LIMITS
 10
661975.70914216572
 20
624115.17155927559
 30
0.0
 11
662216.97198317351
 21
624039.27660682541
 31
0.0
  0
LINE
  5
349
  8
LEIVA_SOIL_LIMITS
 10
662216.97198317351
 20
624039.27660682541
 30
0.0
 11
662283.59773808555
 21
624018.03776674625
 31
0.0
  0
LINE
  5
34A
  8
LEIVA_SOIL_LIMITS
 10
660838.05264295009
 20
627766.90567054925
 30
0.0
 11
660766.80499082035
 21
627576.6015340013
 31
0.0
  0
LINE
  5
34B
  8
LEIVA_SOIL_LIMITS
 10
660766.80499082035
 20
627576.6015340013
 30
0.0
 11
660779.74481871084
 21
627284.90449329792
 31
0.0
  0
LINE
  5
34C
  8
LEIVA_SOIL_LIMITS
 10
660779.74481871084
 20
627284.90449329792
 30
0.0
 11
660779.92601922015
 21
627069.2944822337
 31
0.0
  0
LINE
  5
34D
  8
LEIVA_SOIL_LIMITS
 10
660779.92601922015
 20
627069.2944822337
 30
0.0
 11
660843.56993199419
 21
626866.4207376088
 31
0.0
  0
LINE
  5
34E
  8
LEIVA_SOIL_LIMITS
 10
660843.56993199419
 20
626866.4207376088
 30
0.0
 11
661059.50737768854
 21
626714.40678965813
 31
0.0
  0
LINE
  5
34F
  8
LEIVA_SOIL_LIMITS
 10
661059.50737768854
 20
626714.40678965813
 30
0.0
 11
661173.84471650817
 21
626613.03926398349
 31
0.0
  0
LINE
  5
350
  8
LEIVA_SOIL_LIMITS
 10
661173.84471650817
 20
626613.03926398349
 30
0.0
 11
661173.96196392458
 21
626473.52687071206
 31
0.0
  0
LINE
  5
351
  8
LEIVA_SOIL_LIMITS
 10
661173.96196392458
 20
626473.52687071206
 30
0.0
 11
661110.58452252951
 21
626359.32701989624
 31
0.0
  0
LINE
  5
352
  8
LEIVA_SOIL_LIMITS
 10
661110.58452252951
 20
626359.32701989624
 30
0.0
 11
661224.94317905838
 21
626232.59360819776
 31
0.0
  0
LINE
  5
353
  8
LEIVA_SOIL_LIMITS
 10
661224.94317905838
 20
626232.59360819776
 30
0.0
 11
661440.84864817176
 21
626118.62850942346
 31
0.0
  0
LINE
  5
354
  8
LEIVA_SOIL_LIMITS
 10
661440.84864817176
 20
626118.62850942346
 30
0.0
 11
661529.79663855012
 21
626017.23964632186
 31
0.0
  0
LINE
  5
355
  8
LEIVA_SOIL_LIMITS
 10
661529.79663855012
 20
626017.23964632186
 30
0.0
 11
661479.14584792242
 21
625865.00165532355
 31
0.0
  0
LINE
  5
356
  8
LEIVA_SOIL_LIMITS
 10
661479.14584792242
 20
625865.00165532355
 30
0.0
 11
661314.18961736362
 21
625776.08234075923
 31
0.0
  0
LINE
  5
357
  8
LEIVA_SOIL_LIMITS
 10
661314.18961736362
 20
625776.08234075923
 30
0.0
 11
661060.33876837324
 21
625725.13719444117
 31
0.0
  0
LINE
  5
358
  8
LEIVA_SOIL_LIMITS
 10
661060.33876837324
 20
625725.13719444117
 30
0.0
 11
660895.40385548875
 21
625610.85203413141
 31
0.0
  0
LINE
  5
359
  8
LEIVA_SOIL_LIMITS
 10
660895.40385548875
 20
625610.85203413141
 30
0.0
 11
660793.98502685083
 21
625445.88840512722
 31
0.0
  0
LINE
  5
35A
  8
LEIVA_SOIL_LIMITS
 10
660793.98502685083
 20
625445.88840512722
 30
0.0
 11
660705.31416668836
 21
625217.52074991562
 31
0.0
  0
LINE
  5
35B
  8
LEIVA_SOIL_LIMITS
 10
660705.31416668836
 20
625217.52074991562
 30
0.0
 11
660756.22076982434
 21
625065.36810862552
 31
0.0
  0
LINE
  5
35C
  8
LEIVA_SOIL_LIMITS
 10
660756.22076982434
 20
625065.36810862552
 30
0.0
 11
660743.78190811118
 21
624760.96680762316
 31
0.0
  0
LINE
  5
35D
  8
LEIVA_SOIL_LIMITS
 10
660743.78190811118
 20
624760.96680762316
 30
0.0
 11
660705.825791704
 21
624608.73948533833
 31
0.0
  0
LINE
  5
35E
  8
LEIVA_SOIL_LIMITS
 10
660705.825791704
 20
624608.73948533833
 30
0.0
 11
660657.77351322747
 21
624544.61681834818
 31
0.0
  0
LINE
  5
35F
  8
LEIVA_SOIL_LIMITS
 10
661577.90799894673
 20
627905.05960395932
 30
0.0
 11
661696.51936012658
 21
627884.93017515168
 31
0.0
  0
LINE
  5
360
  8
LEIVA_SOIL_LIMITS
 10
661696.51936012658
 20
627884.93017515168
 30
0.0
 11
661785.90406188567
 21
627878.39073466393
 31
0.0
  0
LINE
  5
361
  8
LEIVA_SOIL_LIMITS
 10
661785.90406188567
 20
627878.39073466393
 30
0.0
 11
661891.82937343419
 21
627885.09431536845
 31
0.0
  0
LINE
  5
362
  8
LEIVA_SOIL_LIMITS
 10
661891.82937343419
 20
627885.09431536845
 30
0.0
 11
661987.82091556257
 21
627895.09680759034
 31
0.0
  0
LINE
  5
363
  8
LEIVA_SOIL_LIMITS
 10
661987.82091556257
 20
627895.09680759034
 30
0.0
 11
662087.13112605852
 21
627895.1802687461
 31
0.0
  0
LINE
  5
364
  8
LEIVA_SOIL_LIMITS
 10
662087.13112605852
 20
627895.1802687461
 30
0.0
 11
662126.36349839438
 21
627892.41368445707
 31
0.0
  0
LINE
  5
365
  8
LEIVA_SOIL_LIMITS
 10
664071.41521776794
 20
625169.8036356899
 30
0.0
 11
664140.64888893825
 21
625189.89749784092
 31
0.0
  0
LINE
  5
366
  8
LEIVA_SOIL_LIMITS
 10
664140.64888893825
 20
625189.89749784092
 30
0.0
 11
664197.02269256045
 21
625199.98796192405
 31
0.0
  0
LINE
  5
367
  8
LEIVA_SOIL_LIMITS
 10
664197.02269256045
 20
625199.98796192405
 30
0.0
 11
664242.04025324597
 21
625201.09615249536
 31
0.0
  0
LINE
  5
368
  8
LEIVA_SOIL_LIMITS
 10
664242.04025324597
 20
625201.09615249536
 30
0.0
 11
664277.20519560331
 21
625194.24319410906
 31
0.0
  0
LINE
  5
369
  8
LEIVA_SOIL_LIMITS
 10
664277.20519560331
 20
625194.24319410906
 30
0.0
 11
664304.02114424342
 21
625180.45021132287
 31
0.0
  0
LINE
  5
36A
  8
LEIVA_SOIL_LIMITS
 10
664304.02114424342
 20
625180.45021132287
 30
0.0
 11
664323.99172377726
 21
625160.73832868878
 31
0.0
  0
LINE
  5
36B
  8
LEIVA_SOIL_LIMITS
 10
664323.99172377726
 20
625160.73832868878
 30
0.0
 11
664338.62055881298
 21
625136.12867076474
 31
0.0
  0
LINE
  5
36C
  8
LEIVA_SOIL_LIMITS
 10
664338.62055881298
 20
625136.12867076474
 30
0.0
 11
664349.41127396328
 21
625107.64236210589
 31
0.0
  0
LINE
  5
36D
  8
LEIVA_SOIL_LIMITS
 10
664349.41127396328
 20
625107.64236210589
 30
0.0
 11
664357.66548871784
 21
625076.2330657572
 31
0.0
  0
LINE
  5
36E
  8
LEIVA_SOIL_LIMITS
 10
664357.66548871784
 20
625076.2330657572
 30
0.0
 11
664363.87680209149
 21
625042.58459872846
 31
0.0
  0
LINE
  5
36F
  8
LEIVA_SOIL_LIMITS
 10
664363.87680209149
 20
625042.58459872846
 30
0.0
 11
664368.33680797927
 21
625007.31331651937
 31
0.0
  0
LINE
  5
370
  8
LEIVA_SOIL_LIMITS
 10
664368.33680797927
 20
625007.31331651937
 30
0.0
 11
664371.33710027626
 21
624971.03557462827
 31
0.0
  0
LINE
  5
371
  8
LEIVA_SOIL_LIMITS
 10
664371.33710027626
 20
624971.03557462827
 30
0.0
 11
664373.16927287786
 21
624934.36772855697
 31
0.0
  0
LINE
  5
372
  8
LEIVA_SOIL_LIMITS
 10
664373.16927287786
 20
624934.36772855697
 30
0.0
 11
664374.12491967925
 21
624897.92613380379
 31
0.0
  0
LINE
  5
373
  8
LEIVA_SOIL_LIMITS
 10
664374.12491967925
 20
624897.92613380379
 30
0.0
 11
664374.49563457421
 21
624862.32714586775
 31
0.0
  0
LINE
  5
374
  8
LEIVA_SOIL_LIMITS
 10
664374.49563457421
 20
624862.32714586775
 30
0.0
 11
664374.5730114606
 21
624828.18712024926
 31
0.0
  0
LINE
  5
375
  8
LEIVA_SOIL_LIMITS
 10
664374.5730114606
 20
624828.18712024926
 30
0.0
 11
664374.61090960237
 21
624795.96565089934
 31
0.0
  0
LINE
  5
376
  8
LEIVA_SOIL_LIMITS
 10
664374.61090960237
 20
624795.96565089934
 30
0.0
 11
664374.71224975272
 21
624765.49528557016
 31
0.0
  0
LINE
  5
377
  8
LEIVA_SOIL_LIMITS
 10
664374.71224975272
 20
624765.49528557016
 30
0.0
 11
664374.94221803534
 21
624736.45181046589
 31
0.0
  0
LINE
  5
378
  8
LEIVA_SOIL_LIMITS
 10
664374.94221803534
 20
624736.45181046589
 30
0.0
 11
664375.36600057175
 21
624708.51101179118
 31
0.0
  0
LINE
  5
379
  8
LEIVA_SOIL_LIMITS
 10
664375.36600057175
 20
624708.51101179118
 30
0.0
 11
664376.04878348671
 21
624681.34867574961
 31
0.0
  0
LINE
  5
37A
  8
LEIVA_SOIL_LIMITS
 10
664376.04878348671
 20
624681.34867574961
 30
0.0
 11
664377.05575290299
 21
624654.64058854536
 31
0.0
  0
LINE
  5
37B
  8
LEIVA_SOIL_LIMITS
 10
664377.05575290299
 20
624654.64058854536
 30
0.0
 11
664378.45209494373
 21
624628.06253638235
 31
0.0
  0
LINE
  5
37C
  8
LEIVA_SOIL_LIMITS
 10
664378.45209494373
 20
624628.06253638235
 30
0.0
 11
664380.30299573252
 21
624601.29030546476
 31
0.0
  0
LINE
  5
37D
  8
LEIVA_SOIL_LIMITS
 10
664380.30299573252
 20
624601.29030546476
 30
0.0
 11
664382.69517941412
 21
624574.11859858141
 31
0.0
  0
LINE
  5
37E
  8
LEIVA_SOIL_LIMITS
 10
664382.69517941412
 20
624574.11859858141
 30
0.0
 11
664385.8015222149
 21
624546.81778486096
 31
0.0
  0
LINE
  5
37F
  8
LEIVA_SOIL_LIMITS
 10
664385.8015222149
 20
624546.81778486096
 30
0.0
 11
664389.81643838808
 21
624519.77715001663
 31
0.0
  0
LINE
  5
380
  8
LEIVA_SOIL_LIMITS
 10
664389.81643838808
 20
624519.77715001663
 30
0.0
 11
664394.93434218084
 21
624493.385979763
 31
0.0
  0
LINE
  5
381
  8
LEIVA_SOIL_LIMITS
 10
664394.93434218084
 20
624493.385979763
 30
0.0
 11
664401.34964784398
 21
624468.03355981456
 31
0.0
  0
LINE
  5
382
  8
LEIVA_SOIL_LIMITS
 10
664401.34964784398
 20
624468.03355981456
 30
0.0
 11
664409.25676962733
 21
624444.1091758816
 31
0.0
  0
LINE
  5
383
  8
LEIVA_SOIL_LIMITS
 10
664409.25676962733
 20
624444.1091758816
 30
0.0
 11
664418.8501217796
 21
624422.00211367942
 31
0.0
  0
LINE
  5
384
  8
LEIVA_SOIL_LIMITS
 10
664418.8501217796
 20
624422.00211367942
 30
0.0
 11
664430.3241185518
 21
624402.10165892332
 31
0.0
  0
LINE
  5
385
  8
LEIVA_SOIL_LIMITS
 10
664430.3241185518
 20
624402.10165892332
 30
0.0
 11
664443.79752325732
 21
624384.69975316571
 31
0.0
  0
LINE
  5
386
  8
LEIVA_SOIL_LIMITS
 10
664443.79752325732
 20
624384.69975316571
 30
0.0
 11
664459.08649546606
 21
624369.69896132499
 31
0.0
  0
LINE
  5
387
  8
LEIVA_SOIL_LIMITS
 10
664459.08649546606
 20
624369.69896132499
 30
0.0
 11
664475.93154381239
 21
624356.90450415807
 31
0.0
  0
LINE
  5
388
  8
LEIVA_SOIL_LIMITS
 10
664475.93154381239
 20
624356.90450415807
 30
0.0
 11
664494.07317692973
 21
624346.12160242465
 31
0.0
  0
LINE
  5
389
  8
LEIVA_SOIL_LIMITS
 10
664494.07317692973
 20
624346.12160242465
 30
0.0
 11
664513.25190345407
 21
624337.15547688096
 31
0.0
  0
LINE
  5
38A
  8
LEIVA_SOIL_LIMITS
 10
664513.25190345407
 20
624337.15547688096
 30
0.0
 11
664533.20823201747
 21
624329.81134828716
 31
0.0
  0
LINE
  5
38B
  8
LEIVA_SOIL_LIMITS
 10
664533.20823201747
 20
624329.81134828716
 30
0.0
 11
664553.68267125404
 21
624323.89443739969
 31
0.0
  0
LINE
  5
38C
  8
LEIVA_SOIL_LIMITS
 10
664553.68267125404
 20
624323.89443739969
 30
0.0
 11
664574.41572980001
 21
624319.20996497711
 31
0.0
  0
LINE
  5
38D
  8
LEIVA_SOIL_LIMITS
 10
664574.41572980001
 20
624319.20996497711
 30
0.0
 11
664595.18033680506
 21
624315.60641484288
 31
0.0
  0
LINE
  5
38E
  8
LEIVA_SOIL_LIMITS
 10
664595.18033680506
 20
624315.60641484288
 30
0.0
 11
664615.87910349201
 21
624313.10532308009
 31
0.0
  0
LINE
  5
38F
  8
LEIVA_SOIL_LIMITS
 10
664615.87910349201
 20
624313.10532308009
 30
0.0
 11
664636.44706159958
 21
624311.77148883371
 31
0.0
  0
LINE
  5
390
  8
LEIVA_SOIL_LIMITS
 10
664636.44706159958
 20
624311.77148883371
 30
0.0
 11
664656.81924286776
 21
624311.66971125442
 31
0.0
  0
LINE
  5
391
  8
LEIVA_SOIL_LIMITS
 10
664656.81924286776
 20
624311.66971125442
 30
0.0
 11
664676.93067903433
 21
624312.8647894871
 31
0.0
  0
LINE
  5
392
  8
LEIVA_SOIL_LIMITS
 10
664676.93067903433
 20
624312.8647894871
 30
0.0
 11
664696.71640184091
 21
624315.42152267927
 31
0.0
  0
LINE
  5
393
  8
LEIVA_SOIL_LIMITS
 10
664696.71640184091
 20
624315.42152267927
 30
0.0
 11
664716.11144302529
 21
624319.40470998024
 31
0.0
  0
LINE
  5
394
  8
LEIVA_SOIL_LIMITS
 10
664716.11144302529
 20
624319.40470998024
 30
0.0
 11
664735.05083432654
 21
624324.87915053475
 31
0.0
  0
LINE
  5
395
  8
LEIVA_SOIL_LIMITS
 10
664735.05083432654
 20
624324.87915053475
 30
0.0
 11
664753.52374767652
 21
624331.85564420256
 31
0.0
  0
LINE
  5
396
  8
LEIVA_SOIL_LIMITS
 10
664753.52374767652
 20
624331.85564420256
 30
0.0
 11
664771.73591577495
 21
624340.12899368349
 31
0.0
  0
LINE
  5
397
  8
LEIVA_SOIL_LIMITS
 10
664771.73591577495
 20
624340.12899368349
 30
0.0
 11
664789.94721151132
 21
624349.44000238576
 31
0.0
  0
LINE
  5
398
  8
LEIVA_SOIL_LIMITS
 10
664789.94721151132
 20
624349.44000238576
 30
0.0
 11
664808.41750777734
 21
624359.52947372291
 31
0.0
  0
LINE
  5
399
  8
LEIVA_SOIL_LIMITS
 10
664808.41750777734
 20
624359.52947372291
 30
0.0
 11
664827.40667746461
 21
624370.13821110362
 31
0.0
  0
LINE
  5
39A
  8
LEIVA_SOIL_LIMITS
 10
664827.40667746461
 20
624370.13821110362
 30
0.0
 11
664847.17459346401
 21
624381.00701793819
 31
0.0
  0
LINE
  5
39B
  8
LEIVA_SOIL_LIMITS
 10
664847.17459346401
 20
624381.00701793819
 30
0.0
 11
664867.98112866643
 21
624391.87669763737
 31
0.0
  0
LINE
  5
39C
  8
LEIVA_SOIL_LIMITS
 10
664867.98112866643
 20
624391.87669763737
 30
0.0
 11
664890.08615596208
 21
624402.48805361055
 31
0.0
  0
LINE
  5
39D
  8
LEIVA_SOIL_LIMITS
 10
664890.08615596208
 20
624402.48805361055
 30
0.0
 11
664913.64672733971
 21
624412.63044315018
 31
0.0
  0
LINE
  5
39E
  8
LEIVA_SOIL_LIMITS
 10
664913.64672733971
 20
624412.63044315018
 30
0.0
 11
664938.40861116489
 21
624422.28743905947
 31
0.0
  0
LINE
  5
39F
  8
LEIVA_SOIL_LIMITS
 10
664938.40861116489
 20
624422.28743905947
 30
0.0
 11
664964.01475490374
 21
624431.49116802542
 31
0.0
  0
LINE
  5
3A0
  8
LEIVA_SOIL_LIMITS
 10
664964.01475490374
 20
624431.49116802542
 30
0.0
 11
664990.10810601804
 21
624440.27375673293
 31
0.0
  0
LINE
  5
3A1
  8
LEIVA_SOIL_LIMITS
 10
664990.10810601804
 20
624440.27375673293
 30
0.0
 11
665016.3316119716
 21
624448.6673318689
 31
0.0
  0
LINE
  5
3A2
  8
LEIVA_SOIL_LIMITS
 10
665016.3316119716
 20
624448.6673318689
 30
0.0
 11
665042.3282202289
 21
624456.70402011694
 31
0.0
  0
LINE
  5
3A3
  8
LEIVA_SOIL_LIMITS
 10
665042.3282202289
 20
624456.70402011694
 30
0.0
 11
665067.74087825266
 21
624464.41594816465
 31
0.0
  0
LINE
  5
3A4
  8
LEIVA_SOIL_LIMITS
 10
665067.74087825266
 20
624464.41594816465
 30
0.0
 11
665092.21253350819
 21
624471.83524269727
 31
0.0
  0
LINE
  5
3A5
  8
LEIVA_SOIL_LIMITS
 10
665092.21253350819
 20
624471.83524269727
 30
0.0
 11
665115.81535390636
 21
624479.02477269515
 31
0.0
  0
LINE
  5
3A6
  8
LEIVA_SOIL_LIMITS
 10
665115.81535390636
 20
624479.02477269515
 30
0.0
 11
665140.33838915732
 21
624486.17037631897
 31
0.0
  0
LINE
  5
3A7
  8
LEIVA_SOIL_LIMITS
 10
665140.33838915732
 20
624486.17037631897
 30
0.0
 11
665167.9999094198
 21
624493.48863402731
 31
0.0
  0
LINE
  5
3A8
  8
LEIVA_SOIL_LIMITS
 10
665167.9999094198
 20
624493.48863402731
 30
0.0
 11
665201.01818485104
 21
624501.19612627511
 31
0.0
  0
LINE
  5
3A9
  8
LEIVA_SOIL_LIMITS
 10
665201.01818485104
 20
624501.19612627511
 30
0.0
 11
665241.61148560944
 21
624509.50943352014
 31
0.0
  0
LINE
  5
3AA
  8
LEIVA_SOIL_LIMITS
 10
665241.61148560944
 20
624509.50943352014
 30
0.0
 11
665291.99808185373
 21
624518.64513621968
 31
0.0
  0
LINE
  5
3AB
  8
LEIVA_SOIL_LIMITS
 10
665291.99808185373
 20
624518.64513621968
 30
0.0
 11
665354.3962437422
 21
624528.81981482916
 31
0.0
  0
LINE
  5
3AC
  8
LEIVA_SOIL_LIMITS
 10
665354.3962437422
 20
624528.81981482916
 30
0.0
 11
665431.0242414336
 21
624540.2500498062
 31
0.0
  0
LINE
  5
3AD
  8
LEIVA_SOIL_LIMITS
 10
662763.4023301343
 20
625151.35931219207
 30
0.0
 11
662768.49930955085
 21
625150.28761740192
 31
0.0
  0
LINE
  5
3AE
  8
LEIVA_SOIL_LIMITS
 10
662768.49930955085
 20
625150.28761740192
 30
0.0
 11
662775.12387053971
 21
625144.23014214286
 31
0.0
  0
LINE
  5
3AF
  8
LEIVA_SOIL_LIMITS
 10
662775.12387053971
 20
625144.23014214286
 30
0.0
 11
662782.87354155898
 21
625133.969761441
 31
0.0
  0
LINE
  5
3B0
  8
LEIVA_SOIL_LIMITS
 10
662782.87354155898
 20
625133.969761441
 30
0.0
 11
662791.34585107025
 21
625120.28935031965
 31
0.0
  0
LINE
  5
3B1
  8
LEIVA_SOIL_LIMITS
 10
662791.34585107025
 20
625120.28935031965
 30
0.0
 11
662800.13832753152
 21
625103.97178380471
 31
0.0
  0
LINE
  5
3B2
  8
LEIVA_SOIL_LIMITS
 10
662800.13832753152
 20
625103.97178380471
 30
0.0
 11
662808.84849940205
 21
625085.79993692087
 31
0.0
  0
LINE
  5
3B3
  8
LEIVA_SOIL_LIMITS
 10
662808.84849940205
 20
625085.79993692087
 30
0.0
 11
662817.07389514183
 21
625066.55668469379
 31
0.0
  0
LINE
  5
3B4
  8
LEIVA_SOIL_LIMITS
 10
662817.07389514183
 20
625066.55668469379
 30
0.0
 11
662824.41204320895
 21
625047.0249021491
 31
0.0
  0
LINE
  5
3B5
  8
LEIVA_SOIL_LIMITS
 10
662824.41204320895
 20
625047.0249021491
 30
0.0
 11
662830.54204000975
 21
625027.82603305625
 31
0.0
  0
LINE
  5
3B6
  8
LEIVA_SOIL_LIMITS
 10
662830.54204000975
 20
625027.82603305625
 30
0.0
 11
662835.46925373259
 21
625008.93579616467
 31
0.0
  0
LINE
  5
3B7
  8
LEIVA_SOIL_LIMITS
 10
662835.46925373259
 20
625008.93579616467
 30
0.0
 11
662839.28062051337
 21
624990.16847896983
 31
0.0
  0
LINE
  5
3B8
  8
LEIVA_SOIL_LIMITS
 10
662839.28062051337
 20
624990.16847896983
 30
0.0
 11
662842.06307648681
 21
624971.33836896718
 31
0.0
  0
LINE
  5
3B9
  8
LEIVA_SOIL_LIMITS
 10
662842.06307648681
 20
624971.33836896718
 30
0.0
 11
662843.90355778916
 21
624952.25975365122
 31
0.0
  0
LINE
  5
3BA
  8
LEIVA_SOIL_LIMITS
 10
662843.90355778916
 20
624952.25975365122
 30
0.0
 11
662844.8890005548
 21
624932.74692051741
 31
0.0
  0
LINE
  5
3BB
  8
LEIVA_SOIL_LIMITS
 10
662844.8890005548
 20
624932.74692051741
 30
0.0
 11
662845.10634091939
 21
624912.61415705946
 31
0.0
  0
LINE
  5
3BC
  8
LEIVA_SOIL_LIMITS
 10
662845.10634091939
 20
624912.61415705946
 30
0.0
 11
662844.64251501823
 21
624891.67575077293
 31
0.0
  0
LINE
  5
3BD
  8
LEIVA_SOIL_LIMITS
 10
662844.64251501823
 20
624891.67575077293
 30
0.0
 11
662843.60301826918
 21
624869.78935471433
 31
0.0
  0
LINE
  5
3BE
  8
LEIVA_SOIL_LIMITS
 10
662843.60301826918
 20
624869.78935471433
 30
0.0
 11
662842.16758321866
 21
624846.98608417856
 31
0.0
  0
LINE
  5
3BF
  8
LEIVA_SOIL_LIMITS
 10
662842.16758321866
 20
624846.98608417856
 30
0.0
 11
662840.53450169833
 21
624823.34042002412
 31
0.0
  0
LINE
  5
3C0
  8
LEIVA_SOIL_LIMITS
 10
662840.53450169833
 20
624823.34042002412
 30
0.0
 11
662838.90206553834
 21
624798.92684310745
 31
0.0
  0
LINE
  5
3C1
  8
LEIVA_SOIL_LIMITS
 10
662838.90206553834
 20
624798.92684310745
 30
0.0
 11
662837.46856656973
 21
624773.81983428658
 31
0.0
  0
LINE
  5
3C2
  8
LEIVA_SOIL_LIMITS
 10
662837.46856656973
 20
624773.81983428658
 30
0.0
 11
662836.43229662231
 21
624748.09387441771
 31
0.0
  0
LINE
  5
3C3
  8
LEIVA_SOIL_LIMITS
 10
662836.43229662231
 20
624748.09387441771
 30
0.0
 11
662835.99154752644
 21
624721.82344435947
 31
0.0
  0
LINE
  5
3C4
  8
LEIVA_SOIL_LIMITS
 10
662835.99154752644
 20
624721.82344435947
 30
0.0
 11
662836.34461111319
 21
624695.08302496804
 31
0.0
  0
LINE
  5
3C5
  8
LEIVA_SOIL_LIMITS
 10
662836.34461111319
 20
624695.08302496804
 30
0.0
 11
662837.64840682829
 21
624668.00486222841
 31
0.0
  0
LINE
  5
3C6
  8
LEIVA_SOIL_LIMITS
 10
662837.64840682829
 20
624668.00486222841
 30
0.0
 11
662839.89436457725
 21
624640.95226264186
 31
0.0
  0
LINE
  5
3C7
  8
LEIVA_SOIL_LIMITS
 10
662839.89436457725
 20
624640.95226264186
 30
0.0
 11
662843.03254188155
 21
624614.34629783477
 31
0.0
  0
LINE
  5
3C8
  8
LEIVA_SOIL_LIMITS
 10
662843.03254188155
 20
624614.34629783477
 30
0.0
 11
662847.01299626322
 21
624588.60803943756
 31
0.0
  0
LINE
  5
3C9
  8
LEIVA_SOIL_LIMITS
 10
662847.01299626322
 20
624588.60803943756
 30
0.0
 11
662851.78578524408
 21
624564.15855907672
 31
0.0
  0
LINE
  5
3CA
  8
LEIVA_SOIL_LIMITS
 10
662851.78578524408
 20
624564.15855907672
 30
0.0
 11
662857.30096634582
 21
624541.41892838106
 31
0.0
  0
LINE
  5
3CB
  8
LEIVA_SOIL_LIMITS
 10
662857.30096634582
 20
624541.41892838106
 30
0.0
 11
662863.50859708979
 21
624520.81021897867
 31
0.0
  0
LINE
  5
3CC
  8
LEIVA_SOIL_LIMITS
 10
662863.50859708979
 20
624520.81021897867
 30
0.0
 11
662870.35873499676
 21
624502.75350249745
 31
0.0
  0
LINE
  5
3CD
  8
LEIVA_SOIL_LIMITS
 10
662870.35873499676
 20
624502.75350249745
 30
0.0
 11
662877.82221054984
 21
624487.53775395546
 31
0.0
  0
LINE
  5
3CE
  8
LEIVA_SOIL_LIMITS
 10
662877.82221054984
 20
624487.53775395546
 30
0.0
 11
662885.95294606755
 21
624474.92356191645
 31
0.0
  0
LINE
  5
3CF
  8
LEIVA_SOIL_LIMITS
 10
662885.95294606755
 20
624474.92356191645
 30
0.0
 11
662894.82563682913
 21
624464.5394183388
 31
0.0
  0
LINE
  5
3D0
  8
LEIVA_SOIL_LIMITS
 10
662894.82563682913
 20
624464.5394183388
 30
0.0
 11
662904.51497811533
 21
624456.01381517726
 31
0.0
  0
LINE
  5
3D1
  8
LEIVA_SOIL_LIMITS
 10
662904.51497811533
 20
624456.01381517726
 30
0.0
 11
662915.09566520492
 21
624448.97524438705
 31
0.0
  0
LINE
  5
3D2
  8
LEIVA_SOIL_LIMITS
 10
662915.09566520492
 20
624448.97524438705
 30
0.0
 11
662926.64239337808
 21
624443.05219792249
 31
0.0
  0
LINE
  5
3D3
  8
LEIVA_SOIL_LIMITS
 10
662926.64239337808
 20
624443.05219792249
 30
0.0
 11
662939.22985791415
 21
624437.87316774135
 31
0.0
  0
LINE
  5
3D4
  8
LEIVA_SOIL_LIMITS
 10
662939.22985791415
 20
624437.87316774135
 30
0.0
 11
662952.93275409215
 21
624433.06664579792
 31
0.0
  0
LINE
  5
3D5
  8
LEIVA_SOIL_LIMITS
 10
662952.93275409215
 20
624433.06664579792
 30
0.0
 11
662967.77199371089
 21
624428.33539301809
 31
0.0
  0
LINE
  5
3D6
  8
LEIVA_SOIL_LIMITS
 10
662967.77199371089
 20
624428.33539301809
 30
0.0
 11
662983.55335463805
 21
624423.67924621585
 31
0.0
  0
LINE
  5
3D7
  8
LEIVA_SOIL_LIMITS
 10
662983.55335463805
 20
624423.67924621585
 30
0.0
 11
663000.02883125935
 21
624419.17231117678
 31
0.0
  0
LINE
  5
3D8
  8
LEIVA_SOIL_LIMITS
 10
663000.02883125935
 20
624419.17231117678
 30
0.0
 11
663016.95041796227
 21
624414.88869368634
 31
0.0
  0
LINE
  5
3D9
  8
LEIVA_SOIL_LIMITS
 10
663016.95041796227
 20
624414.88869368634
 30
0.0
 11
663034.07010913314
 21
624410.90249952825
 31
0.0
  0
LINE
  5
3DA
  8
LEIVA_SOIL_LIMITS
 10
663034.07010913314
 20
624410.90249952825
 30
0.0
 11
663051.13989915827
 21
624407.28783448786
 31
0.0
  0
LINE
  5
3DB
  8
LEIVA_SOIL_LIMITS
 10
663051.13989915827
 20
624407.28783448786
 30
0.0
 11
663067.91178242327
 21
624404.1188043498
 31
0.0
  0
LINE
  5
3DC
  8
LEIVA_SOIL_LIMITS
 10
663067.91178242327
 20
624404.1188043498
 30
0.0
 11
663084.13775331527
 21
624401.46951490035
 31
0.0
  0
LINE
  5
3DD
  8
LEIVA_SOIL_LIMITS
 10
663084.13775331527
 20
624401.46951490035
 30
0.0
 11
663099.66900081316
 21
624399.39351245505
 31
0.0
  0
LINE
  5
3DE
  8
LEIVA_SOIL_LIMITS
 10
663099.66900081316
 20
624399.39351245505
 30
0.0
 11
663114.75349226058
 21
624397.86210545967
 31
0.0
  0
LINE
  5
3DF
  8
LEIVA_SOIL_LIMITS
 10
663114.75349226058
 20
624397.86210545967
 30
0.0
 11
663129.73838959786
 21
624396.82604289055
 31
0.0
  0
LINE
  5
3E0
  8
LEIVA_SOIL_LIMITS
 10
663129.73838959786
 20
624396.82604289055
 30
0.0
 11
663144.97085476166
 21
624396.23607372446
 31
0.0
  0
LINE
  5
3E1
  8
LEIVA_SOIL_LIMITS
 10
663144.97085476166
 20
624396.23607372446
 30
0.0
 11
663160.7980496902
 21
624396.04294693749
 31
0.0
  0
LINE
  5
3E2
  8
LEIVA_SOIL_LIMITS
 10
663160.7980496902
 20
624396.04294693749
 30
0.0
 11
663177.56713632192
 21
624396.19741150783
 31
0.0
  0
LINE
  5
3E3
  8
LEIVA_SOIL_LIMITS
 10
663177.56713632192
 20
624396.19741150783
 30
0.0
 11
663195.62527659256
 21
624396.6502164118
 31
0.0
  0
LINE
  5
3E4
  8
LEIVA_SOIL_LIMITS
 10
663195.62527659256
 20
624396.6502164118
 30
0.0
 11
663215.31963244197
 21
624397.35211062431
 31
0.0
  0
LINE
  5
3E5
  8
LEIVA_SOIL_LIMITS
 10
663215.31963244197
 20
624397.35211062431
 30
0.0
 11
663236.89816080686
 21
624398.2867882601
 31
0.0
  0
LINE
  5
3E6
  8
LEIVA_SOIL_LIMITS
 10
663236.89816080686
 20
624398.2867882601
 30
0.0
 11
663260.21199861914
 21
624399.56972396676
 31
0.0
  0
LINE
  5
3E7
  8
LEIVA_SOIL_LIMITS
 10
663260.21199861914
 20
624399.56972396676
 30
0.0
 11
663285.0130778125
 21
624401.34933753451
 31
0.0
  0
LINE
  5
3E8
  8
LEIVA_SOIL_LIMITS
 10
663285.0130778125
 20
624401.34933753451
 30
0.0
 11
663311.05333031877
 21
624403.77404874703
 31
0.0
  0
LINE
  5
3E9
  8
LEIVA_SOIL_LIMITS
 10
663311.05333031877
 20
624403.77404874703
 30
0.0
 11
663338.08468807035
 21
624406.99227739079
 31
0.0
  0
LINE
  5
3EA
  8
LEIVA_SOIL_LIMITS
 10
663338.08468807035
 20
624406.99227739079
 30
0.0
 11
663365.85908299882
 21
624411.15244325181
 31
0.0
  0
LINE
  5
3EB
  8
LEIVA_SOIL_LIMITS
 10
663365.85908299882
 20
624411.15244325181
 30
0.0
 11
663394.12844703707
 21
624416.40296611679
 31
0.0
  0
LINE
  5
3EC
  8
LEIVA_SOIL_LIMITS
 10
663394.12844703707
 20
624416.40296611679
 30
0.0
 11
663422.64471211657
 21
624422.89226577268
 31
0.0
  0
LINE
  5
3ED
  8
LEIVA_SOIL_LIMITS
 10
663422.64471211657
 20
624422.89226577268
 30
0.0
 11
663451.16399469762
 21
624430.70683706435
 31
0.0
  0
LINE
  5
3EE
  8
LEIVA_SOIL_LIMITS
 10
663451.16399469762
 20
624430.70683706435
 30
0.0
 11
663479.45914934971
 21
624439.68547507795
 31
0.0
  0
LINE
  5
3EF
  8
LEIVA_SOIL_LIMITS
 10
663479.45914934971
 20
624439.68547507795
 30
0.0
 11
663507.30721516663
 21
624449.60504996032
 31
0.0
  0
LINE
  5
3F0
  8
LEIVA_SOIL_LIMITS
 10
663507.30721516663
 20
624449.60504996032
 30
0.0
 11
663534.48523124575
 21
624460.24243185611
 31
0.0
  0
LINE
  5
3F1
  8
LEIVA_SOIL_LIMITS
 10
663534.48523124575
 20
624460.24243185611
 30
0.0
 11
663560.77023668145
 21
624471.37449091335
 31
0.0
  0
LINE
  5
3F2
  8
LEIVA_SOIL_LIMITS
 10
663560.77023668145
 20
624471.37449091335
 30
0.0
 11
663585.93927057146
 21
624482.77809727564
 31
0.0
  0
LINE
  5
3F3
  8
LEIVA_SOIL_LIMITS
 10
663585.93927057146
 20
624482.77809727564
 30
0.0
 11
663609.7693720106
 21
624494.23012108984
 31
0.0
  0
LINE
  5
3F4
  8
LEIVA_SOIL_LIMITS
 10
663609.7693720106
 20
624494.23012108984
 30
0.0
 11
663632.0375800943
 21
624505.507432502
 31
0.0
  0
LINE
  5
3F5
  8
LEIVA_SOIL_LIMITS
 10
663632.0375800943
 20
624505.507432502
 30
0.0
 11
663652.5787385751
 21
624516.44475014985
 31
0.0
  0
LINE
  5
3F6
  8
LEIVA_SOIL_LIMITS
 10
663652.5787385751
 20
624516.44475014985
 30
0.0
 11
663671.45890983194
 21
624527.1081866317
 31
0.0
  0
LINE
  5
3F7
  8
LEIVA_SOIL_LIMITS
 10
663671.45890983194
 20
624527.1081866317
 30
0.0
 11
663688.80196089647
 21
624537.62170304125
 31
0.0
  0
LINE
  5
3F8
  8
LEIVA_SOIL_LIMITS
 10
663688.80196089647
 20
624537.62170304125
 30
0.0
 11
663704.73175880546
 21
624548.10926046758
 31
0.0
  0
LINE
  5
3F9
  8
LEIVA_SOIL_LIMITS
 10
663704.73175880546
 20
624548.10926046758
 30
0.0
 11
663719.37217058975
 21
624558.69482000195
 31
0.0
  0
LINE
  5
3FA
  8
LEIVA_SOIL_LIMITS
 10
663719.37217058975
 20
624558.69482000195
 30
0.0
 11
663732.84706328635
 21
624569.50234273612
 31
0.0
  0
LINE
  5
3FB
  8
LEIVA_SOIL_LIMITS
 10
663732.84706328635
 20
624569.50234273612
 30
0.0
 11
663745.28030392725
 21
624580.65578976145
 31
0.0
  0
LINE
  5
3FC
  8
LEIVA_SOIL_LIMITS
 10
663745.28030392725
 20
624580.65578976145
 30
0.0
 11
663756.79575954878
 21
624592.2791221668
 31
0.0
  0
LINE
  5
3FD
  8
LEIVA_SOIL_LIMITS
 10
663756.79575954878
 20
624592.2791221668
 30
0.0
 11
663767.54210889165
 21
624604.47567905369
 31
0.0
  0
LINE
  5
3FE
  8
LEIVA_SOIL_LIMITS
 10
663767.54210889165
 20
624604.47567905369
 30
0.0
 11
663777.76727754204
 21
624617.26631154411
 31
0.0
  0
LINE
  5
3FF
  8
LEIVA_SOIL_LIMITS
 10
663777.76727754204
 20
624617.26631154411
 30
0.0
 11
663787.74400279229
 21
624630.65124877205
 31
0.0
  0
LINE
  5
400
  8
LEIVA_SOIL_LIMITS
 10
663787.74400279229
 20
624630.65124877205
 30
0.0
 11
663797.74502193485
 21
624644.63071986835
 31
0.0
  0
LINE
  5
401
  8
LEIVA_SOIL_LIMITS
 10
663797.74502193485
 20
624644.63071986835
 30
0.0
 11
663808.04307226394
 21
624659.20495396666
 31
0.0
  0
LINE
  5
402
  8
LEIVA_SOIL_LIMITS
 10
663808.04307226394
 20
624659.20495396666
 30
0.0
 11
663818.91089107282
 21
624674.37418019783
 31
0.0
  0
LINE
  5
403
  8
LEIVA_SOIL_LIMITS
 10
663818.91089107282
 20
624674.37418019783
 30
0.0
 11
663830.62121565465
 21
624690.13862769376
 31
0.0
  0
LINE
  5
404
  8
LEIVA_SOIL_LIMITS
 10
663830.62121565465
 20
624690.13862769376
 30
0.0
 11
663843.44678330212
 21
624706.49852558831
 31
0.0
  0
LINE
  5
405
  8
LEIVA_SOIL_LIMITS
 10
663843.44678330212
 20
624706.49852558831
 30
0.0
 11
663857.55288590875
 21
624723.45814129827
 31
0.0
  0
LINE
  5
406
  8
LEIVA_SOIL_LIMITS
 10
663857.55288590875
 20
624723.45814129827
 30
0.0
 11
663872.67503377469
 21
624741.03789539053
 31
0.0
  0
LINE
  5
407
  8
LEIVA_SOIL_LIMITS
 10
663872.67503377469
 20
624741.03789539053
 30
0.0
 11
663888.44129179535
 21
624759.26224671805
 31
0.0
  0
LINE
  5
408
  8
LEIVA_SOIL_LIMITS
 10
663888.44129179535
 20
624759.26224671805
 30
0.0
 11
663904.47972486902
 21
624778.15565413155
 31
0.0
  0
LINE
  5
409
  8
LEIVA_SOIL_LIMITS
 10
663904.47972486902
 20
624778.15565413155
 30
0.0
 11
663920.41839789459
 21
624797.74257648387
 31
0.0
  0
LINE
  5
40A
  8
LEIVA_SOIL_LIMITS
 10
663920.41839789459
 20
624797.74257648387
 30
0.0
 11
663935.88537576934
 21
624818.04747262865
 31
0.0
  0
LINE
  5
40B
  8
LEIVA_SOIL_LIMITS
 10
663935.88537576934
 20
624818.04747262865
 30
0.0
 11
663950.50872339343
 21
624839.09480141755
 31
0.0
  0
LINE
  5
40C
  8
LEIVA_SOIL_LIMITS
 10
663950.50872339343
 20
624839.09480141755
 30
0.0
 11
663963.91650566296
 21
624860.9090217026
 31
0.0
  0
LINE
  5
40D
  8
LEIVA_SOIL_LIMITS
 10
663963.91650566296
 20
624860.9090217026
 30
0.0
 11
663975.84423285048
 21
624883.51055406407
 31
0.0
  0
LINE
  5
40E
  8
LEIVA_SOIL_LIMITS
 10
663975.84423285048
 20
624883.51055406407
 30
0.0
 11
663986.45719672297
 21
624906.90366598463
 31
0.0
  0
LINE
  5
40F
  8
LEIVA_SOIL_LIMITS
 10
663986.45719672297
 20
624906.90366598463
 30
0.0
 11
663996.02813442308
 21
624931.08858667547
 31
0.0
  0
LINE
  5
410
  8
LEIVA_SOIL_LIMITS
 10
663996.02813442308
 20
624931.08858667547
 30
0.0
 11
664004.82978309144
 21
624956.06554534705
 31
0.0
  0
LINE
  5
411
  8
LEIVA_SOIL_LIMITS
 10
664004.82978309144
 20
624956.06554534705
 30
0.0
 11
664013.1348798679
 21
624981.83477121056
 31
0.0
  0
LINE
  5
412
  8
LEIVA_SOIL_LIMITS
 10
664013.1348798679
 20
624981.83477121056
 30
0.0
 11
664021.21616189892
 21
625008.39649347705
 31
0.0
  0
LINE
  5
413
  8
LEIVA_SOIL_LIMITS
 10
664021.21616189892
 20
625008.39649347705
 30
0.0
 11
664029.34636631946
 21
625035.75094135548
 31
0.0
  0
LINE
  5
414
  8
LEIVA_SOIL_LIMITS
 10
664029.34636631946
 20
625035.75094135548
 30
0.0
 11
664037.79823027691
 21
625063.89834405843
 31
0.0
  0
LINE
  5
415
  8
LEIVA_SOIL_LIMITS
 10
664037.79823027691
 20
625063.89834405843
 30
0.0
 11
664046.75773519673
 21
625092.80995792127
 31
0.0
  0
LINE
  5
416
  8
LEIVA_SOIL_LIMITS
 10
664046.75773519673
 20
625092.80995792127
 30
0.0
 11
664056.06383966317
 21
625122.34114779625
 31
0.0
  0
LINE
  5
417
  8
LEIVA_SOIL_LIMITS
 10
664056.06383966317
 20
625122.34114779625
 30
0.0
 11
664065.4687465477
 21
625152.31830565562
 31
0.0
  0
LINE
  5
418
  8
LEIVA_SOIL_LIMITS
 10
664065.4687465477
 20
625152.31830565562
 30
0.0
 11
664074.7246587181
 21
625182.56782347732
 31
0.0
  0
LINE
  5
419
  8
LEIVA_SOIL_LIMITS
 10
664074.7246587181
 20
625182.56782347732
 30
0.0
 11
664083.58377904771
 21
625212.916093237
 31
0.0
  0
LINE
  5
41A
  8
LEIVA_SOIL_LIMITS
 10
664083.58377904771
 20
625212.916093237
 30
0.0
 11
664091.79831040697
 21
625243.18950691051
 31
0.0
  0
LINE
  5
41B
  8
LEIVA_SOIL_LIMITS
 10
664091.79831040697
 20
625243.18950691051
 30
0.0
 11
664099.12045566528
 21
625273.21445647185
 31
0.0
  0
LINE
  5
41C
  8
LEIVA_SOIL_LIMITS
 10
664099.12045566528
 20
625273.21445647185
 30
0.0
 11
664105.30241769541
 21
625302.8173338999
 31
0.0
  0
LINE
  5
41D
  8
LEIVA_SOIL_LIMITS
 10
664105.30241769541
 20
625302.8173338999
 30
0.0
 11
664110.17491460347
 21
625331.82459718012
 31
0.0
  0
LINE
  5
41E
  8
LEIVA_SOIL_LIMITS
 10
664110.17491460347
 20
625331.82459718012
 30
0.0
 11
664113.88272544974
 21
625360.06296834315
 31
0.0
  0
LINE
  5
41F
  8
LEIVA_SOIL_LIMITS
 10
664113.88272544974
 20
625360.06296834315
 30
0.0
 11
664116.64914453006
 21
625387.35923543235
 31
0.0
  0
LINE
  5
420
  8
LEIVA_SOIL_LIMITS
 10
664116.64914453006
 20
625387.35923543235
 30
0.0
 11
664118.69746614271
 21
625413.54018649075
 31
0.0
  0
LINE
  5
421
  8
LEIVA_SOIL_LIMITS
 10
664118.69746614271
 20
625413.54018649075
 30
0.0
 11
664120.25098458235
 21
625438.4326095602
 31
0.0
  0
LINE
  5
422
  8
LEIVA_SOIL_LIMITS
 10
664120.25098458235
 20
625438.4326095602
 30
0.0
 11
664121.53299414727
 21
625461.86329268198
 31
0.0
  0
LINE
  5
423
  8
LEIVA_SOIL_LIMITS
 10
664121.53299414727
 20
625461.86329268198
 30
0.0
 11
664122.76678913343
 21
625483.65902390005
 31
0.0
  0
LINE
  5
424
  8
LEIVA_SOIL_LIMITS
 10
664122.76678913343
 20
625483.65902390005
 30
0.0
 11
664124.17566383746
 21
625503.64659125707
 31
0.0
  0
LINE
  5
425
  8
LEIVA_SOIL_LIMITS
 10
664124.17566383746
 20
625503.64659125707
 30
0.0
 11
664125.93736271164
 21
625521.76421572745
 31
0.0
  0
LINE
  5
426
  8
LEIVA_SOIL_LIMITS
 10
664125.93736271164
 20
625521.76421572745
 30
0.0
 11
664128.0474308182
 21
625538.39585000719
 31
0.0
  0
LINE
  5
427
  8
LEIVA_SOIL_LIMITS
 10
664128.0474308182
 20
625538.39585000719
 30
0.0
 11
664130.45586337836
 21
625554.03687972738
 31
0.0
  0
LINE
  5
428
  8
LEIVA_SOIL_LIMITS
 10
664130.45586337836
 20
625554.03687972738
 30
0.0
 11
664133.11265561148
 21
625569.1826905167
 31
0.0
  0
LINE
  5
429
  8
LEIVA_SOIL_LIMITS
 10
664133.11265561148
 20
625569.1826905167
 30
0.0
 11
664135.96780273668
 21
625584.3286680053
 31
0.0
  0
LINE
  5
42A
  8
LEIVA_SOIL_LIMITS
 10
664135.96780273668
 20
625584.3286680053
 30
0.0
 11
664138.97129997192
 21
625599.9701978229
 31
0.0
  0
LINE
  5
42B
  8
LEIVA_SOIL_LIMITS
 10
664138.97129997192
 20
625599.9701978229
 30
0.0
 11
664142.07314253738
 21
625616.60266559862
 31
0.0
  0
LINE
  5
42C
  8
LEIVA_SOIL_LIMITS
 10
664142.07314253738
 20
625616.60266559862
 30
0.0
 11
664145.22332565219
 21
625634.72145696124
 31
0.0
  0
LINE
  5
42D
  8
LEIVA_SOIL_LIMITS
 10
664145.22332565219
 20
625634.72145696124
 30
0.0
 11
664148.35128315049
 21
625654.7022119211
 31
0.0
  0
LINE
  5
42E
  8
LEIVA_SOIL_LIMITS
 10
664148.35128315049
 20
625654.7022119211
 30
0.0
 11
664151.30420332495
 21
625676.4415879962
 31
0.0
  0
LINE
  5
42F
  8
LEIVA_SOIL_LIMITS
 10
664151.30420332495
 20
625676.4415879962
 30
0.0
 11
664153.90871308441
 21
625699.71649708576
 31
0.0
  0
LINE
  5
430
  8
LEIVA_SOIL_LIMITS
 10
664153.90871308441
 20
625699.71649708576
 30
0.0
 11
664155.99143933784
 21
625724.30385108828
 31
0.0
  0
LINE
  5
431
  8
LEIVA_SOIL_LIMITS
 10
664155.99143933784
 20
625724.30385108828
 30
0.0
 11
664156.32111096103
 21
625730.40436135908
 31
0.0
  0
LINE
  5
432
  8
LEIVA_SOIL_LIMITS
 10
657787.66038230085
 20
628856.03245557914
 30
0.0
 11
657972.9528684488
 21
628791.81694572861
 31
0.0
  0
LINE
  5
433
  8
LEIVA_SOIL_LIMITS
 10
657972.9528684488
 20
628791.81694572861
 30
0.0
 11
658188.84767872479
 21
628690.53476982715
 31
0.0
  0
LINE
  5
434
  8
LEIVA_SOIL_LIMITS
 10
658188.84767872479
 20
628690.53476982715
 30
0.0
 11
658353.96371442673
 21
628589.2099190068
 31
0.0
  0
LINE
  5
435
  8
LEIVA_SOIL_LIMITS
 10
658353.96371442673
 20
628589.2099190068
 30
0.0
 11
658404.84899985278
 21
628462.42316374055
 31
0.0
  0
LINE
  5
436
  8
LEIVA_SOIL_LIMITS
 10
658404.84899985278
 20
628462.42316374055
 30
0.0
 11
658455.75560298795
 21
628310.2705224501
 31
0.0
  0
LINE
  5
437
  8
LEIVA_SOIL_LIMITS
 10
658455.75560298795
 20
628310.2705224501
 30
0.0
 11
658595.55697994016
 21
628120.14371304342
 31
0.0
  0
LINE
  5
438
  8
LEIVA_SOIL_LIMITS
 10
658595.55697994016
 20
628120.14371304342
 30
0.0
 11
658599.05253432621
 21
628117.35466485366
 31
0.0
  0
LINE
  5
439
  8
LEIVA_SOIL_LIMITS
 10
658599.05253432621
 20
628117.35466485494
 30
0.0
 11
658630.16675175843
 21
628022.73079851223
 31
0.0
  0
LINE
  5
43A
  8
LEIVA_SOIL_LIMITS
 10
658630.16675175843
 20
628022.73079851223
 30
0.0
 11
658649.02480313275
 21
627956.99783760845
 31
0.0
  0
LINE
  5
43B
  8
LEIVA_SOIL_LIMITS
 10
658649.02480313275
 20
627956.99783760845
 30
0.0
 11
658656.12316498905
 21
627900.64774411067
 31
0.0
  0
LINE
  5
43C
  8
LEIVA_SOIL_LIMITS
 10
658656.12316498905
 20
627900.64774411067
 30
0.0
 11
658672.6327529347
 21
627832.56464209151
 31
0.0
  0
LINE
  5
43D
  8
LEIVA_SOIL_LIMITS
 10
658672.6327529347
 20
627832.56464209151
 30
0.0
 11
658675.00679314905
 21
627804.38858760498
 31
0.0
  0
LINE
  5
43E
  8
LEIVA_SOIL_LIMITS
 10
658675.00679314905
 20
627804.38858760498
 30
0.0
 11
658689.13452486438
 21
627773.87424357398
 31
0.0
  0
LINE
  5
43F
  8
LEIVA_SOIL_LIMITS
 10
658689.13452486438
 20
627773.87424357398
 30
0.0
 11
658710.35075134318
 21
627698.75063499087
 31
0.0
  0
LINE
  5
440
  8
LEIVA_SOIL_LIMITS
 10
658710.35075134318
 20
627698.75063499087
 30
0.0
 11
658757.40293468209
 21
627644.78224619641
 31
0.0
  0
LINE
  5
441
  8
LEIVA_SOIL_LIMITS
 10
658757.40293468209
 20
627644.78224619641
 30
0.0
 11
658816.19499555742
 21
627604.91276866151
 31
0.0
  0
LINE
  5
442
  8
LEIVA_SOIL_LIMITS
 10
658816.19499555742
 20
627604.91276866151
 30
0.0
 11
658929.03111460572
 21
627581.52588235191
 31
0.0
  0
LINE
  5
443
  8
LEIVA_SOIL_LIMITS
 10
658929.03111460572
 20
627581.52588235191
 30
0.0
 11
659016.00364893314
 21
627569.85809730156
 31
0.0
  0
LINE
  5
444
  8
LEIVA_SOIL_LIMITS
 10
659016.00364893314
 20
627569.85809730156
 30
0.0
 11
659079.48656102456
 21
627541.73339923611
 31
0.0
  0
LINE
  5
445
  8
LEIVA_SOIL_LIMITS
 10
659079.48656102456
 20
627541.73339923611
 30
0.0
 11
659150.01849943656
 21
627515.962832961
 31
0.0
  0
LINE
  5
446
  8
LEIVA_SOIL_LIMITS
 10
659150.01849943656
 20
627515.962832961
 30
0.0
 11
659222.89092994493
 21
627501.93503061379
 31
0.0
  0
LINE
  5
447
  8
LEIVA_SOIL_LIMITS
 10
659222.89092994493
 20
627501.93503061379
 30
0.0
 11
659326.30398242618
 21
627504.37010728149
 31
0.0
  0
LINE
  5
448
  8
LEIVA_SOIL_LIMITS
 10
659326.30398242618
 20
627504.37010728149
 30
0.0
 11
659427.34694153036
 21
627530.28490685718
 31
0.0
  0
LINE
  5
449
  8
LEIVA_SOIL_LIMITS
 10
659427.34694153036
 20
627530.28490685718
 30
0.0
 11
659526.04151489865
 21
627553.84956538188
 31
0.0
  0
LINE
  5
44A
  8
LEIVA_SOIL_LIMITS
 10
659526.04151489865
 20
627553.84956538188
 30
0.0
 11
659610.62619504705
 21
627586.79503562045
 31
0.0
  0
LINE
  5
44B
  8
LEIVA_SOIL_LIMITS
 10
659610.62619504705
 20
627586.79503562045
 30
0.0
 11
659690.52397081512
 21
627603.29939481197
 31
0.0
  0
LINE
  5
44C
  8
LEIVA_SOIL_LIMITS
 10
659690.52397081512
 20
627603.29939481197
 30
0.0
 11
659772.77999944799
 21
627610.41302582924
 31
0.0
  0
LINE
  5
44D
  8
LEIVA_SOIL_LIMITS
 10
659772.77999944799
 20
627610.41302582924
 30
0.0
 11
659850.32946720649
 21
627624.56720375549
 31
0.0
  0
LINE
  5
44E
  8
LEIVA_SOIL_LIMITS
 10
659850.32946720649
 20
627624.56720375549
 30
0.0
 11
659918.4656577995
 21
627652.80251564807
 31
0.0
  0
LINE
  5
44F
  8
LEIVA_SOIL_LIMITS
 10
659918.4656577995
 20
627652.80251564807
 30
0.0
 11
660000.69603195414
 21
627690.44234220416
 31
0.0
  0
LINE
  5
450
  8
LEIVA_SOIL_LIMITS
 10
660000.69603195414
 20
627690.44234220416
 30
0.0
 11
660085.26887155545
 21
627737.4768474577
 31
0.0
  0
LINE
  5
451
  8
LEIVA_SOIL_LIMITS
 10
660085.26887155545
 20
627737.4768474577
 30
0.0
 11
660101.24823962711
 21
627747.47340715874
 31
0.0
  0
LINE
  5
452
  8
LEIVA_SOIL_LIMITS
 10
663967.86537708947
 20
621707.57723988919
 30
0.0
 11
663825.96951171185
 21
622072.89116605103
 31
0.0
  0
LINE
  5
453
  8
LEIVA_SOIL_LIMITS
 10
663825.96951171185
 20
622072.89116605103
 30
0.0
 11
663708.46844107774
 21
622219.37929859513
 31
0.0
  0
LINE
  5
454
  8
LEIVA_SOIL_LIMITS
 10
663708.46844107774
 20
622219.37929859513
 30
0.0
 11
663473.57709563768
 21
622380.42745140381
 31
0.0
  0
LINE
  5
455
  8
LEIVA_SOIL_LIMITS
 10
663473.57709563768
 20
622380.42745140381
 30
0.0
 11
663400.20353470161
 21
622395.02450397331
 31
0.0
  0
LINE
  5
456
  8
LEIVA_SOIL_LIMITS
 10
663400.20353470161
 20
622395.02450397331
 30
0.0
 11
663326.71917797078
 21
622541.54962854297
 31
0.0
  0
LINE
  5
457
  8
LEIVA_SOIL_LIMITS
 10
663326.71917797078
 20
622541.54962854297
 30
0.0
 11
663223.82869713148
 21
622761.34346054145
 31
0.0
  0
LINE
  5
458
  8
LEIVA_SOIL_LIMITS
 10
663223.82869713148
 20
622761.34346054145
 30
0.0
 11
663106.27834938804
 21
622966.46629620041
 31
0.0
  0
LINE
  5
459
  8
LEIVA_SOIL_LIMITS
 10
663106.27834938804
 20
622966.46629620041
 30
0.0
 11
663018.15860890527
 21
623069.00309288269
 31
0.0
  0
LINE
  5
45A
  8
LEIVA_SOIL_LIMITS
 10
663018.15860890527
 20
623069.00309288269
 30
0.0
 11
662900.64521900285
 21
623230.14989113598
 31
0.0
  0
LINE
  5
45B
  8
LEIVA_SOIL_LIMITS
 10
662900.64521900285
 20
623230.14989113598
 30
0.0
 11
662827.19774242013
 21
623332.69897823548
 31
0.0
  0
LINE
  5
45C
  8
LEIVA_SOIL_LIMITS
 10
662827.19774242013
 20
623332.69897823548
 30
0.0
 11
662680.40149885719
 21
623420.52774633816
 31
0.0
  0
LINE
  5
45D
  8
LEIVA_SOIL_LIMITS
 10
662680.40149885719
 20
623420.52774633816
 30
0.0
 11
662518.92059446708
 21
623523.00284938735
 31
0.0
  0
LINE
  5
45E
  8
LEIVA_SOIL_LIMITS
 10
662518.92059446708
 20
623523.00284938735
 30
0.0
 11
662489.52686732053
 21
623581.61289117229
 31
0.0
  0
LINE
  5
45F
  8
LEIVA_SOIL_LIMITS
 10
662489.52686732053
 20
623581.61289117229
 30
0.0
 11
662313.59544607438
 21
623420.21947937366
 31
0.0
  0
LINE
  5
460
  8
LEIVA_SOIL_LIMITS
 10
662313.59544607438
 20
623420.21947937366
 30
0.0
 11
662460.42872517102
 21
623288.41467393085
 31
0.0
  0
LINE
  5
461
  8
LEIVA_SOIL_LIMITS
 10
662460.42872517102
 20
623288.41467393085
 30
0.0
 11
662489.82253001002
 21
623229.80463221145
 31
0.0
  0
LINE
  5
462
  8
LEIVA_SOIL_LIMITS
 10
662489.82253001002
 20
623229.80463221145
 30
0.0
 11
662592.70069158147
 21
623024.66946592089
 31
0.0
  0
LINE
  5
463
  8
LEIVA_SOIL_LIMITS
 10
662592.70069158147
 20
623024.66946592089
 30
0.0
 11
662695.52949834953
 21
622878.16900267964
 31
0.0
  0
LINE
  5
464
  8
LEIVA_SOIL_LIMITS
 10
662695.52949834953
 20
622878.16900267964
 30
0.0
 11
662754.32934963936
 21
622746.29021318629
 31
0.0
  0
LINE
  5
465
  8
LEIVA_SOIL_LIMITS
 10
662754.32934963936
 20
622746.29021318629
 30
0.0
 11
662783.74771535827
 21
622658.36279970547
 31
0.0
  0
LINE
  5
466
  8
LEIVA_SOIL_LIMITS
 10
662783.74771535827
 20
622658.36279970547
 30
0.0
 11
662798.46925633296
 21
622599.74042728869
 31
0.0
  0
LINE
  5
467
  8
LEIVA_SOIL_LIMITS
 10
662798.46925633296
 20
622599.74042728869
 30
0.0
 11
662960.01175713388
 21
622423.97191513726
 31
0.0
  0
LINE
  5
468
  8
LEIVA_SOIL_LIMITS
 10
662960.01175713388
 20
622423.97191513726
 30
0.0
 11
663062.8036060615
 21
622321.44748930074
 31
0.0
  0
LINE
  5
469
  8
LEIVA_SOIL_LIMITS
 10
663062.8036060615
 20
622321.44748930074
 30
0.0
 11
663077.61138198641
 21
622160.21437636507
 31
0.0
  0
LINE
  5
46A
  8
LEIVA_SOIL_LIMITS
 10
663077.61138198641
 20
622160.21437636507
 30
0.0
 11
662989.61491202051
 21
622116.16435490921
 31
0.0
  0
LINE
  5
46B
  8
LEIVA_SOIL_LIMITS
 10
662989.61491202051
 20
622116.16435490921
 30
0.0
 11
662872.31094985735
 21
622028.11363471975
 31
0.0
  0
LINE
  5
46C
  8
LEIVA_SOIL_LIMITS
 10
662872.31094985735
 20
622028.11363471975
 30
0.0
 11
662710.95323825895
 21
621984.00195984589
 31
0.0
  0
LINE
  5
46D
  8
LEIVA_SOIL_LIMITS
 10
662710.95323825895
 20
621984.00195984589
 30
0.0
 11
662578.92773512146
 21
621954.5736120732
 31
0.0
  0
LINE
  5
46E
  8
LEIVA_SOIL_LIMITS
 10
662578.92773512146
 20
621954.5736120732
 30
0.0
 11
662300.13054926635
 21
621983.65670092101
 31
0.0
  0
LINE
  5
46F
  8
LEIVA_SOIL_LIMITS
 10
662300.13054926635
 20
621983.65670092101
 30
0.0
 11
662212.02320577973
 21
622071.53479168075
 31
0.0
  0
LINE
  5
470
  8
LEIVA_SOIL_LIMITS
 10
662212.02320577973
 20
622071.53479168075
 30
0.0
 11
662299.99503720715
 21
622144.90214455221
 31
0.0
  0
LINE
  5
471
  8
LEIVA_SOIL_LIMITS
 10
662299.99503720715
 20
622144.90214455221
 30
0.0
 11
662373.28228546691
 21
622232.91587271728
 31
0.0
  0
LINE
  5
472
  8
LEIVA_SOIL_LIMITS
 10
662373.28228546691
 20
622232.91587271728
 30
0.0
 11
662461.14324337419
 21
622438.21133780445
 31
0.0
  0
LINE
  5
473
  8
LEIVA_SOIL_LIMITS
 10
662461.14324337419
 20
622438.21133780445
 30
0.0
 11
662505.1106801338
 21
622496.88307322306
 31
0.0
  0
LINE
  5
474
  8
LEIVA_SOIL_LIMITS
 10
662505.1106801338
 20
622496.88307322306
 30
0.0
 11
662534.40593075554
 21
622555.54243773106
 31
0.0
  0
LINE
  5
475
  8
LEIVA_SOIL_LIMITS
 10
662534.40593075554
 20
622555.54243773106
 30
0.0
 11
662548.99188197777
 21
622658.16550888191
 31
0.0
  0
LINE
  5
476
  8
LEIVA_SOIL_LIMITS
 10
662548.99188197777
 20
622658.16550888191
 30
0.0
 11
662328.63728831057
 21
622980.47147629829
 31
0.0
  0
LINE
  5
477
  8
LEIVA_SOIL_LIMITS
 10
662328.63728831057
 20
622980.47147629829
 30
0.0
 11
662255.1775701514
 21
623097.67922917288
 31
0.0
  0
LINE
  5
478
  8
LEIVA_SOIL_LIMITS
 10
662255.1775701514
 20
623097.67922917288
 30
0.0
 11
662211.04998272727
 21
623229.57034936268
 31
0.0
  0
LINE
  5
479
  8
LEIVA_SOIL_LIMITS
 10
662211.04998272727
 20
623229.57034936268
 30
0.0
 11
662093.57347297145
 21
623346.74111014511
 31
0.0
  0
LINE
  5
47A
  8
LEIVA_SOIL_LIMITS
 10
662093.57347297145
 20
623346.74111014511
 30
0.0
 11
661990.76922704745
 21
623463.9242419051
 31
0.0
  0
LINE
  5
47B
  8
LEIVA_SOIL_LIMITS
 10
661990.76922704745
 20
623463.9242419051
 30
0.0
 11
661888.00201669044
 21
623537.13129604422
 31
0.0
  0
LINE
  5
47C
  8
LEIVA_SOIL_LIMITS
 10
661888.00201669044
 20
623537.13129604422
 30
0.0
 11
661816.70690889144
 21
623587.32107352326
 31
0.0
  0
LINE
  5
47D
  8
LEIVA_SOIL_LIMITS
 10
659892.82702362991
 20
623832.25804254576
 30
0.0
 11
659848.36357173789
 21
623769.95618472155
 31
0.0
  0
LINE
  5
47E
  8
LEIVA_SOIL_LIMITS
 10
659848.36357173789
 20
623769.95618472155
 30
0.0
 11
659819.19159159856
 21
623564.71004235535
 31
0.0
  0
LINE
  5
47F
  8
LEIVA_SOIL_LIMITS
 10
659819.19159159856
 20
623564.71004235535
 30
0.0
 11
659922.05743390159
 21
623374.23354177386
 31
0.0
  0
LINE
  5
480
  8
LEIVA_SOIL_LIMITS
 10
659922.05743390159
 20
623374.23354177386
 30
0.0
 11
660054.18149129068
 21
623286.39244303992
 31
0.0
  0
LINE
  5
481
  8
LEIVA_SOIL_LIMITS
 10
660054.18149129068
 20
623286.39244303992
 30
0.0
 11
660054.34164192132
 21
623095.82962771144
 31
0.0
  0
LINE
  5
482
  8
LEIVA_SOIL_LIMITS
 10
660054.34164192132
 20
623095.82962771144
 30
0.0
 11
660054.44019613997
 21
622978.560221483
 31
0.0
  0
LINE
  5
483
  8
LEIVA_SOIL_LIMITS
 10
660054.44019613997
 20
622978.560221483
 30
0.0
 11
659907.81634481833
 21
622861.16746820393
 31
0.0
  0
LINE
  5
484
  8
LEIVA_SOIL_LIMITS
 10
659907.81634481833
 20
622861.16746820393
 30
0.0
 11
659790.59861760435
 21
622670.50600749603
 31
0.0
  0
LINE
  5
485
  8
LEIVA_SOIL_LIMITS
 10
659790.59861760435
 20
622670.50600749603
 30
0.0
 11
659805.35703872656
 21
622567.90759760875
 31
0.0
  0
LINE
  5
486
  8
LEIVA_SOIL_LIMITS
 10
659805.35703872656
 20
622567.90759760875
 30
0.0
 11
660054.8836901912
 21
622450.84781290218
 31
0.0
  0
LINE
  5
487
  8
LEIVA_SOIL_LIMITS
 10
660054.8836901912
 20
622450.84781290218
 30
0.0
 11
660319.04557002138
 21
622377.77635595214
 31
0.0
  0
LINE
  5
488
  8
LEIVA_SOIL_LIMITS
 10
660319.04557002138
 20
622377.77635595214
 30
0.0
 11
660392.46840803325
 21
622304.54464054876
 31
0.0
  0
LINE
  5
489
  8
LEIVA_SOIL_LIMITS
 10
660392.46840803325
 20
622304.54464054876
 30
0.0
 11
660407.23914845777
 21
622187.2875246742
 31
0.0
  0
LINE
  5
48A
  8
LEIVA_SOIL_LIMITS
 10
660407.23914845777
 20
622187.2875246742
 30
0.0
 11
660466.03899971326
 21
622055.40877546021
 31
0.0
  0
LINE
  5
48B
  8
LEIVA_SOIL_LIMITS
 10
660466.03899971326
 20
622055.40877546021
 30
0.0
 11
660554.22025888215
 21
621879.5786098903
 31
0.0
  0
LINE
  5
48C
  8
LEIVA_SOIL_LIMITS
 10
660554.22025888215
 20
621879.5786098903
 30
0.0
 11
660730.29943376244
 21
621865.06791228335
 31
0.0
  0
LINE
  5
48D
  8
LEIVA_SOIL_LIMITS
 10
660730.29943376244
 20
621865.06791228335
 30
0.0
 11
660686.3443162716
 21
621791.73751115554
 31
0.0
  0
LINE
  5
48E
  8
LEIVA_SOIL_LIMITS
 10
660686.3443162716
 20
621791.73751115554
 30
0.0
 11
660569.02803480648
 21
621718.34549695509
 31
0.0
  0
LINE
  5
48F
  8
LEIVA_SOIL_LIMITS
 10
660569.02803480648
 20
621718.34549695509
 30
0.0
 11
660393.14596839598
 21
621498.31734182755
 31
0.0
  0
LINE
  5
490
  8
LEIVA_SOIL_LIMITS
 10
660393.14596839598
 20
621498.31734182755
 30
0.0
 11
660290.53883097705
 21
621380.96158057393
 31
0.0
  0
LINE
  5
491
  8
LEIVA_SOIL_LIMITS
 10
660290.53883097705
 20
621380.96158057393
 30
0.0
 11
660129.27967359661
 21
621219.58049947117
 31
0.0
  0
LINE
  5
492
  8
LEIVA_SOIL_LIMITS
 10
660129.27967359661
 20
621219.58049947117
 30
0.0
 11
659997.30344756809
 21
621131.51744858595
 31
0.0
  0
LINE
  5
493
  8
LEIVA_SOIL_LIMITS
 10
659997.30344756809
 20
621131.51744858595
 30
0.0
 11
659953.40992645558
 21
620984.89367863722
 31
0.0
  0
LINE
  5
494
  8
LEIVA_SOIL_LIMITS
 10
659953.40992645558
 20
620984.89367863722
 30
0.0
 11
659953.54543851456
 21
620823.64823500335
 31
0.0
  0
LINE
  5
495
  8
LEIVA_SOIL_LIMITS
 10
659953.54543851456
 20
620823.64823500335
 30
0.0
 11
660129.6985290763
 21
620721.18546258681
 31
0.0
  0
LINE
  5
496
  8
LEIVA_SOIL_LIMITS
 10
660129.6985290763
 20
620721.18546258681
 30
0.0
 11
660247.13808102533
 21
620647.99069892941
 31
0.0
  0
LINE
  5
497
  8
LEIVA_SOIL_LIMITS
 10
660247.13808102533
 20
620647.99069892941
 30
0.0
 11
660291.26566844922
 21
620516.09957873938
 31
0.0
  0
LINE
  5
498
  8
LEIVA_SOIL_LIMITS
 10
660291.26566844922
 20
620516.09957873938
 30
0.0
 11
660238.68843658059
 21
620431.89643134456
 31
0.0
  0
LINE
  5
499
  8
LEIVA_SOIL_LIMITS
 10
659892.82702362991
 20
623832.25804254669
 30
0.0
 11
659912.68186194031
 21
623840.54282918363
 31
0.0
  0
LINE
  5
49A
  8
LEIVA_SOIL_LIMITS
 10
659912.68186194031
 20
623840.54282918363
 30
0.0
 11
660047.75880326657
 21
623822.66471475526
 31
0.0
  0
LINE
  5
49B
  8
LEIVA_SOIL_LIMITS
 10
660047.75880326657
 20
623822.66471475526
 30
0.0
 11
660155.82347362093
 21
623804.76389898255
 31
0.0
  0
LINE
  5
49C
  8
LEIVA_SOIL_LIMITS
 10
660155.82347362093
 20
623804.76389898255
 30
0.0
 11
660250.37433177768
 21
623795.8475633515
 31
0.0
  0
LINE
  5
49D
  8
LEIVA_SOIL_LIMITS
 10
660250.37433177768
 20
623795.8475633515
 30
0.0
 11
660380.97189541254
 21
623750.9782934573
 31
0.0
  0
LINE
  5
49E
  8
LEIVA_SOIL_LIMITS
 10
660380.97189541254
 20
623750.9782934573
 30
0.0
 11
660502.55408032716
 21
623719.59512230079
 31
0.0
  0
LINE
  5
49F
  8
LEIVA_SOIL_LIMITS
 10
660502.55408032716
 20
623719.59512230079
 30
0.0
 11
660579.08528812125
 21
623724.15735841938
 31
0.0
  0
LINE
  5
4A0
  8
LEIVA_SOIL_LIMITS
 10
660579.08528812125
 20
623724.15735841938
 30
0.0
 11
660637.60456111305
 21
623733.20233550714
 31
0.0
  0
LINE
  5
4A1
  8
LEIVA_SOIL_LIMITS
 10
660637.60456111305
 20
623733.20233550714
 30
0.0
 11
660750.15987162536
 21
623728.79904960492
 31
0.0
  0
LINE
  5
4A2
  8
LEIVA_SOIL_LIMITS
 10
660750.15987162536
 20
623728.79904960492
 30
0.0
 11
660867.22109806107
 21
623719.9015916019
 31
0.0
  0
LINE
  5
4A3
  8
LEIVA_SOIL_LIMITS
 10
660867.22109806107
 20
623719.9015916019
 30
0.0
 11
660961.77195621794
 21
623710.98525597109
 31
0.0
  0
LINE
  5
4A4
  8
LEIVA_SOIL_LIMITS
 10
660961.77195621794
 20
623710.98525597109
 30
0.0
 11
661060.81731234561
 21
623711.0684945411
 31
0.0
  0
LINE
  5
4A5
  8
LEIVA_SOIL_LIMITS
 10
661060.81731234561
 20
623711.0684945411
 30
0.0
 11
661177.87475869525
 21
623706.66895199334
 31
0.0
  0
LINE
  5
4A6
  8
LEIVA_SOIL_LIMITS
 10
661177.87475869525
 20
623706.66895199334
 30
0.0
 11
661285.931791184
 21
623697.7639670677
 31
0.0
  0
LINE
  5
4A7
  8
LEIVA_SOIL_LIMITS
 10
661285.931791184
 20
623697.7639670677
 30
0.0
 11
661389.48676556163
 21
623688.85519857262
 31
0.0
  0
LINE
  5
4A8
  8
LEIVA_SOIL_LIMITS
 10
661389.48676556163
 20
623688.85519857262
 30
0.0
 11
661497.54757813632
 21
623675.45229819091
 31
0.0
  0
LINE
  5
4A9
  8
LEIVA_SOIL_LIMITS
 10
661497.54757813632
 20
623675.45229819091
 30
0.0
 11
661596.60805457737
 21
623657.54391521658
 31
0.0
  0
LINE
  5
4AA
  8
LEIVA_SOIL_LIMITS
 10
661596.60805457737
 20
623657.54391521658
 30
0.0
 11
661682.16235665255
 21
623639.6242218148
 31
0.0
  0
LINE
  5
4AB
  8
LEIVA_SOIL_LIMITS
 10
661682.16235665255
 20
623639.6242218148
 30
0.0
 11
661803.75966184644
 21
623590.2494693934
 31
0.0
  0
LINE
  5
4AC
  8
LEIVA_SOIL_LIMITS
 10
661803.75966184644
 20
623590.2494693934
 30
0.0
 11
661816.70690889144
 21
623587.32107352326
 31
0.0
  0
LINE
  5
4AD
  8
LEIVA_SOIL_LIMITS
 10
666218.52628551528
 20
625877.06348994945
 30
0.0
 11
665953.45476361294
 21
626009.19852484902
 31
0.0
  0
LINE
  5
4AE
  8
LEIVA_SOIL_LIMITS
 10
665953.45476361294
 20
626009.19852484902
 30
0.0
 11
665755.7141315114
 21
626294.04823994217
 31
0.0
  0
LINE
  5
4AF
  8
LEIVA_SOIL_LIMITS
 10
665755.7141315114
 20
626294.04823994217
 30
0.0
 11
665667.60419007204
 21
626688.61157025956
 31
0.0
  0
LINE
  5
4B0
  8
LEIVA_SOIL_LIMITS
 10
665667.60419007204
 20
626688.61157025956
 30
0.0
 11
665776.86637361534
 21
627236.81083866255
 31
0.0
  0
LINE
  5
4B1
  8
LEIVA_SOIL_LIMITS
 10
665776.86637361534
 20
627236.81083866255
 30
0.0
 11
665758.77422363905
 21
627557.31000446528
 31
0.0
  0
LINE
  5
4B2
  8
LEIVA_SOIL_LIMITS
 10
665758.77422363905
 20
627557.31000446528
 30
0.0
 11
665976.06261773582
 21
627800.85974100209
 31
0.0
  0
LINE
  5
4B3
  8
LEIVA_SOIL_LIMITS
 10
665976.06261773582
 20
627800.85974100209
 30
0.0
 11
666029.56383572402
 21
627901.28484440339
 31
0.0
  0
LINE
  5
4B4
  8
LEIVA_SOIL_LIMITS
 10
666029.56383572402
 20
627901.28484440339
 30
0.0
 11
666129.98055478476
 21
627968.28932915581
 31
0.0
  0
LINE
  5
4B5
  8
LEIVA_SOIL_LIMITS
 10
666129.98055478476
 20
627968.28932915581
 30
0.0
 11
666250.45249755215
 21
628082.1547501788
 31
0.0
  0
LINE
  5
4B6
  8
LEIVA_SOIL_LIMITS
 10
666250.45249755215
 20
628082.1547501788
 30
0.0
 11
666377.65068000124
 21
628162.56577715173
 31
0.0
  0
LINE
  5
4B7
  8
LEIVA_SOIL_LIMITS
 10
666377.65068000124
 20
628162.56577715173
 30
0.0
 11
666484.73747625342
 21
628263.035914334
 31
0.0
  0
LINE
  5
4B8
  8
LEIVA_SOIL_LIMITS
 10
666484.73747625342
 20
628263.035914334
 30
0.0
 11
666611.84575209511
 21
628450.51902368898
 31
0.0
  0
LINE
  5
4B9
  8
LEIVA_SOIL_LIMITS
 10
666611.84575209511
 20
628450.51902368898
 30
0.0
 11
666625.20277855336
 21
628497.37429045525
 31
0.0
  0
LINE
  5
4BA
  8
LEIVA_SOIL_LIMITS
 10
666625.20277855336
 20
628497.37429045525
 30
0.0
 11
666605.04069847253
 21
628577.66147459485
 31
0.0
  0
LINE
  5
4BB
  8
LEIVA_SOIL_LIMITS
 10
666605.04069847253
 20
628577.66147459485
 30
0.0
 11
666578.20291717327
 21
628631.17501900299
 31
0.0
  0
LINE
  5
4BC
  8
LEIVA_SOIL_LIMITS
 10
666578.20291717327
 20
628631.17501900299
 30
0.0
 11
666572.50810344634
 21
628644.41989703663
 31
0.0
  0
LINE
  5
4BD
  8
LEIVA_SOIL_LIMITS
 10
666572.50810344634
 20
628644.41989703663
 30
0.0
 11
666599.11693855561
 21
628659.21818544553
 31
0.0
  0
LINE
  5
4BE
  8
LEIVA_SOIL_LIMITS
 10
663543.72787104524
 20
626407.96631514234
 30
0.0
 11
663557.47463372943
 21
626390.82828407525
 31
0.0
  0
LINE
  5
4BF
  8
LEIVA_SOIL_LIMITS
 10
663557.47463372943
 20
626390.82828407525
 30
0.0
 11
663586.52814575785
 21
626360.53325884207
 31
0.0
  0
LINE
  5
4C0
  8
LEIVA_SOIL_LIMITS
 10
663586.52814575785
 20
626360.53325884207
 30
0.0
 11
663598.94863743382
 21
626299.87679628225
 31
0.0
  0
LINE
  5
4C1
  8
LEIVA_SOIL_LIMITS
 10
663598.94863743382
 20
626299.87679628225
 30
0.0
 11
663624.37663554447
 21
626255.01834911085
 31
0.0
  0
LINE
  5
4C2
  8
LEIVA_SOIL_LIMITS
 10
663624.37663554447
 20
626255.01834911085
 30
0.0
 11
663640.03748922155
 21
626212.10298819095
 31
0.0
  0
LINE
  5
4C3
  8
LEIVA_SOIL_LIMITS
 10
663640.03748922155
 20
626212.10298819095
 30
0.0
 11
663657.65317695728
 21
626167.23793520639
 31
0.0
  0
LINE
  5
4C4
  8
LEIVA_SOIL_LIMITS
 10
663657.65317695728
 20
626167.23793520639
 30
0.0
 11
663669.38647921744
 21
626149.68614418304
 31
0.0
  0
LINE
  5
4C5
  8
LEIVA_SOIL_LIMITS
 10
663669.38647921744
 20
626149.68614418304
 30
0.0
 11
663704.56202085025
 21
626126.30013000919
 31
0.0
  0
LINE
  5
4C6
  8
LEIVA_SOIL_LIMITS
 10
663704.56202085025
 20
626126.30013000919
 30
0.0
 11
663729.97689985775
 21
626097.05206924025
 31
0.0
  0
LINE
  5
4C7
  8
LEIVA_SOIL_LIMITS
 10
663729.97689985775
 20
626097.05206924025
 30
0.0
 11
663751.48234392889
 21
626071.70327195548
 31
0.0
  0
LINE
  5
4C8
  8
LEIVA_SOIL_LIMITS
 10
663751.48234392889
 20
626071.70327195548
 30
0.0
 11
663782.75329254882
 21
626046.36268168478
 31
0.0
  0
LINE
  5
4C9
  8
LEIVA_SOIL_LIMITS
 10
663782.75329254882
 20
626046.36268168478
 30
0.0
 11
663810.12128803926
 21
626017.1162220519
 31
0.0
  0
LINE
  5
4CA
  8
LEIVA_SOIL_LIMITS
 10
663810.12128803926
 20
626017.1162220519
 30
0.0
 11
663851.16586293525
 21
625982.02737240354
 31
0.0
  0
LINE
  5
4CB
  8
LEIVA_SOIL_LIMITS
 10
663851.16586293525
 20
625982.02737240354
 30
0.0
 11
663876.57426010084
 21
625960.58448476088
 31
0.0
  0
LINE
  5
4CC
  8
LEIVA_SOIL_LIMITS
 10
663876.57426010084
 20
625960.58448476088
 30
0.0
 11
663929.33909587865
 21
625923.55419027689
 31
0.0
  0
LINE
  5
4CD
  8
LEIVA_SOIL_LIMITS
 10
663929.33909587865
 20
625923.55419027689
 30
0.0
 11
663962.56480083126
 21
625896.26394815766
 31
0.0
  0
LINE
  5
4CE
  8
LEIVA_SOIL_LIMITS
 10
663962.56480083126
 20
625896.26394815766
 30
0.0
 11
663997.74846419087
 21
625863.12146759219
 31
0.0
  0
LINE
  5
4CF
  8
LEIVA_SOIL_LIMITS
 10
663997.74846419087
 20
625863.12146759219
 30
0.0
 11
664060.27068275993
 21
625835.85588679346
 31
0.0
  0
LINE
  5
4D0
  8
LEIVA_SOIL_LIMITS
 10
664060.27068275993
 20
625835.85588679346
 30
0.0
 11
664087.63375859777
 21
625812.46330695646
 31
0.0
  0
LINE
  5
4D1
  8
LEIVA_SOIL_LIMITS
 10
664087.63375859777
 20
625812.46330695646
 30
0.0
 11
664111.0938813081
 21
625785.16485775798
 31
0.0
  0
LINE
  5
4D2
  8
LEIVA_SOIL_LIMITS
 10
664111.0938813081
 20
625785.16485775798
 30
0.0
 11
664136.50555824151
 21
625759.81938358431
 31
0.0
  0
LINE
  5
4D3
  8
LEIVA_SOIL_LIMITS
 10
664136.50555824151
 20
625759.81938358431
 30
0.0
 11
664152.15329284966
 21
625732.51436878555
 31
0.0
  0
LINE
  5
4D4
  8
LEIVA_SOIL_LIMITS
 10
664152.15329284966
 20
625732.51436878555
 30
0.0
 11
664155.05763753969
 21
625713.27997536445
 31
0.0
  0
LINE
  5
4D5
  8
LEIVA_SOIL_LIMITS
 10
657628.5871728952
 20
622563.32184482249
 30
0.0
 11
657797.05551452516
 21
622555.4488538492
 31
0.0
  0
LINE
  5
4D6
  8
LEIVA_SOIL_LIMITS
 10
657797.05551452516
 20
622555.4488538492
 30
0.0
 11
658100.08258055465
 21
622539.77016284864
 31
0.0
  0
LINE
  5
4D7
  8
LEIVA_SOIL_LIMITS
 10
658100.08258055465
 20
622539.77016284864
 30
0.0
 11
658323.36913614767
 21
622524.02445723698
 31
0.0
  0
LINE
  5
4D8
  8
LEIVA_SOIL_LIMITS
 10
658323.36913614767
 20
622524.02445723698
 30
0.0
 11
658482.95712580951
 21
622396.69171591243
 31
0.0
  0
LINE
  5
4D9
  8
LEIVA_SOIL_LIMITS
 10
658482.95712580951
 20
622396.69171591243
 30
0.0
 11
658546.85662725428
 21
622269.27855715784
 31
0.0
  0
LINE
  5
4DA
  8
LEIVA_SOIL_LIMITS
 10
658546.85662725428
 20
622269.27855715784
 30
0.0
 11
658562.89841634175
 21
622157.75857620547
 31
0.0
  0
LINE
  5
4DB
  8
LEIVA_SOIL_LIMITS
 10
658562.89841634175
 20
622157.75857620547
 30
0.0
 11
658770.22360363323
 21
622157.93281407771
 31
0.0
  0
LINE
  5
4DC
  8
LEIVA_SOIL_LIMITS
 10
658770.22360363323
 20
622157.93281407771
 30
0.0
 11
658802.15988614177
 21
622110.15958093759
 31
0.0
  0
LINE
  5
4DD
  8
LEIVA_SOIL_LIMITS
 10
658802.15988614177
 20
622110.15958093759
 30
0.0
 11
658834.1364179072
 21
622014.58630895615
 31
0.0
  0
LINE
  5
4DE
  8
LEIVA_SOIL_LIMITS
 10
658834.1364179072
 20
622014.58630895615
 30
0.0
 11
658802.34735344141
 21
621887.09273270785
 31
0.0
  0
LINE
  5
4DF
  8
LEIVA_SOIL_LIMITS
 10
658802.34735344141
 20
621887.09273270785
 30
0.0
 11
658738.66217803175
 21
621759.57235069282
 31
0.0
  0
LINE
  5
4E0
  8
LEIVA_SOIL_LIMITS
 10
658738.66217803175
 20
621759.57235069282
 30
0.0
 11
658802.60177334817
 21
621584.35915296758
 31
0.0
  0
LINE
  5
4E1
  8
LEIVA_SOIL_LIMITS
 10
658802.60177334817
 20
621584.35915296758
 30
0.0
 11
658786.7742325695
 21
621440.94563336414
 31
0.0
  0
LINE
  5
4E2
  8
LEIVA_SOIL_LIMITS
 10
658786.7742325695
 20
621440.94563336414
 30
0.0
 11
658834.75238185795
 21
621281.65241933754
 31
0.0
  0
LINE
  5
4E3
  8
LEIVA_SOIL_LIMITS
 10
658834.75238185795
 20
621281.65241933754
 30
0.0
 11
658850.76746762986
 21
621201.99909077433
 31
0.0
  0
LINE
  5
4E4
  8
LEIVA_SOIL_LIMITS
 10
658850.76746762986
 20
621201.99909077433
 30
0.0
 11
658914.68028190243
 21
621058.65258565312
 31
0.0
  0
LINE
  5
4E5
  8
LEIVA_SOIL_LIMITS
 10
658914.68028190243
 20
621058.65258565312
 30
0.0
 11
658866.91638092208
 21
620963.01229912601
 31
0.0
  0
LINE
  5
4E6
  8
LEIVA_SOIL_LIMITS
 10
658866.91638092208
 20
620963.01229912601
 30
0.0
 11
658819.07213681401
 21
620962.97209041135
 31
0.0
  0
LINE
  5
4E7
  8
LEIVA_SOIL_LIMITS
 10
658819.07213681401
 20
620962.97209041135
 30
0.0
 11
658882.95817004435
 21
620851.4922778937
 31
0.0
  0
LINE
  5
4E8
  8
LEIVA_SOIL_LIMITS
 10
658882.95817004435
 20
620851.4922778937
 30
0.0
 11
658962.76555539644
 21
620771.89256092976
 31
0.0
  0
LINE
  5
4E9
  8
LEIVA_SOIL_LIMITS
 10
658962.76555539644
 20
620771.89256092976
 30
0.0
 11
659042.57294074935
 21
620692.29284396465
 31
0.0
  0
LINE
  5
4EA
  8
LEIVA_SOIL_LIMITS
 10
659042.57294074935
 20
620692.29284396465
 30
0.0
 11
659042.72023648466
 21
620517.02603464096
 31
0.0
  0
LINE
  5
4EB
  8
LEIVA_SOIL_LIMITS
 10
659042.72023648466
 20
620517.02603464096
 30
0.0
 11
659042.80057961307
 21
620421.42595682852
 31
0.0
  0
LINE
  5
4EC
  8
LEIVA_SOIL_LIMITS
 10
659042.80057961307
 20
620421.42595682852
 30
0.0
 11
659106.6599094593
 21
620341.81287725992
 31
0.0
  0
LINE
  5
4ED
  8
LEIVA_SOIL_LIMITS
 10
659106.6599094593
 20
620341.81287725992
 30
0.0
 11
659298.05035410775
 21
620326.04036588175
 31
0.0
  0
LINE
  5
4EE
  8
LEIVA_SOIL_LIMITS
 10
659298.05035410775
 20
620326.04036588175
 30
0.0
 11
659361.8694347305
 21
620294.2272848757
 31
0.0
  0
LINE
  5
4EF
  8
LEIVA_SOIL_LIMITS
 10
659361.8694347305
 20
620294.2272848757
 30
0.0
 11
659457.66512481135
 21
620166.84093195305
 31
0.0
  0
LINE
  5
4F0
  8
LEIVA_SOIL_LIMITS
 10
659457.66512481135
 20
620166.84093195305
 30
0.0
 11
659362.05690203013
 21
620071.16043664515
 31
0.0
  0
LINE
  5
4F1
  8
LEIVA_SOIL_LIMITS
 10
659362.05690203013
 20
620071.16043664515
 30
0.0
 11
659298.37172662141
 21
619943.64005463035
 31
0.0
  0
LINE
  5
4F2
  8
LEIVA_SOIL_LIMITS
 10
659298.37172662141
 20
619943.64005463035
 30
0.0
 11
659314.44029678532
 21
619800.25334079401
 31
0.0
  0
LINE
  5
4F3
  8
LEIVA_SOIL_LIMITS
 10
659314.44029678532
 20
619800.25334079401
 30
0.0
 11
659585.63812678657
 21
619704.88111245167
 31
0.0
  0
LINE
  5
4F4
  8
LEIVA_SOIL_LIMITS
 10
659585.63812678657
 20
619704.88111245167
 30
0.0
 11
659888.54460043111
 21
619832.60253810417
 31
0.0
  0
LINE
  5
4F5
  8
LEIVA_SOIL_LIMITS
 10
659888.54460043111
 20
619832.60253810417
 30
0.0
 11
660000.12765972747
 21
619896.42974369111
 31
0.0
  0
LINE
  5
4F6
  8
LEIVA_SOIL_LIMITS
 10
660000.12765972747
 20
619896.42974369111
 30
0.0
 11
660143.6470792254
 21
619912.48371620278
 31
0.0
  0
LINE
  5
4F7
  8
LEIVA_SOIL_LIMITS
 10
660143.6470792254
 20
619912.48371620278
 30
0.0
 11
660255.24345135002
 21
619960.37757542171
 31
0.0
  0
LINE
  5
4F8
  8
LEIVA_SOIL_LIMITS
 10
660255.24345135002
 20
619960.37757542171
 30
0.0
 11
660335.17135139531
 21
619737.37774173752
 31
0.0
  0
LINE
  5
4F9
  8
LEIVA_SOIL_LIMITS
 10
660335.17135139531
 20
619737.37774173752
 30
0.0
 11
660367.25500733044
 21
619514.33769933914
 31
0.0
  0
LINE
  5
4FA
  8
LEIVA_SOIL_LIMITS
 10
660367.25500733044
 20
619514.33769933914
 30
0.0
 11
660367.42908407468
 21
619307.20423769066
 31
0.0
  0
LINE
  5
4FB
  8
LEIVA_SOIL_LIMITS
 10
660367.42908407468
 20
619307.20423769066
 30
0.0
 11
660463.26494572125
 21
619132.01784586161
 31
0.0
  0
LINE
  5
4FC
  8
LEIVA_SOIL_LIMITS
 10
660463.26494572125
 20
619132.01784586161
 30
0.0
 11
660559.10072967317
 21
618956.83145396726
 31
0.0
  0
LINE
  5
4FD
  8
LEIVA_SOIL_LIMITS
 10
660559.10072967317
 20
618956.83145396726
 30
0.0
 11
660511.4171718217
 21
618765.59108962677
 31
0.0
  0
LINE
  5
4FE
  8
LEIVA_SOIL_LIMITS
 10
660511.4171718217
 20
618765.59108962677
 30
0.0
 11
660543.4606561939
 21
618590.35108613514
 31
0.0
  0
LINE
  5
4FF
  8
LEIVA_SOIL_LIMITS
 10
660543.4606561939
 20
618590.35108613514
 30
0.0
 11
660575.47728179605
 21
618446.97781546111
 31
0.0
  0
LINE
  5
500
  8
LEIVA_SOIL_LIMITS
 10
660575.47728179605
 20
618446.97781546111
 30
0.0
 11
660575.49067231757
 21
618431.0444691591
 31
0.0
  0
LINE
  5
501
  8
LEIVA_SOIL_LIMITS
 10
660575.49067231757
 20
618431.0444691591
 30
0.0
 11
660527.80711446609
 21
618239.8041048185
 31
0.0
  0
LINE
  5
502
  8
LEIVA_SOIL_LIMITS
 10
660527.80711446609
 20
618239.8041048185
 30
0.0
 11
660559.89077040215
 21
618016.76406242023
 31
0.0
  0
LINE
  5
503
  8
LEIVA_SOIL_LIMITS
 10
660559.89077040215
 20
618016.76406242023
 30
0.0
 11
660464.34957792133
 21
617841.41683566745
 31
0.0
  0
LINE
  5
504
  8
LEIVA_SOIL_LIMITS
 10
660464.34957792133
 20
617841.41683566745
 30
0.0
 11
660279.96495616238
 21
617636.38822506671
 31
0.0
  0
LINE
  5
505
  8
LEIVA_SOIL_LIMITS
 10
660279.96495616238
 20
617636.38822506671
 30
0.0
 11
660281.14538155799
 21
617595.94881875475
 31
0.0
  0
LINE
  5
506
  8
LEIVA_SOIL_LIMITS
 10
660281.14538155799
 20
617595.94881875475
 30
0.0
 11
660278.77781395521
 21
617554.27074880549
 31
0.0
  0
LINE
  5
507
  8
LEIVA_SOIL_LIMITS
 10
660278.77781395521
 20
617554.27074880549
 30
0.0
 11
660273.34370029788
 21
617519.73583857738
 31
0.0
  0
LINE
  5
508
  8
LEIVA_SOIL_LIMITS
 10
660273.34370029788
 20
617519.73583857738
 30
0.0
 11
660265.59791559959
 21
617491.35872161901
 31
0.0
  0
LINE
  5
509
  8
LEIVA_SOIL_LIMITS
 10
660265.59791559959
 20
617491.35872161901
 30
0.0
 11
660256.29533487256
 21
617468.15403147961
 31
0.0
  0
LINE
  5
50A
  8
LEIVA_SOIL_LIMITS
 10
660256.29533487256
 20
617468.15403147961
 30
0.0
 11
660246.19083312922
 21
617449.13640170614
 31
0.0
  0
LINE
  5
50B
  8
LEIVA_SOIL_LIMITS
 10
660246.19083312922
 20
617449.13640170614
 30
0.0
 11
660236.03928538319
 21
617433.32046584901
 31
0.0
  0
LINE
  5
50C
  8
LEIVA_SOIL_LIMITS
 10
660236.03928538319
 20
617433.32046584901
 30
0.0
 11
660226.45132693031
 21
617419.82044417388
 31
0.0
  0
LINE
  5
50D
  8
LEIVA_SOIL_LIMITS
 10
660226.45132693031
 20
617419.82044417388
 30
0.0
 11
660217.46063419455
 21
617408.14890382334
 31
0.0
  0
LINE
  5
50E
  8
LEIVA_SOIL_LIMITS
 10
660217.46063419455
 20
617408.14890382334
 30
0.0
 11
660208.956643885
 21
617397.91799865954
 31
0.0
  0
LINE
  5
50F
  8
LEIVA_SOIL_LIMITS
 10
660208.956643885
 20
617397.91799865954
 30
0.0
 11
660200.82879270962
 21
617388.73988254252
 31
0.0
  0
LINE
  5
510
  8
LEIVA_SOIL_LIMITS
 10
660200.82879270962
 20
617388.73988254252
 30
0.0
 11
660192.96651737415
 21
617380.22670933523
 31
0.0
  0
LINE
  5
511
  8
LEIVA_SOIL_LIMITS
 10
660192.96651737415
 20
617380.22670933523
 30
0.0
 11
660185.25925458828
 21
617371.99063289678
 31
0.0
  0
LINE
  5
512
  8
LEIVA_SOIL_LIMITS
 10
660185.25925458828
 20
617371.99063289678
 30
0.0
 11
660177.59644105926
 21
617363.64380709035
 31
0.0
  0
LINE
  5
513
  8
LEIVA_SOIL_LIMITS
 10
660177.59644105926
 20
617363.64380709035
 30
0.0
 11
660169.86751349468
 21
617354.79838577553
 31
0.0
  0
LINE
  5
514
  8
LEIVA_SOIL_LIMITS
 10
660169.86751349468
 20
617354.79838577553
 30
0.0
 11
660162.01358388015
 21
617345.15334910143
 31
0.0
  0
LINE
  5
515
  8
LEIVA_SOIL_LIMITS
 10
660162.01358388015
 20
617345.15334910143
 30
0.0
 11
660154.18246531032
 21
617334.75498236017
 31
0.0
  0
LINE
  5
516
  8
LEIVA_SOIL_LIMITS
 10
660154.18246531032
 20
617334.75498236017
 30
0.0
 11
660146.57364615635
 21
617323.73639713135
 31
0.0
  0
LINE
  5
517
  8
LEIVA_SOIL_LIMITS
 10
660146.57364615635
 20
617323.73639713135
 30
0.0
 11
660139.38661479123
 21
617312.23070499441
 31
0.0
  0
LINE
  5
518
  8
LEIVA_SOIL_LIMITS
 10
660139.38661479123
 20
617312.23070499441
 30
0.0
 11
660132.82085958635
 21
617300.37101752777
 31
0.0
  0
LINE
  5
519
  8
LEIVA_SOIL_LIMITS
 10
660132.82085958635
 20
617300.37101752777
 30
0.0
 11
660127.07586891286
 21
617288.29044631193
 31
0.0
  0
LINE
  5
51A
  8
LEIVA_SOIL_LIMITS
 10
660127.07586891286
 20
617288.29044631193
 30
0.0
 11
660122.35113114328
 21
617276.12210292579
 31
0.0
  0
LINE
  5
51B
  8
LEIVA_SOIL_LIMITS
 10
660122.35113114328
 20
617276.12210292579
 30
0.0
 11
660118.84613464994
 21
617263.99909894879
 31
0.0
  0
LINE
  5
51C
  8
LEIVA_SOIL_LIMITS
 10
660118.84613464994
 20
617263.99909894879
 30
0.0
 11
660116.70496369549
 21
617252.00649188808
 31
0.0
  0
LINE
  5
51D
  8
LEIVA_SOIL_LIMITS
 10
660116.70496369549
 20
617252.00649188808
 30
0.0
 11
660115.85008610575
 21
617240.03712296393
 31
0.0
  0
LINE
  5
51E
  8
LEIVA_SOIL_LIMITS
 10
660115.85008610575
 20
617240.03712296393
 30
0.0
 11
660116.14856559609
 21
617227.93577932473
 31
0.0
  0
LINE
  5
51F
  8
LEIVA_SOIL_LIMITS
 10
660116.14856559609
 20
617227.93577932473
 30
0.0
 11
660117.46746588475
 21
617215.54724811844
 31
0.0
  0
LINE
  5
520
  8
LEIVA_SOIL_LIMITS
 10
660117.46746588475
 20
617215.54724811844
 30
0.0
 11
660119.67385068885
 21
617202.71631649404
 31
0.0
  0
LINE
  5
521
  8
LEIVA_SOIL_LIMITS
 10
660119.67385068885
 20
617202.71631649404
 30
0.0
 11
660122.63478372421
 21
617189.28777160065
 31
0.0
  0
LINE
  5
522
  8
LEIVA_SOIL_LIMITS
 10
660122.63478372421
 20
617189.28777160065
 30
0.0
 11
660126.21732870652
 21
617175.10640058434
 31
0.0
  0
LINE
  5
523
  8
LEIVA_SOIL_LIMITS
 10
660126.21732870652
 20
617175.10640058434
 30
0.0
 11
660130.28854935418
 21
617160.01699059643
 31
0.0
  0
LINE
  5
524
  8
LEIVA_SOIL_LIMITS
 10
660130.28854935418
 20
617160.01699059643
 30
0.0
 11
660134.74134000088
 21
617143.91605086823
 31
0.0
  0
LINE
  5
525
  8
LEIVA_SOIL_LIMITS
 10
660134.74134000088
 20
617143.91605086823
 30
0.0
 11
660139.57191745285
 21
617126.90697897552
 31
0.0
  0
LINE
  5
526
  8
LEIVA_SOIL_LIMITS
 10
660139.57191745285
 20
617126.90697897552
 30
0.0
 11
660144.80232913303
 21
617109.14489457686
 31
0.0
  0
LINE
  5
527
  8
LEIVA_SOIL_LIMITS
 10
660144.80232913303
 20
617109.14489457686
 30
0.0
 11
660150.45462246623
 21
617090.78491733293
 31
0.0
  0
LINE
  5
528
  8
LEIVA_SOIL_LIMITS
 10
660150.45462246623
 20
617090.78491733293
 30
0.0
 11
660156.55084487516
 21
617071.98216690274
 31
0.0
  0
LINE
  5
529
  8
LEIVA_SOIL_LIMITS
 10
660156.55084487516
 20
617071.98216690274
 30
0.0
 11
660163.1130437837
 21
617052.8917629458
 31
0.0
  0
LINE
  5
52A
  8
LEIVA_SOIL_LIMITS
 10
660163.1130437837
 20
617052.8917629458
 30
0.0
 11
660170.16326661652
 21
617033.66882512276
 31
0.0
  0
LINE
  5
52B
  8
LEIVA_SOIL_LIMITS
 10
660170.16326661652
 20
617033.66882512276
 30
0.0
 11
660177.72356079542
 21
617014.46847309335
 31
0.0
  0
LINE
  5
52C
  8
LEIVA_SOIL_LIMITS
 10
660177.72356079542
 20
617014.46847309335
 30
0.0
 11
660185.76793111651
 21
616995.43470751215
 31
0.0
  0
LINE
  5
52D
  8
LEIVA_SOIL_LIMITS
 10
660185.76793111651
 20
616995.43470751215
 30
0.0
 11
660194.0782118527
 21
616976.66705302428
 31
0.0
  0
LINE
  5
52E
  8
LEIVA_SOIL_LIMITS
 10
660194.0782118527
 20
616976.66705302428
 30
0.0
 11
660202.38819465053
 21
616958.253915268
 31
0.0
  0
LINE
  5
52F
  8
LEIVA_SOIL_LIMITS
 10
660202.38819465053
 20
616958.253915268
 30
0.0
 11
660210.4316711541
 21
616940.28369988443
 31
0.0
  0
LINE
  5
530
  8
LEIVA_SOIL_LIMITS
 10
660210.4316711541
 20
616940.28369988443
 30
0.0
 11
660217.94243300951
 21
616922.84481251263
 31
0.0
  0
LINE
  5
531
  8
LEIVA_SOIL_LIMITS
 10
660217.94243300951
 20
616922.84481251263
 30
0.0
 11
660224.65427186072
 21
616906.02565879351
 31
0.0
  0
LINE
  5
532
  8
LEIVA_SOIL_LIMITS
 10
660224.65427186072
 20
616906.02565879351
 30
0.0
 11
660230.30097935442
 21
616889.91464436625
 31
0.0
  0
LINE
  5
533
  8
LEIVA_SOIL_LIMITS
 10
660230.30097935442
 20
616889.91464436625
 30
0.0
 11
660234.61634713365
 21
616874.60017487057
 31
0.0
  0
LINE
  5
534
  8
LEIVA_SOIL_LIMITS
 10
660234.61634713365
 20
616874.60017487057
 30
0.0
 11
660237.43029868277
 21
616860.13750072336
 31
0.0
  0
LINE
  5
535
  8
LEIVA_SOIL_LIMITS
 10
660237.43029868277
 20
616860.13750072336
 30
0.0
 11
660238.95728483517
 21
616846.44925144012
 31
0.0
  0
LINE
  5
536
  8
LEIVA_SOIL_LIMITS
 10
660238.95728483517
 20
616846.44925144012
 30
0.0
 11
660239.50788826309
 21
616833.42490131152
 31
0.0
  0
LINE
  5
537
  8
LEIVA_SOIL_LIMITS
 10
660239.50788826309
 20
616833.42490131152
 30
0.0
 11
660239.39269163762
 21
616820.95392463217
 31
0.0
  0
LINE
  5
538
  8
LEIVA_SOIL_LIMITS
 10
660239.39269163762
 20
616820.95392463217
 30
0.0
 11
660238.92227763089
 21
616808.92579569225
 31
0.0
  0
LINE
  5
539
  8
LEIVA_SOIL_LIMITS
 10
660238.92227763089
 20
616808.92579569225
 30
0.0
 11
660238.40722891537
 21
616797.22998878534
 31
0.0
  0
LINE
  5
53A
  8
LEIVA_SOIL_LIMITS
 10
660238.40722891537
 20
616797.22998878534
 30
0.0
 11
660238.15812816017
 21
616785.75597820175
 31
0.0
  0
LINE
  5
53B
  8
LEIVA_SOIL_LIMITS
 10
660238.15812816017
 20
616785.75597820175
 30
0.0
 11
660238.48555803904
 21
616774.39323823503
 31
0.0
  0
LINE
  5
53C
  8
LEIVA_SOIL_LIMITS
 10
660238.48555803904
 20
616774.39323823503
 30
0.0
 11
660239.65570828505
 21
616763.07552056247
 31
0.0
  0
LINE
  5
53D
  8
LEIVA_SOIL_LIMITS
 10
660239.65570828505
 20
616763.07552056247
 30
0.0
 11
660241.75719688041
 21
616751.91368641192
 31
0.0
  0
LINE
  5
53E
  8
LEIVA_SOIL_LIMITS
 10
660241.75719688041
 20
616751.91368641192
 30
0.0
 11
660244.83424886852
 21
616741.06287439435
 31
0.0
  0
LINE
  5
53F
  8
LEIVA_SOIL_LIMITS
 10
660244.83424886852
 20
616741.06287439435
 30
0.0
 11
660248.93108929321
 21
616730.67822312214
 31
0.0
  0
LINE
  5
540
  8
LEIVA_SOIL_LIMITS
 10
660248.93108929321
 20
616730.67822312214
 30
0.0
 11
660254.09194319835
 21
616720.91487120965
 31
0.0
  0
LINE
  5
541
  8
LEIVA_SOIL_LIMITS
 10
660254.09194319835
 20
616720.91487120965
 30
0.0
 11
660260.3610356251
 21
616711.92795726773
 31
0.0
  0
LINE
  5
542
  8
LEIVA_SOIL_LIMITS
 10
660260.3610356251
 20
616711.92795726773
 30
0.0
 11
660267.78259161999
 21
616703.8726199097
 31
0.0
  0
LINE
  5
543
  8
LEIVA_SOIL_LIMITS
 10
660267.78259161999
 20
616703.8726199097
 30
0.0
 11
660276.40083622513
 21
616696.90399775014
 31
0.0
  0
LINE
  5
544
  8
LEIVA_SOIL_LIMITS
 10
660276.40083622513
 20
616696.90399775014
 30
0.0
 11
660286.21941903187
 21
616691.07748728024
 31
0.0
  0
LINE
  5
545
  8
LEIVA_SOIL_LIMITS
 10
660286.21941903187
 20
616691.07748728024
 30
0.0
 11
660297.07968781714
 21
616686.04951652582
 31
0.0
  0
LINE
  5
546
  8
LEIVA_SOIL_LIMITS
 10
660297.07968781714
 20
616686.04951652582
 30
0.0
 11
660308.78241490712
 21
616681.37677139323
 31
0.0
  0
LINE
  5
547
  8
LEIVA_SOIL_LIMITS
 10
660308.78241490712
 20
616681.37677139323
 30
0.0
 11
660321.12837262638
 21
616676.61593778711
 31
0.0
  0
LINE
  5
548
  8
LEIVA_SOIL_LIMITS
 10
660321.12837262638
 20
616676.61593778711
 30
0.0
 11
660333.91833329899
 21
616671.32370161568
 31
0.0
  0
LINE
  5
549
  8
LEIVA_SOIL_LIMITS
 10
660333.91833329899
 20
616671.32370161568
 30
0.0
 11
660346.95306925033
 21
616665.05674878391
 31
0.0
  0
LINE
  5
54A
  8
LEIVA_SOIL_LIMITS
 10
660346.95306925033
 20
616665.05674878391
 30
0.0
 11
660360.03335280635
 21
616657.37176519784
 31
0.0
  0
LINE
  5
54B
  8
LEIVA_SOIL_LIMITS
 10
660360.03335280635
 20
616657.37176519784
 30
0.0
 11
660372.95995629136
 21
616647.82543676277
 31
0.0
  0
LINE
  5
54C
  8
LEIVA_SOIL_LIMITS
 10
660372.95995629136
 20
616647.82543676277
 30
0.0
 11
660385.55939885194
 21
616636.12587945885
 31
0.0
  0
LINE
  5
54D
  8
LEIVA_SOIL_LIMITS
 10
660385.55939885194
 20
616636.12587945885
 30
0.0
 11
660397.76118692651
 21
616622.58692955133
 31
0.0
  0
LINE
  5
54E
  8
LEIVA_SOIL_LIMITS
 10
660397.76118692651
 20
616622.58692955133
 30
0.0
 11
660409.52057377249
 21
616607.67385337688
 31
0.0
  0
LINE
  5
54F
  8
LEIVA_SOIL_LIMITS
 10
660409.52057377249
 20
616607.67385337688
 30
0.0
 11
660420.79281264963
 21
616591.85191727336
 31
0.0
  0
LINE
  5
550
  8
LEIVA_SOIL_LIMITS
 10
660420.79281264963
 20
616591.85191727336
 30
0.0
 11
660431.53315681836
 21
616575.5863875784
 31
0.0
  0
LINE
  5
551
  8
LEIVA_SOIL_LIMITS
 10
660431.53315681836
 20
616575.5863875784
 30
0.0
 11
660441.69685953669
 21
616559.34253062867
 31
0.0
  0
LINE
  5
552
  8
LEIVA_SOIL_LIMITS
 10
660441.69685953669
 20
616559.34253062867
 30
0.0
 11
660451.23917406495
 21
616543.58561276353
 31
0.0
  0
LINE
  5
553
  8
LEIVA_SOIL_LIMITS
 10
660451.23917406495
 20
616543.58561276353
 30
0.0
 11
660460.11535366066
 21
616528.78090031957
 31
0.0
  0
LINE
  5
554
  8
LEIVA_SOIL_LIMITS
 10
660460.11535366066
 20
616528.78090031957
 30
0.0
 11
660468.32138849748
 21
616515.30137165263
 31
0.0
  0
LINE
  5
555
  8
LEIVA_SOIL_LIMITS
 10
660468.32138849748
 20
616515.30137165263
 30
0.0
 11
660476.01621639763
 21
616503.15085318894
 31
0.0
  0
LINE
  5
556
  8
LEIVA_SOIL_LIMITS
 10
660476.01621639763
 20
616503.15085318894
 30
0.0
 11
660483.39951209689
 21
616492.24088337389
 31
0.0
  0
LINE
  5
557
  8
LEIVA_SOIL_LIMITS
 10
660483.39951209689
 20
616492.24088337389
 30
0.0
 11
660490.67095033149
 21
616482.48300065123
 31
0.0
  0
LINE
  5
558
  8
LEIVA_SOIL_LIMITS
 10
660490.67095033149
 20
616482.48300065123
 30
0.0
 11
660498.03020583536
 21
616473.7887434666
 31
0.0
  0
LINE
  5
559
  8
LEIVA_SOIL_LIMITS
 10
660498.03020583536
 20
616473.7887434666
 30
0.0
 11
660505.67695334496
 21
616466.06965026434
 31
0.0
  0
LINE
  5
55A
  8
LEIVA_SOIL_LIMITS
 10
660505.67695334496
 20
616466.06965026434
 30
0.0
 11
660513.81086759723
 21
616459.2372594889
 31
0.0
  0
LINE
  5
55B
  8
LEIVA_SOIL_LIMITS
 10
660513.81086759723
 20
616459.2372594889
 30
0.0
 11
660522.63162332564
 21
616453.20310958405
 31
0.0
  0
LINE
  5
55C
  8
LEIVA_SOIL_LIMITS
 10
660522.63162332564
 20
616453.20310958405
 30
0.0
 11
660532.26495994895
 21
616447.88975552632
 31
0.0
  0
LINE
  5
55D
  8
LEIVA_SOIL_LIMITS
 10
660532.26495994895
 20
616447.88975552632
 30
0.0
 11
660542.54087561194
 21
616443.26381841837
 31
0.0
  0
LINE
  5
55E
  8
LEIVA_SOIL_LIMITS
 10
660542.54087561194
 20
616443.26381841837
 30
0.0
 11
660553.21543314052
 21
616439.30293589213
 31
0.0
  0
LINE
  5
55F
  8
LEIVA_SOIL_LIMITS
 10
660553.21543314052
 20
616439.30293589213
 30
0.0
 11
660564.0446953628
 21
616435.98474557814
 31
0.0
  0
LINE
  5
560
  8
LEIVA_SOIL_LIMITS
 10
660564.0446953628
 20
616435.98474557814
 30
0.0
 11
660574.78472510318
 21
616433.28688511206
 31
0.0
  0
LINE
  5
561
  8
LEIVA_SOIL_LIMITS
 10
660574.78472510318
 20
616433.28688511206
 30
0.0
 11
660585.19158518966
 21
616431.18699212372
 31
0.0
  0
LINE
  5
562
  8
LEIVA_SOIL_LIMITS
 10
660585.19158518966
 20
616431.18699212372
 30
0.0
 11
660595.02133844781
 21
616429.66270424635
 31
0.0
  0
LINE
  5
563
  8
LEIVA_SOIL_LIMITS
 10
660595.02133844781
 20
616429.66270424635
 30
0.0
 11
660604.0300477054
 21
616428.69165911246
 31
0.0
  0
LINE
  5
564
  8
LEIVA_SOIL_LIMITS
 10
660604.0300477054
 20
616428.69165911246
 30
0.0
 11
660612.04031848931
 21
616428.24047163734
 31
0.0
  0
LINE
  5
565
  8
LEIVA_SOIL_LIMITS
 10
660612.04031848931
 20
616428.24047163734
 30
0.0
 11
660619.14092713979
 21
616428.23166586319
 31
0.0
  0
LINE
  5
566
  8
LEIVA_SOIL_LIMITS
 10
660619.14092713979
 20
616428.23166586319
 30
0.0
 11
660625.48719269526
 21
616428.57674311672
 31
0.0
  0
LINE
  5
567
  8
LEIVA_SOIL_LIMITS
 10
660625.48719269526
 20
616428.57674311672
 30
0.0
 11
660631.23443419544
 21
616429.1872047201
 31
0.0
  0
LINE
  5
568
  8
LEIVA_SOIL_LIMITS
 10
660631.23443419544
 20
616429.1872047201
 30
0.0
 11
660636.53797068098
 21
616429.97455200087
 31
0.0
  0
LINE
  5
569
  8
LEIVA_SOIL_LIMITS
 10
660636.53797068098
 20
616429.97455200087
 30
0.0
 11
660641.55312119168
 21
616430.85028628341
 31
0.0
  0
LINE
  5
56A
  8
LEIVA_SOIL_LIMITS
 10
660641.55312119168
 20
616430.85028628341
 30
0.0
 11
660646.43520476611
 21
616431.725908892
 31
0.0
  0
LINE
  5
56B
  8
LEIVA_SOIL_LIMITS
 10
660646.43520476611
 20
616431.725908892
 30
0.0
 11
660651.33954044711
 21
616432.5129211531
 31
0.0
  0
LINE
  5
56C
  8
LEIVA_SOIL_LIMITS
 10
660651.33954044711
 20
616432.5129211531
 30
0.0
 11
660656.42141936463
 21
616433.15606034268
 31
0.0
  0
LINE
  5
56D
  8
LEIVA_SOIL_LIMITS
 10
660656.42141936463
 20
616433.15606034268
 30
0.0
 11
660661.83602102846
 21
616433.73300754488
 31
0.0
  0
LINE
  5
56E
  8
LEIVA_SOIL_LIMITS
 10
660661.83602102846
 20
616433.73300754488
 30
0.0
 11
660667.7384970386
 21
616434.35467979847
 31
0.0
  0
LINE
  5
56F
  8
LEIVA_SOIL_LIMITS
 10
660667.7384970386
 20
616434.35467979847
 30
0.0
 11
660674.28399899695
 21
616435.13199413614
 31
0.0
  0
LINE
  5
570
  8
LEIVA_SOIL_LIMITS
 10
660674.28399899695
 20
616435.13199413614
 30
0.0
 11
660681.62767850317
 21
616436.17586759874
 31
0.0
  0
LINE
  5
571
  8
LEIVA_SOIL_LIMITS
 10
660681.62767850317
 20
616436.17586759874
 30
0.0
 11
660689.92468715913
 21
616437.59721721848
 31
0.0
  0
LINE
  5
572
  8
LEIVA_SOIL_LIMITS
 10
660689.92468715913
 20
616437.59721721848
 30
0.0
 11
660699.33017656545
 21
616439.50696003297
 31
0.0
  0
LINE
  5
573
  8
LEIVA_SOIL_LIMITS
 10
660699.33017656545
 20
616439.50696003297
 30
0.0
 11
660709.99929832271
 21
616442.0160130799
 31
0.0
  0
LINE
  5
574
  8
LEIVA_SOIL_LIMITS
 10
660709.99929832271
 20
616442.0160130799
 30
0.0
 11
660722.00958788744
 21
616445.22784235165
 31
0.0
  0
LINE
  5
575
  8
LEIVA_SOIL_LIMITS
 10
660722.00958788744
 20
616445.22784235165
 30
0.0
 11
660735.12811612675
 21
616449.21610967373
 31
0.0
  0
LINE
  5
576
  8
LEIVA_SOIL_LIMITS
 10
660735.12811612675
 20
616449.21610967373
 30
0.0
 11
660749.04433776392
 21
616454.04702582804
 31
0.0
  0
LINE
  5
577
  8
LEIVA_SOIL_LIMITS
 10
660749.04433776392
 20
616454.04702582804
 30
0.0
 11
660763.44770752057
 21
616459.7868015978
 31
0.0
  0
LINE
  5
578
  8
LEIVA_SOIL_LIMITS
 10
660763.44770752057
 20
616459.7868015978
 30
0.0
 11
660778.0276801216
 21
616466.50164776342
 31
0.0
  0
LINE
  5
579
  8
LEIVA_SOIL_LIMITS
 10
660778.0276801216
 20
616466.50164776342
 30
0.0
 11
660792.4737102876
 21
616474.25777510856
 31
0.0
  0
LINE
  5
57A
  8
LEIVA_SOIL_LIMITS
 10
660792.4737102876
 20
616474.25777510856
 30
0.0
 11
660806.47525274265
 21
616483.12139441294
 31
0.0
  0
LINE
  5
57B
  8
LEIVA_SOIL_LIMITS
 10
660806.47525274265
 20
616483.12139441294
 30
0.0
 11
660819.72176220862
 21
616493.15871646185
 31
0.0
  0
LINE
  5
57C
  8
LEIVA_SOIL_LIMITS
 10
660819.72176220862
 20
616493.15871646185
 30
0.0
 11
660831.98774872324
 21
616504.38801606023
 31
0.0
  0
LINE
  5
57D
  8
LEIVA_SOIL_LIMITS
 10
660831.98774872324
 20
616504.38801606023
 30
0.0
 11
660843.38794358703
 21
616516.63582410919
 31
0.0
  0
LINE
  5
57E
  8
LEIVA_SOIL_LIMITS
 10
660843.38794358703
 20
616516.63582410919
 30
0.0
 11
660854.12213341275
 21
616529.68073553545
 31
0.0
  0
LINE
  5
57F
  8
LEIVA_SOIL_LIMITS
 10
660854.12213341275
 20
616529.68073553545
 30
0.0
 11
660864.39010481467
 21
616543.30134526396
 31
0.0
  0
LINE
  5
580
  8
LEIVA_SOIL_LIMITS
 10
660864.39010481467
 20
616543.30134526396
 30
0.0
 11
660874.3916444073
 21
616557.27624822163
 31
0.0
  0
LINE
  5
581
  8
LEIVA_SOIL_LIMITS
 10
660874.3916444073
 20
616557.27624822163
 30
0.0
 11
660884.32653880562
 21
616571.38403933356
 31
0.0
  0
LINE
  5
582
  8
LEIVA_SOIL_LIMITS
 10
660884.32653880562
 20
616571.38403933356
 30
0.0
 11
660894.39457462367
 21
616585.40331352549
 31
0.0
  0
LINE
  5
583
  8
LEIVA_SOIL_LIMITS
 10
660894.39457462367
 20
616585.40331352549
 30
0.0
 11
660904.79553847562
 21
616599.11266572354
 31
0.0
  0
LINE
  5
584
  8
LEIVA_SOIL_LIMITS
 10
660904.79553847562
 20
616599.11266572354
 30
0.0
 11
660915.66264628945
 21
616612.33494948363
 31
0.0
  0
LINE
  5
585
  8
LEIVA_SOIL_LIMITS
 10
660915.66264628945
 20
616612.33494948363
 30
0.0
 11
660926.86283125903
 21
616625.07005288335
 31
0.0
  0
LINE
  5
586
  8
LEIVA_SOIL_LIMITS
 10
660926.86283125903
 20
616625.07005288335
 30
0.0
 11
660938.19645589124
 21
616637.36212263163
 31
0.0
  0
LINE
  5
587
  8
LEIVA_SOIL_LIMITS
 10
660938.19645589124
 20
616637.36212263163
 30
0.0
 11
660949.46388269111
 21
616649.25530543574
 31
0.0
  0
LINE
  5
588
  8
LEIVA_SOIL_LIMITS
 10
660949.46388269111
 20
616649.25530543574
 30
0.0
 11
660960.46547416679
 21
616660.79374800436
 31
0.0
  0
LINE
  5
589
  8
LEIVA_SOIL_LIMITS
 10
660960.46547416679
 20
616660.79374800436
 30
0.0
 11
660971.00159282587
 21
616672.02159704501
 31
0.0
  0
LINE
  5
58A
  8
LEIVA_SOIL_LIMITS
 10
660971.00159282587
 20
616672.02159704501
 30
0.0
 11
660980.87260117312
 21
616682.98299926659
 31
0.0
  0
LINE
  5
58B
  8
LEIVA_SOIL_LIMITS
 10
660980.87260117312
 20
616682.98299926659
 30
0.0
 11
660989.87886171776
 21
616693.72210137604
 31
0.0
  0
LINE
  5
58C
  8
LEIVA_SOIL_LIMITS
 10
660989.87886171776
 20
616693.72210137604
 30
0.0
 11
660997.9242023261
 21
616704.32006593118
 31
0.0
  0
LINE
  5
58D
  8
LEIVA_SOIL_LIMITS
 10
660997.9242023261
 20
616704.32006593118
 30
0.0
 11
661005.32631230482
 21
616715.00611887942
 31
0.0
  0
LINE
  5
58E
  8
LEIVA_SOIL_LIMITS
 10
661005.32631230482
 20
616715.00611887942
 30
0.0
 11
661012.50634632283
 21
616726.04650201881
 31
0.0
  0
LINE
  5
58F
  8
LEIVA_SOIL_LIMITS
 10
661012.50634632283
 20
616726.04650201881
 30
0.0
 11
661019.88545904588
 21
616737.70745714568
 31
0.0
  0
LINE
  5
590
  8
LEIVA_SOIL_LIMITS
 10
661019.88545904588
 20
616737.70745714568
 30
0.0
 11
661027.88480514358
 21
616750.25522605842
 31
0.0
  0
LINE
  5
591
  8
LEIVA_SOIL_LIMITS
 10
661027.88480514358
 20
616750.25522605842
 30
0.0
 11
661036.92553928145
 21
616763.95605055289
 31
0.0
  0
LINE
  5
592
  8
LEIVA_SOIL_LIMITS
 10
661036.92553928145
 20
616763.95605055289
 30
0.0
 11
661047.42881612806
 21
616779.07617242716
 31
0.0
  0
LINE
  5
593
  8
LEIVA_SOIL_LIMITS
 10
661047.42881612806
 20
616779.07617242716
 30
0.0
 11
661059.81579035055
 21
616795.88183347881
 31
0.0
  0
LINE
  5
594
  8
LEIVA_SOIL_LIMITS
 10
661059.81579035055
 20
616795.88183347881
 30
0.0
 11
661074.39315239876
 21
616814.49515672494
 31
0.0
  0
LINE
  5
595
  8
LEIVA_SOIL_LIMITS
 10
661074.39315239876
 20
616814.49515672494
 30
0.0
 11
661091.00973584689
 21
616834.46179007215
 31
0.0
  0
LINE
  5
596
  8
LEIVA_SOIL_LIMITS
 10
661091.00973584689
 20
616834.46179007215
 30
0.0
 11
661109.39991005394
 21
616855.1832626469
 31
0.0
  0
LINE
  5
597
  8
LEIVA_SOIL_LIMITS
 10
661109.39991005394
 20
616855.1832626469
 30
0.0
 11
661129.29804437631
 21
616876.06110357645
 31
0.0
  0
LINE
  5
598
  8
LEIVA_SOIL_LIMITS
 10
661129.29804437631
 20
616876.06110357645
 30
0.0
 11
661150.43850816984
 21
616896.49684198783
 31
0.0
  0
LINE
  5
599
  8
LEIVA_SOIL_LIMITS
 10
661150.43850816984
 20
616896.49684198783
 30
0.0
 11
661172.55567079445
 21
616915.89200700854
 31
0.0
  0
LINE
  5
59A
  8
LEIVA_SOIL_LIMITS
 10
661172.55567079445
 20
616915.89200700854
 30
0.0
 11
661195.38390160701
 21
616933.648127764
 31
0.0
  0
LINE
  5
59B
  8
LEIVA_SOIL_LIMITS
 10
661195.38390160701
 20
616933.648127764
 30
0.0
 11
661218.65756996302
 21
616949.16673338332
 31
0.0
  0
LINE
  5
59C
  8
LEIVA_SOIL_LIMITS
 10
661218.65756996302
 20
616949.16673338332
 30
0.0
 11
661242.08506863657
 21
616961.97119642165
 31
0.0
  0
LINE
  5
59D
  8
LEIVA_SOIL_LIMITS
 10
661242.08506863657
 20
616961.97119642165
 30
0.0
 11
661265.27088405855
 21
616972.07226315385
 31
0.0
  0
LINE
  5
59E
  8
LEIVA_SOIL_LIMITS
 10
661265.27088405855
 20
616972.07226315385
 30
0.0
 11
661287.79352607718
 21
616979.6025232838
 31
0.0
  0
LINE
  5
59F
  8
LEIVA_SOIL_LIMITS
 10
661287.79352607718
 20
616979.6025232838
 30
0.0
 11
661309.23150454066
 21
616984.69456651376
 31
0.0
  0
LINE
  5
5A0
  8
LEIVA_SOIL_LIMITS
 10
661309.23150454066
 20
616984.69456651376
 30
0.0
 11
661329.16332929628
 21
616987.48098254786
 31
0.0
  0
LINE
  5
5A1
  8
LEIVA_SOIL_LIMITS
 10
661329.16332929628
 20
616987.48098254786
 30
0.0
 11
661347.16751019191
 21
616988.09436109045
 31
0.0
  0
LINE
  5
5A2
  8
LEIVA_SOIL_LIMITS
 10
661347.16751019191
 20
616988.09436109045
 30
0.0
 11
661362.82255707472
 21
616986.66729184473
 31
0.0
  0
LINE
  5
5A3
  8
LEIVA_SOIL_LIMITS
 10
661362.82255707472
 20
616986.66729184473
 30
0.0
 11
661375.70697979105
 21
616983.33236451447
 31
0.0
  0
LINE
  5
5A4
  8
LEIVA_SOIL_LIMITS
 10
661375.70697979105
 20
616983.33236451447
 30
0.0
 11
661385.52125372435
 21
616978.23704285128
 31
0.0
  0
LINE
  5
5A5
  8
LEIVA_SOIL_LIMITS
 10
661385.52125372435
 20
616978.23704285128
 30
0.0
 11
661392.4537163903
 21
616971.58828680101
 31
0.0
  0
LINE
  5
5A6
  8
LEIVA_SOIL_LIMITS
 10
661392.4537163903
 20
616971.58828680101
 30
0.0
 11
661396.81467083865
 21
616963.60793035745
 31
0.0
  0
LINE
  5
5A7
  8
LEIVA_SOIL_LIMITS
 10
661396.81467083865
 20
616963.60793035745
 30
0.0
 11
661398.91442012193
 21
616954.51780751394
 31
0.0
  0
LINE
  5
5A8
  8
LEIVA_SOIL_LIMITS
 10
661398.91442012193
 20
616954.51780751394
 30
0.0
 11
661399.06326728617
 21
616944.53975226544
 31
0.0
  0
LINE
  5
5A9
  8
LEIVA_SOIL_LIMITS
 10
661399.06326728617
 20
616944.53975226544
 30
0.0
 11
661397.57151538495
 21
616933.89559860656
 31
0.0
  0
LINE
  5
5AA
  8
LEIVA_SOIL_LIMITS
 10
661397.57151538495
 20
616933.89559860656
 30
0.0
 11
661394.74946746754
 21
616922.80718052993
 31
0.0
  0
LINE
  5
5AB
  8
LEIVA_SOIL_LIMITS
 10
661394.74946746754
 20
616922.80718052993
 30
0.0
 11
661390.90742658416
 21
616911.49633202865
 31
0.0
  0
LINE
  5
5AC
  8
LEIVA_SOIL_LIMITS
 10
661390.90742658416
 20
616911.49633202865
 30
0.0
 11
661386.31137120211
 21
616900.14792096568
 31
0.0
  0
LINE
  5
5AD
  8
LEIVA_SOIL_LIMITS
 10
661386.31137120211
 20
616900.14792096568
 30
0.0
 11
661381.04998144729
 21
616888.7989506711
 31
0.0
  0
LINE
  5
5AE
  8
LEIVA_SOIL_LIMITS
 10
661381.04998144729
 20
616888.7989506711
 30
0.0
 11
661375.16761286568
 21
616877.44945834472
 31
0.0
  0
LINE
  5
5AF
  8
LEIVA_SOIL_LIMITS
 10
661375.16761286568
 20
616877.44945834472
 30
0.0
 11
661368.70862099959
 21
616866.09948118171
 31
0.0
  0
LINE
  5
5B0
  8
LEIVA_SOIL_LIMITS
 10
661368.70862099959
 20
616866.09948118171
 30
0.0
 11
661361.71736139292
 21
616854.74905638176
 31
0.0
  0
LINE
  5
5B1
  8
LEIVA_SOIL_LIMITS
 10
661361.71736139292
 20
616854.74905638176
 30
0.0
 11
661354.23818959214
 21
616843.39822114259
 31
0.0
  0
LINE
  5
5B2
  8
LEIVA_SOIL_LIMITS
 10
661354.23818959214
 20
616843.39822114259
 30
0.0
 11
661346.31546113768
 21
616832.04701266368
 31
0.0
  0
LINE
  5
5B3
  8
LEIVA_SOIL_LIMITS
 10
661346.31546113768
 20
616832.04701266368
 30
0.0
 11
661337.99353157543
 21
616820.6954681417
 31
0.0
  0
LINE
  5
5B4
  8
LEIVA_SOIL_LIMITS
 10
661337.99353157543
 20
616820.6954681417
 30
0.0
 11
661329.31305089418
 21
616809.3547003665
 31
0.0
  0
LINE
  5
5B5
  8
LEIVA_SOIL_LIMITS
 10
661329.31305089418
 20
616809.3547003665
 30
0.0
 11
661320.2998468593
 21
616798.08012450021
 31
0.0
  0
LINE
  5
5B6
  8
LEIVA_SOIL_LIMITS
 10
661320.2998468593
 20
616798.08012450021
 30
0.0
 11
661310.97604168532
 21
616786.93823129241
 31
0.0
  0
LINE
  5
5B7
  8
LEIVA_SOIL_LIMITS
 10
661310.97604168532
 20
616786.93823129241
 30
0.0
 11
661301.36375758133
 21
616775.99551149725
 31
0.0
  0
LINE
  5
5B8
  8
LEIVA_SOIL_LIMITS
 10
661301.36375758133
 20
616775.99551149725
 30
0.0
 11
661291.48511675943
 21
616765.31845586537
 31
0.0
  0
LINE
  5
5B9
  8
LEIVA_SOIL_LIMITS
 10
661291.48511675943
 20
616765.31845586537
 30
0.0
 11
661281.36224143091
 21
616754.97355515044
 31
0.0
  0
LINE
  5
5BA
  8
LEIVA_SOIL_LIMITS
 10
661281.36224143091
 20
616754.97355515044
 30
0.0
 11
661271.01725380926
 21
616745.0273001038
 31
0.0
  0
LINE
  5
5BB
  8
LEIVA_SOIL_LIMITS
 10
661271.01725380926
 20
616745.0273001038
 30
0.0
 11
661260.47227610555
 21
616735.54618147714
 31
0.0
  0
LINE
  5
5BC
  8
LEIVA_SOIL_LIMITS
 10
661260.47227610555
 20
616735.54618147714
 30
0.0
 11
661249.74947698251
 21
616726.54129668651
 31
0.0
  0
LINE
  5
5BD
  8
LEIVA_SOIL_LIMITS
 10
661249.74947698251
 20
616726.54129668651
 30
0.0
 11
661238.87121091154
 21
616717.80216980376
 31
0.0
  0
LINE
  5
5BE
  8
LEIVA_SOIL_LIMITS
 10
661238.87121091154
 20
616717.80216980376
 30
0.0
 11
661227.85987881524
 21
616709.06293156301
 31
0.0
  0
LINE
  5
5BF
  8
LEIVA_SOIL_LIMITS
 10
661227.85987881524
 20
616709.06293156301
 30
0.0
 11
661216.73788161739
 21
616700.05771269952
 31
0.0
  0
LINE
  5
5C0
  8
LEIVA_SOIL_LIMITS
 10
661216.73788161739
 20
616700.05771269952
 30
0.0
 11
661205.52762024093
 21
616690.52064394788
 31
0.0
  0
LINE
  5
5C1
  8
LEIVA_SOIL_LIMITS
 10
661205.52762024093
 20
616690.52064394788
 30
0.0
 11
661194.25149560673
 21
616680.18585604266
 31
0.0
  0
LINE
  5
5C2
  8
LEIVA_SOIL_LIMITS
 10
661194.25149560673
 20
616680.18585604266
 30
0.0
 11
661182.93190864054
 21
616668.78747971798
 31
0.0
  0
LINE
  5
5C3
  8
LEIVA_SOIL_LIMITS
 10
661182.93190864054
 20
616668.78747971798
 30
0.0
 11
661171.59126026393
 21
616656.05964571063
 31
0.0
  0
LINE
  5
5C4
  8
LEIVA_SOIL_LIMITS
 10
661171.59126026393
 20
616656.05964571063
 30
0.0
 11
661160.27035228547
 21
616641.83251534216
 31
0.0
  0
LINE
  5
5C5
  8
LEIVA_SOIL_LIMITS
 10
661160.27035228547
 20
616641.83251534216
 30
0.0
 11
661149.08359005768
 21
616626.32037229114
 31
0.0
  0
LINE
  5
5C6
  8
LEIVA_SOIL_LIMITS
 10
661149.08359005768
 20
616626.32037229114
 30
0.0
 11
661138.16377981892
 21
616609.83353082463
 31
0.0
  0
LINE
  5
5C7
  8
LEIVA_SOIL_LIMITS
 10
661138.16377981892
 20
616609.83353082463
 30
0.0
 11
661127.6437278071
 21
616592.68230520771
 31
0.0
  0
LINE
  5
5C8
  8
LEIVA_SOIL_LIMITS
 10
661127.6437278071
 20
616592.68230520771
 30
0.0
 11
661117.65624026163
 21
616575.17700970871
 31
0.0
  0
LINE
  5
5C9
  8
LEIVA_SOIL_LIMITS
 10
661117.65624026163
 20
616575.17700970871
 30
0.0
 11
661108.33412341913
 21
616557.62795859226
 31
0.0
  0
LINE
  5
5CA
  8
LEIVA_SOIL_LIMITS
 10
661108.33412341913
 20
616557.62795859226
 30
0.0
 11
661099.81018351845
 21
616540.34546612669
 31
0.0
  0
LINE
  5
5CB
  8
LEIVA_SOIL_LIMITS
 10
661099.81018351845
 20
616540.34546612669
 30
0.0
 11
661092.21722679923
 21
616523.63984657661
 31
0.0
  0
LINE
  5
5CC
  8
LEIVA_SOIL_LIMITS
 10
661092.21722679923
 20
616523.63984657661
 30
0.0
 11
661085.62897145655
 21
616507.75858545536
 31
0.0
  0
LINE
  5
5CD
  8
LEIVA_SOIL_LIMITS
 10
661085.62897145655
 20
616507.75858545536
 30
0.0
 11
661079.88278352516
 21
616492.69785325415
 31
0.0
  0
LINE
  5
5CE
  8
LEIVA_SOIL_LIMITS
 10
661079.88278352516
 20
616492.69785325415
 30
0.0
 11
661074.75694099651
 21
616478.39099171408
 31
0.0
  0
LINE
  5
5CF
  8
LEIVA_SOIL_LIMITS
 10
661074.75694099651
 20
616478.39099171408
 30
0.0
 11
661070.02972186485
 21
616464.77134257182
 31
0.0
  0
LINE
  5
5D0
  8
LEIVA_SOIL_LIMITS
 10
661070.02972186485
 20
616464.77134257182
 30
0.0
 11
661065.47940412245
 21
616451.77224756707
 31
0.0
  0
LINE
  5
5D1
  8
LEIVA_SOIL_LIMITS
 10
661065.47940412245
 20
616451.77224756707
 30
0.0
 11
661060.88426575914
 21
616439.32704843662
 31
0.0
  0
LINE
  5
5D2
  8
LEIVA_SOIL_LIMITS
 10
661060.88426575914
 20
616439.32704843662
 30
0.0
 11
661056.02258477104
 21
616427.36908691982
 31
0.0
  0
LINE
  5
5D3
  8
LEIVA_SOIL_LIMITS
 10
661056.02258477104
 20
616427.36908691982
 30
0.0
 11
661050.67263914936
 21
616415.83170475613
 31
0.0
  0
LINE
  5
5D4
  8
LEIVA_SOIL_LIMITS
 10
661050.67263914936
 20
616415.83170475613
 30
0.0
 11
661044.68293654756
 21
616404.64830266451
 31
0.0
  0
LINE
  5
5D5
  8
LEIVA_SOIL_LIMITS
 10
661044.68293654756
 20
616404.64830266451
 30
0.0
 11
661038.18290326674
 21
616393.752517296
 31
0.0
  0
LINE
  5
5D6
  8
LEIVA_SOIL_LIMITS
 10
661038.18290326674
 20
616393.752517296
 30
0.0
 11
661031.37219527154
 21
616383.07804428297
 31
0.0
  0
LINE
  5
5D7
  8
LEIVA_SOIL_LIMITS
 10
661031.37219527154
 20
616383.07804428297
 30
0.0
 11
661024.45046852366
 21
616372.55857925536
 31
0.0
  0
LINE
  5
5D8
  8
LEIVA_SOIL_LIMITS
 10
661024.45046852366
 20
616372.55857925536
 30
0.0
 11
661017.61737898504
 21
616362.12781784905
 31
0.0
  0
LINE
  5
5D9
  8
LEIVA_SOIL_LIMITS
 10
661017.61737898504
 20
616362.12781784905
 30
0.0
 11
661011.07258262055
 21
616351.71945569164
 31
0.0
  0
LINE
  5
5DA
  8
LEIVA_SOIL_LIMITS
 10
661011.07258262055
 20
616351.71945569164
 30
0.0
 11
661005.01573539095
 21
616341.26718841959
 31
0.0
  0
LINE
  5
5DB
  8
LEIVA_SOIL_LIMITS
 10
661005.01573539095
 20
616341.26718841959
 30
0.0
 11
660999.64649325958
 21
616330.70471166191
 31
0.0
  0
LINE
  5
5DC
  8
LEIVA_SOIL_LIMITS
 10
660999.64649325958
 20
616330.70471166191
 30
0.0
 11
660995.11644167837
 21
616319.98783804057
 31
0.0
  0
LINE
  5
5DD
  8
LEIVA_SOIL_LIMITS
 10
660995.11644167837
 20
616319.98783804057
 30
0.0
 11
660991.38488405501
 21
616309.16084812628
 31
0.0
  0
LINE
  5
5DE
  8
LEIVA_SOIL_LIMITS
 10
660991.38488405501
 20
616309.16084812628
 30
0.0
 11
660988.36305328761
 21
616298.29013947956
 31
0.0
  0
LINE
  5
5DF
  8
LEIVA_SOIL_LIMITS
 10
660988.36305328761
 20
616298.29013947956
 30
0.0
 11
660985.96218227106
 21
616287.44210966071
 31
0.0
  0
LINE
  5
5E0
  8
LEIVA_SOIL_LIMITS
 10
660985.96218227106
 20
616287.44210966071
 30
0.0
 11
660984.09350390313
 21
616276.68315622769
 31
0.0
  0
LINE
  5
5E1
  8
LEIVA_SOIL_LIMITS
 10
660984.09350390313
 20
616276.68315622769
 30
0.0
 11
660982.66825108137
 21
616266.07967674185
 31
0.0
  0
LINE
  5
5E2
  8
LEIVA_SOIL_LIMITS
 10
660982.66825108137
 20
616266.07967674185
 30
0.0
 11
660981.59765670029
 21
616255.6980687636
 31
0.0
  0
LINE
  5
5E3
  8
LEIVA_SOIL_LIMITS
 10
660981.59765670029
 20
616255.6980687636
 30
0.0
 11
660980.79295365966
 21
616245.60472985031
 31
0.0
  0
LINE
  5
5E4
  8
LEIVA_SOIL_LIMITS
 10
660980.79295365966
 20
616245.60472985031
 30
0.0
 11
660980.20973978448
 21
616235.8550161419
 31
0.0
  0
LINE
  5
5E5
  8
LEIVA_SOIL_LIMITS
 10
660980.20973978448
 20
616235.8550161419
 30
0.0
 11
660979.98107262363
 21
616226.46011808864
 31
0.0
  0
LINE
  5
5E6
  8
LEIVA_SOIL_LIMITS
 10
660979.98107262363
 20
616226.46011808864
 30
0.0
 11
660980.28437465732
 21
616217.42018471938
 31
0.0
  0
LINE
  5
5E7
  8
LEIVA_SOIL_LIMITS
 10
660980.28437465732
 20
616217.42018471938
 30
0.0
 11
660981.29706836375
 21
616208.73536506249
 31
0.0
  0
LINE
  5
5E8
  8
LEIVA_SOIL_LIMITS
 10
660981.29706836375
 20
616208.73536506249
 30
0.0
 11
660983.19657622173
 21
616200.40580814588
 31
0.0
  0
LINE
  5
5E9
  8
LEIVA_SOIL_LIMITS
 10
660983.19657622173
 20
616200.40580814588
 30
0.0
 11
660986.16032070899
 21
616192.43166300026
 31
0.0
  0
LINE
  5
5EA
  8
LEIVA_SOIL_LIMITS
 10
660986.16032070899
 20
616192.43166300026
 30
0.0
 11
660990.36572430655
 21
616184.81307865155
 31
0.0
  0
LINE
  5
5EB
  8
LEIVA_SOIL_LIMITS
 10
660990.36572430655
 20
616184.81307865155
 30
0.0
 11
660995.99020949285
 21
616177.55020413152
 31
0.0
  0
LINE
  5
5EC
  8
LEIVA_SOIL_LIMITS
 10
660995.99020949285
 20
616177.55020413152
 30
0.0
 11
661003.18165005767
 21
616170.61731343274
 31
0.0
  0
LINE
  5
5ED
  8
LEIVA_SOIL_LIMITS
 10
661003.18165005767
 20
616170.61731343274
 30
0.0
 11
661011.96972503909
 21
616163.8851804107
 31
0.0
  0
LINE
  5
5EE
  8
LEIVA_SOIL_LIMITS
 10
661011.96972503909
 20
616163.8851804107
 30
0.0
 11
661022.35456478375
 21
616157.19870388671
 31
0.0
  0
LINE
  5
5EF
  8
LEIVA_SOIL_LIMITS
 10
661022.35456478375
 20
616157.19870388671
 30
0.0
 11
661034.33629964176
 21
616150.40278268396
 31
0.0
  0
LINE
  5
5F0
  8
LEIVA_SOIL_LIMITS
 10
661034.33629964176
 20
616150.40278268396
 30
0.0
 11
661047.91505995975
 21
616143.34231562214
 31
0.0
  0
LINE
  5
5F1
  8
LEIVA_SOIL_LIMITS
 10
661047.91505995975
 20
616143.34231562214
 30
0.0
 11
661063.09097608749
 21
616135.86220152315
 31
0.0
  0
LINE
  5
5F2
  8
LEIVA_SOIL_LIMITS
 10
661063.09097608749
 20
616135.86220152315
 30
0.0
 11
661079.86417837348
 21
616127.8073392089
 31
0.0
  0
LINE
  5
5F3
  8
LEIVA_SOIL_LIMITS
 10
661079.86417837348
 20
616127.8073392089
 30
0.0
 11
661098.23479716456
 21
616119.0226275
 31
0.0
  0
LINE
  5
5F4
  8
LEIVA_SOIL_LIMITS
 10
661098.23479716456
 20
616119.0226275
 30
0.0
 11
661118.13268033788
 21
616109.41568524844
 31
0.0
  0
LINE
  5
5F5
  8
LEIVA_SOIL_LIMITS
 10
661118.13268033788
 20
616109.41568524844
 30
0.0
 11
661139.20654587983
 21
616099.14501142944
 31
0.0
  0
LINE
  5
5F6
  8
LEIVA_SOIL_LIMITS
 10
661139.20654587983
 20
616099.14501142944
 30
0.0
 11
661161.03482930548
 21
616088.43182504689
 31
0.0
  0
LINE
  5
5F7
  8
LEIVA_SOIL_LIMITS
 10
661161.03482930548
 20
616088.43182504689
 30
0.0
 11
661183.19596612873
 21
616077.49734510621
 31
0.0
  0
LINE
  5
5F8
  8
LEIVA_SOIL_LIMITS
 10
661183.19596612873
 20
616077.49734510621
 30
0.0
 11
661205.26839186403
 21
616066.56279061129
 31
0.0
  0
LINE
  5
5F9
  8
LEIVA_SOIL_LIMITS
 10
661205.26839186403
 20
616066.56279061129
 30
0.0
 11
661226.83054202655
 21
616055.84938056883
 31
0.0
  0
LINE
  5
5FA
  8
LEIVA_SOIL_LIMITS
 10
661226.83054202655
 20
616055.84938056883
 30
0.0
 11
661247.46085213067
 21
616045.57833398075
 31
0.0
  0
LINE
  5
5FB
  8
LEIVA_SOIL_LIMITS
 10
661247.46085213067
 20
616045.57833398075
 30
0.0
 11
661266.73775769013
 21
616035.97086985479
 31
0.0
  0
LINE
  5
5FC
  8
LEIVA_SOIL_LIMITS
 10
661266.73775769013
 20
616035.97086985479
 30
0.0
 11
661284.28411809099
 21
616027.16700099176
 31
0.0
  0
LINE
  5
5FD
  8
LEIVA_SOIL_LIMITS
 10
661284.28411809099
 20
616027.16700099176
 30
0.0
 11
661299.90048821073
 21
616018.98191537918
 31
0.0
  0
LINE
  5
5FE
  8
LEIVA_SOIL_LIMITS
 10
661299.90048821073
 20
616018.98191537918
 30
0.0
 11
661313.43184679491
 21
616011.14959480241
 31
0.0
  0
LINE
  5
5FF
  8
LEIVA_SOIL_LIMITS
 10
661313.43184679491
 20
616011.14959480241
 30
0.0
 11
661324.723172592
 21
616003.40402104566
 31
0.0
  0
LINE
  5
600
  8
LEIVA_SOIL_LIMITS
 10
661324.723172592
 20
616003.40402104566
 30
0.0
 11
661333.61944434897
 21
615995.47917589592
 31
0.0
  0
LINE
  5
601
  8
LEIVA_SOIL_LIMITS
 10
661333.61944434897
 20
615995.47917589592
 30
0.0
 11
661339.96564081335
 21
615987.10904113646
 31
0.0
  0
LINE
  5
602
  8
LEIVA_SOIL_LIMITS
 10
661339.96564081335
 20
615987.10904113646
 30
0.0
 11
661343.60674073175
 21
615978.02759855287
 31
0.0
  0
LINE
  5
603
  8
LEIVA_SOIL_LIMITS
 10
661343.60674073175
 20
615978.02759855287
 30
0.0
 11
661344.38772285252
 21
615967.96882993064
 31
0.0
  0
LINE
  5
604
  8
LEIVA_SOIL_LIMITS
 10
661344.38772285252
 20
615967.96882993064
 30
0.0
 11
661342.25328845996
 21
615956.75912305317
 31
0.0
  0
LINE
  5
605
  8
LEIVA_SOIL_LIMITS
 10
661342.25328845996
 20
615956.75912305317
 30
0.0
 11
661337.54702898662
 21
615944.59448970261
 31
0.0
  0
LINE
  5
606
  8
LEIVA_SOIL_LIMITS
 10
661337.54702898662
 20
615944.59448970261
 30
0.0
 11
661330.71225840249
 21
615931.76334765973
 31
0.0
  0
LINE
  5
607
  8
LEIVA_SOIL_LIMITS
 10
661330.71225840249
 20
615931.76334765973
 30
0.0
 11
661322.19229067734
 21
615918.55411470309
 31
0.0
  0
LINE
  5
608
  8
LEIVA_SOIL_LIMITS
 10
661322.19229067734
 20
615918.55411470309
 30
0.0
 11
661312.4304397821
 21
615905.25520861568
 31
0.0
  0
LINE
  5
609
  8
LEIVA_SOIL_LIMITS
 10
661312.4304397821
 20
615905.25520861568
 30
0.0
 11
661301.87001968618
 21
615892.15504717687
 31
0.0
  0
LINE
  5
60A
  8
LEIVA_SOIL_LIMITS
 10
661301.87001968618
 20
615892.15504717687
 30
0.0
 11
661290.95434435841
 21
615879.54204816802
 31
0.0
  0
LINE
  5
60B
  8
LEIVA_SOIL_LIMITS
 10
661290.95434435841
 20
615879.54204816802
 30
0.0
 11
661280.1267277702
 21
615867.70462936908
 31
0.0
  0
LINE
  5
60C
  8
LEIVA_SOIL_LIMITS
 10
661280.1267277702
 20
615867.70462936908
 30
0.0
 11
661269.82686523488
 21
615856.83888334106
 31
0.0
  0
LINE
  5
60D
  8
LEIVA_SOIL_LIMITS
 10
661269.82686523488
 20
615856.83888334106
 30
0.0
 11
661260.47997743916
 21
615846.77160176612
 31
0.0
  0
LINE
  5
60E
  8
LEIVA_SOIL_LIMITS
 10
661260.47997743916
 20
615846.77160176612
 30
0.0
 11
661252.5076664167
 21
615837.23725110758
 31
0.0
  0
LINE
  5
60F
  8
LEIVA_SOIL_LIMITS
 10
661252.5076664167
 20
615837.23725110758
 30
0.0
 11
661246.33153419546
 21
615827.97029782995
 31
0.0
  0
LINE
  5
610
  8
LEIVA_SOIL_LIMITS
 10
661246.33153419546
 20
615827.97029782995
 30
0.0
 11
661242.37318280921
 21
615818.70520839281
 31
0.0
  0
LINE
  5
611
  8
LEIVA_SOIL_LIMITS
 10
661242.37318280921
 20
615818.70520839281
 30
0.0
 11
661241.05421428813
 21
615809.17644926126
 31
0.0
  0
LINE
  5
612
  8
LEIVA_SOIL_LIMITS
 10
661241.05421428813
 20
615809.17644926126
 30
0.0
 11
661242.79623066529
 21
615799.11848689686
 31
0.0
  0
LINE
  5
613
  8
LEIVA_SOIL_LIMITS
 10
661242.79623066529
 20
615799.11848689686
 30
0.0
 11
661248.02083396888
 21
615788.26578776352
 31
0.0
  0
LINE
  5
614
  8
LEIVA_SOIL_LIMITS
 10
661248.02083396888
 20
615788.26578776352
 30
0.0
 11
661256.97580999695
 21
615776.45976597327
 31
0.0
  0
LINE
  5
615
  8
LEIVA_SOIL_LIMITS
 10
661256.97580999695
 20
615776.45976597327
 30
0.0
 11
661269.21367959585
 21
615763.96962623508
 31
0.0
  0
LINE
  5
616
  8
LEIVA_SOIL_LIMITS
 10
661269.21367959585
 20
615763.96962623508
 30
0.0
 11
661284.11314737727
 21
615751.17152090836
 31
0.0
  0
LINE
  5
617
  8
LEIVA_SOIL_LIMITS
 10
661284.11314737727
 20
615751.17152090836
 30
0.0
 11
661301.05291795498
 21
615738.44160235068
 31
0.0
  0
LINE
  5
618
  8
LEIVA_SOIL_LIMITS
 10
661301.05291795498
 20
615738.44160235068
 30
0.0
 11
661319.41169593949
 21
615726.1560229226
 31
0.0
  0
LINE
  5
619
  8
LEIVA_SOIL_LIMITS
 10
661319.41169593949
 20
615726.1560229226
 30
0.0
 11
661338.56818594248
 21
615714.69093498099
 31
0.0
  0
LINE
  5
61A
  8
LEIVA_SOIL_LIMITS
 10
661338.56818594248
 20
615714.69093498099
 30
0.0
 11
661357.90109257714
 21
615704.42249088641
 31
0.0
  0
LINE
  5
61B
  8
LEIVA_SOIL_LIMITS
 10
661357.90109257714
 20
615704.42249088641
 30
0.0
 11
661376.78912045446
 21
615695.72684299643
 31
0.0
  0
LINE
  5
61C
  8
LEIVA_SOIL_LIMITS
 10
661376.78912045446
 20
615695.72684299643
 30
0.0
 11
661394.73666402348
 21
615688.96178487246
 31
0.0
  0
LINE
  5
61D
  8
LEIVA_SOIL_LIMITS
 10
661394.73666402348
 20
615688.96178487246
 30
0.0
 11
661411.75087707932
 21
615684.41167488904
 31
0.0
  0
LINE
  5
61E
  8
LEIVA_SOIL_LIMITS
 10
661411.75087707932
 20
615684.41167488904
 30
0.0
 11
661427.96460325457
 21
615682.34251262178
 31
0.0
  0
LINE
  5
61F
  8
LEIVA_SOIL_LIMITS
 10
661427.96460325457
 20
615682.34251262178
 30
0.0
 11
661443.51068618265
 21
615683.02029765025
 31
0.0
  0
LINE
  5
620
  8
LEIVA_SOIL_LIMITS
 10
661443.51068618265
 20
615683.02029765025
 30
0.0
 11
661458.52196949394
 21
615686.71102954797
 31
0.0
  0
LINE
  5
621
  8
LEIVA_SOIL_LIMITS
 10
661458.52196949394
 20
615686.71102954797
 30
0.0
 11
661473.1312968221
 21
615693.68070789345
 31
0.0
  0
LINE
  5
622
  8
LEIVA_SOIL_LIMITS
 10
661473.1312968221
 20
615693.68070789345
 30
0.0
 11
661487.47151179996
 21
615704.19533226267
 31
0.0
  0
LINE
  5
623
  8
LEIVA_SOIL_LIMITS
 10
661487.47151179996
 20
615704.19533226267
 30
0.0
 11
661501.67545806011
 21
615718.52090223297
 31
0.0
  0
LINE
  5
624
  8
LEIVA_SOIL_LIMITS
 10
661501.67545806011
 20
615718.52090223297
 30
0.0
 11
661515.8317631965
 21
615736.75720026484
 31
0.0
  0
LINE
  5
625
  8
LEIVA_SOIL_LIMITS
 10
661515.8317631965
 20
615736.75720026484
 30
0.0
 11
661529.85219066124
 21
615758.33914036222
 31
0.0
  0
LINE
  5
626
  8
LEIVA_SOIL_LIMITS
 10
661529.85219066124
 20
615758.33914036222
 30
0.0
 11
661543.60428786383
 21
615782.53541941172
 31
0.0
  0
LINE
  5
627
  8
LEIVA_SOIL_LIMITS
 10
661543.60428786383
 20
615782.53541941172
 30
0.0
 11
661556.95560221979
 21
615808.61473430111
 31
0.0
  0
LINE
  5
628
  8
LEIVA_SOIL_LIMITS
 10
661556.95560221979
 20
615808.61473430111
 30
0.0
 11
661569.77368113946
 21
615835.84578191815
 31
0.0
  0
LINE
  5
629
  8
LEIVA_SOIL_LIMITS
 10
661569.77368113946
 20
615835.84578191815
 30
0.0
 11
661581.92607203824
 21
615863.49725914956
 31
0.0
  0
LINE
  5
62A
  8
LEIVA_SOIL_LIMITS
 10
661581.92607203824
 20
615863.49725914956
 30
0.0
 11
661593.28032232553
 21
615890.83786288265
 31
0.0
  0
LINE
  5
62B
  8
LEIVA_SOIL_LIMITS
 10
661593.28032232553
 20
615890.83786288265
 30
0.0
 11
661603.7039794164
 21
615917.13629000541
 31
0.0
  0
LINE
  5
62C
  8
LEIVA_SOIL_LIMITS
 10
661603.7039794164
 20
615917.13629000541
 30
0.0
 11
661613.09033762151
 21
615941.81266745063
 31
0.0
  0
LINE
  5
62D
  8
LEIVA_SOIL_LIMITS
 10
661613.09033762151
 20
615941.81266745063
 30
0.0
 11
661621.43567884341
 21
615964.89284233609
 31
0.0
  0
LINE
  5
62E
  8
LEIVA_SOIL_LIMITS
 10
661621.43567884341
 20
615964.89284233609
 30
0.0
 11
661628.76203188591
 21
615986.55409182119
 31
0.0
  0
LINE
  5
62F
  8
LEIVA_SOIL_LIMITS
 10
661628.76203188591
 20
615986.55409182119
 30
0.0
 11
661635.09142555157
 21
616006.97369306965
 31
0.0
  0
LINE
  5
630
  8
LEIVA_SOIL_LIMITS
 10
661635.09142555157
 20
616006.97369306965
 30
0.0
 11
661640.44588864036
 21
616026.32892324205
 31
0.0
  0
LINE
  5
631
  8
LEIVA_SOIL_LIMITS
 10
661640.44588864036
 20
616026.32892324205
 30
0.0
 11
661644.84744995856
 21
616044.79705950245
 31
0.0
  0
LINE
  5
632
  8
LEIVA_SOIL_LIMITS
 10
661644.84744995856
 20
616044.79705950245
 30
0.0
 11
661648.31813830417
 21
616062.5553790105
 31
0.0
  0
LINE
  5
633
  8
LEIVA_SOIL_LIMITS
 10
661648.31813830417
 20
616062.5553790105
 30
0.0
 11
661650.87998248264
 21
616079.78115893074
 31
0.0
  0
LINE
  5
634
  8
LEIVA_SOIL_LIMITS
 10
661650.87998248264
 20
616079.78115893074
 30
0.0
 11
661652.61416768958
 21
616096.63326168398
 31
0.0
  0
LINE
  5
635
  8
LEIVA_SOIL_LIMITS
 10
661652.61416768958
 20
616096.63326168398
 30
0.0
 11
661653.83850470069
 21
616113.19689074124
 31
0.0
  0
LINE
  5
636
  8
LEIVA_SOIL_LIMITS
 10
661653.83850470069
 20
616113.19689074124
 30
0.0
 11
661654.92996068485
 21
616129.53883483249
 31
0.0
  0
LINE
  5
637
  8
LEIVA_SOIL_LIMITS
 10
661654.92996068485
 20
616129.53883483249
 30
0.0
 11
661656.26550281222
 21
616145.72588268784
 31
0.0
  0
LINE
  5
638
  8
LEIVA_SOIL_LIMITS
 10
661656.26550281222
 20
616145.72588268784
 30
0.0
 11
661658.22209825285
 21
616161.8248230411
 31
0.0
  0
LINE
  5
639
  8
LEIVA_SOIL_LIMITS
 10
661658.22209825285
 20
616161.8248230411
 30
0.0
 11
661661.17671417573
 21
616177.90244462108
 31
0.0
  0
LINE
  5
63A
  8
LEIVA_SOIL_LIMITS
 10
661661.17671417573
 20
616177.90244462108
 30
0.0
 11
661665.50631775009
 21
616194.02553615766
 31
0.0
  0
LINE
  5
63B
  8
LEIVA_SOIL_LIMITS
 10
661665.50631775009
 20
616194.02553615766
 30
0.0
 11
661671.58787614619
 21
616210.26088638441
 31
0.0
  0
LINE
  5
63C
  8
LEIVA_SOIL_LIMITS
 10
661671.58787614619
 20
616210.26088638441
 30
0.0
 11
661679.68013687572
 21
616226.60132695339
 31
0.0
  0
LINE
  5
63D
  8
LEIVA_SOIL_LIMITS
 10
661679.68013687572
 20
616226.60132695339
 30
0.0
 11
661689.56896881911
 21
616242.74386120914
 31
0.0
  0
LINE
  5
63E
  8
LEIVA_SOIL_LIMITS
 10
661689.56896881911
 20
616242.74386120914
 30
0.0
 11
661700.92202119937
 21
616258.31153542106
 31
0.0
  0
LINE
  5
63F
  8
LEIVA_SOIL_LIMITS
 10
661700.92202119937
 20
616258.31153542106
 30
0.0
 11
661713.40694323881
 21
616272.92739585275
 31
0.0
  0
LINE
  5
640
  8
LEIVA_SOIL_LIMITS
 10
661713.40694323881
 20
616272.92739585275
 30
0.0
 11
661726.69138415926
 21
616286.21448877605
 31
0.0
  0
LINE
  5
641
  8
LEIVA_SOIL_LIMITS
 10
661726.69138415926
 20
616286.21448877605
 30
0.0
 11
661740.44299318478
 21
616297.79586045514
 31
0.0
  0
LINE
  5
642
  8
LEIVA_SOIL_LIMITS
 10
661740.44299318478
 20
616297.79586045514
 30
0.0
 11
661754.32941953768
 21
616307.29455716023
 31
0.0
  0
LINE
  5
643
  8
LEIVA_SOIL_LIMITS
 10
661754.32941953768
 20
616307.29455716023
 30
0.0
 11
661768.01831243886
 21
616314.3336251569
 31
0.0
  0
LINE
  5
644
  8
LEIVA_SOIL_LIMITS
 10
661768.01831243886
 20
616314.3336251569
 30
0.0
 11
661781.23267877055
 21
616318.63955805486
 31
0.0
  0
LINE
  5
645
  8
LEIVA_SOIL_LIMITS
 10
661781.23267877055
 20
616318.63955805486
 30
0.0
 11
661793.91695604078
 21
616320.35263883439
 31
0.0
  0
LINE
  5
646
  8
LEIVA_SOIL_LIMITS
 10
661793.91695604078
 20
616320.35263883439
 30
0.0
 11
661806.07093941851
 21
616319.71659781935
 31
0.0
  0
LINE
  5
647
  8
LEIVA_SOIL_LIMITS
 10
661806.07093941851
 20
616319.71659781935
 30
0.0
 11
661817.69442406821
 21
616316.97516532952
 31
0.0
  0
LINE
  5
648
  8
LEIVA_SOIL_LIMITS
 10
661817.69442406821
 20
616316.97516532952
 30
0.0
 11
661828.78720515827
 21
616312.37207169039
 31
0.0
  0
LINE
  5
649
  8
LEIVA_SOIL_LIMITS
 10
661828.78720515827
 20
616312.37207169039
 30
0.0
 11
661839.34907785454
 21
616306.15104722138
 31
0.0
  0
LINE
  5
64A
  8
LEIVA_SOIL_LIMITS
 10
661839.34907785454
 20
616306.15104722138
 30
0.0
 11
661849.37983732508
 21
616298.55582224554
 31
0.0
  0
LINE
  5
64B
  8
LEIVA_SOIL_LIMITS
 10
661849.37983732508
 20
616298.55582224554
 30
0.0
 11
661858.87927873619
 21
616289.83012708684
 31
0.0
  0
LINE
  5
64C
  8
LEIVA_SOIL_LIMITS
 10
661858.87927873619
 20
616289.83012708684
 30
0.0
 11
661867.85462090722
 21
616280.18076945096
 31
0.0
  0
LINE
  5
64D
  8
LEIVA_SOIL_LIMITS
 10
661867.85462090722
 20
616280.18076945096
 30
0.0
 11
661876.34277725907
 21
616269.66686657351
 31
0.0
  0
LINE
  5
64E
  8
LEIVA_SOIL_LIMITS
 10
661876.34277725907
 20
616269.66686657351
 30
0.0
 11
661884.38808486902
 21
616258.31061307876
 31
0.0
  0
LINE
  5
64F
  8
LEIVA_SOIL_LIMITS
 10
661884.38808486902
 20
616258.31061307876
 30
0.0
 11
661892.03488080832
 21
616246.13420358836
 31
0.0
  0
LINE
  5
650
  8
LEIVA_SOIL_LIMITS
 10
661892.03488080832
 20
616246.13420358836
 30
0.0
 11
661899.32750215393
 21
616233.1598327239
 31
0.0
  0
LINE
  5
651
  8
LEIVA_SOIL_LIMITS
 10
661899.32750215393
 20
616233.1598327239
 30
0.0
 11
661906.31028597848
 21
616219.40969510679
 31
0.0
  0
LINE
  5
652
  8
LEIVA_SOIL_LIMITS
 10
661906.31028597848
 20
616219.40969510679
 30
0.0
 11
661913.02756935707
 21
616204.90598535934
 31
0.0
  0
LINE
  5
653
  8
LEIVA_SOIL_LIMITS
 10
661913.02756935707
 20
616204.90598535934
 30
0.0
 11
661919.52368936443
 21
616189.67089810385
 31
0.0
  0
LINE
  5
654
  8
LEIVA_SOIL_LIMITS
 10
661919.52368936443
 20
616189.67089810385
 30
0.0
 11
661925.84671037924
 21
616173.68970221269
 31
0.0
  0
LINE
  5
655
  8
LEIVA_SOIL_LIMITS
 10
661925.84671037924
 20
616173.68970221269
 30
0.0
 11
661932.05960600416
 21
616156.79996355926
 31
0.0
  0
LINE
  5
656
  8
LEIVA_SOIL_LIMITS
 10
661932.05960600416
 20
616156.79996355926
 30
0.0
 11
661938.22907714441
 21
616138.80232227023
 31
0.0
  0
LINE
  5
657
  8
LEIVA_SOIL_LIMITS
 10
661938.22907714441
 20
616138.80232227023
 30
0.0
 11
661944.42182470602
 21
616119.49741847068
 31
0.0
  0
LINE
  5
658
  8
LEIVA_SOIL_LIMITS
 10
661944.42182470602
 20
616119.49741847068
 30
0.0
 11
661950.70454959618
 21
616098.68589228543
 31
0.0
  0
LINE
  5
659
  8
LEIVA_SOIL_LIMITS
 10
661950.70454959618
 20
616098.68589228543
 30
0.0
 11
661957.14395272324
 21
616076.16838384024
 31
0.0
  0
LINE
  5
65A
  8
LEIVA_SOIL_LIMITS
 10
661957.14395272324
 20
616076.16838384024
 30
0.0
 11
661963.80673499173
 21
616051.74553326098
 31
0.0
  0
LINE
  5
65B
  8
LEIVA_SOIL_LIMITS
 10
661963.80673499173
 20
616051.74553326098
 30
0.0
 11
661970.75959730777
 21
616025.21798067191
 31
0.0
  0
LINE
  5
65C
  8
LEIVA_SOIL_LIMITS
 10
661970.75959730777
 20
616025.21798067191
 30
0.0
 11
661978.04326099204
 21
615996.51190253277
 31
0.0
  0
LINE
  5
65D
  8
LEIVA_SOIL_LIMITS
 10
661978.04326099204
 20
615996.51190253277
 30
0.0
 11
661985.59452901396
 21
615966.05562063539
 31
0.0
  0
LINE
  5
65E
  8
LEIVA_SOIL_LIMITS
 10
661985.59452901396
 20
615966.05562063539
 30
0.0
 11
661993.32422475494
 21
615934.40299310663
 31
0.0
  0
LINE
  5
65F
  8
LEIVA_SOIL_LIMITS
 10
661993.32422475494
 20
615934.40299310663
 30
0.0
 11
662001.14317159844
 21
615902.10787807102
 31
0.0
  0
LINE
  5
660
  8
LEIVA_SOIL_LIMITS
 10
662001.14317159844
 20
615902.10787807102
 30
0.0
 11
662008.96219292609
 21
615869.72413365659
 31
0.0
  0
LINE
  5
661
  8
LEIVA_SOIL_LIMITS
 10
662008.96219292609
 20
615869.72413365659
 30
0.0
 11
662016.69211212255
 21
615837.80561798788
 31
0.0
  0
LINE
  5
662
  8
LEIVA_SOIL_LIMITS
 10
662016.69211212255
 20
615837.80561798788
 30
0.0
 11
662024.24375256815
 21
615806.90618919139
 31
0.0
  0
LINE
  5
663
  8
LEIVA_SOIL_LIMITS
 10
662024.24375256815
 20
615806.90618919139
 30
0.0
 11
662031.52793764661
 21
615777.57970539387
 31
0.0
  0
LINE
  5
664
  8
LEIVA_SOIL_LIMITS
 10
662031.52793764661
 20
615777.57970539387
 30
0.0
 11
662038.47039385582
 21
615750.23970754398
 31
0.0
  0
LINE
  5
665
  8
LEIVA_SOIL_LIMITS
 10
662038.47039385582
 20
615750.23970754398
 30
0.0
 11
662045.05646015494
 21
615724.73846788518
 31
0.0
  0
LINE
  5
666
  8
LEIVA_SOIL_LIMITS
 10
662045.05646015494
 20
615724.73846788518
 30
0.0
 11
662051.28637861903
 21
615700.78794148355
 31
0.0
  0
LINE
  5
667
  8
LEIVA_SOIL_LIMITS
 10
662051.28637861903
 20
615700.78794148355
 30
0.0
 11
662057.16039132641
 21
615678.10008340445
 31
0.0
  0
LINE
  5
668
  8
LEIVA_SOIL_LIMITS
 10
662057.16039132641
 20
615678.10008340445
 30
0.0
 11
662062.6787403489
 21
615656.38684871583
 31
0.0
  0
LINE
  5
669
  8
LEIVA_SOIL_LIMITS
 10
662062.6787403489
 20
615656.38684871583
 30
0.0
 11
662067.84166776377
 21
615635.36019248306
 31
0.0
  0
LINE
  5
66A
  8
LEIVA_SOIL_LIMITS
 10
662067.84166776377
 20
615635.36019248306
 30
0.0
 11
662072.64941564633
 21
615614.7320697736
 31
0.0
  0
LINE
  5
66B
  8
LEIVA_SOIL_LIMITS
 10
662072.64941564633
 20
615614.7320697736
 30
0.0
 11
662077.10222607199
 21
615594.21443565364
 31
0.0
  0
LINE
  5
66C
  8
LEIVA_SOIL_LIMITS
 10
662077.10222607199
 20
615594.21443565364
 30
0.0
 11
662081.27785169135
 21
615573.65225425619
 31
0.0
  0
LINE
  5
66D
  8
LEIVA_SOIL_LIMITS
 10
662081.27785169135
 20
615573.65225425619
 30
0.0
 11
662085.56408745993
 21
615553.42252599029
 31
0.0
  0
LINE
  5
66E
  8
LEIVA_SOIL_LIMITS
 10
662085.56408745993
 20
615553.42252599029
 30
0.0
 11
662090.4262389068
 21
615534.03526032995
 31
0.0
  0
LINE
  5
66F
  8
LEIVA_SOIL_LIMITS
 10
662090.4262389068
 20
615534.03526032995
 30
0.0
 11
662096.32961156126
 21
615516.00046675117
 31
0.0
  0
LINE
  5
670
  8
LEIVA_SOIL_LIMITS
 10
662096.32961156126
 20
615516.00046675117
 30
0.0
 11
662103.73951095459
 21
615499.82815472665
 31
0.0
  0
LINE
  5
671
  8
LEIVA_SOIL_LIMITS
 10
662103.73951095459
 20
615499.82815472665
 30
0.0
 11
662113.12124261702
 21
615486.02833373449
 31
0.0
  0
LINE
  5
672
  8
LEIVA_SOIL_LIMITS
 10
662113.12124261702
 20
615486.02833373449
 30
0.0
 11
662124.94011207717
 21
615475.1110132481
 31
0.0
  0
LINE
  5
673
  8
LEIVA_SOIL_LIMITS
 10
662124.94011207717
 20
615475.1110132481
 30
0.0
 11
662139.66142486455
 21
615467.58620274253
 31
0.0
  0
LINE
  5
674
  8
LEIVA_SOIL_LIMITS
 10
662139.66142486455
 20
615467.58620274253
 30
0.0
 11
662157.52878915495
 21
615463.86771030491
 31
0.0
  0
LINE
  5
675
  8
LEIVA_SOIL_LIMITS
 10
662157.52878915495
 20
615463.86771030491
 30
0.0
 11
662177.89902369725
 21
615463.9845384697
 31
0.0
  0
LINE
  5
676
  8
LEIVA_SOIL_LIMITS
 10
662177.89902369725
 20
615463.9845384697
 30
0.0
 11
662199.90724988235
 21
615467.86948838108
 31
0.0
  0
LINE
  5
677
  8
LEIVA_SOIL_LIMITS
 10
662199.90724988235
 20
615467.86948838108
 30
0.0
 11
662222.68858910445
 21
615475.4553611849
 31
0.0
  0
LINE
  5
678
  8
LEIVA_SOIL_LIMITS
 10
662222.68858910445
 20
615475.4553611849
 30
0.0
 11
662245.37816275726
 21
615486.67495802767
 31
0.0
  0
LINE
  5
679
  8
LEIVA_SOIL_LIMITS
 10
662245.37816275726
 20
615486.67495802767
 30
0.0
 11
662267.11109223252
 21
615501.46108005266
 31
0.0
  0
LINE
  5
67A
  8
LEIVA_SOIL_LIMITS
 10
662267.11109223252
 20
615501.46108005266
 30
0.0
 11
662287.02249892196
 21
615519.74652840709
 31
0.0
  0
LINE
  5
67B
  8
LEIVA_SOIL_LIMITS
 10
662287.02249892196
 20
615519.74652840709
 30
0.0
 11
662304.24750422081
 21
615541.4641042368
 31
0.0
  0
LINE
  5
67C
  8
LEIVA_SOIL_LIMITS
 10
662304.24750422081
 20
615541.4641042368
 30
0.0
 11
662318.13939509378
 21
615566.44708408182
 31
0.0
  0
LINE
  5
67D
  8
LEIVA_SOIL_LIMITS
 10
662318.13939509378
 20
615566.44708408182
 30
0.0
 11
662328.92412080034
 21
615594.1306460686
 31
0.0
  0
LINE
  5
67E
  8
LEIVA_SOIL_LIMITS
 10
662328.92412080034
 20
615594.1306460686
 30
0.0
 11
662337.04579617444
 21
615623.85044371779
 31
0.0
  0
LINE
  5
67F
  8
LEIVA_SOIL_LIMITS
 10
662337.04579617444
 20
615623.85044371779
 30
0.0
 11
662342.94853604934
 21
615654.94213055097
 31
0.0
  0
LINE
  5
680
  8
LEIVA_SOIL_LIMITS
 10
662342.94853604934
 20
615654.94213055097
 30
0.0
 11
662347.07645525609
 21
615686.74136009067
 31
0.0
  0
LINE
  5
681
  8
LEIVA_SOIL_LIMITS
 10
662347.07645525609
 20
615686.74136009067
 30
0.0
 11
662349.87366863084
 21
615718.58378585626
 31
0.0
  0
LINE
  5
682
  8
LEIVA_SOIL_LIMITS
 10
662349.87366863084
 20
615718.58378585626
 30
0.0
 11
662351.78429100197
 21
615749.80506137223
 31
0.0
  0
LINE
  5
683
  8
LEIVA_SOIL_LIMITS
 10
662351.78429100197
 20
615749.80506137223
 30
0.0
 11
662353.25243720657
 21
615779.74084015773
 31
0.0
  0
LINE
  5
684
  8
LEIVA_SOIL_LIMITS
 10
662353.25243720657
 20
615779.74084015773
 30
0.0
 11
662354.67035903549
 21
615807.86336898198
 31
0.0
  0
LINE
  5
685
  8
LEIVA_SOIL_LIMITS
 10
662354.67035903549
 20
615807.86336898198
 30
0.0
 11
662356.2228561159
 21
615834.19126760797
 31
0.0
  0
LINE
  5
686
  8
LEIVA_SOIL_LIMITS
 10
662356.2228561159
 20
615834.19126760797
 30
0.0
 11
662358.04286503384
 21
615858.87974904408
 31
0.0
  0
LINE
  5
687
  8
LEIVA_SOIL_LIMITS
 10
662358.04286503384
 20
615858.87974904408
 30
0.0
 11
662360.26332237746
 21
615882.08402629849
 31
0.0
  0
LINE
  5
688
  8
LEIVA_SOIL_LIMITS
 10
662360.26332237746
 20
615882.08402629849
 30
0.0
 11
662363.01716473256
 21
615903.95931238169
 31
0.0
  0
LINE
  5
689
  8
LEIVA_SOIL_LIMITS
 10
662363.01716473256
 20
615903.95931238169
 30
0.0
 11
662366.43732868577
 21
615924.66082030279
 31
0.0
  0
LINE
  5
68A
  8
LEIVA_SOIL_LIMITS
 10
662366.43732868577
 20
615924.66082030279
 30
0.0
 11
662370.65675082465
 21
615944.34376307088
 31
0.0
  0
LINE
  5
68B
  8
LEIVA_SOIL_LIMITS
 10
662370.65675082465
 20
615944.34376307088
 30
0.0
 11
662375.80836773501
 21
615963.1633536939
 31
0.0
  0
LINE
  5
68C
  8
LEIVA_SOIL_LIMITS
 10
662375.80836773501
 20
615963.1633536939
 30
0.0
 11
662382.01034316083
 21
615981.26002122089
 31
0.0
  0
LINE
  5
68D
  8
LEIVA_SOIL_LIMITS
 10
662382.01034316083
 20
615981.26002122089
 30
0.0
 11
662389.32174947346
 21
615998.71505884454
 31
0.0
  0
LINE
  5
68E
  8
LEIVA_SOIL_LIMITS
 10
662389.32174947346
 20
615998.71505884454
 30
0.0
 11
662397.78688620171
 21
616015.59497580025
 31
0.0
  0
LINE
  5
68F
  8
LEIVA_SOIL_LIMITS
 10
662397.78688620171
 20
616015.59497580025
 30
0.0
 11
662407.45005287312
 21
616031.96628131974
 31
0.0
  0
LINE
  5
690
  8
LEIVA_SOIL_LIMITS
 10
662407.45005287312
 20
616031.96628131974
 30
0.0
 11
662418.35554901732
 21
616047.89548463514
 31
0.0
  0
LINE
  5
691
  8
LEIVA_SOIL_LIMITS
 10
662418.35554901732
 20
616047.89548463514
 30
0.0
 11
662430.54767416138
 21
616063.44909497933
 31
0.0
  0
LINE
  5
692
  8
LEIVA_SOIL_LIMITS
 10
662430.54767416138
 20
616063.44909497933
 30
0.0
 11
662444.07072783692
 21
616078.69362158701
 31
0.0
  0
LINE
  5
693
  8
LEIVA_SOIL_LIMITS
 10
662444.07072783692
 20
616078.69362158701
 30
0.0
 11
662458.96900956857
 21
616093.69557368872
 31
0.0
  0
LINE
  5
694
  8
LEIVA_SOIL_LIMITS
 10
662458.96900956857
 20
616093.69557368872
 30
0.0
 11
662475.24246334378
 21
616108.52142321551
 31
0.0
  0
LINE
  5
695
  8
LEIVA_SOIL_LIMITS
 10
662475.24246334378
 20
616108.52142321551
 30
0.0
 11
662492.71361097042
 21
616123.23749288497
 31
0.0
  0
LINE
  5
696
  8
LEIVA_SOIL_LIMITS
 10
662492.71361097042
 20
616123.23749288497
 30
0.0
 11
662511.16061871429
 21
616137.91006811219
 31
0.0
  0
LINE
  5
697
  8
LEIVA_SOIL_LIMITS
 10
662511.16061871429
 20
616137.91006811219
 30
0.0
 11
662530.36165284191
 21
616152.60543431062
 31
0.0
  0
LINE
  5
698
  8
LEIVA_SOIL_LIMITS
 10
662530.36165284191
 20
616152.60543431062
 30
0.0
 11
662550.09487961652
 21
616167.38987689721
 31
0.0
  0
LINE
  5
699
  8
LEIVA_SOIL_LIMITS
 10
662550.09487961652
 20
616167.38987689721
 30
0.0
 11
662570.13846530672
 21
616182.32968128484
 31
0.0
  0
LINE
  5
69A
  8
LEIVA_SOIL_LIMITS
 10
662570.13846530672
 20
616182.32968128484
 30
0.0
 11
662590.27057617635
 21
616197.49113288871
 31
0.0
  0
LINE
  5
69B
  8
LEIVA_SOIL_LIMITS
 10
662590.27057617635
 20
616197.49113288871
 30
0.0
 11
662610.26937849075
 21
616212.94051712379
 31
0.0
  0
LINE
  5
69C
  8
LEIVA_SOIL_LIMITS
 10
662610.26937849075
 20
616212.94051712379
 30
0.0
 11
662629.92784229259
 21
616228.72197456565
 31
0.0
  0
LINE
  5
69D
  8
LEIVA_SOIL_LIMITS
 10
662629.92784229259
 20
616228.72197456565
 30
0.0
 11
662649.09815273376
 21
616244.79106642283
 31
0.0
  0
LINE
  5
69E
  8
LEIVA_SOIL_LIMITS
 10
662649.09815273376
 20
616244.79106642283
 30
0.0
 11
662667.64729874325
 21
616261.08120906795
 31
0.0
  0
LINE
  5
69F
  8
LEIVA_SOIL_LIMITS
 10
662667.64729874325
 20
616261.08120906795
 30
0.0
 11
662685.44226924796
 21
616277.52581887122
 31
0.0
  0
LINE
  5
6A0
  8
LEIVA_SOIL_LIMITS
 10
662685.44226924796
 20
616277.52581887122
 30
0.0
 11
662702.35005317745
 21
616294.0583122028
 31
0.0
  0
LINE
  5
6A1
  8
LEIVA_SOIL_LIMITS
 10
662702.35005317745
 20
616294.0583122028
 30
0.0
 11
662718.23763946025
 21
616310.61210543313
 31
0.0
  0
LINE
  5
6A2
  8
LEIVA_SOIL_LIMITS
 10
662718.23763946025
 20
616310.61210543313
 30
0.0
 11
662732.97201702301
 21
616327.12061493378
 31
0.0
  0
LINE
  5
6A3
  8
LEIVA_SOIL_LIMITS
 10
662732.97201702301
 20
616327.12061493378
 30
0.0
 11
662746.42017479625
 21
616343.51725707424
 31
0.0
  0
LINE
  5
6A4
  8
LEIVA_SOIL_LIMITS
 10
662746.42017479625
 20
616343.51725707424
 30
0.0
 11
662758.4786566298
 21
616359.7539374656
 31
0.0
  0
LINE
  5
6A5
  8
LEIVA_SOIL_LIMITS
 10
662758.4786566298
 20
616359.7539374656
 30
0.0
 11
662769.16222605354
 21
616375.8565186765
 31
0.0
  0
LINE
  5
6A6
  8
LEIVA_SOIL_LIMITS
 10
662769.16222605354
 20
616375.8565186765
 30
0.0
 11
662778.5152015218
 21
616391.86935251718
 31
0.0
  0
LINE
  5
6A7
  8
LEIVA_SOIL_LIMITS
 10
662778.5152015218
 20
616391.86935251718
 30
0.0
 11
662786.58190148894
 21
616407.8367907966
 31
0.0
  0
LINE
  5
6A8
  8
LEIVA_SOIL_LIMITS
 10
662786.58190148894
 20
616407.8367907966
 30
0.0
 11
662793.40664440615
 21
616423.80318532628
 31
0.0
  0
LINE
  5
6A9
  8
LEIVA_SOIL_LIMITS
 10
662793.40664440615
 20
616423.80318532628
 30
0.0
 11
662799.03374872904
 21
616439.81288791238
 31
0.0
  0
LINE
  5
6AA
  8
LEIVA_SOIL_LIMITS
 10
662799.03374872904
 20
616439.81288791238
 30
0.0
 11
662803.50753291009
 21
616455.91025036701
 31
0.0
  0
LINE
  5
6AB
  8
LEIVA_SOIL_LIMITS
 10
662803.50753291009
 20
616455.91025036701
 30
0.0
 11
662806.87231540098
 21
616472.13962449704
 31
0.0
  0
LINE
  5
6AC
  8
LEIVA_SOIL_LIMITS
 10
662806.87231540098
 20
616472.13962449704
 30
0.0
 11
662809.19459553249
 21
616488.54168790206
 31
0.0
  0
LINE
  5
6AD
  8
LEIVA_SOIL_LIMITS
 10
662809.19459553249
 20
616488.54168790206
 30
0.0
 11
662810.62959613395
 21
616505.14242132357
 31
0.0
  0
LINE
  5
6AE
  8
LEIVA_SOIL_LIMITS
 10
662810.62959613395
 20
616505.14242132357
 30
0.0
 11
662811.35472091218
 21
616521.96413129452
 31
0.0
  0
LINE
  5
6AF
  8
LEIVA_SOIL_LIMITS
 10
662811.35472091218
 20
616521.96413129452
 30
0.0
 11
662811.54737357143
 21
616539.02912434353
 31
0.0
  0
LINE
  5
6B0
  8
LEIVA_SOIL_LIMITS
 10
662811.54737357143
 20
616539.02912434353
 30
0.0
 11
662811.38495781925
 21
616556.35970700206
 31
0.0
  0
LINE
  5
6B1
  8
LEIVA_SOIL_LIMITS
 10
662811.38495781925
 20
616556.35970700206
 30
0.0
 11
662811.04487736034
 21
616573.978185802
 31
0.0
  0
LINE
  5
6B2
  8
LEIVA_SOIL_LIMITS
 10
662811.04487736034
 20
616573.978185802
 30
0.0
 11
662810.70453590166
 21
616591.90686727315
 31
0.0
  0
LINE
  5
6B3
  8
LEIVA_SOIL_LIMITS
 10
662810.70453590166
 20
616591.90686727315
 30
0.0
 11
662810.54133714736
 21
616610.16805794649
 31
0.0
  0
LINE
  5
6B4
  8
LEIVA_SOIL_LIMITS
 10
662810.54133714736
 20
616610.16805794649
 30
0.0
 11
662810.69572805963
 21
616628.77664748207
 31
0.0
  0
LINE
  5
6B5
  8
LEIVA_SOIL_LIMITS
 10
662810.69572805963
 20
616628.77664748207
 30
0.0
 11
662811.16032861057
 21
616647.71785805118
 31
0.0
  0
LINE
  5
6B6
  8
LEIVA_SOIL_LIMITS
 10
662811.16032861057
 20
616647.71785805118
 30
0.0
 11
662811.89080203255
 21
616666.96949495259
 31
0.0
  0
LINE
  5
6B7
  8
LEIVA_SOIL_LIMITS
 10
662811.89080203255
 20
616666.96949495259
 30
0.0
 11
662812.84281155164
 21
616686.5093634862
 31
0.0
  0
LINE
  5
6B8
  8
LEIVA_SOIL_LIMITS
 10
662812.84281155164
 20
616686.5093634862
 30
0.0
 11
662813.97202039976
 21
616706.3152689524
 31
0.0
  0
LINE
  5
6B9
  8
LEIVA_SOIL_LIMITS
 10
662813.97202039976
 20
616706.3152689524
 30
0.0
 11
662815.23409180576
 21
616726.36501665111
 31
0.0
  0
LINE
  5
6BA
  8
LEIVA_SOIL_LIMITS
 10
662815.23409180576
 20
616726.36501665111
 30
0.0
 11
662816.58468899655
 21
616746.63641188084
 31
0.0
  0
LINE
  5
6BB
  8
LEIVA_SOIL_LIMITS
 10
662816.58468899655
 20
616746.63641188084
 30
0.0
 11
662817.97947520425
 21
616767.10725994245
 31
0.0
  0
LINE
  5
6BC
  8
LEIVA_SOIL_LIMITS
 10
662817.97947520425
 20
616767.10725994245
 30
0.0
 11
662819.40369327844
 21
616787.74431236682
 31
0.0
  0
LINE
  5
6BD
  8
LEIVA_SOIL_LIMITS
 10
662819.40369327844
 20
616787.74431236682
 30
0.0
 11
662820.96090456122
 21
616808.47010560776
 31
0.0
  0
LINE
  5
6BE
  8
LEIVA_SOIL_LIMITS
 10
662820.96090456122
 20
616808.47010560776
 30
0.0
 11
662822.78425001772
 21
616829.19612235343
 31
0.0
  0
LINE
  5
6BF
  8
LEIVA_SOIL_LIMITS
 10
662822.78425001772
 20
616829.19612235343
 30
0.0
 11
662825.00687061297
 21
616849.83384528989
 31
0.0
  0
LINE
  5
6C0
  8
LEIVA_SOIL_LIMITS
 10
662825.00687061297
 20
616849.83384528989
 30
0.0
 11
662827.76190731162
 21
616870.29475710308
 31
0.0
  0
LINE
  5
6C1
  8
LEIVA_SOIL_LIMITS
 10
662827.76190731162
 20
616870.29475710308
 30
0.0
 11
662831.18250107695
 21
616890.49034047965
 31
0.0
  0
LINE
  5
6C2
  8
LEIVA_SOIL_LIMITS
 10
662831.18250107695
 20
616890.49034047965
 30
0.0
 11
662835.4017928734
 21
616910.33207810624
 31
0.0
  0
LINE
  5
6C3
  8
LEIVA_SOIL_LIMITS
 10
662835.4017928734
 20
616910.33207810624
 30
0.0
 11
662840.55292366585
 21
616929.73145266913
 31
0.0
  0
LINE
  5
6C4
  8
LEIVA_SOIL_LIMITS
 10
662840.55292366585
 20
616929.73145266913
 30
0.0
 11
662846.75055304426
 21
616948.59993128316
 31
0.0
  0
LINE
  5
6C5
  8
LEIVA_SOIL_LIMITS
 10
662846.75055304426
 20
616948.59993128316
 30
0.0
 11
662854.03541509528
 21
616966.84891877975
 31
0.0
  0
LINE
  5
6C6
  8
LEIVA_SOIL_LIMITS
 10
662854.03541509528
 20
616966.84891877975
 30
0.0
 11
662862.42976253142
 21
616984.3898044168
 31
0.0
  0
LINE
  5
6C7
  8
LEIVA_SOIL_LIMITS
 10
662862.42976253142
 20
616984.3898044168
 30
0.0
 11
662871.95584806334
 21
617001.13397745276
 31
0.0
  0
LINE
  5
6C8
  8
LEIVA_SOIL_LIMITS
 10
662871.95584806334
 20
617001.13397745276
 30
0.0
 11
662882.63592440472
 21
617016.99282714771
 31
0.0
  0
LINE
  5
6C9
  8
LEIVA_SOIL_LIMITS
 10
662882.63592440472
 20
617016.99282714771
 30
0.0
 11
662894.4922442676
 21
617031.87774276175
 31
0.0
  0
LINE
  5
6CA
  8
LEIVA_SOIL_LIMITS
 10
662894.4922442676
 20
617031.87774276175
 30
0.0
 11
662907.54706036299
 21
617045.70011355053
 31
0.0
  0
LINE
  5
6CB
  8
LEIVA_SOIL_LIMITS
 10
662907.54706036299
 20
617045.70011355053
 30
0.0
 11
662921.82262540341
 21
617058.37132877647
 31
0.0
  0
LINE
  5
6CC
  8
LEIVA_SOIL_LIMITS
 10
662921.82262540341
 20
617058.37132877647
 30
0.0
 11
662937.27833623125
 21
617069.82488224574
 31
0.0
  0
LINE
  5
6CD
  8
LEIVA_SOIL_LIMITS
 10
662937.27833623125
 20
617069.82488224574
 30
0.0
 11
662953.62216621276
 21
617080.08268596372
 31
0.0
  0
LINE
  5
6CE
  8
LEIVA_SOIL_LIMITS
 10
662953.62216621276
 20
617080.08268596372
 30
0.0
 11
662970.49923284375
 21
617089.18875648198
 31
0.0
  0
LINE
  5
6CF
  8
LEIVA_SOIL_LIMITS
 10
662970.49923284375
 20
617089.18875648198
 30
0.0
 11
662987.55465362105
 21
617097.18711035699
 31
0.0
  0
LINE
  5
6D0
  8
LEIVA_SOIL_LIMITS
 10
662987.55465362105
 20
617097.18711035699
 30
0.0
 11
663004.43354603858
 21
617104.12176414055
 31
0.0
  0
LINE
  5
6D1
  8
LEIVA_SOIL_LIMITS
 10
663004.43354603858
 20
617104.12176414055
 30
0.0
 11
663020.78102759644
 21
617110.03673438611
 31
0.0
  0
LINE
  5
6D2
  8
LEIVA_SOIL_LIMITS
 10
663020.78102759644
 20
617110.03673438611
 30
0.0
 11
663036.24221578718
 21
617114.97603764804
 31
0.0
  0
LINE
  5
6D3
  8
LEIVA_SOIL_LIMITS
 10
663036.24221578718
 20
617114.97603764804
 30
0.0
 11
663050.46222810959
 21
617118.98369047965
 31
0.0
  0
LINE
  5
6D4
  8
LEIVA_SOIL_LIMITS
 10
663050.46222810959
 20
617118.98369047965
 30
0.0
 11
663063.1970525505
 21
617122.12595990556
 31
0.0
  0
LINE
  5
6D5
  8
LEIVA_SOIL_LIMITS
 10
663063.1970525505
 20
617122.12595990556
 30
0.0
 11
663074.64615906146
 21
617124.55811483809
 31
0.0
  0
LINE
  5
6D6
  8
LEIVA_SOIL_LIMITS
 10
663074.64615906146
 20
617124.55811483809
 30
0.0
 11
663085.11988809006
 21
617126.45767465909
 31
0.0
  0
LINE
  5
6D7
  8
LEIVA_SOIL_LIMITS
 10
663085.11988809006
 20
617126.45767465909
 30
0.0
 11
663094.9285800769
 21
617128.00215875101
 31
0.0
  0
LINE
  5
6D8
  8
LEIVA_SOIL_LIMITS
 10
663094.9285800769
 20
617128.00215875101
 30
0.0
 11
663104.38257547014
 21
617129.36908649921
 31
0.0
  0
LINE
  5
6D9
  8
LEIVA_SOIL_LIMITS
 10
663104.38257547014
 20
617129.36908649921
 30
0.0
 11
663113.79221471061
 21
617130.73597728345
 31
0.0
  0
LINE
  5
6DA
  8
LEIVA_SOIL_LIMITS
 10
663113.79221471061
 20
617130.73597728345
 30
0.0
 11
663123.46783824521
 21
617132.28035048745
 31
0.0
  0
LINE
  5
6DB
  8
LEIVA_SOIL_LIMITS
 10
663123.46783824521
 20
617132.28035048745
 30
0.0
 11
663133.71978651662
 21
617134.1797254961
 31
0.0
  0
LINE
  5
6DC
  8
LEIVA_SOIL_LIMITS
 10
663133.71978651662
 20
617134.1797254961
 30
0.0
 11
663144.76970735309
 21
617136.58938981709
 31
0.0
  0
LINE
  5
6DD
  8
LEIVA_SOIL_LIMITS
 10
663144.76970735309
 20
617136.58938981709
 30
0.0
 11
663156.48447810626
 21
617139.57570347225
 31
0.0
  0
LINE
  5
6DE
  8
LEIVA_SOIL_LIMITS
 10
663156.48447810626
 20
617139.57570347225
 30
0.0
 11
663168.64228351065
 21
617143.1827946112
 31
0.0
  0
LINE
  5
6DF
  8
LEIVA_SOIL_LIMITS
 10
663168.64228351065
 20
617143.1827946112
 30
0.0
 11
663181.02130830265
 21
617147.45479138079
 31
0.0
  0
LINE
  5
6E0
  8
LEIVA_SOIL_LIMITS
 10
663181.02130830265
 20
617147.45479138079
 30
0.0
 11
663193.39973721677
 21
617152.43582193041
 31
0.0
  0
LINE
  5
6E1
  8
LEIVA_SOIL_LIMITS
 10
663193.39973721677
 20
617152.43582193041
 30
0.0
 11
663205.55575498752
 21
617158.17001440679
 31
0.0
  0
LINE
  5
6E2
  8
LEIVA_SOIL_LIMITS
 10
663205.55575498752
 20
617158.17001440679
 30
0.0
 11
663217.26754634967
 21
617164.70149696036
 31
0.0
  0
LINE
  5
6E3
  8
LEIVA_SOIL_LIMITS
 10
663217.26754634967
 20
617164.70149696036
 30
0.0
 11
663228.31329603936
 21
617172.07439773926
 31
0.0
  0
LINE
  5
6E4
  8
LEIVA_SOIL_LIMITS
 10
663228.31329603936
 20
617172.07439773926
 30
0.0
 11
663238.50078403135
 21
617180.30332669325
 31
0.0
  0
LINE
  5
6E5
  8
LEIVA_SOIL_LIMITS
 10
663238.50078403135
 20
617180.30332669325
 30
0.0
 11
663247.75617126864
 21
617189.28482098971
 31
0.0
  0
LINE
  5
6E6
  8
LEIVA_SOIL_LIMITS
 10
663247.75617126864
 20
617189.28482098971
 30
0.0
 11
663256.03521393472
 21
617198.88589959522
 31
0.0
  0
LINE
  5
6E7
  8
LEIVA_SOIL_LIMITS
 10
663256.03521393472
 20
617198.88589959522
 30
0.0
 11
663263.29366821167
 21
617208.97358147777
 31
0.0
  0
LINE
  5
6E8
  8
LEIVA_SOIL_LIMITS
 10
663263.29366821167
 20
617208.97358147777
 30
0.0
 11
663269.48729028355
 21
617219.41488560755
 31
0.0
  0
LINE
  5
6E9
  8
LEIVA_SOIL_LIMITS
 10
663269.48729028355
 20
617219.41488560755
 30
0.0
 11
663274.57183633256
 21
617230.07683095057
 31
0.0
  0
LINE
  5
6EA
  8
LEIVA_SOIL_LIMITS
 10
663274.57183633256
 20
617230.07683095057
 30
0.0
 11
663278.50306254334
 21
617240.82643647655
 31
0.0
  0
LINE
  5
6EB
  8
LEIVA_SOIL_LIMITS
 10
663278.50306254334
 20
617240.82643647655
 30
0.0
 11
663281.23672509764
 21
617251.5307211529
 31
0.0
  0
LINE
  5
6EC
  8
LEIVA_SOIL_LIMITS
 10
663281.23672509764
 20
617251.5307211529
 30
0.0
 11
663282.76183132059
 21
617262.07519630739
 31
0.0
  0
LINE
  5
6ED
  8
LEIVA_SOIL_LIMITS
 10
663282.76183132059
 20
617262.07519630739
 30
0.0
 11
663283.20039309538
 21
617272.41934270493
 31
0.0
  0
LINE
  5
6EE
  8
LEIVA_SOIL_LIMITS
 10
663283.20039309538
 20
617272.41934270493
 30
0.0
 11
663282.70767344779
 21
617282.54113347013
 31
0.0
  0
LINE
  5
6EF
  8
LEIVA_SOIL_LIMITS
 10
663282.70767344779
 20
617282.54113347013
 30
0.0
 11
663281.43893540034
 21
617292.41854172305
 31
0.0
  0
LINE
  5
6F0
  8
LEIVA_SOIL_LIMITS
 10
663281.43893540034
 20
617292.41854172305
 30
0.0
 11
663279.54944198066
 21
617302.02954059164
 31
0.0
  0
LINE
  5
6F1
  8
LEIVA_SOIL_LIMITS
 10
663279.54944198066
 20
617302.02954059164
 30
0.0
 11
663277.19445621117
 21
617311.35210319818
 31
0.0
  0
LINE
  5
6F2
  8
LEIVA_SOIL_LIMITS
 10
663277.19445621117
 20
617311.35210319818
 30
0.0
 11
663274.52924111718
 21
617320.36420266656
 31
0.0
  0
LINE
  5
6F3
  8
LEIVA_SOIL_LIMITS
 10
663274.52924111718
 20
617320.36420266656
 30
0.0
 11
663271.70905972505
 21
617329.04381211917
 31
0.0
  0
LINE
  5
6F4
  8
LEIVA_SOIL_LIMITS
 10
663271.70905972505
 20
617329.04381211917
 30
0.0
 11
663268.86328552244
 21
617337.38734735199
 31
0.0
  0
LINE
  5
6F5
  8
LEIVA_SOIL_LIMITS
 10
663268.86328552244
 20
617337.38734735199
 30
0.0
 11
663266.01773386472
 21
617345.4649948373
 31
0.0
  0
LINE
  5
6F6
  8
LEIVA_SOIL_LIMITS
 10
663266.01773386472
 20
617345.4649948373
 30
0.0
 11
663263.17233056843
 21
617353.36538372049
 31
0.0
  0
LINE
  5
6F7
  8
LEIVA_SOIL_LIMITS
 10
663263.17233056843
 20
617353.36538372049
 30
0.0
 11
663260.32700145384
 21
617361.17714314454
 31
0.0
  0
LINE
  5
6F8
  8
LEIVA_SOIL_LIMITS
 10
663260.32700145384
 20
617361.17714314454
 30
0.0
 11
663257.48167233984
 21
617368.98890225426
 31
0.0
  0
LINE
  5
6F9
  8
LEIVA_SOIL_LIMITS
 10
663257.48167233984
 20
617368.98890225426
 30
0.0
 11
663254.63626904541
 21
617376.88929019263
 31
0.0
  0
LINE
  5
6FA
  8
LEIVA_SOIL_LIMITS
 10
663254.63626904541
 20
617376.88929019263
 30
0.0
 11
663251.79071738757
 21
617384.96693610493
 31
0.0
  0
LINE
  5
6FB
  8
LEIVA_SOIL_LIMITS
 10
663251.79071738757
 20
617384.96693610493
 30
0.0
 11
663248.94494318694
 21
617393.31046913471
 31
0.0
  0
LINE
  5
6FC
  8
LEIVA_SOIL_LIMITS
 10
663248.94494318694
 20
617393.31046913471
 30
0.0
 11
663246.11181697948
 21
617401.99929712992
 31
0.0
  0
LINE
  5
6FD
  8
LEIVA_SOIL_LIMITS
 10
663246.11181697948
 20
617401.99929712992
 30
0.0
 11
663243.35598816373
 21
617411.07594275696
 31
0.0
  0
LINE
  5
6FE
  8
LEIVA_SOIL_LIMITS
 10
663243.35598816373
 20
617411.07594275696
 30
0.0
 11
663240.75505086058
 21
617420.57370738406
 31
0.0
  0
LINE
  5
6FF
  8
LEIVA_SOIL_LIMITS
 10
663240.75505086058
 20
617420.57370738406
 30
0.0
 11
663238.38659918681
 21
617430.52589238156
 31
0.0
  0
LINE
  5
700
  8
LEIVA_SOIL_LIMITS
 10
663238.38659918681
 20
617430.52589238156
 30
0.0
 11
663236.32822726038
 21
617440.96579911886
 31
0.0
  0
LINE
  5
701
  8
LEIVA_SOIL_LIMITS
 10
663236.32822726038
 20
617440.96579911886
 30
0.0
 11
663234.65752920043
 21
617451.92672896618
 31
0.0
  0
LINE
  5
702
  8
LEIVA_SOIL_LIMITS
 10
663234.65752920043
 20
617451.92672896618
 30
0.0
 11
663233.45209912234
 21
617463.44198329409
 31
0.0
  0
LINE
  5
703
  8
LEIVA_SOIL_LIMITS
 10
663233.45209912234
 20
617463.44198329409
 30
0.0
 11
663232.78953114816
 21
617475.5448634699
 31
0.0
  0
LINE
  5
704
  8
LEIVA_SOIL_LIMITS
 10
663232.78953114816
 20
617475.5448634699
 30
0.0
 11
663232.72595100827
 21
617488.21121772262
 31
0.0
  0
LINE
  5
705
  8
LEIVA_SOIL_LIMITS
 10
663232.72595100827
 20
617488.21121772262
 30
0.0
 11
663233.23161089746
 21
617501.1870817109
 31
0.0
  0
LINE
  5
706
  8
LEIVA_SOIL_LIMITS
 10
663233.23161089746
 20
617501.1870817109
 30
0.0
 11
663234.25529462413
 21
617514.16103795567
 31
0.0
  0
LINE
  5
707
  8
LEIVA_SOIL_LIMITS
 10
663234.25529462413
 20
617514.16103795567
 30
0.0
 11
663235.74578599806
 21
617526.82166897145
 31
0.0
  0
LINE
  5
708
  8
LEIVA_SOIL_LIMITS
 10
663235.74578599806
 20
617526.82166897145
 30
0.0
 11
663237.65186882648
 21
617538.85755727766
 31
0.0
  0
LINE
  5
709
  8
LEIVA_SOIL_LIMITS
 10
663237.65186882648
 20
617538.85755727766
 30
0.0
 11
663239.92232691962
 21
617549.95728539163
 31
0.0
  0
LINE
  5
70A
  8
LEIVA_SOIL_LIMITS
 10
663239.92232691962
 20
617549.95728539163
 30
0.0
 11
663242.50594408659
 21
617559.80943583115
 31
0.0
  0
LINE
  5
70B
  8
LEIVA_SOIL_LIMITS
 10
663242.50594408659
 20
617559.80943583115
 30
0.0
 11
663245.35150413588
 21
617568.10259111458
 31
0.0
  0
LINE
  5
70C
  8
LEIVA_SOIL_LIMITS
 10
660101.24823962711
 20
627747.47340715874
 30
0.0
 11
660195.38469040883
 21
627766.36556686927
 31
0.0
  0
LINE
  5
70D
  8
LEIVA_SOIL_LIMITS
 10
660195.38469040883
 20
627766.36556686927
 30
0.0
 11
660398.48881906341
 21
627779.21922943671
 31
0.0
  0
LINE
  5
70E
  8
LEIVA_SOIL_LIMITS
 10
660398.48881906341
 20
627779.21922943671
 30
0.0
 11
660614.30901737488
 21
627766.71763448021
 31
0.0
  0
LINE
  5
70F
  8
LEIVA_SOIL_LIMITS
 10
660614.30901737488
 20
627766.71763448021
 30
0.0
 11
660792.03445646097
 21
627766.86699646921
 31
0.0
  0
LINE
  5
710
  8
LEIVA_SOIL_LIMITS
 10
660792.03445646097
 20
627766.86699646921
 30
0.0
 11
660906.28652444412
 21
627766.96301489056
 31
0.0
  0
LINE
  5
711
  8
LEIVA_SOIL_LIMITS
 10
660906.28652444412
 20
627766.96301489056
 30
0.0
 11
661071.30670813075
 21
627779.78467138321
 31
0.0
  0
LINE
  5
712
  8
LEIVA_SOIL_LIMITS
 10
661071.30670813075
 20
627779.78467138321
 30
0.0
 11
661236.34813186806
 21
627767.24040150712
 31
0.0
  0
LINE
  5
713
  8
LEIVA_SOIL_LIMITS
 10
661236.34813186806
 20
627767.24040150712
 30
0.0
 11
661477.58965516591
 21
627716.71133508114
 31
0.0
  0
LINE
  5
714
  8
LEIVA_SOIL_LIMITS
 10
661477.58965516591
 20
627716.71133508114
 30
0.0
 11
661744.12451950531
 21
627780.35011326405
 31
0.0
  0
LINE
  5
715
  8
LEIVA_SOIL_LIMITS
 10
661744.12451950531
 20
627780.35011326405
 30
0.0
 11
661997.95412847935
 21
627856.66114567174
 31
0.0
  0
LINE
  5
716
  8
LEIVA_SOIL_LIMITS
 10
661997.95412847935
 20
627856.66114567174
 30
0.0
 11
662126.36349839438
 21
627892.41368445707
 31
0.0
  0
LINE
  5
717
  8
LEIVA_SOIL_LIMITS
 10
663543.72787104524
 20
626407.96631514234
 30
0.0
 11
663484.57433873927
 21
626259.85852561705
 31
0.0
  0
LINE
  5
718
  8
LEIVA_SOIL_LIMITS
 10
663484.57433873927
 20
626259.85852561705
 30
0.0
 11
663395.85018428753
 21
626094.90560560545
 31
0.0
  0
LINE
  5
719
  8
LEIVA_SOIL_LIMITS
 10
663395.85018428753
 20
626094.90560560545
 30
0.0
 11
663307.13661101507
 21
625917.26972237718
 31
0.0
  0
LINE
  5
71A
  8
LEIVA_SOIL_LIMITS
 10
663307.13661101507
 20
625917.26972237718
 30
0.0
 11
663218.36982117977
 21
625803.04853413545
 31
0.0
  0
LINE
  5
71B
  8
LEIVA_SOIL_LIMITS
 10
663218.36982117977
 20
625803.04853413545
 30
0.0
 11
662952.02673849487
 21
625511.1168219489
 31
0.0
  0
LINE
  5
71C
  8
LEIVA_SOIL_LIMITS
 10
662952.02673849487
 20
625511.1168219489
 30
0.0
 11
662787.18783300999
 21
625282.68515445734
 31
0.0
  0
LINE
  5
71D
  8
LEIVA_SOIL_LIMITS
 10
662787.18783300999
 20
625282.68515445734
 30
0.0
 11
662761.91573198524
 21
625143.15142375766
 31
0.0
  0
LINE
  5
71E
  8
LEIVA_SOIL_LIMITS
 10
662761.91573198524
 20
625143.15142375766
 30
0.0
 11
662686.02481688
 21
624813.33089316415
 31
0.0
  0
LINE
  5
71F
  8
LEIVA_SOIL_LIMITS
 10
662686.02481688
 20
624813.33089316415
 30
0.0
 11
662559.39776261814
 21
624432.73591560288
 31
0.0
  0
LINE
  5
720
  8
LEIVA_SOIL_LIMITS
 10
662559.39776261814
 20
624432.73591560288
 30
0.0
 11
662432.69617408526
 21
624140.92151905084
 31
0.0
  0
LINE
  5
721
  8
LEIVA_SOIL_LIMITS
 10
662432.69617408526
 20
624140.92151905084
 30
0.0
 11
662283.59773808555
 21
624018.03776674625
 31
0.0
  0
TEXT
  5
722
  8
LEIVA_SOIL_LABELS
 10
663916.33903874038
 20
627946.60788201995
 30
0.0
 40
300.93772760736312
  1
II
 50
0.0481518550331853
  0
TEXT
  5
723
  8
LEIVA_SOIL_LABELS
 10
663372.1428591524
 20
625042.32813239144
 30
0.0
 40
300.93772760736312
  1
IV
 50
0.0481518550331853
  0
TEXT
  5
724
  8
LEIVA_SOIL_LABELS
 10
666196.68384732539
 20
627389.07229128096
 30
0.0
 40
300.93772760736312
  1
III
 50
0.0481518550331853
  0
TEXT
  5
725
  8
LEIVA_SOIL_LABELS
 10
667904.67831567419
 20
625698.83135523624
 30
0.0
 40
300.93772760736312
  1
II
 50
0.0481518550331853
  0
TEXT
  5
726
  8
LEIVA_SOIL_LABELS
 10
659420.15133937693
 20
626699.39009764092
 30
0.0
 40
300.93772760736312
  1
III
 50
0.0481518550331853
  0
TEXT
  5
727
  8
LEIVA_SOIL_LABELS
 10
658775.80290007754
 20
624627.89459249284
 30
0.0
 40
300.93772760736312
  1
IV
 50
0.0481518550331853
  0
TEXT
  5
728
  8
LEIVA_SOIL_LABELS
 10
659636.5879532001
 20
625422.03545571945
 30
0.0
 40
300.93772760736312
  1
III
 50
0.0481518550331853
  0
TEXT
  5
729
  8
LEIVA_SOIL_LABELS
 10
659459.14178340882
 20
628353.49651357136
 30
0.0
 40
300.93772760736312
  1
I
 50
0.0481518550331853
  0
LINE
  5
72A
  8
LEIVA_SOIL_LABELS
 10
659432.33443887788
 20
628218.99645634578
 30
0.0
 11
659136.69628651696
 21
627640.49461657205
 31
0.0
  0
TEXT
  5
72B
  8
LEIVA_SOIL_LABELS
 10
654768.24055585545
 20
625990.33396715531
 30
0.0
 40
300.93772760736312
  1
III
 50
0.0481518550331853
  0
TEXT
  5
72C
  8
LEIVA_SOIL_LABELS
 10
651504.18947758176
 20
622557.71270047408
 30
0.0
 40
300.93772760736312
  1
IV
 50
0.0481518550331853
  0
LINE
  5
72D
  8
LEIVA_SOIL_LABELS
 10
652196.16210788221
 20
622765.74653868715
 30
0.0
 11
652458.88738249033
 21
623111.72116603225
 31
0.0
  0
TEXT
  5
72E
  8
LEIVA_SOIL_LABELS
 10
663075.62295197393
 20
614810.21896143747
 30
0.0
 40
300.93772760736312
  1
IV
 50
0.0481518550331853
  0
TEXT
  5
72F
  8
LEIVA_SOIL_LABELS
 10
661544.09665995371
 20
617996.62291654106
 30
0.0
 40
300.93772760736312
  1
I
 50
0.0481518550331853
  0
TEXT
  5
730
  8
LEIVA_SOIL_LABELS
 10
666558.82531889225
 20
622616.34841973451
 30
0.0
 40
300.93772760736312
  1
V
 50
0.0481518550331853
  0
TEXT
  5
731
  8
LEIVA_SOIL_LABELS
 10
661739.43731294805
 20
622844.7339544557
 30
0.0
 40
300.93772760736312
  1
III
 50
0.0481518550331853
  0
TEXT
  5
732
  8
LEIVA_SOIL_LABELS
 10
656487.53723469144
 20
623604.03789984551
 30
0.0
 40
300.93772760736312
  1
IV
 50
0.0481518550331853
  0
TEXT
  5
733
  8
LEIVA_SOIL_LABELS
 10
657651.29290163901
 20
623007.32383567805
 30
0.0
 40
300.93772760736312
  1
III
 50
0.0481518550331853
  0
TEXT
  5
734
  8
LEIVA_SOIL_LABELS
 10
657055.16918204015
 20
620483.23407655
 30
0.0
 40
300.93772760736312
  1
IV
 50
0.0481518550331853
  0
TEXT
  5
735
  8
LEIVA_SOIL_LABELS
 10
657582.89578873711
 20
625298.41933588486
 30
0.0
 40
300.93772760736312
  1
I
 50
0.0481518550331853
  0
ENDSEC
  0
EOF
