  0
SECTION
  2
HEADER
  9
$ACADVER
  1
AC1009
  9
$INSBASE
 10
0.0
 20
0.0
 30
0.0
  9
$EXTMIN
 10
499944.513281914
 20
386814.76988541801
 30
-0.0792900070246105
  9
$EXTMAX
 10
833384.97952031018
 20
719471.2977785063
 30
5200.0793626546174
  9
$LIMMIN
 10
0.0
 20
0.0
  9
$LIMMAX
 10
12.0
 20
9.0
  9
$ORTHOMODE
 70
     0
  9
$REGENMODE
 70
     1
  9
$FILLMODE
 70
     1
  9
$QTEXTMODE
 70
     0
  9
$MIRRTEXT
 70
     0
  9
$DRAGMODE
 70
     2
  9
$LTSCALE
 40
1.0
  9
$OSMODE
 70
    37
  9
$ATTMODE
 70
     1
  9
$TEXTSIZE
 40
1200.0
  9
$TRACEWID
 40
0.05
  9
$TEXTSTYLE
  7
STANDARD
  9
$CLAYER
  8
0
  9
$CELTYPE
  6
BYLAYER
  9
$CECOLOR
 62
   256
  9
$DIMSCALE
 40
1.0
  9
$DIMASZ
 40
0.18
  9
$DIMEXO
 40
0.0625
  9
$DIMDLI
 40
0.38
  9
$DIMRND
 40
0.0
  9
$DIMDLE
 40
0.0
  9
$DIMEXE
 40
0.18
  9
$DIMTP
 40
0.0
  9
$DIMTM
 40
0.0
  9
$DIMTXT
 40
0.18
  9
$DIMCEN
 40
0.09
  9
$DIMTSZ
 40
0.0
  9
$DIMTOL
 70
     0
  9
$DIMLIM
 70
     0
  9
$DIMTIH
 70
     1
  9
$DIMTOH
 70
     1
  9
$DIMSE1
 70
     0
  9
$DIMSE2
 70
     0
  9
$DIMTAD
 70
     0
  9
$DIMZIN
 70
     0
  9
$DIMBLK
  1

  9
$DIMASO
 70
     1
  9
$DIMSHO
 70
     1
  9
$DIMPOST
  1

  9
$DIMAPOST
  1

  9
$DIMALT
 70
     0
  9
$DIMALTD
 70
     2
  9
$DIMALTF
 40
25.399999999999999
  9
$DIMLFAC
 40
1.0
  9
$DIMTOFL
 70
     0
  9
$DIMTVP
 40
0.0
  9
$DIMTIX
 70
     0
  9
$DIMSOXD
 70
     0
  9
$DIMSAH
 70
     0
  9
$DIMBLK1
  1

  9
$DIMBLK2
  1

  9
$DIMSTYLE
  2
STANDARD
  9
$DIMCLRD
 70
     0
  9
$DIMCLRE
 70
     0
  9
$DIMCLRT
 70
     0
  9
$DIMTFAC
 40
1.0
  9
$DIMGAP
 40
0.09
  9
$LUNITS
 70
     2
  9
$LUPREC
 70
     4
  9
$SKETCHINC
 40
0.1
  9
$FILLETRAD
 40
0.0
  9
$AUNITS
 70
     0
  9
$AUPREC
 70
     0
  9
$MENU
  1
.
  9
$ELEVATION
 40
0.0
  9
$PELEVATION
 40
0.0
  9
$THICKNESS
 40
0.0
  9
$LIMCHECK
 70
     0
  9
$BLIPMODE
 70
     0
  9
$CHAMFERA
 40
0.0
  9
$CHAMFERB
 40
0.0
  9
$SKPOLY
 70
     0
  9
$TDCREATE
 40
2455804.6739510992
  9
$TDUPDATE
 40
2457176.6257854048
  9
$TDINDWG
 40
0.5464258565
  9
$TDUSRTIMER
 40
0.5464202662
  9
$USRTIMER
 70
     1
  9
$ANGBASE
 50
0.0
  9
$ANGDIR
 70
     0
  9
$PDMODE
 70
     0
  9
$PDSIZE
 40
0.0
  9
$PLINEWID
 40
0.0
  9
$COORDS
 70
     1
  9
$SPLFRAME
 70
     0
  9
$SPLINETYPE
 70
     6
  9
$SPLINESEGS
 70
     8
  9
$ATTDIA
 70
     1
  9
$ATTREQ
 70
     1
  9
$HANDLING
 70
     1
  9
$HANDSEED
  5
4CF
  9
$SURFTAB1
 70
     6
  9
$SURFTAB2
 70
     6
  9
$SURFTYPE
 70
     6
  9
$SURFU
 70
     6
  9
$SURFV
 70
     6
  9
$UCSNAME
  2

  9
$UCSORG
 10
0.0
 20
0.0
 30
0.0
  9
$UCSXDIR
 10
1.0
 20
0.0
 30
0.0
  9
$UCSYDIR
 10
0.0
 20
1.0
 30
0.0
  9
$PUCSNAME
  2

  9
$PUCSORG
 10
0.0
 20
0.0
 30
0.0
  9
$PUCSXDIR
 10
1.0
 20
0.0
 30
0.0
  9
$PUCSYDIR
 10
0.0
 20
1.0
 30
0.0
  9
$USERI1
 70
     0
  9
$USERI2
 70
     0
  9
$USERI3
 70
     0
  9
$USERI4
 70
     0
  9
$USERI5
 70
     0
  9
$USERR1
 40
0.0
  9
$USERR2
 40
0.0
  9
$USERR3
 40
0.0
  9
$USERR4
 40
0.0
  9
$USERR5
 40
0.0
  9
$WORLDVIEW
 70
     1
  9
$SHADEDGE
 70
     3
  9
$SHADEDIF
 70
    70
  9
$TILEMODE
 70
     1
  9
$MAXACTVP
 70
    64
  9
$PLIMCHECK
 70
     0
  9
$PEXTMIN
 10
1.049999952316284
 20
0.7999999523162842
 30
0.0
  9
$PEXTMAX
 10
9.4499995708465594
 20
7.1999995708465576
 30
0.0
  9
$PLIMMIN
 10
-0.2500002402958907
 20
-0.2499999962453767
  9
$PLIMMAX
 10
10.74999951940822
 20
8.2499997634587334
  9
$UNITMODE
 70
     0
  9
$VISRETAIN
 70
     1
  9
$PLINEGEN
 70
     0
  9
$PSLTSCALE
 70
     1
  0
ENDSEC
  0
SECTION
  2
TABLES
  0
TABLE
  2
VPORT
 70
     1
  0
VPORT
  2
*ACTIVE
 70
     0
 10
0.0
 20
0.0
 11
1.0
 21
1.0
 12
658707.75384963455
 22
619774.13879342109
 13
0.0
 23
0.0
 14
0.5
 24
0.5
 15
0.5
 25
0.5
 16
0.0
 26
0.0
 36
1.0
 17
0.0
 27
0.0
 37
0.0
 40
32406.12174196577
 41
1.466998754669987
 42
50.0
 43
0.0
 44
0.0
 50
0.0
 51
0.0
 71
     0
 72
  1000
 73
     1
 74
     3
 75
     0
 76
     0
 77
     0
 78
     0
  0
ENDTAB
  0
TABLE
  2
LTYPE
 70
     1
  0
LTYPE
  2
CONTINUOUS
 70
     0
  3
Solid line
 72
    65
 73
     0
 40
0.0
  0
ENDTAB
  0
TABLE
  2
LAYER
 70
     3
  0
LAYER
  2
0
 70
     4
 62
    -7
  6
CONTINUOUS
  0
LAYER
  2
LEIVA_HERRERA
 70
     0
 62
    50
  6
CONTINUOUS
  0
LAYER
  2
LEIVA_SURVEY_LIMITS
 70
     0
 62
     1
  6
CONTINUOUS
  0
ENDTAB
  0
TABLE
  2
STYLE
 70
     1
  0
STYLE
  2
STANDARD
 70
     0
 40
0.0
 41
1.0
 50
0.0
 71
     0
 42
1200.0
  3
txt
  4

  0
ENDTAB
  0
TABLE
  2
VIEW
 70
     0
  0
ENDTAB
  0
TABLE
  2
UCS
 70
     0
  0
ENDTAB
  0
TABLE
  2
APPID
 70
     7
  0
APPID
  2
ACAD
 70
     0
  0
APPID
  2
ADE
 70
     0
  0
APPID
  2
ACAECLAYERSTANDARD
 70
     0
  0
APPID
  2
ACAD_NAV_VCDISPLAY
 70
     0
  0
APPID
  2
ACAD_PSEXT
 70
     0
  0
APPID
  2
ACCMTRANSPARENCY
 70
     0
  0
APPID
  2
ADE_PROJECTION
 70
     0
  0
ENDTAB
  0
TABLE
  2
DIMSTYLE
 70
     1
  0
DIMSTYLE
  2
STANDARD
 70
     0
  3

  4

  5

  6

  7

 40
1.0
 41
0.18
 42
0.0625
 43
0.38
 44
0.18
 45
0.0
 46
0.0
 47
0.0
 48
0.0
140
0.18
141
0.09
142
0.0
143
25.399999999999999
144
1.0
145
0.0
146
1.0
147
0.09
 71
     0
 72
     0
 73
     1
 74
     1
 75
     0
 76
     0
 77
     0
 78
     0
170
     0
171
     2
172
     0
173
     0
174
     0
175
     0
176
     0
177
     0
178
     0
  0
ENDTAB
  0
ENDSEC
  0
SECTION
  2
BLOCKS
  0
BLOCK
  8
0
  2
$MODEL_SPACE
 70
     0
 10
0.0
 20
0.0
 30
0.0
  3
$MODEL_SPACE
  1

  0
ENDBLK
  5
16
  8
0
  0
BLOCK
 67
     1
  8
0
  2
$PAPER_SPACE
 70
     0
 10
0.0
 20
0.0
 30
0.0
  3
$PAPER_SPACE
  1

  0
ENDBLK
  5
1C
 67
     1
  8
0
  0
ENDSEC
  0
SECTION
  2
ENTITIES
  0
POLYLINE
  5
63
  8
LEIVA_HERRERA
 66
     1
 10
0.0
 20
0.0
 30
0.0
 70
     1
  0
VERTEX
  5
BF
  8
LEIVA_HERRERA
 10
655036.01995088533
 20
622714.62627638853
 30
0.0
  0
VERTEX
  5
C0
  8
LEIVA_HERRERA
 10
655111.65429898608
 20
622673.37309694616
 30
0.0
  0
VERTEX
  5
C1
  8
LEIVA_HERRERA
 10
655066.41717358516
 20
622541.27030734019
 30
0.0
  0
VERTEX
  5
C2
  8
LEIVA_HERRERA
 10
655044.60842176084
 20
622546.45609351853
 30
0.0
  0
VERTEX
  5
C3
  8
LEIVA_HERRERA
 10
655011.23533956718
 20
622546.53480598144
 30
0.0
  0
VERTEX
  5
C4
  8
LEIVA_HERRERA
 10
654994.55182587204
 20
622547.85774229746
 30
0.0
  0
VERTEX
  5
C5
  8
LEIVA_HERRERA
 10
654979.16702927405
 20
622555.5955516313
 30
0.0
  0
VERTEX
  5
C6
  8
LEIVA_HERRERA
 10
654975.34050824004
 20
622565.8732745134
 30
0.0
  0
VERTEX
  5
C7
  8
LEIVA_HERRERA
 10
654968.96801885543
 20
622585.14211279165
 30
0.0
  0
VERTEX
  5
C8
  8
LEIVA_HERRERA
 10
654967.75406902505
 20
622614.66748213512
 30
0.0
  0
VERTEX
  5
C9
  8
LEIVA_HERRERA
 10
654969.12241637835
 20
622650.60469709605
 30
0.0
  0
VERTEX
  5
CA
  8
LEIVA_HERRERA
 10
654975.57361822645
 20
622664.70894101204
 30
0.0
  0
VERTEX
  5
CB
  8
LEIVA_HERRERA
 10
654983.31445496366
 20
622681.37731769378
 30
0.0
  0
VERTEX
  5
CC
  8
LEIVA_HERRERA
 10
655011.59560045355
 20
622699.28083602176
 30
0.0
  0
SEQEND
  5
CD
  8
LEIVA_HERRERA
  0
POLYLINE
  5
68
  8
LEIVA_SURVEY_LIMITS
 66
     1
 10
0.0
 20
0.0
 30
0.0
  0
VERTEX
  5
CE
  8
LEIVA_SURVEY_LIMITS
 10
668817.65450334235
 20
621189.99468577304
 30
0.0
  0
VERTEX
  5
CF
  8
LEIVA_SURVEY_LIMITS
 10
668719.94902529707
 20
621138.38647888892
 30
0.0
  0
VERTEX
  5
D0
  8
LEIVA_SURVEY_LIMITS
 10
668648.52701880247
 20
621141.90555623733
 30
0.0
  0
VERTEX
  5
D1
  8
LEIVA_SURVEY_LIMITS
 10
668606.71311218769
 20
621111.15032074472
 30
0.0
  0
VERTEX
  5
D2
  8
LEIVA_SURVEY_LIMITS
 10
668599.9833885734
 20
621078.64442198456
 30
0.0
  0
VERTEX
  5
D3
  8
LEIVA_SURVEY_LIMITS
 10
668539.38262537145
 20
621049.40908918565
 30
0.0
  0
VERTEX
  5
D4
  8
LEIVA_SURVEY_LIMITS
 10
668524.62295246555
 20
621069.68034683983
 30
0.0
  0
VERTEX
  5
D5
  8
LEIVA_SURVEY_LIMITS
 10
668494.97935095872
 20
621101.44737869408
 30
0.0
  0
VERTEX
  5
D6
  8
LEIVA_SURVEY_LIMITS
 10
668420.92580778408
 20
621096.22647421621
 30
0.0
  0
VERTEX
  5
D7
  8
LEIVA_SURVEY_LIMITS
 10
668379.23615686293
 20
621074.24672217702
 30
0.0
  0
VERTEX
  5
D8
  8
LEIVA_SURVEY_LIMITS
 10
668359.95227750158
 20
621040.66469105706
 30
0.0
  0
VERTEX
  5
D9
  8
LEIVA_SURVEY_LIMITS
 10
668320.07762584544
 20
620969.75745815015
 30
0.0
  0
VERTEX
  5
DA
  8
LEIVA_SURVEY_LIMITS
 10
668244.04265882925
 20
620913.15504425787
 30
0.0
  0
VERTEX
  5
DB
  8
LEIVA_SURVEY_LIMITS
 10
668184.71328693419
 20
620885.15560113895
 30
0.0
  0
VERTEX
  5
DC
  8
LEIVA_SURVEY_LIMITS
 10
668139.12070802564
 20
620853.19997759315
 30
0.0
  0
VERTEX
  5
DD
  8
LEIVA_SURVEY_LIMITS
 10
668117.6313115051
 20
620840.9653364867
 30
0.0
  0
VERTEX
  5
DE
  8
LEIVA_SURVEY_LIMITS
 10
668062.08061190345
 20
620814.1662814212
 30
0.0
  0
VERTEX
  5
DF
  8
LEIVA_SURVEY_LIMITS
 10
668024.22288571566
 20
620797.14783891512
 30
0.0
  0
VERTEX
  5
E0
  8
LEIVA_SURVEY_LIMITS
 10
668010.90544499422
 20
620742.16516534134
 30
0.0
  0
VERTEX
  5
E1
  8
LEIVA_SURVEY_LIMITS
 10
668001.72169283277
 20
620713.45568968751
 30
0.0
  0
VERTEX
  5
E2
  8
LEIVA_SURVEY_LIMITS
 10
667970.16767073842
 20
620698.8557741018
 30
0.0
  0
VERTEX
  5
E3
  8
LEIVA_SURVEY_LIMITS
 10
667944.93510355125
 20
620687.92802592879
 30
0.0
  0
VERTEX
  5
E4
  8
LEIVA_SURVEY_LIMITS
 10
667940.62390685687
 20
620649.11842307495
 30
0.0
  0
VERTEX
  5
E5
  8
LEIVA_SURVEY_LIMITS
 10
667926.23033377551
 20
620606.68990524788
 30
0.0
  0
VERTEX
  5
E6
  8
LEIVA_SURVEY_LIMITS
 10
667904.63443237427
 20
620586.93342118128
 30
0.0
  0
VERTEX
  5
E7
  8
LEIVA_SURVEY_LIMITS
 10
667845.32281129272
 20
620560.18761855597
 30
0.0
  0
VERTEX
  5
E8
  8
LEIVA_SURVEY_LIMITS
 10
667845.30506047932
 20
620558.93397806236
 30
0.0
  0
VERTEX
  5
E9
  8
LEIVA_SURVEY_LIMITS
 10
667810.9952460113
 20
620526.81859719637
 30
0.0
  0
VERTEX
  5
EA
  8
LEIVA_SURVEY_LIMITS
 10
667797.74880854285
 20
620476.85048559564
 30
0.0
  0
VERTEX
  5
EB
  8
LEIVA_SURVEY_LIMITS
 10
667759.58931852807
 20
620438.52015470271
 30
0.0
  0
VERTEX
  5
EC
  8
LEIVA_SURVEY_LIMITS
 10
667715.42788824684
 20
620419.08318527695
 30
0.0
  0
VERTEX
  5
ED
  8
LEIVA_SURVEY_LIMITS
 10
667683.92711859255
 20
620408.2441911709
 30
0.0
  0
VERTEX
  5
EE
  8
LEIVA_SURVEY_LIMITS
 10
667626.11764939129
 20
620399.03160463925
 30
0.0
  0
VERTEX
  5
EF
  8
LEIVA_SURVEY_LIMITS
 10
667558.06604648242
 20
620374.91733869375
 30
0.0
  0
VERTEX
  5
F0
  8
LEIVA_SURVEY_LIMITS
 10
667525.34713796212
 20
620366.60337638785
 30
0.0
  0
VERTEX
  5
F1
  8
LEIVA_SURVEY_LIMITS
 10
667471.15658373362
 20
620347.308413469
 30
0.0
  0
VERTEX
  5
F2
  8
LEIVA_SURVEY_LIMITS
 10
667450.95632933301
 20
620337.56330253603
 30
0.0
  0
VERTEX
  5
F3
  8
LEIVA_SURVEY_LIMITS
 10
667419.20704829157
 20
620309.17334152339
 30
0.0
  0
VERTEX
  5
F4
  8
LEIVA_SURVEY_LIMITS
 10
667402.44820073037
 20
620276.80944926967
 30
0.0
  0
VERTEX
  5
F5
  8
LEIVA_SURVEY_LIMITS
 10
667389.13076000859
 20
620221.82677569566
 30
0.0
  0
VERTEX
  5
F6
  8
LEIVA_SURVEY_LIMITS
 10
667359.78225507378
 20
620185.87947009597
 30
0.0
  0
VERTEX
  5
F7
  8
LEIVA_SURVEY_LIMITS
 10
667320.29812131205
 20
620142.55232804315
 30
0.0
  0
VERTEX
  5
F8
  8
LEIVA_SURVEY_LIMITS
 10
667289.92673645774
 20
620122.92009967007
 30
0.0
  0
VERTEX
  5
F9
  8
LEIVA_SURVEY_LIMITS
 10
667230.66836781602
 20
620099.93521852465
 30
0.0
  0
VERTEX
  5
FA
  8
LEIVA_SURVEY_LIMITS
 10
667186.43593428121
 20
620075.48368712538
 30
0.0
  0
VERTEX
  5
FB
  8
LEIVA_SURVEY_LIMITS
 10
667146.12417954672
 20
620062.26166772633
 30
0.0
  0
VERTEX
  5
FC
  8
LEIVA_SURVEY_LIMITS
 10
667122.00324634579
 20
620041.28704479337
 30
0.0
  0
VERTEX
  5
FD
  8
LEIVA_SURVEY_LIMITS
 10
667093.81962783751
 20
619999.05378591316
 30
0.0
  0
VERTEX
  5
FE
  8
LEIVA_SURVEY_LIMITS
 10
667063.46599379659
 20
619980.67519803368
 30
0.0
  0
VERTEX
  5
FF
  8
LEIVA_SURVEY_LIMITS
 10
667021.91834938235
 20
619968.72456994106
 30
0.0
  0
VERTEX
  5
100
  8
LEIVA_SURVEY_LIMITS
 10
666961.58384838072
 20
619958.29384454305
 30
0.0
  0
VERTEX
  5
101
  8
LEIVA_SURVEY_LIMITS
 10
666950.30108394055
 20
619958.45360186335
 30
0.0
  0
VERTEX
  5
102
  8
LEIVA_SURVEY_LIMITS
 10
666923.70837137965
 20
619940.02176154358
 30
0.0
  0
VERTEX
  5
103
  8
LEIVA_SURVEY_LIMITS
 10
666894.59062701848
 20
619920.37178235734
 30
0.0
  0
VERTEX
  5
104
  8
LEIVA_SURVEY_LIMITS
 10
666791.29508378915
 20
619886.72541523958
 30
0.0
  0
VERTEX
  5
105
  8
LEIVA_SURVEY_LIMITS
 10
666707.07041016058
 20
619871.61739332159
 30
0.0
  0
VERTEX
  5
106
  8
LEIVA_SURVEY_LIMITS
 10
666675.51638806635
 20
619857.01747773564
 30
0.0
  0
VERTEX
  5
107
  8
LEIVA_SURVEY_LIMITS
 10
666652.56034129183
 20
619829.7569015224
 30
0.0
  0
VERTEX
  5
108
  8
LEIVA_SURVEY_LIMITS
 10
666611.57405564934
 20
619768.89654337568
 30
0.0
  0
VERTEX
  5
109
  8
LEIVA_SURVEY_LIMITS
 10
666583.72770259494
 20
619750.48245386942
 30
0.0
  0
VERTEX
  5
10A
  8
LEIVA_SURVEY_LIMITS
 10
666519.86304068763
 20
619756.40230732458
 30
0.0
  0
VERTEX
  5
10B
  8
LEIVA_SURVEY_LIMITS
 10
666460.37391147215
 20
619717.12009976595
 30
0.0
  0
VERTEX
  5
10C
  8
LEIVA_SURVEY_LIMITS
 10
666424.70395163062
 20
619677.50062675262
 30
0.0
  0
VERTEX
  5
10D
  8
LEIVA_SURVEY_LIMITS
 10
666381.31688988139
 20
619624.19761319272
 30
0.0
  0
VERTEX
  5
10E
  8
LEIVA_SURVEY_LIMITS
 10
666351.86188006646
 20
619580.72846463299
 30
0.0
  0
VERTEX
  5
10F
  8
LEIVA_SURVEY_LIMITS
 10
666280.55746200983
 20
619503.99679959356
 30
0.0
  0
VERTEX
  5
110
  8
LEIVA_SURVEY_LIMITS
 10
666213.40448332741
 20
619454.79197296803
 30
0.0
  0
VERTEX
  5
111
  8
LEIVA_SURVEY_LIMITS
 10
666143.65546959138
 20
619399.35444550216
 30
0.0
  0
VERTEX
  5
112
  8
LEIVA_SURVEY_LIMITS
 10
666127.14513341745
 20
619384.54152015585
 30
0.0
  0
VERTEX
  5
113
  8
LEIVA_SURVEY_LIMITS
 10
666082.38017548132
 20
619322.48077395582
 30
0.0
  0
VERTEX
  5
114
  8
LEIVA_SURVEY_LIMITS
 10
666036.50358355907
 20
619270.46690251585
 30
0.0
  0
VERTEX
  5
115
  8
LEIVA_SURVEY_LIMITS
 10
665984.41204161022
 20
619222.30270662333
 30
0.0
  0
VERTEX
  5
116
  8
LEIVA_SURVEY_LIMITS
 10
665927.28818687436
 20
619172.95587349054
 30
0.0
  0
VERTEX
  5
117
  8
LEIVA_SURVEY_LIMITS
 10
665874.10276175267
 20
619136.09219285147
 30
0.0
  0
VERTEX
  5
118
  8
LEIVA_SURVEY_LIMITS
 10
665831.24822440464
 20
619120.39839409245
 30
0.0
  0
VERTEX
  5
119
  8
LEIVA_SURVEY_LIMITS
 10
665795.91553001723
 20
619104.59809045307
 30
0.0
  0
VERTEX
  5
11A
  8
LEIVA_SURVEY_LIMITS
 10
665761.53471229551
 20
619067.46814761334
 30
0.0
  0
VERTEX
  5
11B
  8
LEIVA_SURVEY_LIMITS
 10
665703.91383478534
 20
618983.01938066678
 30
0.0
  0
VERTEX
  5
11C
  8
LEIVA_SURVEY_LIMITS
 10
665658.21475099679
 20
618943.54191416083
 30
0.0
  0
VERTEX
  5
11D
  8
LEIVA_SURVEY_LIMITS
 10
665621.55741286196
 20
618922.74479936156
 30
0.0
  0
VERTEX
  5
11E
  8
LEIVA_SURVEY_LIMITS
 10
665603.793436195
 20
618907.94962482818
 30
0.0
  0
VERTEX
  5
11F
  8
LEIVA_SURVEY_LIMITS
 10
665573.20904158032
 20
618873.27371053514
 30
0.0
  0
VERTEX
  5
120
  8
LEIVA_SURVEY_LIMITS
 10
665502.27739060426
 20
618822.86849585618
 30
0.0
  0
VERTEX
  5
121
  8
LEIVA_SURVEY_LIMITS
 10
665454.08877664222
 20
618784.68017147039
 30
0.0
  0
VERTEX
  5
122
  8
LEIVA_SURVEY_LIMITS
 10
665414.95965914766
 20
618766.42583928443
 30
0.0
  0
VERTEX
  5
123
  8
LEIVA_SURVEY_LIMITS
 10
665386.6340341327
 20
618714.1634564572
 30
0.0
  0
VERTEX
  5
124
  8
LEIVA_SURVEY_LIMITS
 10
665354.67174333066
 20
618670.72980952414
 30
0.0
  0
VERTEX
  5
125
  8
LEIVA_SURVEY_LIMITS
 10
665320.48618455627
 20
618647.38991211145
 30
0.0
  0
VERTEX
  5
126
  8
LEIVA_SURVEY_LIMITS
 10
665275.95198719413
 20
618601.62649232487
 30
0.0
  0
VERTEX
  5
127
  8
LEIVA_SURVEY_LIMITS
 10
665241.30490727222
 20
618545.69194208505
 30
0.0
  0
VERTEX
  5
128
  8
LEIVA_SURVEY_LIMITS
 10
665176.74796364317
 20
618502.71981629962
 30
0.0
  0
VERTEX
  5
129
  8
LEIVA_SURVEY_LIMITS
 10
665119.89037110796
 20
618472.17759056715
 30
0.0
  0
VERTEX
  5
12A
  8
LEIVA_SURVEY_LIMITS
 10
665071.77276039962
 20
618439.00382815441
 30
0.0
  0
VERTEX
  5
12B
  8
LEIVA_SURVEY_LIMITS
 10
665067.90533403913
 20
618431.53523763455
 30
0.0
  0
VERTEX
  5
12C
  8
LEIVA_SURVEY_LIMITS
 10
664952.29747919412
 20
618325.33747922257
 30
0.0
  0
VERTEX
  5
12D
  8
LEIVA_SURVEY_LIMITS
 10
664897.94716764591
 20
618294.75975186354
 30
0.0
  0
VERTEX
  5
12E
  8
LEIVA_SURVEY_LIMITS
 10
664820.83606826991
 20
618250.71149371821
 30
0.0
  0
VERTEX
  5
12F
  8
LEIVA_SURVEY_LIMITS
 10
664766.29049777461
 20
618206.34372093203
 30
0.0
  0
VERTEX
  5
130
  8
LEIVA_SURVEY_LIMITS
 10
664695.00383053115
 20
618130.86569638597
 30
0.0
  0
VERTEX
  5
131
  8
LEIVA_SURVEY_LIMITS
 10
664695.13801408024
 20
618130.4918580784
 30
0.0
  0
VERTEX
  5
132
  8
LEIVA_SURVEY_LIMITS
 10
664670.21102688252
 20
618109.1093080421
 30
0.0
  0
VERTEX
  5
133
  8
LEIVA_SURVEY_LIMITS
 10
664670.17925360077
 20
618109.04250112444
 30
0.0
  0
VERTEX
  5
134
  8
LEIVA_SURVEY_LIMITS
 10
664670.16338369926
 20
618109.04894412472
 30
0.0
  0
VERTEX
  5
135
  8
LEIVA_SURVEY_LIMITS
 10
664445.96302102983
 20
617908.05669508618
 30
0.0
  0
VERTEX
  5
136
  8
LEIVA_SURVEY_LIMITS
 10
664324.79040546529
 20
617699.40643978631
 30
0.0
  0
VERTEX
  5
137
  8
LEIVA_SURVEY_LIMITS
 10
664311.38092353195
 20
617572.00492927292
 30
0.0
  0
VERTEX
  5
138
  8
LEIVA_SURVEY_LIMITS
 10
664293.87645971728
 20
617488.56836249866
 30
0.0
  0
VERTEX
  5
139
  8
LEIVA_SURVEY_LIMITS
 10
664265.994210153
 20
617402.80301338504
 30
0.0
  0
VERTEX
  5
13A
  8
LEIVA_SURVEY_LIMITS
 10
664290.57144311175
 20
617298.99390128395
 30
0.0
  0
VERTEX
  5
13B
  8
LEIVA_SURVEY_LIMITS
 10
664348.79834325868
 20
617199.52980786294
 30
0.0
  0
VERTEX
  5
13C
  8
LEIVA_SURVEY_LIMITS
 10
664366.87399014959
 20
617040.40110270237
 30
0.0
  0
VERTEX
  5
13D
  8
LEIVA_SURVEY_LIMITS
 10
664358.93469248968
 20
616925.76866947766
 30
0.0
  0
VERTEX
  5
13E
  8
LEIVA_SURVEY_LIMITS
 10
664392.16273723205
 20
616806.26786035264
 30
0.0
  0
VERTEX
  5
13F
  8
LEIVA_SURVEY_LIMITS
 10
664486.149304708
 20
616691.74513287912
 30
0.0
  0
VERTEX
  5
140
  8
LEIVA_SURVEY_LIMITS
 10
664568.65620446345
 20
616582.66133507947
 30
0.0
  0
VERTEX
  5
141
  8
LEIVA_SURVEY_LIMITS
 10
664670.15247617732
 20
616511.82225994649
 30
0.0
  0
VERTEX
  5
142
  8
LEIVA_SURVEY_LIMITS
 10
664777.02516836487
 20
616449.88403339591
 30
0.0
  0
VERTEX
  5
143
  8
LEIVA_SURVEY_LIMITS
 10
664895.85431824613
 20
616348.95097378292
 30
0.0
  0
VERTEX
  5
144
  8
LEIVA_SURVEY_LIMITS
 10
664992.49018503446
 20
616184.0475093266
 30
0.0
  0
VERTEX
  5
145
  8
LEIVA_SURVEY_LIMITS
 10
665059.10988919099
 20
616111.47348925122
 30
0.0
  0
VERTEX
  5
146
  8
LEIVA_SURVEY_LIMITS
 10
665118.27442733292
 20
616050.69168289425
 30
0.0
  0
VERTEX
  5
147
  8
LEIVA_SURVEY_LIMITS
 10
665137.34225044237
 20
615985.72113085678
 30
0.0
  0
VERTEX
  5
148
  8
LEIVA_SURVEY_LIMITS
 10
665135.56073825224
 20
615912.22478543455
 30
0.0
  0
VERTEX
  5
149
  8
LEIVA_SURVEY_LIMITS
 10
665133.71671686228
 20
615836.14962087525
 30
0.0
  0
VERTEX
  5
14A
  8
LEIVA_SURVEY_LIMITS
 10
665131.56014947407
 20
615747.18036062736
 30
0.0
  0
VERTEX
  5
14B
  8
LEIVA_SURVEY_LIMITS
 10
665118.93203253683
 20
615652.01408933406
 30
0.0
  0
VERTEX
  5
14C
  8
LEIVA_SURVEY_LIMITS
 10
665116.15037315188
 20
615537.25663771038
 30
0.0
  0
VERTEX
  5
14D
  8
LEIVA_SURVEY_LIMITS
 10
665108.27358469157
 20
615425.20302362344
 30
0.0
  0
VERTEX
  5
14E
  8
LEIVA_SURVEY_LIMITS
 10
665085.67399180157
 20
615344.4702943858
 30
0.0
  0
VERTEX
  5
14F
  8
LEIVA_SURVEY_LIMITS
 10
665078.20351313939
 20
615249.1790046934
 30
0.0
  0
VERTEX
  5
150
  8
LEIVA_SURVEY_LIMITS
 10
665039.66218642623
 20
615149.48018712155
 30
0.0
  0
VERTEX
  5
151
  8
LEIVA_SURVEY_LIMITS
 10
665021.62639441458
 20
615044.12365767756
 30
0.0
  0
VERTEX
  5
152
  8
LEIVA_SURVEY_LIMITS
 10
664950.00595428585
 20
614910.3921467436
 30
0.0
  0
VERTEX
  5
153
  8
LEIVA_SURVEY_LIMITS
 10
664919.38861258468
 20
614818.24225898553
 30
0.0
  0
VERTEX
  5
154
  8
LEIVA_SURVEY_LIMITS
 10
664834.08474079636
 20
614705.48510175059
 30
0.0
  0
VERTEX
  5
155
  8
LEIVA_SURVEY_LIMITS
 10
664754.91537085385
 20
614579.67757582886
 30
0.0
  0
VERTEX
  5
156
  8
LEIVA_SURVEY_LIMITS
 10
664691.03138813796
 20
614445.75853729597
 30
0.0
  0
VERTEX
  5
157
  8
LEIVA_SURVEY_LIMITS
 10
664637.58770037186
 20
614316.74710023962
 30
0.0
  0
VERTEX
  5
158
  8
LEIVA_SURVEY_LIMITS
 10
664624.17821843864
 20
614189.34558972646
 30
0.0
  0
VERTEX
  5
159
  8
LEIVA_SURVEY_LIMITS
 10
664584.81630115397
 20
614109.01917028637
 30
0.0
  0
VERTEX
  5
15A
  8
LEIVA_SURVEY_LIMITS
 10
664508.21777937328
 20
614036.04618208553
 30
0.0
  0
VERTEX
  5
15B
  8
LEIVA_SURVEY_LIMITS
 10
664432.62737576268
 20
613951.43725316564
 30
0.0
  0
VERTEX
  5
15C
  8
LEIVA_SURVEY_LIMITS
 10
664316.24468494789
 20
613887.16961497196
 30
0.0
  0
VERTEX
  5
15D
  8
LEIVA_SURVEY_LIMITS
 10
664142.84668170707
 20
613812.6724930522
 30
0.0
  0
VERTEX
  5
15E
  8
LEIVA_SURVEY_LIMITS
 10
664061.05129607511
 20
613791.43216060265
 30
0.0
  0
VERTEX
  5
15F
  8
LEIVA_SURVEY_LIMITS
 10
663878.43192727806
 20
613762.31441038905
 30
0.0
  0
VERTEX
  5
160
  8
LEIVA_SURVEY_LIMITS
 10
663769.21514010325
 20
613727.5469192795
 30
0.0
  0
VERTEX
  5
161
  8
LEIVA_SURVEY_LIMITS
 10
663644.36916510365
 20
613686.70743552339
 30
0.0
  0
VERTEX
  5
162
  8
LEIVA_SURVEY_LIMITS
 10
663529.71344825486
 20
613640.46027669357
 30
0.0
  0
VERTEX
  5
163
  8
LEIVA_SURVEY_LIMITS
 10
663437.35274927411
 20
613609.15470449231
 30
0.0
  0
VERTEX
  5
164
  8
LEIVA_SURVEY_LIMITS
 10
663339.26385824545
 20
613607.66182537295
 30
0.0
  0
VERTEX
  5
165
  8
LEIVA_SURVEY_LIMITS
 10
663222.96696025424
 20
613600.15946280677
 30
0.0
  0
VERTEX
  5
166
  8
LEIVA_SURVEY_LIMITS
 10
663082.61681582895
 20
613558.40562467999
 30
0.0
  0
VERTEX
  5
167
  8
LEIVA_SURVEY_LIMITS
 10
662907.20257624751
 20
613507.18038419774
 30
0.0
  0
VERTEX
  5
168
  8
LEIVA_SURVEY_LIMITS
 10
662769.11870496173
 20
613452.46994118334
 30
0.0
  0
VERTEX
  5
169
  8
LEIVA_SURVEY_LIMITS
 10
662562.75863572885
 20
613401.99481109693
 30
0.0
  0
VERTEX
  5
16A
  8
LEIVA_SURVEY_LIMITS
 10
662384.42177641136
 20
613336.64857455785
 30
0.0
  0
VERTEX
  5
16B
  8
LEIVA_SURVEY_LIMITS
 10
662220.08089475217
 20
613263.22208000754
 30
0.0
  0
VERTEX
  5
16C
  8
LEIVA_SURVEY_LIMITS
 10
662065.79728186852
 20
613232.1273190293
 30
0.0
  0
VERTEX
  5
16D
  8
LEIVA_SURVEY_LIMITS
 10
661909.77872404305
 20
613235.90912560839
 30
0.0
  0
VERTEX
  5
16E
  8
LEIVA_SURVEY_LIMITS
 10
661804.89101359621
 20
613273.28606115223
 30
0.0
  0
VERTEX
  5
16F
  8
LEIVA_SURVEY_LIMITS
 10
661717.67201093875
 20
613347.64956439333
 30
0.0
  0
VERTEX
  5
170
  8
LEIVA_SURVEY_LIMITS
 10
661672.12042428122
 20
613437.77524483483
 30
0.0
  0
VERTEX
  5
171
  8
LEIVA_SURVEY_LIMITS
 10
661751.86831897253
 20
613480.99804915348
 30
0.0
  0
VERTEX
  5
172
  8
LEIVA_SURVEY_LIMITS
 10
661794.56713676616
 20
613539.31074212433
 30
0.0
  0
VERTEX
  5
173
  8
LEIVA_SURVEY_LIMITS
 10
661731.19056931976
 20
613586.0028070237
 30
0.0
  0
VERTEX
  5
174
  8
LEIVA_SURVEY_LIMITS
 10
661585.3855532693
 20
613638.56339501869
 30
0.0
  0
VERTEX
  5
175
  8
LEIVA_SURVEY_LIMITS
 10
661507.21633052104
 20
613554.01697529876
 30
0.0
  0
VERTEX
  5
176
  8
LEIVA_SURVEY_LIMITS
 10
661430.68031793996
 20
613483.62280623522
 30
0.0
  0
VERTEX
  5
177
  8
LEIVA_SURVEY_LIMITS
 10
661335.55327222275
 20
613444.64328582096
 30
0.0
  0
VERTEX
  5
178
  8
LEIVA_SURVEY_LIMITS
 10
661221.83519336884
 20
613437.07841405529
 30
0.0
  0
VERTEX
  5
179
  8
LEIVA_SURVEY_LIMITS
 10
661082.45394153858
 20
613435.29627256142
 30
0.0
  0
VERTEX
  5
17A
  8
LEIVA_SURVEY_LIMITS
 10
660962.53885163926
 20
613438.20295034512
 30
0.0
  0
VERTEX
  5
17B
  8
LEIVA_SURVEY_LIMITS
 10
660755.41273005889
 20
613462.57608444965
 30
0.0
  0
VERTEX
  5
17C
  8
LEIVA_SURVEY_LIMITS
 10
660629.83195731125
 20
613497.87427445292
 30
0.0
  0
VERTEX
  5
17D
  8
LEIVA_SURVEY_LIMITS
 10
660530.57070413732
 20
613554.46733512939
 30
0.0
  0
VERTEX
  5
17E
  8
LEIVA_SURVEY_LIMITS
 10
660428.73063182551
 20
613611.12290500547
 30
0.0
  0
VERTEX
  5
17F
  8
LEIVA_SURVEY_LIMITS
 10
660319.75591047341
 20
613639.567737367
 30
0.0
  0
VERTEX
  5
180
  8
LEIVA_SURVEY_LIMITS
 10
660244.524620109
 20
613676.22581711446
 30
0.0
  0
VERTEX
  5
181
  8
LEIVA_SURVEY_LIMITS
 10
660131.14237087779
 20
613735.74149752664
 30
0.0
  0
VERTEX
  5
182
  8
LEIVA_SURVEY_LIMITS
 10
659961.68244721484
 20
613823.70998127619
 30
0.0
  0
VERTEX
  5
183
  8
LEIVA_SURVEY_LIMITS
 10
659758.72912936308
 20
613913.78049419005
 30
0.0
  0
VERTEX
  5
184
  8
LEIVA_SURVEY_LIMITS
 10
659546.80448275374
 20
614059.54565536114
 30
0.0
  0
VERTEX
  5
185
  8
LEIVA_SURVEY_LIMITS
 10
659448.73090437276
 20
614165.13627965224
 30
0.0
  0
VERTEX
  5
186
  8
LEIVA_SURVEY_LIMITS
 10
659375.68743599625
 20
614292.05302921636
 30
0.0
  0
VERTEX
  5
187
  8
LEIVA_SURVEY_LIMITS
 10
659285.654890051
 20
614463.2472685175
 30
0.0
  0
VERTEX
  5
188
  8
LEIVA_SURVEY_LIMITS
 10
659232.99193797691
 20
614579.34866793407
 30
0.0
  0
VERTEX
  5
189
  8
LEIVA_SURVEY_LIMITS
 10
659211.9624167505
 20
614723.06696746824
 30
0.0
  0
VERTEX
  5
18A
  8
LEIVA_SURVEY_LIMITS
 10
659140.67717694025
 20
614869.29360596486
 30
0.0
  0
VERTEX
  5
18B
  8
LEIVA_SURVEY_LIMITS
 10
659079.32418750681
 20
615052.69433975779
 30
0.0
  0
VERTEX
  5
18C
  8
LEIVA_SURVEY_LIMITS
 10
659048.44820872741
 20
615216.0038196228
 30
0.0
  0
VERTEX
  5
18D
  8
LEIVA_SURVEY_LIMITS
 10
659014.58710101224
 20
615362.61348429299
 30
0.0
  0
VERTEX
  5
18E
  8
LEIVA_SURVEY_LIMITS
 10
658964.55750629946
 20
615534.12824056833
 30
0.0
  0
VERTEX
  5
18F
  8
LEIVA_SURVEY_LIMITS
 10
658889.40403778292
 20
615680.44864286412
 30
0.0
  0
VERTEX
  5
190
  8
LEIVA_SURVEY_LIMITS
 10
658820.85389010957
 20
615833.05982000497
 30
0.0
  0
VERTEX
  5
191
  8
LEIVA_SURVEY_LIMITS
 10
658785.57038345083
 20
616027.44014792051
 30
0.0
  0
VERTEX
  5
192
  8
LEIVA_SURVEY_LIMITS
 10
658789.50846302893
 20
616189.9057535904
 30
0.0
  0
VERTEX
  5
193
  8
LEIVA_SURVEY_LIMITS
 10
658812.22510334256
 20
616328.69316802407
 30
0.0
  0
VERTEX
  5
194
  8
LEIVA_SURVEY_LIMITS
 10
658828.83849640994
 20
616481.8203607141
 30
0.0
  0
VERTEX
  5
195
  8
LEIVA_SURVEY_LIMITS
 10
658854.37602168357
 20
616683.75758941961
 30
0.0
  0
VERTEX
  5
196
  8
LEIVA_SURVEY_LIMITS
 10
658884.63362083514
 20
616867.51806576247
 30
0.0
  0
VERTEX
  5
197
  8
LEIVA_SURVEY_LIMITS
 10
658923.54203177034
 20
617035.58684508083
 30
0.0
  0
VERTEX
  5
198
  8
LEIVA_SURVEY_LIMITS
 10
658950.81450198637
 20
617202.64750622865
 30
0.0
  0
VERTEX
  5
199
  8
LEIVA_SURVEY_LIMITS
 10
658996.10745156603
 20
617367.98119341047
 30
0.0
  0
VERTEX
  5
19A
  8
LEIVA_SURVEY_LIMITS
 10
659027.7482240859
 20
617555.57864385995
 30
0.0
  0
VERTEX
  5
19B
  8
LEIVA_SURVEY_LIMITS
 10
659087.06043494726
 20
617767.01852952037
 30
0.0
  0
VERTEX
  5
19C
  8
LEIVA_SURVEY_LIMITS
 10
659115.91157710634
 20
617892.7555752669
 30
0.0
  0
VERTEX
  5
19D
  8
LEIVA_SURVEY_LIMITS
 10
659249.69699696056
 20
618089.48859844916
 30
0.0
  0
VERTEX
  5
19E
  8
LEIVA_SURVEY_LIMITS
 10
659307.00245495222
 20
618150.04440179397
 30
0.0
  0
VERTEX
  5
19F
  8
LEIVA_SURVEY_LIMITS
 10
659309.29036763136
 20
618150.91936521418
 30
0.0
  0
VERTEX
  5
1A0
  8
LEIVA_SURVEY_LIMITS
 10
659538.61559963552
 20
618353.69821617636
 30
0.0
  0
VERTEX
  5
1A1
  8
LEIVA_SURVEY_LIMITS
 10
659983.26953892026
 20
618580.21455924725
 30
0.0
  0
VERTEX
  5
1A2
  8
LEIVA_SURVEY_LIMITS
 10
660283.44450722402
 20
618646.42509889265
 30
0.0
  0
VERTEX
  5
1A3
  8
LEIVA_SURVEY_LIMITS
 10
660405.14111475716
 20
618615.33106376347
 30
0.0
  0
VERTEX
  5
1A4
  8
LEIVA_SURVEY_LIMITS
 10
660402.16314426775
 20
622158.81033915072
 30
0.0
  0
VERTEX
  5
1A5
  8
LEIVA_SURVEY_LIMITS
 10
658679.03112720884
 20
622157.36220416892
 30
0.0
  0
VERTEX
  5
1A6
  8
LEIVA_SURVEY_LIMITS
 10
658681.28684203513
 20
619473.29304799135
 30
0.0
  0
VERTEX
  5
1A7
  8
LEIVA_SURVEY_LIMITS
 10
657165.81125614431
 20
619472.01942926215
 30
0.0
  0
SEQEND
  5
1A8
  8
LEIVA_SURVEY_LIMITS
  0
POLYLINE
  5
6B
  8
LEIVA_SURVEY_LIMITS
 66
     1
 10
0.0
 20
0.0
 30
0.0
  0
VERTEX
  5
1A9
  8
LEIVA_SURVEY_LIMITS
 10
654199.58723451057
 20
628213.67849569907
 30
0.0
  0
VERTEX
  5
1AA
  8
LEIVA_SURVEY_LIMITS
 10
654221.84421078372
 20
628207.64716563281
 30
0.0
  0
VERTEX
  5
1AB
  8
LEIVA_SURVEY_LIMITS
 10
654269.02820814564
 20
628201.21968856361
 30
0.0
  0
VERTEX
  5
1AC
  8
LEIVA_SURVEY_LIMITS
 10
654331.51324816048
 20
628190.94960328774
 30
0.0
  0
VERTEX
  5
1AD
  8
LEIVA_SURVEY_LIMITS
 10
654404.20170446043
 20
628180.66863327869
 30
0.0
  0
VERTEX
  5
1AE
  8
LEIVA_SURVEY_LIMITS
 10
654465.40587507305
 20
628165.29820045165
 30
0.0
  0
VERTEX
  5
1AF
  8
LEIVA_SURVEY_LIMITS
 10
654504.91281957109
 20
628135.92120029044
 30
0.0
  0
VERTEX
  5
1B0
  8
LEIVA_SURVEY_LIMITS
 10
654536.75903830549
 20
628098.89980146452
 30
0.0
  0
VERTEX
  5
1B1
  8
LEIVA_SURVEY_LIMITS
 10
654553.26883900363
 20
628032.55990791833
 30
0.0
  0
VERTEX
  5
1B2
  8
LEIVA_SURVEY_LIMITS
 10
654574.88170843618
 20
627967.48999904096
 30
0.0
  0
VERTEX
  5
1B3
  8
LEIVA_SURVEY_LIMITS
 10
654596.51090496848
 20
627917.72521459172
 30
0.0
  0
VERTEX
  5
1B4
  8
LEIVA_SURVEY_LIMITS
 10
654623.26630029338
 20
627890.91267441853
 30
0.0
  0
VERTEX
  5
1B5
  8
LEIVA_SURVEY_LIMITS
 10
654644.93495398341
 20
627878.13527400349
 30
0.0
  0
VERTEX
  5
1B6
  8
LEIVA_SURVEY_LIMITS
 10
654667.89128003374
 20
627876.83535631816
 30
0.0
  0
VERTEX
  5
1B7
  8
LEIVA_SURVEY_LIMITS
 10
654721.44560961542
 20
627864.02394111245
 30
0.0
  0
VERTEX
  5
1B8
  8
LEIVA_SURVEY_LIMITS
 10
654769.90367342113
 20
627856.31967641599
 30
0.0
  0
VERTEX
  5
1B9
  8
LEIVA_SURVEY_LIMITS
 10
654847.69247727247
 20
627844.75783700484
 30
0.0
  0
VERTEX
  5
1BA
  8
LEIVA_SURVEY_LIMITS
 10
654877.02185672638
 20
627839.62483525393
 30
0.0
  0
VERTEX
  5
1BB
  8
LEIVA_SURVEY_LIMITS
 10
654912.73381372553
 20
627839.58673868806
 30
0.0
  0
VERTEX
  5
1BC
  8
LEIVA_SURVEY_LIMITS
 10
655297.95495683944
 20
627878.71407811786
 30
0.0
  0
VERTEX
  5
1BD
  8
LEIVA_SURVEY_LIMITS
 10
655357.90410929115
 20
627882.47641141759
 30
0.0
  0
VERTEX
  5
1BE
  8
LEIVA_SURVEY_LIMITS
 10
655405.09763079404
 20
627884.97692359821
 30
0.0
  0
VERTEX
  5
1BF
  8
LEIVA_SURVEY_LIMITS
 10
655484.15641931444
 20
627868.31201545207
 30
0.0
  0
VERTEX
  5
1C0
  8
LEIVA_SURVEY_LIMITS
 10
655526.20741492591
 20
627832.55515892932
 30
0.0
  0
VERTEX
  5
1C1
  8
LEIVA_SURVEY_LIMITS
 10
655597.57554466603
 20
627780.18645733455
 30
0.0
  0
VERTEX
  5
1C2
  8
LEIVA_SURVEY_LIMITS
 10
655660.03337284806
 20
627744.40783134522
 30
0.0
  0
VERTEX
  5
1C3
  8
LEIVA_SURVEY_LIMITS
 10
655719.9675587914
 20
627734.14046725293
 30
0.0
  0
VERTEX
  5
1C4
  8
LEIVA_SURVEY_LIMITS
 10
655804.13213722955
 20
627721.29639784771
 30
0.0
  0
VERTEX
  5
1C5
  8
LEIVA_SURVEY_LIMITS
 10
655832.18472905597
 20
627714.889329653
 30
0.0
  0
VERTEX
  5
1C6
  8
LEIVA_SURVEY_LIMITS
 10
655860.16929130047
 20
627644.71090967488
 30
0.0
  0
VERTEX
  5
1C7
  8
LEIVA_SURVEY_LIMITS
 10
655884.38607787853
 20
627629.37993400556
 30
0.0
  0
VERTEX
  5
1C8
  8
LEIVA_SURVEY_LIMITS
 10
655913.71409674082
 20
627622.97150521935
 30
0.0
  0
VERTEX
  5
1C9
  8
LEIVA_SURVEY_LIMITS
 10
655953.24553188845
 20
627616.55219169997
 30
0.0
  0
VERTEX
  5
1CA
  8
LEIVA_SURVEY_LIMITS
 10
655997.88411754533
 20
627615.22914395691
 30
0.0
  0
VERTEX
  5
1CB
  8
LEIVA_SURVEY_LIMITS
 10
656039.97865208914
 20
627620.2859525755
 30
0.0
  0
VERTEX
  5
1CC
  8
LEIVA_SURVEY_LIMITS
 10
656062.93633873097
 20
627620.26146192581
 30
0.0
  0
VERTEX
  5
1CD
  8
LEIVA_SURVEY_LIMITS
 10
656131.81348043238
 20
627624.01427108399
 30
0.0
  0
VERTEX
  5
1CE
  8
LEIVA_SURVEY_LIMITS
 10
656190.4872058481
 20
627627.77796497534
 30
0.0
  0
VERTEX
  5
1CF
  8
LEIVA_SURVEY_LIMITS
 10
656233.84900387819
 20
627625.18085078825
 30
0.0
  0
VERTEX
  5
1D0
  8
LEIVA_SURVEY_LIMITS
 10
656284.849758205
 20
627609.82130269427
 30
0.0
  0
VERTEX
  5
1D1
  8
LEIVA_SURVEY_LIMITS
 10
656315.43959818676
 20
627590.65724295983
 30
0.0
  0
VERTEX
  5
1D2
  8
LEIVA_SURVEY_LIMITS
 10
656363.82555063535
 20
627515.35534537258
 30
0.0
  0
VERTEX
  5
1D3
  8
LEIVA_SURVEY_LIMITS
 10
656384.20789255644
 20
627492.3758892644
 30
0.0
  0
VERTEX
  5
1D4
  8
LEIVA_SURVEY_LIMITS
 10
656404.58479211107
 20
627464.2947250132
 30
0.0
  0
VERTEX
  5
1D5
  8
LEIVA_SURVEY_LIMITS
 10
656417.29552353488
 20
627423.46745395521
 30
0.0
  0
VERTEX
  5
1D6
  8
LEIVA_SURVEY_LIMITS
 10
656440.22191656975
 20
627394.10814148514
 30
0.0
  0
VERTEX
  5
1D7
  8
LEIVA_SURVEY_LIMITS
 10
656491.20770438889
 20
627364.71889599878
 30
0.0
  0
VERTEX
  5
1D8
  8
LEIVA_SURVEY_LIMITS
 10
656571.51198692864
 20
627319.99323247699
 30
0.0
  0
VERTEX
  5
1D9
  8
LEIVA_SURVEY_LIMITS
 10
656574.06148040807
 20
627318.71508425812
 30
0.0
  0
VERTEX
  5
1DA
  8
LEIVA_SURVEY_LIMITS
 10
656607.21169860242
 20
627308.47629258968
 30
0.0
  0
VERTEX
  5
1DB
  8
LEIVA_SURVEY_LIMITS
 10
656673.53254386596
 20
627307.13011478866
 30
0.0
  0
VERTEX
  5
1DC
  8
LEIVA_SURVEY_LIMITS
 10
656736.03663216357
 20
627314.71600801195
 30
0.0
  0
VERTEX
  5
1DD
  8
LEIVA_SURVEY_LIMITS
 10
656809.99099135806
 20
627295.50568816171
 30
0.0
  0
VERTEX
  5
1DE
  8
LEIVA_SURVEY_LIMITS
 10
656849.47208461515
 20
627241.89557432255
 30
0.0
  0
VERTEX
  5
1DF
  8
LEIVA_SURVEY_LIMITS
 10
656908.10635287315
 20
627208.67188417935
 30
0.0
  0
VERTEX
  5
1E0
  8
LEIVA_SURVEY_LIMITS
 10
656955.26858076849
 20
627181.83757453947
 30
0.0
  0
VERTEX
  5
1E1
  8
LEIVA_SURVEY_LIMITS
 10
656975.63187440694
 20
627141.00213993154
 30
0.0
  0
VERTEX
  5
1E2
  8
LEIVA_SURVEY_LIMITS
 10
656990.91386877676
 20
627119.30355322547
 30
0.0
  0
VERTEX
  5
1E3
  8
LEIVA_SURVEY_LIMITS
 10
657061.00112911477
 20
627061.83450407977
 30
0.0
  0
VERTEX
  5
1E4
  8
LEIVA_SURVEY_LIMITS
 10
657106.9001752995
 20
627046.48039835249
 30
0.0
  0
VERTEX
  5
1E5
  8
LEIVA_SURVEY_LIMITS
 10
657131.09111063625
 20
627006.91630900535
 30
0.0
  0
VERTEX
  5
1E6
  8
LEIVA_SURVEY_LIMITS
 10
657173.16659689695
 20
626994.11713912454
 30
0.0
  0
VERTEX
  5
1E7
  8
LEIVA_SURVEY_LIMITS
 10
657238.20249098307
 20
626983.84433266521
 30
0.0
  0
VERTEX
  5
1E8
  8
LEIVA_SURVEY_LIMITS
 10
657323.65746296511
 20
626985.02860006085
 30
0.0
  0
VERTEX
  5
1E9
  8
LEIVA_SURVEY_LIMITS
 10
657352.99364537722
 20
626986.27273348894
 30
0.0
  0
VERTEX
  5
1EA
  8
LEIVA_SURVEY_LIMITS
 10
657418.0336212382
 20
626979.82620813663
 30
0.0
  0
VERTEX
  5
1EB
  8
LEIVA_SURVEY_LIMITS
 10
657462.65996157005
 20
626967.02431707247
 30
0.0
  0
VERTEX
  5
1EC
  8
LEIVA_SURVEY_LIMITS
 10
657528.98216742533
 20
626966.95356630685
 30
0.0
  0
VERTEX
  5
1ED
  8
LEIVA_SURVEY_LIMITS
 10
657608.06408600381
 20
626971.97091776761
 30
0.0
  0
VERTEX
  5
1EE
  8
LEIVA_SURVEY_LIMITS
 10
657637.44516793988
 20
627015.30414337269
 30
0.0
  0
VERTEX
  5
1EF
  8
LEIVA_SURVEY_LIMITS
 10
657637.48870687268
 20
627056.11780851416
 30
0.0
  0
VERTEX
  5
1F0
  8
LEIVA_SURVEY_LIMITS
 10
657612.02506568353
 20
627098.23411252419
 30
0.0
  0
VERTEX
  5
1F1
  8
LEIVA_SURVEY_LIMITS
 10
657567.39872535132
 20
627111.03600358835
 30
0.0
  0
VERTEX
  5
1F2
  8
LEIVA_SURVEY_LIMITS
 10
657498.54743489111
 20
627131.51630810811
 30
0.0
  0
VERTEX
  5
1F3
  8
LEIVA_SURVEY_LIMITS
 10
657430.98517738294
 20
627164.74952239275
 30
0.0
  0
VERTEX
  5
1F4
  8
LEIVA_SURVEY_LIMITS
 10
657404.2406667918
 20
627201.76547885197
 30
0.0
  0
VERTEX
  5
1F5
  8
LEIVA_SURVEY_LIMITS
 10
657360.96322544408
 20
627283.43906925095
 30
0.0
  0
VERTEX
  5
1F6
  8
LEIVA_SURVEY_LIMITS
 10
657346.99611526739
 20
627342.12367939949
 30
0.0
  0
VERTEX
  5
1F7
  8
LEIVA_SURVEY_LIMITS
 10
657415.92768063443
 20
627396.89356998506
 30
0.0
  0
VERTEX
  5
1F8
  8
LEIVA_SURVEY_LIMITS
 10
657440.22746330244
 20
627459.36364349176
 30
0.0
  0
VERTEX
  5
1F9
  8
LEIVA_SURVEY_LIMITS
 10
657463.22868887731
 20
627500.15281798365
 30
0.0
  0
VERTEX
  5
1FA
  8
LEIVA_SURVEY_LIMITS
 10
657478.60048229585
 20
627562.63241563202
 30
0.0
  0
VERTEX
  5
1FB
  8
LEIVA_SURVEY_LIMITS
 10
657524.61245758692
 20
627653.13875386573
 30
0.0
  0
VERTEX
  5
1FC
  8
LEIVA_SURVEY_LIMITS
 10
657534.88798522914
 20
627720.72550202301
 30
0.0
  0
VERTEX
  5
1FD
  8
LEIVA_SURVEY_LIMITS
 10
657555.34788087395
 20
627770.44538694806
 30
0.0
  0
VERTEX
  5
1FE
  8
LEIVA_SURVEY_LIMITS
 10
657483.99743882532
 20
627839.39464000636
 30
0.0
  0
VERTEX
  5
1FF
  8
LEIVA_SURVEY_LIMITS
 10
657454.72112244554
 20
627894.26929614809
 30
0.0
  0
VERTEX
  5
200
  8
LEIVA_SURVEY_LIMITS
 10
657471.37650644942
 20
627964.40009541856
 30
0.0
  0
VERTEX
  5
201
  8
LEIVA_SURVEY_LIMITS
 10
657476.56121068238
 20
628042.195702228
 30
0.0
  0
VERTEX
  5
202
  8
LEIVA_SURVEY_LIMITS
 10
657503.42001097207
 20
628112.31561676553
 30
0.0
  0
VERTEX
  5
203
  8
LEIVA_SURVEY_LIMITS
 10
657509.29540720349
 20
628120.3552732633
 30
0.0
  0
VERTEX
  5
204
  8
LEIVA_SURVEY_LIMITS
 10
657510.89033949608
 20
628120.74284674891
 30
0.0
  0
VERTEX
  5
205
  8
LEIVA_SURVEY_LIMITS
 10
657561.36825641966
 20
628176.65508573409
 30
0.0
  0
VERTEX
  5
206
  8
LEIVA_SURVEY_LIMITS
 10
657593.58527816995
 20
628252.81967015518
 30
0.0
  0
VERTEX
  5
207
  8
LEIVA_SURVEY_LIMITS
 10
657593.58527816995
 20
628252.81967015518
 30
0.0
  0
VERTEX
  5
208
  8
LEIVA_SURVEY_LIMITS
 10
657599.51126295701
 20
628261.88750519976
 30
0.0
  0
VERTEX
  5
209
  8
LEIVA_SURVEY_LIMITS
 10
657604.6307026858
 20
628286.33673857246
 30
0.0
  0
VERTEX
  5
20A
  8
LEIVA_SURVEY_LIMITS
 10
657638.85829303204
 20
628399.73206347181
 30
0.0
  0
VERTEX
  5
20B
  8
LEIVA_SURVEY_LIMITS
 10
657661.7728021954
 20
628497.56532179355
 30
0.0
  0
VERTEX
  5
20C
  8
LEIVA_SURVEY_LIMITS
 10
657692.51614048064
 20
628586.53578919591
 30
0.0
  0
VERTEX
  5
20D
  8
LEIVA_SURVEY_LIMITS
 10
657728.48507095827
 20
628669.17022927408
 30
0.0
  0
VERTEX
  5
20E
  8
LEIVA_SURVEY_LIMITS
 10
657761.69781783968
 20
628764.59143400006
 30
0.0
  0
VERTEX
  5
20F
  8
LEIVA_SURVEY_LIMITS
 10
657783.71219353855
 20
628836.75557136
 30
0.0
  0
VERTEX
  5
210
  8
LEIVA_SURVEY_LIMITS
 10
657796.80642331718
 20
628904.9383799925
 30
0.0
  0
VERTEX
  5
211
  8
LEIVA_SURVEY_LIMITS
 10
657804.71329757024
 20
628976.89221568592
 30
0.0
  0
VERTEX
  5
212
  8
LEIVA_SURVEY_LIMITS
 10
657804.71486936789
 20
629062.83884282527
 30
0.0
  0
VERTEX
  5
213
  8
LEIVA_SURVEY_LIMITS
 10
657797.23174204375
 20
629134.56325851835
 30
0.0
  0
VERTEX
  5
214
  8
LEIVA_SURVEY_LIMITS
 10
657775.81317827385
 20
629194.53487136192
 30
0.0
  0
VERTEX
  5
215
  8
LEIVA_SURVEY_LIMITS
 10
657740.21063972486
 20
629259.42618306493
 30
0.0
  0
VERTEX
  5
216
  8
LEIVA_SURVEY_LIMITS
 10
657726.83120674384
 20
629296.42750354297
 30
0.0
  0
VERTEX
  5
217
  8
LEIVA_SURVEY_LIMITS
 10
657712.15015529795
 20
629334.69220581907
 30
0.0
  0
VERTEX
  5
218
  8
LEIVA_SURVEY_LIMITS
 10
657697.33527551848
 20
629381.93440901535
 30
0.0
  0
VERTEX
  5
219
  8
LEIVA_SURVEY_LIMITS
 10
657710.92658196425
 20
629416.77221423062
 30
0.0
  0
VERTEX
  5
21A
  8
LEIVA_SURVEY_LIMITS
 10
657753.09613963449
 20
629427.66312028235
 30
0.0
  0
VERTEX
  5
21B
  8
LEIVA_SURVEY_LIMITS
 10
657815.91952774138
 20
629429.88241874729
 30
0.0
  0
VERTEX
  5
21C
  8
LEIVA_SURVEY_LIMITS
 10
657843.19616050145
 20
629407.19890138193
 30
0.0
  0
VERTEX
  5
21D
  8
LEIVA_SURVEY_LIMITS
 10
657884.98177970725
 20
629357.79318292264
 30
0.0
  0
VERTEX
  5
21E
  8
LEIVA_SURVEY_LIMITS
 10
657901.25122461806
 20
629299.02759687719
 30
0.0
  0
VERTEX
  5
21F
  8
LEIVA_SURVEY_LIMITS
 10
657928.04832724691
 20
629222.4599556583
 30
0.0
  0
VERTEX
  5
220
  8
LEIVA_SURVEY_LIMITS
 10
657955.80291834089
 20
629167.71393500688
 30
0.0
  0
VERTEX
  5
221
  8
LEIVA_SURVEY_LIMITS
 10
657991.34810188971
 20
629106.67012369842
 30
0.0
  0
VERTEX
  5
222
  8
LEIVA_SURVEY_LIMITS
 10
658017.18928785168
 20
629094.22748905094
 30
0.0
  0
VERTEX
  5
223
  8
LEIVA_SURVEY_LIMITS
 10
658044.21738227829
 20
629088.21647339407
 30
0.0
  0
VERTEX
  5
224
  8
LEIVA_SURVEY_LIMITS
 10
658081.83048942336
 20
629060.55590216944
 30
0.0
  0
VERTEX
  5
225
  8
LEIVA_SURVEY_LIMITS
 10
658093.06552547496
 20
628995.3013421332
 30
0.0
  0
VERTEX
  5
226
  8
LEIVA_SURVEY_LIMITS
 10
658131.67435775115
 20
628986.8973912131
 30
0.0
  0
VERTEX
  5
227
  8
LEIVA_SURVEY_LIMITS
 10
658180.14170607855
 20
629005.57888972037
 30
0.0
  0
VERTEX
  5
228
  8
LEIVA_SURVEY_LIMITS
 10
658229.89155453769
 20
629024.27950656053
 30
0.0
  0
VERTEX
  5
229
  8
LEIVA_SURVEY_LIMITS
 10
658283.75656005763
 20
629025.08247656072
 30
0.0
  0
VERTEX
  5
22A
  8
LEIVA_SURVEY_LIMITS
 10
658334.15643185005
 20
629000.17808893253
 30
0.0
  0
VERTEX
  5
22B
  8
LEIVA_SURVEY_LIMITS
 10
658379.82778811723
 20
628948.26472521084
 30
0.0
  0
VERTEX
  5
22C
  8
LEIVA_SURVEY_LIMITS
 10
658408.5398676754
 20
628915.34032512736
 30
0.0
  0
VERTEX
  5
22D
  8
LEIVA_SURVEY_LIMITS
 10
658441.23327596136
 20
628873.49577912339
 30
0.0
  0
VERTEX
  5
22E
  8
LEIVA_SURVEY_LIMITS
 10
658457.21594587201
 20
628833.96769504924
 30
0.0
  0
VERTEX
  5
22F
  8
LEIVA_SURVEY_LIMITS
 10
658474.59582591418
 20
628786.76372851967
 30
0.0
  0
VERTEX
  5
230
  8
LEIVA_SURVEY_LIMITS
 10
658473.96334911638
 20
628743.13960571773
 30
0.0
  0
VERTEX
  5
231
  8
LEIVA_SURVEY_LIMITS
 10
658462.53398613585
 20
628649.32591279014
 30
0.0
  0
VERTEX
  5
232
  8
LEIVA_SURVEY_LIMITS
 10
658449.43975635711
 20
628581.14310415764
 30
0.0
  0
VERTEX
  5
233
  8
LEIVA_SURVEY_LIMITS
 10
658447.65860776114
 20
628528.52236210252
 30
0.0
  0
VERTEX
  5
234
  8
LEIVA_SURVEY_LIMITS
 10
658459.65994894411
 20
628497.91442394839
 30
0.0
  0
VERTEX
  5
235
  8
LEIVA_SURVEY_LIMITS
 10
658511.01573740365
 20
628408.88502974831
 30
0.0
  0
VERTEX
  5
236
  8
LEIVA_SURVEY_LIMITS
 10
658543.86209235643
 20
628356.78048269334
 30
0.0
  0
VERTEX
  5
237
  8
LEIVA_SURVEY_LIMITS
 10
658579.15873757203
 20
628312.4091730935
 30
0.0
  0
VERTEX
  5
238
  8
LEIVA_SURVEY_LIMITS
 10
658691.86423067329
 20
628238.40496033942
 30
0.0
  0
VERTEX
  5
239
  8
LEIVA_SURVEY_LIMITS
 10
658739.06662540487
 20
628169.83821324294
 30
0.0
  0
VERTEX
  5
23A
  8
LEIVA_SURVEY_LIMITS
 10
658743.34812202409
 20
628167.59385439567
 30
0.0
  0
SEQEND
  5
23B
  8
LEIVA_SURVEY_LIMITS
  0
POLYLINE
  5
6C
  8
LEIVA_SURVEY_LIMITS
 66
     1
 10
0.0
 20
0.0
 30
0.0
  0
VERTEX
  5
23C
  8
LEIVA_SURVEY_LIMITS
 10
661865.3709618391
 20
628186.70307160821
 30
0.0
  0
VERTEX
  5
23D
  8
LEIVA_SURVEY_LIMITS
 10
661777.05556281714
 20
628081.77112260053
 30
0.0
  0
VERTEX
  5
23E
  8
LEIVA_SURVEY_LIMITS
 10
661670.27088976174
 20
627977.91765225749
 30
0.0
  0
VERTEX
  5
23F
  8
LEIVA_SURVEY_LIMITS
 10
661571.23684595176
 20
627899.73904112342
 30
0.0
  0
VERTEX
  5
240
  8
LEIVA_SURVEY_LIMITS
 10
661517.21887924674
 20
627857.44645483315
 30
0.0
  0
VERTEX
  5
241
  8
LEIVA_SURVEY_LIMITS
 10
661454.32276619924
 20
627880.67403585766
 30
0.0
  0
VERTEX
  5
242
  8
LEIVA_SURVEY_LIMITS
 10
661328.52612070285
 20
627924.56038616458
 30
0.0
  0
VERTEX
  5
243
  8
LEIVA_SURVEY_LIMITS
 10
661242.49965347745
 20
627941.40571245411
 30
0.0
  0
VERTEX
  5
244
  8
LEIVA_SURVEY_LIMITS
 10
661156.47097655095
 20
627956.96663287294
 30
0.0
  0
VERTEX
  5
245
  8
LEIVA_SURVEY_LIMITS
 10
661074.26900082408
 20
627957.10805373965
 30
0.0
  0
VERTEX
  5
246
  8
LEIVA_SURVEY_LIMITS
 10
660977.90541500354
 20
627938.00769325718
 30
0.0
  0
VERTEX
  5
247
  8
LEIVA_SURVEY_LIMITS
 10
660895.67913256516
 20
627924.02064954583
 30
0.0
  0
VERTEX
  5
248
  8
LEIVA_SURVEY_LIMITS
 10
660807.00872376247
 20
627897.20059563266
 30
0.0
  0
VERTEX
  5
249
  8
LEIVA_SURVEY_LIMITS
 10
660688.79035082995
 20
627866.57814723114
 30
0.0
  0
VERTEX
  5
24A
  8
LEIVA_SURVEY_LIMITS
 10
660632.25439550751
 20
627853.83131536958
 30
0.0
  0
VERTEX
  5
24B
  8
LEIVA_SURVEY_LIMITS
 10
660571.94919121242
 20
627889.89853569935
 30
0.0
  0
VERTEX
  5
24C
  8
LEIVA_SURVEY_LIMITS
 10
660532.17017413734
 20
627911.80193623411
 30
0.0
  0
VERTEX
  5
24D
  8
LEIVA_SURVEY_LIMITS
 10
660489.82234532095
 20
627933.7097561711
 30
0.0
  0
VERTEX
  5
24E
  8
LEIVA_SURVEY_LIMITS
 10
660456.44105088816
 20
627941.47364362259
 30
0.0
  0
VERTEX
  5
24F
  8
LEIVA_SURVEY_LIMITS
 10
660402.50484312139
 20
627946.70407454902
 30
0.0
  0
VERTEX
  5
250
  8
LEIVA_SURVEY_LIMITS
 10
660328.01372202113
 20
627949.40104895132
 30
0.0
  0
VERTEX
  5
251
  8
LEIVA_SURVEY_LIMITS
 10
660265.04468883935
 20
627930.2432362414
 30
0.0
  0
VERTEX
  5
252
  8
LEIVA_SURVEY_LIMITS
 10
660217.50620371511
 20
627921.33415408514
 30
0.0
  0
VERTEX
  5
253
  8
LEIVA_SURVEY_LIMITS
 10
660146.81305770099
 20
627891.9143526156
 30
0.0
  0
VERTEX
  5
254
  8
LEIVA_SURVEY_LIMITS
 10
660094.11706178414
 20
627871.45445642667
 30
0.0
  0
VERTEX
  5
255
  8
LEIVA_SURVEY_LIMITS
 10
660046.59183486598
 20
627870.25180949457
 30
0.0
  0
VERTEX
  5
256
  8
LEIVA_SURVEY_LIMITS
 10
660000.31123919971
 20
627845.92764718831
 30
0.0
  0
VERTEX
  5
257
  8
LEIVA_SURVEY_LIMITS
 10
659954.07262785325
 20
627846.00719642604
 30
0.0
  0
VERTEX
  5
258
  8
LEIVA_SURVEY_LIMITS
 10
659892.39904904785
 20
627833.26920336881
 30
0.0
  0
VERTEX
  5
259
  8
LEIVA_SURVEY_LIMITS
 10
659784.46255218436
 20
627806.48229497124
 30
0.0
  0
VERTEX
  5
25A
  8
LEIVA_SURVEY_LIMITS
 10
659656.01533600793
 20
627802.85004746332
 30
0.0
  0
VERTEX
  5
25B
  8
LEIVA_SURVEY_LIMITS
 10
659580.21329262445
 20
627790.13636111736
 30
0.0
  0
VERTEX
  5
25C
  8
LEIVA_SURVEY_LIMITS
 10
659509.54224362026
 20
627773.56061835575
 30
0.0
  0
VERTEX
  5
25D
  8
LEIVA_SURVEY_LIMITS
 10
659463.25501885102
 20
627745.38323843689
 30
0.0
  0
VERTEX
  5
25E
  8
LEIVA_SURVEY_LIMITS
 10
659345.00129070191
 20
627694.21029610373
 30
0.0
  0
VERTEX
  5
25F
  8
LEIVA_SURVEY_LIMITS
 10
659296.19607731514
 20
627695.57867061417
 30
0.0
  0
VERTEX
  5
260
  8
LEIVA_SURVEY_LIMITS
 10
659199.91204073187
 20
627722.71692147781
 30
0.0
  0
VERTEX
  5
261
  8
LEIVA_SURVEY_LIMITS
 10
659127.99415077525
 20
627727.97828821908
 30
0.0
  0
VERTEX
  5
262
  8
LEIVA_SURVEY_LIMITS
 10
659048.40518081083
 20
627753.80340709863
 30
0.0
  0
VERTEX
  5
263
  8
LEIVA_SURVEY_LIMITS
 10
658981.66910835763
 20
627784.74405245041
 30
0.0
  0
VERTEX
  5
264
  8
LEIVA_SURVEY_LIMITS
 10
658908.53310356126
 20
627828.53980501485
 30
0.0
  0
VERTEX
  5
265
  8
LEIVA_SURVEY_LIMITS
 10
658868.82037751772
 20
627888.97538167157
 30
0.0
  0
VERTEX
  5
266
  8
LEIVA_SURVEY_LIMITS
 10
658822.68562212028
 20
627949.42200683395
 30
0.0
  0
VERTEX
  5
267
  8
LEIVA_SURVEY_LIMITS
 10
658790.69921861053
 20
628021.40397812077
 30
0.0
  0
VERTEX
  5
268
  8
LEIVA_SURVEY_LIMITS
 10
658771.49942158104
 20
628059.96929975832
 30
0.0
  0
VERTEX
  5
269
  8
LEIVA_SURVEY_LIMITS
 10
658749.77500683069
 20
628124.2271582128
 30
0.0
  0
VERTEX
  5
26A
  8
LEIVA_SURVEY_LIMITS
 10
658738.28164502513
 20
628162.77922164416
 30
0.0
  0
VERTEX
  5
26B
  8
LEIVA_SURVEY_LIMITS
 10
658743.34812202374
 20
628167.59385439567
 30
0.0
  0
SEQEND
  5
26C
  8
LEIVA_SURVEY_LIMITS
  0
POLYLINE
  5
6D
  8
LEIVA_SURVEY_LIMITS
 66
     1
 10
0.0
 20
0.0
 30
0.0
  0
VERTEX
  5
26D
  8
LEIVA_SURVEY_LIMITS
 10
661865.37096183887
 20
628186.70307160821
 30
0.0
  0
VERTEX
  5
26E
  8
LEIVA_SURVEY_LIMITS
 10
662206.71224365605
 20
628467.63924954226
 30
0.0
  0
VERTEX
  5
26F
  8
LEIVA_SURVEY_LIMITS
 10
662217.42685000622
 20
628513.37534689019
 30
0.0
  0
VERTEX
  5
270
  8
LEIVA_SURVEY_LIMITS
 10
662249.25722816447
 20
628554.62822628883
 30
0.0
  0
VERTEX
  5
271
  8
LEIVA_SURVEY_LIMITS
 10
662304.73277987435
 20
628616.01741927885
 30
0.0
  0
VERTEX
  5
272
  8
LEIVA_SURVEY_LIMITS
 10
662356.43996601528
 20
628696.68212957075
 30
0.0
  0
VERTEX
  5
273
  8
LEIVA_SURVEY_LIMITS
 10
662405.47922504856
 20
628754.24735577917
 30
0.0
  0
VERTEX
  5
274
  8
LEIVA_SURVEY_LIMITS
 10
662433.84228177124
 20
628781.08740482596
 30
0.0
  0
VERTEX
  5
275
  8
LEIVA_SURVEY_LIMITS
 10
662508.57667041942
 20
628842.39319599734
 30
0.0
  0
VERTEX
  5
276
  8
LEIVA_SURVEY_LIMITS
 10
662584.64502262161
 20
628915.24872921023
 30
0.0
  0
VERTEX
  5
277
  8
LEIVA_SURVEY_LIMITS
 10
662602.83122170495
 20
628963.95994109055
 30
0.0
  0
VERTEX
  5
278
  8
LEIVA_SURVEY_LIMITS
 10
662640.36521966616
 20
629033.13051055325
 30
0.0
  0
VERTEX
  5
279
  8
LEIVA_SURVEY_LIMITS
 10
662663.73158956948
 20
629092.09086164914
 30
0.0
  0
VERTEX
  5
27A
  8
LEIVA_SURVEY_LIMITS
 10
662692.35041186889
 20
629177.99134397367
 30
0.0
  0
VERTEX
  5
27B
  8
LEIVA_SURVEY_LIMITS
 10
662713.32130060578
 20
629276.7644116513
 30
0.0
  0
VERTEX
  5
27C
  8
LEIVA_SURVEY_LIMITS
 10
662743.08504233696
 20
629330.56127229065
 30
0.0
  0
VERTEX
  5
27D
  8
LEIVA_SURVEY_LIMITS
 10
662774.08822556084
 20
629374.08119310823
 30
0.0
  0
VERTEX
  5
27E
  8
LEIVA_SURVEY_LIMITS
 10
662821.89360322244
 20
629443.20728160092
 30
0.0
  0
VERTEX
  5
27F
  8
LEIVA_SURVEY_LIMITS
 10
662860.64480219176
 20
629496.96522139176
 30
0.0
  0
VERTEX
  5
280
  8
LEIVA_SURVEY_LIMITS
 10
662891.62018480955
 20
629534.06552989618
 30
0.0
  0
VERTEX
  5
281
  8
LEIVA_SURVEY_LIMITS
 10
662963.79784877528
 20
629597.95028623485
 30
0.0
  0
VERTEX
  5
282
  8
LEIVA_SURVEY_LIMITS
 10
663021.7856441976
 20
629646.48913435685
 30
0.0
  0
VERTEX
  5
283
  8
LEIVA_SURVEY_LIMITS
 10
663060.45900146966
 20
629682.27215967153
 30
0.0
  0
VERTEX
  5
284
  8
LEIVA_SURVEY_LIMITS
 10
663109.44821941177
 20
629728.28208371683
 30
0.0
  0
VERTEX
  5
285
  8
LEIVA_SURVEY_LIMITS
 10
663144.28092953819
 20
629766.64963432029
 30
0.0
  0
VERTEX
  5
286
  8
LEIVA_SURVEY_LIMITS
 10
663172.83859050414
 20
629838.4269695566
 30
0.0
  0
VERTEX
  5
287
  8
LEIVA_SURVEY_LIMITS
 10
663174.28375648265
 20
629875.65516085015
 30
0.0
  0
VERTEX
  5
288
  8
LEIVA_SURVEY_LIMITS
 10
663179.5640094853
 20
629909.01490439184
 30
0.0
  0
VERTEX
  5
289
  8
LEIVA_SURVEY_LIMITS
 10
663205.59274637466
 20
629989.79081710847
 30
0.0
  0
VERTEX
  5
28A
  8
LEIVA_SURVEY_LIMITS
 10
663213.4742050299
 20
630030.84297518339
 30
0.0
  0
VERTEX
  5
28B
  8
LEIVA_SURVEY_LIMITS
 10
663218.85454021476
 20
630087.31332305132
 30
0.0
  0
VERTEX
  5
28C
  8
LEIVA_SURVEY_LIMITS
 10
663224.19039442972
 20
630133.51229121909
 30
0.0
  0
VERTEX
  5
28D
  8
LEIVA_SURVEY_LIMITS
 10
663229.58740997815
 20
630193.83440647472
 30
0.0
  0
VERTEX
  5
28E
  8
LEIVA_SURVEY_LIMITS
 10
663250.39705519902
 20
630255.37372273789
 30
0.0
  0
VERTEX
  5
28F
  8
LEIVA_SURVEY_LIMITS
 10
663277.5762716413
 20
630305.32993623207
 30
0.0
  0
VERTEX
  5
290
  8
LEIVA_SURVEY_LIMITS
 10
663302.21544376458
 20
630361.71688228135
 30
0.0
  0
VERTEX
  5
291
  8
LEIVA_SURVEY_LIMITS
 10
663329.37241972168
 20
630406.5374059251
 30
0.0
  0
VERTEX
  5
292
  8
LEIVA_SURVEY_LIMITS
 10
663359.11948108929
 20
630456.48249917675
 30
0.0
  0
VERTEX
  5
293
  8
LEIVA_SURVEY_LIMITS
 10
663399.14904239995
 20
630508.95095638325
 30
0.0
  0
VERTEX
  5
294
  8
LEIVA_SURVEY_LIMITS
 10
663444.19197089295
 20
630533.15087892883
 30
0.0
  0
VERTEX
  5
295
  8
LEIVA_SURVEY_LIMITS
 10
663523.55051823775
 20
630476.31356305908
 30
0.0
  0
VERTEX
  5
296
  8
LEIVA_SURVEY_LIMITS
 10
663601.55842166487
 20
630404.07473775954
 30
0.0
  0
VERTEX
  5
297
  8
LEIVA_SURVEY_LIMITS
 10
663646.39006555115
 20
630379.48560672719
 30
0.0
  0
VERTEX
  5
298
  8
LEIVA_SURVEY_LIMITS
 10
663711.58654495876
 20
630313.721994953
 30
0.0
  0
VERTEX
  5
299
  8
LEIVA_SURVEY_LIMITS
 10
663780.72375369386
 20
630268.4844622165
 30
0.0
  0
VERTEX
  5
29A
  8
LEIVA_SURVEY_LIMITS
 10
663844.80867439753
 20
630242.5280069029
 30
0.0
  0
VERTEX
  5
29B
  8
LEIVA_SURVEY_LIMITS
 10
663901.15113947704
 20
630207.6174550791
 30
0.0
  0
VERTEX
  5
29C
  8
LEIVA_SURVEY_LIMITS
 10
664002.29744783661
 20
630141.69815991004
 30
0.0
  0
VERTEX
  5
29D
  8
LEIVA_SURVEY_LIMITS
 10
664081.73383687832
 20
630102.83575851633
 30
0.0
  0
VERTEX
  5
29E
  8
LEIVA_SURVEY_LIMITS
 10
664122.7470741045
 20
630085.96684262296
 30
0.0
  0
VERTEX
  5
29F
  8
LEIVA_SURVEY_LIMITS
 10
664157.44634132111
 20
630093.52025412489
 30
0.0
  0
VERTEX
  5
2A0
  8
LEIVA_SURVEY_LIMITS
 10
664190.86168607534
 20
630101.07922574808
 30
0.0
  0
VERTEX
  5
2A1
  8
LEIVA_SURVEY_LIMITS
 10
664256.34173166624
 20
630100.79565956502
 30
0.0
  0
VERTEX
  5
2A2
  8
LEIVA_SURVEY_LIMITS
 10
664330.686911828
 20
630072.22687835665
 30
0.0
  0
VERTEX
  5
2A3
  8
LEIVA_SURVEY_LIMITS
 10
664393.4489892202
 20
630037.28852592641
 30
0.0
  0
VERTEX
  5
2A4
  8
LEIVA_SURVEY_LIMITS
 10
664440.87071851641
 20
630017.82396450196
 30
0.0
  0
VERTEX
  5
2A5
  8
LEIVA_SURVEY_LIMITS
 10
664512.77037642023
 20
630017.51259771246
 30
0.0
  0
VERTEX
  5
2A6
  8
LEIVA_SURVEY_LIMITS
 10
664569.28520525829
 20
630022.40364222787
 30
0.0
  0
VERTEX
  5
2A7
  8
LEIVA_SURVEY_LIMITS
 10
664654.05188839405
 20
630028.45628653921
 30
0.0
  0
VERTEX
  5
2A8
  8
LEIVA_SURVEY_LIMITS
 10
664707.97663182183
 20
630028.22276144684
 30
0.0
  0
VERTEX
  5
2A9
  8
LEIVA_SURVEY_LIMITS
 10
664754.15335950418
 20
630017.7512173818
 30
0.0
  0
VERTEX
  5
2AA
  8
LEIVA_SURVEY_LIMITS
 10
664804.12069324078
 20
629993.13984586485
 30
0.0
  0
VERTEX
  5
2AB
  8
LEIVA_SURVEY_LIMITS
 10
664897.73027046211
 20
629965.7715853001
 30
0.0
  0
VERTEX
  5
2AC
  8
LEIVA_SURVEY_LIMITS
 10
664928.54440956376
 20
629965.63814239041
 30
0.0
  0
VERTEX
  5
2AD
  8
LEIVA_SURVEY_LIMITS
 10
664977.28898217133
 20
629955.15547808295
 30
0.0
  0
VERTEX
  5
2AE
  8
LEIVA_SURVEY_LIMITS
 10
665015.81221616955
 20
629956.27259690815
 30
0.0
  0
VERTEX
  5
2AF
  8
LEIVA_SURVEY_LIMITS
 10
665044.08631095244
 20
629962.56988655357
 30
0.0
  0
VERTEX
  5
2B0
  8
LEIVA_SURVEY_LIMITS
 10
665080.00833929796
 20
629955.99459084589
 30
0.0
  0
VERTEX
  5
2B1
  8
LEIVA_SURVEY_LIMITS
 10
665128.63614935928
 20
629918.54955482425
 30
0.0
  0
VERTEX
  5
2B2
  8
LEIVA_SURVEY_LIMITS
 10
665176.14128047437
 20
629918.34383033845
 30
0.0
  0
VERTEX
  5
2B3
  8
LEIVA_SURVEY_LIMITS
 10
665215.94287681417
 20
629918.17146658024
 30
0.0
  0
VERTEX
  5
2B4
  8
LEIVA_SURVEY_LIMITS
 10
665272.37986395461
 20
629905.08759661997
 30
0.0
  0
VERTEX
  5
2B5
  8
LEIVA_SURVEY_LIMITS
 10
665353.08349509526
 20
629862.36786771705
 30
0.0
  0
VERTEX
  5
2B6
  8
LEIVA_SURVEY_LIMITS
 10
665432.53100437985
 20
629826.0733112481
 30
0.0
  0
VERTEX
  5
2B7
  8
LEIVA_SURVEY_LIMITS
 10
665491.47467511171
 20
629798.85517395707
 30
0.0
  0
VERTEX
  5
2B8
  8
LEIVA_SURVEY_LIMITS
 10
665561.96808788565
 20
629770.30307311274
 30
0.0
  0
VERTEX
  5
2B9
  8
LEIVA_SURVEY_LIMITS
 10
665627.32581080927
 20
629741.77321275265
 30
0.0
  0
VERTEX
  5
2BA
  8
LEIVA_SURVEY_LIMITS
 10
665692.61681227828
 20
629697.83628284233
 30
0.0
  0
VERTEX
  5
2BB
  8
LEIVA_SURVEY_LIMITS
 10
665714.34341195947
 20
629674.63115645503
 30
0.0
  0
VERTEX
  5
2BC
  8
LEIVA_SURVEY_LIMITS
 10
665783.39165875479
 20
629608.8508643168
 30
0.0
  0
VERTEX
  5
2BD
  8
LEIVA_SURVEY_LIMITS
 10
665839.65072201553
 20
629554.68147555459
 30
0.0
  0
VERTEX
  5
2BE
  8
LEIVA_SURVEY_LIMITS
 10
665875.47822830034
 20
629526.2794979834
 30
0.0
  0
VERTEX
  5
2BF
  8
LEIVA_SURVEY_LIMITS
 10
665954.81453515962
 20
629464.30649226345
 30
0.0
  0
VERTEX
  5
2C0
  8
LEIVA_SURVEY_LIMITS
 10
666003.28666182666
 20
629390.91162728961
 30
0.0
  0
VERTEX
  5
2C1
  8
LEIVA_SURVEY_LIMITS
 10
666080.00508267013
 20
629317.39443964907
 30
0.0
  0
VERTEX
  5
2C2
  8
LEIVA_SURVEY_LIMITS
 10
666252.93428638729
 20
629224.20140597667
 30
0.0
  0
VERTEX
  5
2C3
  8
LEIVA_SURVEY_LIMITS
 10
666393.25945750717
 20
629014.31043124164
 30
0.0
  0
VERTEX
  5
2C4
  8
LEIVA_SURVEY_LIMITS
 10
666488.98650983325
 20
628882.93333096686
 30
0.0
  0
VERTEX
  5
2C5
  8
LEIVA_SURVEY_LIMITS
 10
666547.63549413974
 20
628787.66730315995
 30
0.0
  0
VERTEX
  5
2C6
  8
LEIVA_SURVEY_LIMITS
 10
666575.58154176932
 20
628718.21316751395
 30
0.0
  0
VERTEX
  5
2C7
  8
LEIVA_SURVEY_LIMITS
 10
666606.06207359629
 20
628641.04437685013
 30
0.0
  0
VERTEX
  5
2C8
  8
LEIVA_SURVEY_LIMITS
 10
666661.12617633445
 20
628607.42330761021
 30
0.0
  0
VERTEX
  5
2C9
  8
LEIVA_SURVEY_LIMITS
 10
666718.7636841191
 20
628575.07504059013
 30
0.0
  0
VERTEX
  5
2CA
  8
LEIVA_SURVEY_LIMITS
 10
666839.36343366059
 20
628554.00962979253
 30
0.0
  0
VERTEX
  5
2CB
  8
LEIVA_SURVEY_LIMITS
 10
666916.31537959597
 20
628534.41718557966
 30
0.0
  0
VERTEX
  5
2CC
  8
LEIVA_SURVEY_LIMITS
 10
666957.23409476085
 20
628495.72158782254
 30
0.0
  0
VERTEX
  5
2CD
  8
LEIVA_SURVEY_LIMITS
 10
666977.61561064585
 20
628458.3988744684
 30
0.0
  0
VERTEX
  5
2CE
  8
LEIVA_SURVEY_LIMITS
 10
667010.68066776218
 20
628385.07073094975
 30
0.0
  0
VERTEX
  5
2CF
  8
LEIVA_SURVEY_LIMITS
 10
667059.2306361259
 20
628329.65078045207
 30
0.0
  0
VERTEX
  5
2D0
  8
LEIVA_SURVEY_LIMITS
 10
667123.39339852706
 20
628321.66923961486
 30
0.0
  0
VERTEX
  5
2D1
  8
LEIVA_SURVEY_LIMITS
 10
667202.90206914512
 20
628299.49783023424
 30
0.0
  0
VERTEX
  5
2D2
  8
LEIVA_SURVEY_LIMITS
 10
667247.63919097034
 20
628253.0820173386
 30
0.0
  0
VERTEX
  5
2D3
  8
LEIVA_SURVEY_LIMITS
 10
667298.92380789691
 20
628236.16862047545
 30
0.0
  0
VERTEX
  5
2D4
  8
LEIVA_SURVEY_LIMITS
 10
667324.60225714825
 20
628236.05741805083
 30
0.0
  0
VERTEX
  5
2D5
  8
LEIVA_SURVEY_LIMITS
 10
667405.44489131984
 20
628225.43575071194
 30
0.0
  0
VERTEX
  5
2D6
  8
LEIVA_SURVEY_LIMITS
 10
667469.41304947739
 20
628172.51692368463
 30
0.0
  0
VERTEX
  5
2D7
  8
LEIVA_SURVEY_LIMITS
 10
667488.51064289955
 20
628135.19977045152
 30
0.0
  0
SEQEND
  5
2D8
  8
LEIVA_SURVEY_LIMITS
  0
POLYLINE
  5
6E
  8
LEIVA_SURVEY_LIMITS
 66
     1
 10
0.0
 20
0.0
 30
0.0
  0
VERTEX
  5
2D9
  8
LEIVA_SURVEY_LIMITS
 10
670445.57493591448
 20
626899.69764951023
 30
0.0
  0
VERTEX
  5
2DA
  8
LEIVA_SURVEY_LIMITS
 10
670451.82581853447
 20
626801.31729109795
 30
0.0
  0
VERTEX
  5
2DB
  8
LEIVA_SURVEY_LIMITS
 10
670473.44360773766
 20
626738.49112460157
 30
0.0
  0
VERTEX
  5
2DC
  8
LEIVA_SURVEY_LIMITS
 10
670905.07387949305
 20
626242.33655874804
 30
0.0
  0
VERTEX
  5
2DD
  8
LEIVA_SURVEY_LIMITS
 10
671056.48513749102
 20
626305.16904496611
 30
0.0
  0
VERTEX
  5
2DE
  8
LEIVA_SURVEY_LIMITS
 10
671217.1137450505
 20
626258.47891847137
 30
0.0
  0
VERTEX
  5
2DF
  8
LEIVA_SURVEY_LIMITS
 10
671373.97689148877
 20
626191.39744750876
 30
0.0
  0
VERTEX
  5
2E0
  8
LEIVA_SURVEY_LIMITS
 10
672432.50050397764
 20
626196.85090592201
 30
0.0
  0
VERTEX
  5
2E1
  8
LEIVA_SURVEY_LIMITS
 10
672432.71158180549
 20
626196.49602703645
 30
0.0
  0
SEQEND
  5
2E2
  8
LEIVA_SURVEY_LIMITS
  0
POLYLINE
  5
6F
  8
LEIVA_SURVEY_LIMITS
 66
     1
 10
0.0
 20
0.0
 30
0.0
  0
VERTEX
  5
2E3
  8
LEIVA_SURVEY_LIMITS
 10
667523.99013941165
 20
628117.81987534161
 30
0.0
  0
VERTEX
  5
2E4
  8
LEIVA_SURVEY_LIMITS
 10
667678.76982256456
 20
628077.88277687458
 30
0.0
  0
VERTEX
  5
2E5
  8
LEIVA_SURVEY_LIMITS
 10
667842.35511606745
 20
628054.45679089031
 30
0.0
  0
VERTEX
  5
2E6
  8
LEIVA_SURVEY_LIMITS
 10
667948.90936341125
 20
628030.80273895455
 30
0.0
  0
VERTEX
  5
2E7
  8
LEIVA_SURVEY_LIMITS
 10
668078.36725559877
 20
627984.42749493592
 30
0.0
  0
VERTEX
  5
2E8
  8
LEIVA_SURVEY_LIMITS
 10
668223.00301796896
 20
627945.71720799175
 30
0.0
  0
VERTEX
  5
2E9
  8
LEIVA_SURVEY_LIMITS
 10
668319.46402585227
 20
627910.61640176619
 30
0.0
  0
VERTEX
  5
2EA
  8
LEIVA_SURVEY_LIMITS
 10
668416.00612385175
 20
627855.23789023957
 30
0.0
  0
VERTEX
  5
2EB
  8
LEIVA_SURVEY_LIMITS
 10
668562.02580984519
 20
627787.38347005751
 30
0.0
  0
VERTEX
  5
2EC
  8
LEIVA_SURVEY_LIMITS
 10
668667.4596764429
 20
627726.9710091314
 30
0.0
  0
VERTEX
  5
2ED
  8
LEIVA_SURVEY_LIMITS
 10
668779.15937209525
 20
627684.32688100473
 30
0.0
  0
VERTEX
  5
2EE
  8
LEIVA_SURVEY_LIMITS
 10
668863.03804054623
 20
627626.36297499295
 30
0.0
  0
VERTEX
  5
2EF
  8
LEIVA_SURVEY_LIMITS
 10
668970.874848868
 20
627598.91192144563
 30
0.0
  0
VERTEX
  5
2F0
  8
LEIVA_SURVEY_LIMITS
 10
669093.87432297505
 20
627582.92789471708
 30
0.0
  0
VERTEX
  5
2F1
  8
LEIVA_SURVEY_LIMITS
 10
669225.79090634198
 20
627555.57313568273
 30
0.0
  0
VERTEX
  5
2F2
  8
LEIVA_SURVEY_LIMITS
 10
669342.57016458421
 20
627510.4145669227
 30
0.0
  0
VERTEX
  5
2F3
  8
LEIVA_SURVEY_LIMITS
 10
669430.14954013401
 20
627477.8129969337
 30
0.0
  0
VERTEX
  5
2F4
  8
LEIVA_SURVEY_LIMITS
 10
669540.56160667608
 20
627440.23322700034
 30
0.0
  0
VERTEX
  5
2F5
  8
LEIVA_SURVEY_LIMITS
 10
669626.96992015722
 20
627383.54681383434
 30
0.0
  0
VERTEX
  5
2F6
  8
LEIVA_SURVEY_LIMITS
 10
669761.67462329939
 20
627292.83436199836
 30
0.0
  0
VERTEX
  5
2F7
  8
LEIVA_SURVEY_LIMITS
 10
669864.57884486648
 20
627231.14440822625
 30
0.0
  0
VERTEX
  5
2F8
  8
LEIVA_SURVEY_LIMITS
 10
669940.85844196181
 20
627171.88273683935
 30
0.0
  0
VERTEX
  5
2F9
  8
LEIVA_SURVEY_LIMITS
 10
670038.63748774887
 20
627124.11343293311
 30
0.0
  0
VERTEX
  5
2FA
  8
LEIVA_SURVEY_LIMITS
 10
670150.35238779825
 20
627077.66723506281
 30
0.0
  0
VERTEX
  5
2FB
  8
LEIVA_SURVEY_LIMITS
 10
670297.58368091821
 20
627023.75880540744
 30
0.0
  0
VERTEX
  5
2FC
  8
LEIVA_SURVEY_LIMITS
 10
670361.08328142273
 20
626991.06094090571
 30
0.0
  0
VERTEX
  5
2FD
  8
LEIVA_SURVEY_LIMITS
 10
670432.35933791194
 20
626915.30336143309
 30
0.0
  0
VERTEX
  5
2FE
  8
LEIVA_SURVEY_LIMITS
 10
670445.57493591448
 20
626899.69764950965
 30
0.0
  0
SEQEND
  5
2FF
  8
LEIVA_SURVEY_LIMITS
  0
POLYLINE
  5
70
  8
LEIVA_SURVEY_LIMITS
 66
     1
 10
0.0
 20
0.0
 30
0.0
  0
VERTEX
  5
300
  8
LEIVA_SURVEY_LIMITS
 10
672635.56351597456
 20
625855.44709229446
 30
0.0
  0
VERTEX
  5
301
  8
LEIVA_SURVEY_LIMITS
 10
672635.97588360286
 20
625854.75379084225
 30
0.0
  0
VERTEX
  5
302
  8
LEIVA_SURVEY_LIMITS
 10
670733.55862225173
 20
624686.54007548036
 30
0.0
  0
VERTEX
  5
303
  8
LEIVA_SURVEY_LIMITS
 10
671094.32026269636
 20
624123.23128084606
 30
0.0
  0
VERTEX
  5
304
  8
LEIVA_SURVEY_LIMITS
 10
671043.84019738878
 20
623951.12795245636
 30
0.0
  0
VERTEX
  5
305
  8
LEIVA_SURVEY_LIMITS
 10
670910.70628192555
 20
623726.5713927683
 30
0.0
  0
VERTEX
  5
306
  8
LEIVA_SURVEY_LIMITS
 10
670844.81119401322
 20
623601.55682756309
 30
0.0
  0
VERTEX
  5
307
  8
LEIVA_SURVEY_LIMITS
 10
670703.57637577713
 20
623543.84752935695
 30
0.0
  0
VERTEX
  5
308
  8
LEIVA_SURVEY_LIMITS
 10
670683.48575723311
 20
623438.06590007409
 30
0.0
  0
VERTEX
  5
309
  8
LEIVA_SURVEY_LIMITS
 10
670670.98900356714
 20
623350.1384989447
 30
0.0
  0
VERTEX
  5
30A
  8
LEIVA_SURVEY_LIMITS
 10
670652.18617565196
 20
623239.26515296753
 30
0.0
  0
VERTEX
  5
30B
  8
LEIVA_SURVEY_LIMITS
 10
670626.91991690011
 20
623162.76701409835
 30
0.0
  0
VERTEX
  5
30C
  8
LEIVA_SURVEY_LIMITS
 10
670587.61034968612
 20
623097.69464067719
 30
0.0
  0
VERTEX
  5
30D
  8
LEIVA_SURVEY_LIMITS
 10
670513.97453074669
 20
623008.32558914367
 30
0.0
  0
VERTEX
  5
30E
  8
LEIVA_SURVEY_LIMITS
 10
670433.95920448448
 20
622922.76046367513
 30
0.0
  0
VERTEX
  5
30F
  8
LEIVA_SURVEY_LIMITS
 10
670361.57620804361
 20
622841.03772921558
 30
0.0
  0
VERTEX
  5
310
  8
LEIVA_SURVEY_LIMITS
 10
670286.58965584007
 20
622779.68885515828
 30
0.0
  0
VERTEX
  5
311
  8
LEIVA_SURVEY_LIMITS
 10
670224.34813103057
 20
622715.82734247856
 30
0.0
  0
VERTEX
  5
312
  8
LEIVA_SURVEY_LIMITS
 10
670177.34329135972
 20
622669.84103883035
 30
0.0
  0
VERTEX
  5
313
  8
LEIVA_SURVEY_LIMITS
 10
670102.40569453896
 20
622590.65891749808
 30
0.0
  0
VERTEX
  5
314
  8
LEIVA_SURVEY_LIMITS
 10
670038.91134723113
 20
622519.15108774439
 30
0.0
  0
VERTEX
  5
315
  8
LEIVA_SURVEY_LIMITS
 10
669979.30135268904
 20
622424.72528764745
 30
0.0
  0
VERTEX
  5
316
  8
LEIVA_SURVEY_LIMITS
 10
669947.6485929878
 20
622354.57868159725
 30
0.0
  0
VERTEX
  5
317
  8
LEIVA_SURVEY_LIMITS
 10
669941.45791357046
 20
622289.5972253154
 30
0.0
  0
VERTEX
  5
318
  8
LEIVA_SURVEY_LIMITS
 10
669978.58354259015
 20
622222.18705392419
 30
0.0
  0
VERTEX
  5
319
  8
LEIVA_SURVEY_LIMITS
 10
669959.67930709594
 20
622148.25400587427
 30
0.0
  0
VERTEX
  5
31A
  8
LEIVA_SURVEY_LIMITS
 10
669890.91490562772
 20
622140.42235770775
 30
0.0
  0
VERTEX
  5
31B
  8
LEIVA_SURVEY_LIMITS
 10
669837.50608094223
 20
622107.15660376218
 30
0.0
  0
VERTEX
  5
31C
  8
LEIVA_SURVEY_LIMITS
 10
669801.9374971576
 20
622071.39219844597
 30
0.0
  0
VERTEX
  5
31D
  8
LEIVA_SURVEY_LIMITS
 10
669768.89204243536
 20
622044.55141039356
 30
0.0
  0
VERTEX
  5
31E
  8
LEIVA_SURVEY_LIMITS
 10
669714.17094942951
 20
622025.29399677995
 30
0.0
  0
VERTEX
  5
31F
  8
LEIVA_SURVEY_LIMITS
 10
669665.71047210204
 20
622045.54197191214
 30
0.0
  0
VERTEX
  5
320
  8
LEIVA_SURVEY_LIMITS
 10
669644.174706341
 20
622002.17321127909
 30
0.0
  0
VERTEX
  5
321
  8
LEIVA_SURVEY_LIMITS
 10
669649.41678599711
 20
621948.68745670596
 30
0.0
  0
VERTEX
  5
322
  8
LEIVA_SURVEY_LIMITS
 10
669622.72636090661
 20
621926.95936622587
 30
0.0
  0
VERTEX
  5
323
  8
LEIVA_SURVEY_LIMITS
 10
669557.74490462465
 20
621933.15004564356
 30
0.0
  0
VERTEX
  5
324
  8
LEIVA_SURVEY_LIMITS
 10
669485.25700379198
 20
621889.64141248772
 30
0.0
  0
VERTEX
  5
325
  8
LEIVA_SURVEY_LIMITS
 10
669420.44689135044
 20
621833.41572644224
 30
0.0
  0
VERTEX
  5
326
  8
LEIVA_SURVEY_LIMITS
 10
669384.88530119229
 20
621795.1037143725
 30
0.0
  0
VERTEX
  5
327
  8
LEIVA_SURVEY_LIMITS
 10
669354.47487355035
 20
621736.42483552615
 30
0.0
  0
VERTEX
  5
328
  8
LEIVA_SURVEY_LIMITS
 10
669304.98536976136
 20
621667.50307747
 30
0.0
  0
VERTEX
  5
329
  8
LEIVA_SURVEY_LIMITS
 10
669256.66826176946
 20
621635.52511415363
 30
0.0
  0
VERTEX
  5
32A
  8
LEIVA_SURVEY_LIMITS
 10
669191.83367163665
 20
621588.21605174569
 30
0.0
  0
VERTEX
  5
32B
  8
LEIVA_SURVEY_LIMITS
 10
669140.97245370515
 20
621554.95729142625
 30
0.0
  0
VERTEX
  5
32C
  8
LEIVA_SURVEY_LIMITS
 10
669088.85841327452
 20
621514.05221403297
 30
0.0
  0
VERTEX
  5
32D
  8
LEIVA_SURVEY_LIMITS
 10
669044.42915486172
 20
621457.88247699686
 30
0.0
  0
VERTEX
  5
32E
  8
LEIVA_SURVEY_LIMITS
 10
669013.98725590215
 20
621410.66782854195
 30
0.0
  0
VERTEX
  5
32F
  8
LEIVA_SURVEY_LIMITS
 10
668960.60640572105
 20
621367.21164758236
 30
0.0
  0
VERTEX
  5
330
  8
LEIVA_SURVEY_LIMITS
 10
668893.23120246094
 20
621317.34798479453
 30
0.0
  0
VERTEX
  5
331
  8
LEIVA_SURVEY_LIMITS
 10
668856.40629936499
 20
621275.2110657813
 30
0.0
  0
VERTEX
  5
332
  8
LEIVA_SURVEY_LIMITS
 10
668818.42298772361
 20
621191.03513852123
 30
0.0
  0
VERTEX
  5
333
  8
LEIVA_SURVEY_LIMITS
 10
668817.65450334235
 20
621189.99468577281
 30
0.0
  0
SEQEND
  5
334
  8
LEIVA_SURVEY_LIMITS
  0
POLYLINE
  5
71
  8
LEIVA_SURVEY_LIMITS
 66
     1
 10
0.0
 20
0.0
 30
0.0
  0
VERTEX
  5
335
  8
LEIVA_SURVEY_LIMITS
 10
672432.71158180549
 20
626196.49602703645
 30
0.0
  0
VERTEX
  5
336
  8
LEIVA_SURVEY_LIMITS
 10
673036.76014720288
 20
626188.04106751713
 30
0.0
  0
VERTEX
  5
337
  8
LEIVA_SURVEY_LIMITS
 10
673048.81774776336
 20
626101.24250966287
 30
0.0
  0
VERTEX
  5
338
  8
LEIVA_SURVEY_LIMITS
 10
672997.91560540837
 20
626062.28550324379
 30
0.0
  0
VERTEX
  5
339
  8
LEIVA_SURVEY_LIMITS
 10
672899.07220182498
 20
626026.28161841806
 30
0.0
  0
VERTEX
  5
33A
  8
LEIVA_SURVEY_LIMITS
 10
672650.52090645186
 20
625870.41578044766
 30
0.0
  0
VERTEX
  5
33B
  8
LEIVA_SURVEY_LIMITS
 10
672632.55899119971
 20
625852.4402981305
 30
0.0
  0
VERTEX
  5
33C
  8
LEIVA_SURVEY_LIMITS
 10
672632.16945239215
 20
625852.41638293606
 30
0.0
  0
SEQEND
  5
33D
  8
LEIVA_SURVEY_LIMITS
  0
POLYLINE
  5
72
  8
LEIVA_SURVEY_LIMITS
 66
     1
 10
0.0
 20
0.0
 30
0.0
  0
VERTEX
  5
33E
  8
LEIVA_SURVEY_LIMITS
 10
656213.92766013904
 20
619468.84671441
 30
0.0
  0
VERTEX
  5
33F
  8
LEIVA_SURVEY_LIMITS
 10
656213.92674409458
 20
619469.93671334535
 30
0.0
  0
VERTEX
  5
340
  8
LEIVA_SURVEY_LIMITS
 10
658681.28801903641
 20
619472.01030500256
 30
0.0
  0
SEQEND
  5
341
  8
LEIVA_SURVEY_LIMITS
  0
POLYLINE
  5
73
  8
LEIVA_SURVEY_LIMITS
 66
     1
 10
0.0
 20
0.0
 30
0.0
  0
VERTEX
  5
342
  8
LEIVA_SURVEY_LIMITS
 10
651001.65710778348
 20
619464.46627736464
 30
0.0
  0
VERTEX
  5
343
  8
LEIVA_SURVEY_LIMITS
 10
656213.92766013904
 20
619468.84671441
 30
0.0
  0
SEQEND
  5
344
  8
LEIVA_SURVEY_LIMITS
  0
POLYLINE
  5
74
  8
LEIVA_SURVEY_LIMITS
 66
     1
 10
0.0
 20
0.0
 30
0.0
  0
VERTEX
  5
345
  8
LEIVA_SURVEY_LIMITS
 10
658681.286855157
 20
619473.39520229632
 30
0.0
  0
VERTEX
  5
346
  8
LEIVA_SURVEY_LIMITS
 10
658681.28801903641
 20
619472.01030500256
 30
0.0
  0
SEQEND
  5
347
  8
LEIVA_SURVEY_LIMITS
  0
POLYLINE
  5
75
  8
LEIVA_SURVEY_LIMITS
 66
     1
 10
0.0
 20
0.0
 30
0.0
  0
VERTEX
  5
348
  8
LEIVA_SURVEY_LIMITS
 10
652847.00680495915
 20
621730.13744453597
 30
0.0
  0
VERTEX
  5
349
  8
LEIVA_SURVEY_LIMITS
 10
652838.69281405455
 20
621700.80544268037
 30
0.0
  0
VERTEX
  5
34A
  8
LEIVA_SURVEY_LIMITS
 10
652848.89269629912
 20
621656.60840868577
 30
0.0
  0
VERTEX
  5
34B
  8
LEIVA_SURVEY_LIMITS
 10
652848.97758955881
 20
621616.18028771761
 30
0.0
  0
VERTEX
  5
34C
  8
LEIVA_SURVEY_LIMITS
 10
652849.04125950346
 20
621585.85919699119
 30
0.0
  0
VERTEX
  5
34D
  8
LEIVA_SURVEY_LIMITS
 10
652866.81345568702
 20
621545.46821682365
 30
0.0
  0
VERTEX
  5
34E
  8
LEIVA_SURVEY_LIMITS
 10
652932.53568140476
 20
621532.97238056827
 30
0.0
  0
VERTEX
  5
34F
  8
LEIVA_SURVEY_LIMITS
 10
653007.14931104227
 20
621497.75429666846
 30
0.0
  0
VERTEX
  5
350
  8
LEIVA_SURVEY_LIMITS
 10
652830.854617137
 20
621221.96631455934
 30
0.0
  0
VERTEX
  5
351
  8
LEIVA_SURVEY_LIMITS
 10
652803.00191985525
 20
621249.70228360919
 30
0.0
  0
VERTEX
  5
352
  8
LEIVA_SURVEY_LIMITS
 10
652748.78540179261
 20
621197.78967830073
 30
0.0
  0
VERTEX
  5
353
  8
LEIVA_SURVEY_LIMITS
 10
652573.04310561751
 20
621260.5898622172
 30
0.0
  0
VERTEX
  5
354
  8
LEIVA_SURVEY_LIMITS
 10
652477.17222860747
 20
621190.90240781102
 30
0.0
  0
VERTEX
  5
355
  8
LEIVA_SURVEY_LIMITS
 10
652438.11360299413
 20
621140.28501625499
 30
0.0
  0
VERTEX
  5
356
  8
LEIVA_SURVEY_LIMITS
 10
652384.05095396517
 20
621015.09644169104
 30
0.0
  0
VERTEX
  5
357
  8
LEIVA_SURVEY_LIMITS
 10
652364.04116788681
 20
620917.77382898098
 30
0.0
  0
VERTEX
  5
358
  8
LEIVA_SURVEY_LIMITS
 10
652325.08070010471
 20
620820.4114225551
 30
0.0
  0
VERTEX
  5
359
  8
LEIVA_SURVEY_LIMITS
 10
652284.85154771362
 20
620725.57312077587
 30
0.0
  0
VERTEX
  5
35A
  8
LEIVA_SURVEY_LIMITS
 10
652214.25885796663
 20
620650.88520953571
 30
0.0
  0
VERTEX
  5
35B
  8
LEIVA_SURVEY_LIMITS
 10
652152.44880265067
 20
620605.27358064195
 30
0.0
  0
VERTEX
  5
35C
  8
LEIVA_SURVEY_LIMITS
 10
652108.29686820053
 20
620573.59625913284
 30
0.0
  0
VERTEX
  5
35D
  8
LEIVA_SURVEY_LIMITS
 10
652062.86829039815
 20
620548.23317861021
 30
0.0
  0
VERTEX
  5
35E
  8
LEIVA_SURVEY_LIMITS
 10
651950.56287758786
 20
620483.56475143856
 30
0.0
  0
VERTEX
  5
35F
  8
LEIVA_SURVEY_LIMITS
 10
651848.32735421753
 20
620436.60485050501
 30
0.0
  0
VERTEX
  5
360
  8
LEIVA_SURVEY_LIMITS
 10
651773.91534607159
 20
620375.80614710494
 30
0.0
  0
VERTEX
  5
361
  8
LEIVA_SURVEY_LIMITS
 10
651641.52055975166
 20
620251.71647063026
 30
0.0
  0
VERTEX
  5
362
  8
LEIVA_SURVEY_LIMITS
 10
651578.51875434327
 20
620171.99096175574
 30
0.0
  0
VERTEX
  5
363
  8
LEIVA_SURVEY_LIMITS
 10
651520.52005868335
 20
620116.2802613629
 30
0.0
  0
VERTEX
  5
364
  8
LEIVA_SURVEY_LIMITS
 10
651459.99991129164
 20
620058.03749758145
 30
0.0
  0
VERTEX
  5
365
  8
LEIVA_SURVEY_LIMITS
 10
651402.04100934684
 20
619983.37611548509
 30
0.0
  0
VERTEX
  5
366
  8
LEIVA_SURVEY_LIMITS
 10
651322.61793270975
 20
619902.35273994296
 30
0.0
  0
VERTEX
  5
367
  8
LEIVA_SURVEY_LIMITS
 10
651262.10839697509
 20
619839.0564610404
 30
0.0
  0
VERTEX
  5
368
  8
LEIVA_SURVEY_LIMITS
 10
651186.47280376428
 20
619759.30442302173
 30
0.0
  0
VERTEX
  5
369
  8
LEIVA_SURVEY_LIMITS
 10
651114.64326438052
 20
619671.98007106455
 30
0.0
  0
VERTEX
  5
36A
  8
LEIVA_SURVEY_LIMITS
 10
651064.23810597381
 20
619609.9683942569
 30
0.0
  0
VERTEX
  5
36B
  8
LEIVA_SURVEY_LIMITS
 10
651035.29977517435
 20
619553.05533211492
 30
0.0
  0
VERTEX
  5
36C
  8
LEIVA_SURVEY_LIMITS
 10
651001.65710778348
 20
619464.46627736464
 30
0.0
  0
SEQEND
  5
36D
  8
LEIVA_SURVEY_LIMITS
  0
POLYLINE
  5
76
  8
LEIVA_SURVEY_LIMITS
 66
     1
 10
0.0
 20
0.0
 30
0.0
  0
VERTEX
  5
36E
  8
LEIVA_SURVEY_LIMITS
 10
654199.58723451057
 20
628213.67849569931
 30
0.0
  0
VERTEX
  5
36F
  8
LEIVA_SURVEY_LIMITS
 10
654166.96411227551
 20
628173.26914111013
 30
0.0
  0
VERTEX
  5
370
  8
LEIVA_SURVEY_LIMITS
 10
654147.80685549905
 20
628149.05643630715
 30
0.0
  0
VERTEX
  5
371
  8
LEIVA_SURVEY_LIMITS
 10
654114.6090165975
 20
628114.6552817265
 30
0.0
  0
VERTEX
  5
372
  8
LEIVA_SURVEY_LIMITS
 10
654087.76926459104
 20
628062.39134568837
 30
0.0
  0
VERTEX
  5
373
  8
LEIVA_SURVEY_LIMITS
 10
654062.21038198669
 20
628015.22775720165
 30
0.0
  0
VERTEX
  5
374
  8
LEIVA_SURVEY_LIMITS
 10
654039.20915641182
 20
627974.43858270952
 30
0.0
  0
VERTEX
  5
375
  8
LEIVA_SURVEY_LIMITS
 10
654008.55536862311
 20
627933.65757176746
 30
0.0
  0
VERTEX
  5
376
  8
LEIVA_SURVEY_LIMITS
 10
653986.82684890064
 20
627890.31618261256
 30
0.0
  0
VERTEX
  5
377
  8
LEIVA_SURVEY_LIMITS
 10
653940.83120070957
 20
627815.11496880697
 30
0.0
  0
VERTEX
  5
378
  8
LEIVA_SURVEY_LIMITS
 10
653903.75945999345
 20
627736.07794975315
 30
0.0
  0
VERTEX
  5
379
  8
LEIVA_SURVEY_LIMITS
 10
653873.07301800523
 20
627664.68668995472
 30
0.0
  0
VERTEX
  5
37A
  8
LEIVA_SURVEY_LIMITS
 10
653824.48569799308
 20
627551.22538626217
 30
0.0
  0
VERTEX
  5
37B
  8
LEIVA_SURVEY_LIMITS
 10
653806.54944458685
 20
627475.99423944042
 30
0.0
  0
VERTEX
  5
37C
  8
LEIVA_SURVEY_LIMITS
 10
653789.85188224155
 20
627366.32520206389
 30
0.0
  0
VERTEX
  5
37D
  8
LEIVA_SURVEY_LIMITS
 10
653761.64282237599
 20
627226.05816115602
 30
0.0
  0
VERTEX
  5
37E
  8
LEIVA_SURVEY_LIMITS
 10
653746.25470185769
 20
627148.27343907999
 30
0.0
  0
VERTEX
  5
37F
  8
LEIVA_SURVEY_LIMITS
 10
653705.33627115993
 20
627050.10909626575
 30
0.0
  0
VERTEX
  5
380
  8
LEIVA_SURVEY_LIMITS
 10
653641.43566316995
 20
626929.0115574589
 30
0.0
  0
VERTEX
  5
381
  8
LEIVA_SURVEY_LIMITS
 10
653589.06287980056
 20
626853.81714661175
 30
0.0
  0
VERTEX
  5
382
  8
LEIVA_SURVEY_LIMITS
 10
653535.40514525375
 20
626769.69610710605
 30
0.0
  0
VERTEX
  5
383
  8
LEIVA_SURVEY_LIMITS
 10
653479.19519604405
 20
626684.30236174841
 30
0.0
  0
VERTEX
  5
384
  8
LEIVA_SURVEY_LIMITS
 10
653430.66638147237
 20
626625.68442058982
 30
0.0
  0
VERTEX
  5
385
  8
LEIVA_SURVEY_LIMITS
 10
653385.96248741681
 20
626565.78697062074
 30
0.0
  0
VERTEX
  5
386
  8
LEIVA_SURVEY_LIMITS
 10
653327.19352058566
 20
626472.74338423205
 30
0.0
  0
VERTEX
  5
387
  8
LEIVA_SURVEY_LIMITS
 10
653281.20603594475
 20
626405.19473264064
 30
0.0
  0
VERTEX
  5
388
  8
LEIVA_SURVEY_LIMITS
 10
653210.97047111741
 20
626323.64223489817
 30
0.0
  0
VERTEX
  5
389
  8
LEIVA_SURVEY_LIMITS
 10
653144.56118739734
 20
626242.08565538062
 30
0.0
  0
VERTEX
  5
38A
  8
LEIVA_SURVEY_LIMITS
 10
653097.31052104512
 20
626186.01720770169
 30
0.0
  0
VERTEX
  5
38B
  8
LEIVA_SURVEY_LIMITS
 10
653032.18074613553
 20
626108.28554869955
 30
0.0
  0
VERTEX
  5
38C
  8
LEIVA_SURVEY_LIMITS
 10
652973.42810640438
 20
626030.54708673898
 30
0.0
  0
VERTEX
  5
38D
  8
LEIVA_SURVEY_LIMITS
 10
652923.59393178136
 20
625943.87111138739
 30
0.0
  0
VERTEX
  5
38E
  8
LEIVA_SURVEY_LIMITS
 10
652871.21842722851
 20
625866.12584646873
 30
0.0
  0
VERTEX
  5
38F
  8
LEIVA_SURVEY_LIMITS
 10
652835.44388301391
 20
625807.49429939361
 30
0.0
  0
VERTEX
  5
390
  8
LEIVA_SURVEY_LIMITS
 10
652784.30026656436
 20
625688.93400874198
 30
0.0
  0
VERTEX
  5
391
  8
LEIVA_SURVEY_LIMITS
 10
652757.43466331647
 20
625612.43695902603
 30
0.0
  0
VERTEX
  5
392
  8
LEIVA_SURVEY_LIMITS
 10
652729.29907539976
 20
625541.04297804437
 30
0.0
  0
VERTEX
  5
393
  8
LEIVA_SURVEY_LIMITS
 10
652687.07664524147
 20
625416.09602807276
 30
0.0
  0
VERTEX
  5
394
  8
LEIVA_SURVEY_LIMITS
 10
652661.48102666275
 20
625334.49590962275
 30
0.0
  0
VERTEX
  5
395
  8
LEIVA_SURVEY_LIMITS
 10
652640.99119800155
 20
625256.71662991284
 30
0.0
  0
VERTEX
  5
396
  8
LEIVA_SURVEY_LIMITS
 10
652620.4877634244
 20
625166.18307984655
 30
0.0
  0
VERTEX
  5
397
  8
LEIVA_SURVEY_LIMITS
 10
652585.92741962185
 20
625050.15595557471
 30
0.0
  0
VERTEX
  5
398
  8
LEIVA_SURVEY_LIMITS
 10
652556.48647165298
 20
624950.70394039969
 30
0.0
  0
VERTEX
  5
399
  8
LEIVA_SURVEY_LIMITS
 10
652535.9952824004
 20
624871.64923365437
 30
0.0
  0
VERTEX
  5
39A
  8
LEIVA_SURVEY_LIMITS
 10
652509.12423678581
 20
624790.05047579575
 30
0.0
  0
VERTEX
  5
39B
  8
LEIVA_SURVEY_LIMITS
 10
652475.85156534379
 20
624685.50083425362
 30
0.0
  0
VERTEX
  5
39C
  8
LEIVA_SURVEY_LIMITS
 10
652423.45973369107
 20
624592.45044490648
 30
0.0
  0
VERTEX
  5
39D
  8
LEIVA_SURVEY_LIMITS
 10
652401.7407381105
 20
624558.03704500152
 30
0.0
  0
VERTEX
  5
39E
  8
LEIVA_SURVEY_LIMITS
 10
652377.48585496633
 20
624537.65606367169
 30
0.0
  0
VERTEX
  5
39F
  8
LEIVA_SURVEY_LIMITS
 10
652327.69385868416
 20
624490.51832642592
 30
0.0
  0
VERTEX
  5
3A0
  8
LEIVA_SURVEY_LIMITS
 10
652267.66851310059
 20
624415.3320791286
 30
0.0
  0
VERTEX
  5
3A1
  8
LEIVA_SURVEY_LIMITS
 10
652208.93356106081
 20
624354.17416863167
 30
0.0
  0
VERTEX
  5
3A2
  8
LEIVA_SURVEY_LIMITS
 10
652180.80749728566
 20
624291.70817689993
 30
0.0
  0
VERTEX
  5
3A3
  8
LEIVA_SURVEY_LIMITS
 10
652159.06401105504
 20
624234.33709035278
 30
0.0
  0
VERTEX
  5
3A4
  8
LEIVA_SURVEY_LIMITS
 10
652122.00859743834
 20
624170.60519572685
 30
0.0
  0
VERTEX
  5
3A5
  8
LEIVA_SURVEY_LIMITS
 10
652077.29790042434
 20
624104.33061057911
 30
0.0
  0
VERTEX
  5
3A6
  8
LEIVA_SURVEY_LIMITS
 10
652040.25745331554
 20
624054.62841334543
 30
0.0
  0
VERTEX
  5
3A7
  8
LEIVA_SURVEY_LIMITS
 10
652009.58189606073
 20
623993.4405698328
 30
0.0
  0
VERTEX
  5
3A8
  8
LEIVA_SURVEY_LIMITS
 10
651990.38382153481
 20
623930.96505395952
 30
0.0
  0
VERTEX
  5
3A9
  8
LEIVA_SURVEY_LIMITS
 10
651971.21295884228
 20
623893.99807879957
 30
0.0
  0
VERTEX
  5
3AA
  8
LEIVA_SURVEY_LIMITS
 10
651968.59815696371
 20
623834.05572930642
 30
0.0
  0
VERTEX
  5
3AB
  8
LEIVA_SURVEY_LIMITS
 10
651983.88151192537
 20
623813.63256963575
 30
0.0
  0
VERTEX
  5
3AC
  8
LEIVA_SURVEY_LIMITS
 10
652011.93818552699
 20
623811.05178254819
 30
0.0
  0
VERTEX
  5
3AD
  8
LEIVA_SURVEY_LIMITS
 10
652039.99894090334
 20
623812.29727656802
 30
0.0
  0
VERTEX
  5
3AE
  8
LEIVA_SURVEY_LIMITS
 10
652057.84811644454
 20
623805.90109310648
 30
0.0
  0
VERTEX
  5
3AF
  8
LEIVA_SURVEY_LIMITS
 10
652055.25916580728
 20
623770.19185729069
 30
0.0
  0
VERTEX
  5
3B0
  8
LEIVA_SURVEY_LIMITS
 10
652059.04871093994
 20
623735.75124555279
 30
0.0
  0
VERTEX
  5
3B1
  8
LEIVA_SURVEY_LIMITS
 10
652070.4962606529
 20
623706.40417840751
 30
0.0
  0
VERTEX
  5
3B2
  8
LEIVA_SURVEY_LIMITS
 10
652118.93663676735
 20
623682.11936224706
 30
0.0
  0
VERTEX
  5
3B3
  8
LEIVA_SURVEY_LIMITS
 10
652148.25649207993
 20
623668.05837124714
 30
0.0
  0
VERTEX
  5
3B4
  8
LEIVA_SURVEY_LIMITS
 10
652180.11495613889
 20
623642.51581574231
 30
0.0
  0
VERTEX
  5
3B5
  8
LEIVA_SURVEY_LIMITS
 10
652206.87035146356
 20
623615.70327556878
 30
0.0
  0
VERTEX
  5
3B6
  8
LEIVA_SURVEY_LIMITS
 10
652229.81307159748
 20
623601.64908752684
 30
0.0
  0
VERTEX
  5
3B7
  8
LEIVA_SURVEY_LIMITS
 10
652239.95254007564
 20
623541.69313211716
 30
0.0
  0
VERTEX
  5
3B8
  8
LEIVA_SURVEY_LIMITS
 10
652225.86433724279
 20
623486.86473609123
 30
0.0
  0
VERTEX
  5
3B9
  8
LEIVA_SURVEY_LIMITS
 10
652191.2999116648
 20
623367.01133071235
 30
0.0
  0
VERTEX
  5
3BA
  8
LEIVA_SURVEY_LIMITS
 10
652239.72804245446
 20
623331.24767123116
 30
0.0
  0
VERTEX
  5
3BB
  8
LEIVA_SURVEY_LIMITS
 10
652271.56881882204
 20
623289.12456426257
 30
0.0
  0
VERTEX
  5
3BC
  8
LEIVA_SURVEY_LIMITS
 10
652297.01477231993
 20
623230.42770878866
 30
0.0
  0
VERTEX
  5
3BD
  8
LEIVA_SURVEY_LIMITS
 10
652327.51889502793
 20
623130.91174580704
 30
0.0
  0
VERTEX
  5
3BE
  8
LEIVA_SURVEY_LIMITS
 10
652366.98230059328
 20
623060.72108050412
 30
0.0
  0
VERTEX
  5
3BF
  8
LEIVA_SURVEY_LIMITS
 10
652387.33607009007
 20
623010.95765664661
 30
0.0
  0
VERTEX
  5
3C0
  8
LEIVA_SURVEY_LIMITS
 10
652402.53778955352
 20
622914.00887483545
 30
0.0
  0
VERTEX
  5
3C1
  8
LEIVA_SURVEY_LIMITS
 10
652413.92955500912
 20
622832.3692992276
 30
0.0
  0
VERTEX
  5
3C2
  8
LEIVA_SURVEY_LIMITS
 10
652435.53290029999
 20
622758.37140110089
 30
0.0
  0
VERTEX
  5
3C3
  8
LEIVA_SURVEY_LIMITS
 10
652440.54753057775
 20
622676.73862845125
 30
0.0
  0
VERTEX
  5
3C4
  8
LEIVA_SURVEY_LIMITS
 10
652443.05076394172
 20
622632.09596101951
 30
0.0
  0
VERTEX
  5
3C5
  8
LEIVA_SURVEY_LIMITS
 10
652397.0619187085
 20
622563.27188239235
 30
0.0
  0
VERTEX
  5
3C6
  8
LEIVA_SURVEY_LIMITS
 10
652426.36136514635
 20
622530.07948585693
 30
0.0
  0
VERTEX
  5
3C7
  8
LEIVA_SURVEY_LIMITS
 10
652474.81262599386
 20
622515.99808598193
 30
0.0
  0
VERTEX
  5
3C8
  8
LEIVA_SURVEY_LIMITS
 10
652530.93685792992
 20
622521.03992809239
 30
0.0
  0
VERTEX
  5
3C9
  8
LEIVA_SURVEY_LIMITS
 10
652574.28641063476
 20
622506.9639705841
 30
0.0
  0
VERTEX
  5
3CA
  8
LEIVA_SURVEY_LIMITS
 10
652575.53462583746
 20
622481.4540692789
 30
0.0
  0
VERTEX
  5
3CB
  8
LEIVA_SURVEY_LIMITS
 10
652555.09649965912
 20
622452.14101692475
 30
0.0
  0
VERTEX
  5
3CC
  8
LEIVA_SURVEY_LIMITS
 10
652509.15527513344
 20
622427.95688454621
 30
0.0
  0
VERTEX
  5
3CD
  8
LEIVA_SURVEY_LIMITS
 10
652495.07115407533
 20
622376.95476962742
 30
0.0
  0
VERTEX
  5
3CE
  8
LEIVA_SURVEY_LIMITS
 10
652502.70058623166
 20
622355.26434647106
 30
0.0
  0
VERTEX
  5
3CF
  8
LEIVA_SURVEY_LIMITS
 10
652557.54122758214
 20
622352.65498695895
 30
0.0
  0
VERTEX
  5
3D0
  8
LEIVA_SURVEY_LIMITS
 10
652598.35217154049
 20
622350.06059395499
 30
0.0
  0
VERTEX
  5
3D1
  8
LEIVA_SURVEY_LIMITS
 10
652663.40439272649
 20
622355.09291192435
 30
0.0
  0
VERTEX
  5
3D2
  8
LEIVA_SURVEY_LIMITS
 10
652701.66720379656
 20
622355.05209417478
 30
0.0
  0
VERTEX
  5
3D3
  8
LEIVA_SURVEY_LIMITS
 10
652728.43620503775
 20
622340.99382435787
 30
0.0
  0
VERTEX
  5
3D4
  8
LEIVA_SURVEY_LIMITS
 10
652715.63023219875
 20
622292.54120291863
 30
0.0
  0
VERTEX
  5
3D5
  8
LEIVA_SURVEY_LIMITS
 10
652688.78639841685
 20
622236.45098577347
 30
0.0
  0
VERTEX
  5
3D6
  8
LEIVA_SURVEY_LIMITS
 10
652686.20969310438
 20
622212.22059327934
 30
0.0
  0
VERTEX
  5
3D7
  8
LEIVA_SURVEY_LIMITS
 10
652716.78320598626
 20
622177.75140911655
 30
0.0
  0
VERTEX
  5
3D8
  8
LEIVA_SURVEY_LIMITS
 10
652765.26439984993
 20
622191.72940402641
 30
0.0
  0
VERTEX
  5
3D9
  8
LEIVA_SURVEY_LIMITS
 10
652797.16776343284
 20
622208.27594069904
 30
0.0
  0
VERTEX
  5
3DA
  8
LEIVA_SURVEY_LIMITS
 10
652841.83083973965
 20
622229.91057959781
 30
0.0
  0
VERTEX
  5
3DB
  8
LEIVA_SURVEY_LIMITS
 10
652876.23879727814
 20
622203.08987587434
 30
0.0
  0
VERTEX
  5
3DC
  8
LEIVA_SURVEY_LIMITS
 10
652878.7610789251
 20
622176.30318694212
 30
0.0
  0
VERTEX
  5
3DD
  8
LEIVA_SURVEY_LIMITS
 10
652874.88989829388
 20
622134.21817653975
 30
0.0
  0
VERTEX
  5
3DE
  8
LEIVA_SURVEY_LIMITS
 10
652858.25900493935
 20
622087.04506391136
 30
0.0
  0
VERTEX
  5
3DF
  8
LEIVA_SURVEY_LIMITS
 10
652831.43285884918
 20
622047.53539822996
 30
0.0
  0
VERTEX
  5
3E0
  8
LEIVA_SURVEY_LIMITS
 10
652810.96207847132
 20
621987.61209701945
 30
0.0
  0
VERTEX
  5
3E1
  8
LEIVA_SURVEY_LIMITS
 10
652798.15610563196
 20
621939.15947558056
 30
0.0
  0
VERTEX
  5
3E2
  8
LEIVA_SURVEY_LIMITS
 10
652791.69597436325
 20
621861.36522936262
 30
0.0
  0
VERTEX
  5
3E3
  8
LEIVA_SURVEY_LIMITS
 10
652798.03909475077
 20
621829.47275051265
 30
0.0
  0
VERTEX
  5
3E4
  8
LEIVA_SURVEY_LIMITS
 10
652801.96449420846
 20
621821.60096927127
 30
0.0
  0
SEQEND
  5
3E5
  8
LEIVA_SURVEY_LIMITS
  0
POLYLINE
  5
77
  8
LEIVA_SURVEY_LIMITS
 66
     1
 10
0.0
 20
0.0
 30
0.0
  0
VERTEX
  5
3E6
  8
LEIVA_SURVEY_LIMITS
 10
652801.96449420811
 20
621821.6009692715
 30
0.0
  0
VERTEX
  5
3E7
  8
LEIVA_SURVEY_LIMITS
 10
652804.33221303683
 20
621819.49141933734
 30
0.0
  0
VERTEX
  5
3E8
  8
LEIVA_SURVEY_LIMITS
 10
652832.23796860594
 20
621766.48787468229
 30
0.0
  0
VERTEX
  5
3E9
  8
LEIVA_SURVEY_LIMITS
 10
652847.00680495915
 20
621730.13744453597
 30
0.0
  0
SEQEND
  5
3EA
  8
LEIVA_SURVEY_LIMITS
  0
POLYLINE
  5
78
  8
LEIVA_HERRERA
 66
     1
 10
0.0
 20
0.0
 30
0.0
 70
     1
  0
VERTEX
  5
3EB
  8
LEIVA_HERRERA
 10
663787.97960172791
 20
629930.44698507641
 30
0.0
  0
VERTEX
  5
3EC
  8
LEIVA_HERRERA
 10
663887.38674703694
 20
629977.47211014829
 30
0.0
  0
VERTEX
  5
3ED
  8
LEIVA_HERRERA
 10
663884.86760348547
 20
630004.22477826034
 30
0.0
  0
VERTEX
  5
3EE
  8
LEIVA_HERRERA
 10
663869.6063180482
 20
630027.16958179721
 30
0.0
  0
VERTEX
  5
3EF
  8
LEIVA_HERRERA
 10
663858.15696452244
 20
630041.19366581296
 30
0.0
  0
VERTEX
  5
3F0
  8
LEIVA_HERRERA
 10
663826.31855704356
 20
630047.59659756231
 30
0.0
  0
VERTEX
  5
3F1
  8
LEIVA_HERRERA
 10
663774.07618204283
 20
630032.36649504164
 30
0.0
  0
VERTEX
  5
3F2
  8
LEIVA_HERRERA
 10
663754.92161795334
 20
629987.80357080325
 30
0.0
  0
VERTEX
  5
3F3
  8
LEIVA_HERRERA
 10
663773.99212374503
 20
629953.39043283463
 30
0.0
  0
SEQEND
  5
3F4
  8
LEIVA_HERRERA
  0
POLYLINE
  5
79
  8
LEIVA_HERRERA
 66
     1
 10
0.0
 20
0.0
 30
0.0
 70
     1
  0
VERTEX
  5
3F5
  8
LEIVA_HERRERA
 10
663883.56803622947
 20
629980.02379239502
 30
0.0
  0
VERTEX
  5
3F6
  8
LEIVA_HERRERA
 10
663790.52721663751
 20
629930.4442735184
 30
0.0
  0
VERTEX
  5
3F7
  8
LEIVA_HERRERA
 10
663789.19511068577
 20
629875.67190873437
 30
0.0
  0
VERTEX
  5
3F8
  8
LEIVA_HERRERA
 10
663846.4839074628
 20
629845.03951976076
 30
0.0
  0
VERTEX
  5
3F9
  8
LEIVA_HERRERA
 10
663875.79910405376
 20
629861.56783375866
 30
0.0
  0
VERTEX
  5
3FA
  8
LEIVA_HERRERA
 10
663896.22747559787
 20
629906.12940221792
 30
0.0
  0
VERTEX
  5
3FB
  8
LEIVA_HERRERA
 10
663889.91402526165
 20
629958.36228676583
 30
0.0
  0
SEQEND
  5
3FC
  8
LEIVA_HERRERA
  0
POLYLINE
  5
7A
  8
LEIVA_HERRERA
 66
     1
 10
0.0
 20
0.0
 30
0.0
 70
     1
  0
VERTEX
  5
3FD
  8
LEIVA_HERRERA
 10
666185.03243225929
 20
628493.58685895626
 30
0.0
  0
VERTEX
  5
3FE
  8
LEIVA_HERRERA
 10
666153.18589010648
 20
628492.34694597626
 30
0.0
  0
VERTEX
  5
3FF
  8
LEIVA_HERRERA
 10
666131.51489402459
 20
628477.08430475963
 30
0.0
  0
VERTEX
  5
400
  8
LEIVA_HERRERA
 10
666111.10008027044
 20
628445.26081084972
 30
0.0
  0
VERTEX
  5
401
  8
LEIVA_HERRERA
 10
666112.34541636636
 20
628418.50949851656
 30
0.0
  0
VERTEX
  5
402
  8
LEIVA_HERRERA
 10
666137.80394033855
 20
628401.92288602225
 30
0.0
  0
VERTEX
  5
403
  8
LEIVA_HERRERA
 10
666169.65183827037
 20
628404.43660645769
 30
0.0
  0
VERTEX
  5
404
  8
LEIVA_HERRERA
 10
666202.83455371181
 20
628464.27030658652
 30
0.0
  0
SEQEND
  5
405
  8
LEIVA_HERRERA
  0
POLYLINE
  5
7B
  8
LEIVA_HERRERA
 66
     1
 10
0.0
 20
0.0
 30
0.0
 70
     1
  0
VERTEX
  5
406
  8
LEIVA_HERRERA
 10
663869.15177884768
 20
626154.88891643891
 30
0.0
  0
VERTEX
  5
407
  8
LEIVA_HERRERA
 10
663824.00460306741
 20
626160.97473701998
 30
0.0
  0
VERTEX
  5
408
  8
LEIVA_HERRERA
 10
663790.69806256902
 20
626136.22908824275
 30
0.0
  0
VERTEX
  5
409
  8
LEIVA_HERRERA
 10
663774.29434262775
 20
626092.28889085201
 30
0.0
  0
VERTEX
  5
40A
  8
LEIVA_HERRERA
 10
663799.01961995102
 20
626061.55927876197
 30
0.0
  0
VERTEX
  5
40B
  8
LEIVA_HERRERA
 10
663819.66560439824
 20
626057.85685777885
 30
0.0
  0
VERTEX
  5
40C
  8
LEIVA_HERRERA
 10
663868.36241525877
 20
626091.7439847074
 30
0.0
  0
VERTEX
  5
40D
  8
LEIVA_HERRERA
 10
663868.07721490716
 20
626127.82098242408
 30
0.0
  0
SEQEND
  5
40E
  8
LEIVA_HERRERA
  0
POLYLINE
  5
7C
  8
LEIVA_HERRERA
 66
     1
 10
0.0
 20
0.0
 30
0.0
 70
     1
  0
VERTEX
  5
40F
  8
LEIVA_HERRERA
 10
661196.37946153199
 20
627425.78068151756
 30
0.0
  0
VERTEX
  5
410
  8
LEIVA_HERRERA
 10
661260.11471017555
 20
627506.83219120326
 30
0.0
  0
VERTEX
  5
411
  8
LEIVA_HERRERA
 10
661300.03149821493
 20
627473.04763121158
 30
0.0
  0
VERTEX
  5
412
  8
LEIVA_HERRERA
 10
661334.93249540962
 20
627434.10322396224
 30
0.0
  0
VERTEX
  5
413
  8
LEIVA_HERRERA
 10
661384.13111487275
 20
627373.73366331472
 30
0.0
  0
VERTEX
  5
414
  8
LEIVA_HERRERA
 10
661257.65592066746
 20
627321.05476764007
 30
0.0
  0
VERTEX
  5
415
  8
LEIVA_HERRERA
 10
661208.96149865096
 20
627345.80959493108
 30
0.0
  0
VERTEX
  5
416
  8
LEIVA_HERRERA
 10
661253.06575315795
 20
627375.6948012819
 30
0.0
  0
VERTEX
  5
417
  8
LEIVA_HERRERA
 10
661233.42821311555
 20
627414.85529315134
 30
0.0
  0
SEQEND
  5
418
  8
LEIVA_HERRERA
  0
POLYLINE
  5
7D
  8
LEIVA_HERRERA
 66
     1
 10
0.0
 20
0.0
 30
0.0
 70
     1
  0
VERTEX
  5
419
  8
LEIVA_HERRERA
 10
659645.44398910226
 20
627630.75733839325
 30
0.0
  0
VERTEX
  5
41A
  8
LEIVA_HERRERA
 10
659691.74668177869
 20
627667.92555940687
 30
0.0
  0
VERTEX
  5
41B
  8
LEIVA_HERRERA
 10
659709.78139679413
 20
627698.72036448994
 30
0.0
  0
VERTEX
  5
41C
  8
LEIVA_HERRERA
 10
659736.80474320357
 20
627728.21529579489
 30
0.0
  0
VERTEX
  5
41D
  8
LEIVA_HERRERA
 10
659767.68130722514
 20
627757.70359799662
 30
0.0
  0
VERTEX
  5
41E
  8
LEIVA_HERRERA
 10
659765.1279633909
 20
627766.69885849406
 30
0.0
  0
VERTEX
  5
41F
  8
LEIVA_HERRERA
 10
659743.32178970205
 20
627783.43369973113
 30
0.0
  0
VERTEX
  5
420
  8
LEIVA_HERRERA
 10
659718.93133636424
 20
627791.18211927544
 30
0.0
  0
VERTEX
  5
421
  8
LEIVA_HERRERA
 10
659697.10306566511
 20
627795.0729018054
 30
0.0
  0
VERTEX
  5
422
  8
LEIVA_HERRERA
 10
659657.25112845562
 20
627774.59090860607
 30
0.0
  0
VERTEX
  5
423
  8
LEIVA_HERRERA
 10
659632.82752960245
 20
627763.07324008935
 30
0.0
  0
VERTEX
  5
424
  8
LEIVA_HERRERA
 10
659576.22970265034
 20
627714.36304384749
 30
0.0
  0
VERTEX
  5
425
  8
LEIVA_HERRERA
 10
659608.2691389852
 20
627673.20681345789
 30
0.0
  0
SEQEND
  5
426
  8
LEIVA_HERRERA
  0
POLYLINE
  5
7E
  8
LEIVA_HERRERA
 66
     1
 10
0.0
 20
0.0
 30
0.0
 70
     1
  0
VERTEX
  5
427
  8
LEIVA_HERRERA
 10
659131.33087655611
 20
627648.84647130885
 30
0.0
  0
VERTEX
  5
428
  8
LEIVA_HERRERA
 10
659164.1153179903
 20
627571.83162399754
 30
0.0
  0
VERTEX
  5
429
  8
LEIVA_HERRERA
 10
659129.9228300089
 20
627565.02110013249
 30
0.0
  0
VERTEX
  5
42A
  8
LEIVA_HERRERA
 10
659083.1546841797
 20
627549.15226644266
 30
0.0
  0
VERTEX
  5
42B
  8
LEIVA_HERRERA
 10
659042.61438588821
 20
627542.25605488289
 30
0.0
  0
VERTEX
  5
42C
  8
LEIVA_HERRERA
 10
659009.55435965653
 20
627545.61916505394
 30
0.0
  0
VERTEX
  5
42D
  8
LEIVA_HERRERA
 10
658983.92319286824
 20
627563.05028314237
 30
0.0
  0
VERTEX
  5
42E
  8
LEIVA_HERRERA
 10
658986.01674097707
 20
627596.09317183483
 30
0.0
  0
VERTEX
  5
42F
  8
LEIVA_HERRERA
 10
659004.85452143999
 20
627611.58497966547
 30
0.0
  0
VERTEX
  5
430
  8
LEIVA_HERRERA
 10
659027.43243793282
 20
627632.20644836198
 30
0.0
  0
VERTEX
  5
431
  8
LEIVA_HERRERA
 10
659085.74660509406
 20
627639.34258546855
 30
0.0
  0
SEQEND
  5
432
  8
LEIVA_HERRERA
  0
POLYLINE
  5
7F
  8
LEIVA_HERRERA
 66
     1
 10
0.0
 20
0.0
 30
0.0
 70
     1
  0
VERTEX
  5
433
  8
LEIVA_HERRERA
 10
663488.19978191354
 20
623326.0987841906
 30
0.0
  0
VERTEX
  5
434
  8
LEIVA_HERRERA
 10
663617.59110847523
 20
623421.18542950647
 30
0.0
  0
VERTEX
  5
435
  8
LEIVA_HERRERA
 10
663655.22139929421
 20
623387.98074627656
 30
0.0
  0
VERTEX
  5
436
  8
LEIVA_HERRERA
 10
663549.0937284953
 20
623284.05819461448
 30
0.0
  0
VERTEX
  5
437
  8
LEIVA_HERRERA
 10
663515.42050183075
 20
623305.69725718768
 30
0.0
  0
SEQEND
  5
438
  8
LEIVA_HERRERA
  0
POLYLINE
  5
80
  8
LEIVA_HERRERA
 66
     1
 10
0.0
 20
0.0
 30
0.0
 70
     1
  0
VERTEX
  5
439
  8
LEIVA_HERRERA
 10
663662.62099718791
 20
624244.92148504523
 30
0.0
  0
VERTEX
  5
43A
  8
LEIVA_HERRERA
 10
663763.00916211773
 20
624259.88907798484
 30
0.0
  0
VERTEX
  5
43B
  8
LEIVA_HERRERA
 10
663696.93592464388
 20
624142.10917760956
 30
0.0
  0
VERTEX
  5
43C
  8
LEIVA_HERRERA
 10
663620.57999182912
 20
624031.32736263028
 30
0.0
  0
VERTEX
  5
43D
  8
LEIVA_HERRERA
 10
663533.68802833441
 20
624091.85395054147
 30
0.0
  0
VERTEX
  5
43E
  8
LEIVA_HERRERA
 10
663553.98769806884
 20
624131.9593125002
 30
0.0
  0
VERTEX
  5
43F
  8
LEIVA_HERRERA
 10
663607.76706565823
 20
624174.90643176553
 30
0.0
  0
VERTEX
  5
440
  8
LEIVA_HERRERA
 10
663641.12453479087
 20
624193.20975952176
 30
0.0
  0
SEQEND
  5
441
  8
LEIVA_HERRERA
  0
POLYLINE
  5
81
  8
LEIVA_HERRERA
 66
     1
 10
0.0
 20
0.0
 30
0.0
 70
     1
  0
VERTEX
  5
442
  8
LEIVA_HERRERA
 10
660790.14754879125
 20
623945.66464309907
 30
0.0
  0
VERTEX
  5
443
  8
LEIVA_HERRERA
 10
660752.14637462352
 20
623938.80270661716
 30
0.0
  0
VERTEX
  5
444
  8
LEIVA_HERRERA
 10
660730.71805741952
 20
623927.08530989452
 30
0.0
  0
VERTEX
  5
445
  8
LEIVA_HERRERA
 10
660716.9928002829
 20
623909.12292809575
 30
0.0
  0
VERTEX
  5
446
  8
LEIVA_HERRERA
 10
660707.16191702802
 20
623884.86414860329
 30
0.0
  0
VERTEX
  5
447
  8
LEIVA_HERRERA
 10
660711.24480383936
 20
623864.6025682271
 30
0.0
  0
VERTEX
  5
448
  8
LEIVA_HERRERA
 10
660721.65836342191
 20
623845.69623760809
 30
0.0
  0
VERTEX
  5
449
  8
LEIVA_HERRERA
 10
660745.81431767985
 20
623843.48272672575
 30
0.0
  0
VERTEX
  5
44A
  8
LEIVA_HERRERA
 10
660771.06845860905
 20
623853.98197400372
 30
0.0
  0
VERTEX
  5
44B
  8
LEIVA_HERRERA
 10
660786.11469042476
 20
623868.15280715516
 30
0.0
  0
VERTEX
  5
44C
  8
LEIVA_HERRERA
 10
660797.28368589759
 20
623887.35047593794
 30
0.0
  0
VERTEX
  5
44D
  8
LEIVA_HERRERA
 10
660793.11511139153
 20
623913.95986662456
 30
0.0
  0
SEQEND
  5
44E
  8
LEIVA_HERRERA
  0
POLYLINE
  5
82
  8
LEIVA_HERRERA
 66
     1
 10
0.0
 20
0.0
 30
0.0
 70
     1
  0
VERTEX
  5
44F
  8
LEIVA_HERRERA
 10
658108.32880555699
 20
624778.79203296336
 30
0.0
  0
VERTEX
  5
450
  8
LEIVA_HERRERA
 10
658093.09236276115
 20
624797.78021543031
 30
0.0
  0
VERTEX
  5
451
  8
LEIVA_HERRERA
 10
658082.93846567965
 20
624807.90426092024
 30
0.0
  0
VERTEX
  5
452
  8
LEIVA_HERRERA
 10
658067.73187447526
 20
624806.61450081563
 30
0.0
  0
VERTEX
  5
453
  8
LEIVA_HERRERA
 10
658047.46699197521
 20
624797.71304934868
 30
0.0
  0
VERTEX
  5
454
  8
LEIVA_HERRERA
 10
658033.54642942687
 20
624783.7514408615
 30
0.0
  0
VERTEX
  5
455
  8
LEIVA_HERRERA
 10
658028.51612399821
 20
624757.12917833845
 30
0.0
  0
VERTEX
  5
456
  8
LEIVA_HERRERA
 10
658038.67934970208
 20
624740.66827579495
 30
0.0
  0
VERTEX
  5
457
  8
LEIVA_HERRERA
 10
658048.83884395729
 20
624726.74211607315
 30
0.0
  0
VERTEX
  5
458
  8
LEIVA_HERRERA
 10
658094.47914053896
 20
624716.67031086923
 30
0.0
  0
VERTEX
  5
459
  8
LEIVA_HERRERA
 10
658112.17756290128
 20
624747.11334486888
 30
0.0
  0
SEQEND
  5
45A
  8
LEIVA_HERRERA
  0
POLYLINE
  5
83
  8
LEIVA_HERRERA
 66
     1
 10
0.0
 20
0.0
 30
0.0
 70
     1
  0
VERTEX
  5
45B
  8
LEIVA_HERRERA
 10
658091.78262417135
 20
625687.47494575311
 30
0.0
  0
VERTEX
  5
45C
  8
LEIVA_HERRERA
 10
657957.51774933934
 20
625635.31495111831
 30
0.0
  0
VERTEX
  5
45D
  8
LEIVA_HERRERA
 10
657951.14917496953
 20
625656.850936478
 30
0.0
  0
VERTEX
  5
45E
  8
LEIVA_HERRERA
 10
657948.59764062776
 20
625668.2535477255
 30
0.0
  0
VERTEX
  5
45F
  8
LEIVA_HERRERA
 10
657943.494571944
 20
625691.05877022026
 30
0.0
  0
VERTEX
  5
460
  8
LEIVA_HERRERA
 10
657935.86608906137
 20
625707.52340421267
 30
0.0
  0
VERTEX
  5
461
  8
LEIVA_HERRERA
 10
657943.43113731162
 20
625734.14939818485
 30
0.0
  0
VERTEX
  5
462
  8
LEIVA_HERRERA
 10
657973.82006530173
 20
625753.20474673319
 30
0.0
  0
VERTEX
  5
463
  8
LEIVA_HERRERA
 10
658025.82333907974
 20
625725.39907040144
 30
0.0
  0
SEQEND
  5
464
  8
LEIVA_HERRERA
  0
POLYLINE
  5
84
  8
LEIVA_HERRERA
 66
     1
 10
0.0
 20
0.0
 30
0.0
 70
     1
  0
VERTEX
  5
465
  8
LEIVA_HERRERA
 10
658906.2407072304
 20
622970.42873731744
 30
0.0
  0
VERTEX
  5
466
  8
LEIVA_HERRERA
 10
658886.09908962762
 20
622957.45891607157
 30
0.0
  0
VERTEX
  5
467
  8
LEIVA_HERRERA
 10
658859.16408569878
 20
622977.41202074522
 30
0.0
  0
VERTEX
  5
468
  8
LEIVA_HERRERA
 10
658859.98807174573
 20
623010.43777189869
 30
0.0
  0
VERTEX
  5
469
  8
LEIVA_HERRERA
 10
658873.57622856984
 20
623038.55665019446
 30
0.0
  0
VERTEX
  5
46A
  8
LEIVA_HERRERA
 10
658910.42780344852
 20
623036.51451470261
 30
0.0
  0
VERTEX
  5
46B
  8
LEIVA_HERRERA
 10
658928.57869817677
 20
623008.82407488301
 30
0.0
  0
SEQEND
  5
46C
  8
LEIVA_HERRERA
  0
POLYLINE
  5
85
  8
LEIVA_HERRERA
 66
     1
 10
0.0
 20
0.0
 30
0.0
 70
     1
  0
VERTEX
  5
46D
  8
LEIVA_HERRERA
 10
658977.87436728133
 20
623401.85566624906
 30
0.0
  0
VERTEX
  5
46E
  8
LEIVA_HERRERA
 10
658947.26777747879
 20
623411.60086180863
 30
0.0
  0
VERTEX
  5
46F
  8
LEIVA_HERRERA
 10
658899.19579450972
 20
623398.25401470368
 30
0.0
  0
VERTEX
  5
470
  8
LEIVA_HERRERA
 10
658898.08047029912
 20
623386.81081860582
 30
0.0
  0
VERTEX
  5
471
  8
LEIVA_HERRERA
 10
658901.25368336798
 20
623339.87129738647
 30
0.0
  0
VERTEX
  5
472
  8
LEIVA_HERRERA
 10
658926.83343753906
 20
623326.24886548426
 30
0.0
  0
VERTEX
  5
473
  8
LEIVA_HERRERA
 10
658983.80949248211
 20
623338.44611330016
 30
0.0
  0
VERTEX
  5
474
  8
LEIVA_HERRERA
 10
658988.32220194198
 20
623380.41021150583
 30
0.0
  0
SEQEND
  5
475
  8
LEIVA_HERRERA
  0
POLYLINE
  5
86
  8
LEIVA_HERRERA
 66
     1
 10
0.0
 20
0.0
 30
0.0
 70
     1
  0
VERTEX
  5
476
  8
LEIVA_HERRERA
 10
654747.53187119635
 20
627234.50519262417
 30
0.0
  0
VERTEX
  5
477
  8
LEIVA_HERRERA
 10
654805.90806803352
 20
627241.45776138874
 30
0.0
  0
VERTEX
  5
478
  8
LEIVA_HERRERA
 10
654827.74755098636
 20
627267.8285636683
 30
0.0
  0
VERTEX
  5
479
  8
LEIVA_HERRERA
 10
654838.25293119135
 20
627300.66268076876
 30
0.0
  0
VERTEX
  5
47A
  8
LEIVA_HERRERA
 10
654838.5499662169
 20
627327.27393997367
 30
0.0
  0
VERTEX
  5
47B
  8
LEIVA_HERRERA
 10
654832.48269809585
 20
627351.42151616537
 30
0.0
  0
VERTEX
  5
47C
  8
LEIVA_HERRERA
 10
654803.3087442026
 20
627349.2124346022
 30
0.0
  0
VERTEX
  5
47D
  8
LEIVA_HERRERA
 10
654773.99334505876
 20
627334.33132484648
 30
0.0
  0
VERTEX
  5
47E
  8
LEIVA_HERRERA
 10
654743.28344237059
 20
627308.05953424238
 30
0.0
  0
VERTEX
  5
47F
  8
LEIVA_HERRERA
 10
654703.67483089771
 20
627279.35234967456
 30
0.0
  0
VERTEX
  5
480
  8
LEIVA_HERRERA
 10
654703.33536229702
 20
627248.93948201195
 30
0.0
  0
VERTEX
  5
481
  8
LEIVA_HERRERA
 10
654718.21647205285
 20
627219.62408286845
 30
0.0
  0
SEQEND
  5
482
  8
LEIVA_HERRERA
  0
POLYLINE
  5
87
  8
LEIVA_HERRERA
 66
     1
 10
0.0
 20
0.0
 30
0.0
 70
     1
  0
VERTEX
  5
483
  8
LEIVA_HERRERA
 10
654242.38835588854
 20
624223.0605153034
 30
0.0
  0
VERTEX
  5
484
  8
LEIVA_HERRERA
 10
654230.94283297798
 20
624249.658523408
 30
0.0
  0
VERTEX
  5
485
  8
LEIVA_HERRERA
 10
654206.83665603143
 20
624267.36627439281
 30
0.0
  0
VERTEX
  5
486
  8
LEIVA_HERRERA
 10
654186.55871346011
 20
624267.33642280113
 30
0.0
  0
VERTEX
  5
487
  8
LEIVA_HERRERA
 10
654165.05631114123
 20
624238.15516303852
 30
0.0
  0
VERTEX
  5
488
  8
LEIVA_HERRERA
 10
654162.57567432965
 20
624201.39766067837
 30
0.0
  0
VERTEX
  5
489
  8
LEIVA_HERRERA
 10
654175.27364285535
 20
624184.94048958411
 30
0.0
  0
VERTEX
  5
48A
  8
LEIVA_HERRERA
 10
654204.43437964865
 20
624177.37917278265
 30
0.0
  0
VERTEX
  5
48B
  8
LEIVA_HERRERA
 10
654232.29602771485
 20
624191.3613042396
 30
0.0
  0
SEQEND
  5
48C
  8
LEIVA_HERRERA
  0
POLYLINE
  5
88
  8
LEIVA_HERRERA
 66
     1
 10
0.0
 20
0.0
 30
0.0
 70
     1
  0
VERTEX
  5
48D
  8
LEIVA_HERRERA
 10
653862.27451265114
 20
622324.4791339587
 30
0.0
  0
VERTEX
  5
48E
  8
LEIVA_HERRERA
 10
653881.28074375505
 20
622207.11943780212
 30
0.0
  0
VERTEX
  5
48F
  8
LEIVA_HERRERA
 10
653876.15862673766
 20
622187.99347463355
 30
0.0
  0
VERTEX
  5
490
  8
LEIVA_HERRERA
 10
653853.21862778685
 20
622204.59851674677
 30
0.0
  0
VERTEX
  5
491
  8
LEIVA_HERRERA
 10
653825.17692069337
 20
622221.20900122658
 30
0.0
  0
VERTEX
  5
492
  8
LEIVA_HERRERA
 10
653806.05367870815
 20
622228.88197231549
 30
0.0
  0
VERTEX
  5
493
  8
LEIVA_HERRERA
 10
653766.52632533584
 20
622239.12756694201
 30
0.0
  0
VERTEX
  5
494
  8
LEIVA_HERRERA
 10
653752.51159445127
 20
622253.17223084229
 30
0.0
  0
VERTEX
  5
495
  8
LEIVA_HERRERA
 10
653747.43845873314
 20
622279.96164095774
 30
0.0
  0
VERTEX
  5
496
  8
LEIVA_HERRERA
 10
653758.93771092908
 20
622299.08080116834
 30
0.0
  0
VERTEX
  5
497
  8
LEIVA_HERRERA
 10
653792.1151409559
 20
622314.3505502136
 30
0.0
  0
VERTEX
  5
498
  8
LEIVA_HERRERA
 10
653834.22056023288
 20
622329.61077511753
 30
0.0
  0
SEQEND
  5
499
  8
LEIVA_HERRERA
  0
POLYLINE
  5
89
  8
LEIVA_HERRERA
 66
     1
 10
0.0
 20
0.0
 30
0.0
 70
     1
  0
VERTEX
  5
49A
  8
LEIVA_HERRERA
 10
653463.81858924904
 20
621819.61286185565
 30
0.0
  0
VERTEX
  5
49B
  8
LEIVA_HERRERA
 10
653572.59119841235
 20
621761.72558859934
 30
0.0
  0
VERTEX
  5
49C
  8
LEIVA_HERRERA
 10
653544.8870643354
 20
621718.71234595415
 30
0.0
  0
VERTEX
  5
49D
  8
LEIVA_HERRERA
 10
653517.14313654229
 20
621694.64978501305
 30
0.0
  0
VERTEX
  5
49E
  8
LEIVA_HERRERA
 10
653399.63033957733
 20
621703.24671543879
 30
0.0
  0
VERTEX
  5
49F
  8
LEIVA_HERRERA
 10
653410.9583019698
 20
621723.48465215228
 30
0.0
  0
VERTEX
  5
4A0
  8
LEIVA_HERRERA
 10
653434.90148176439
 20
621752.59276947146
 30
0.0
  0
VERTEX
  5
4A1
  8
LEIVA_HERRERA
 10
653436.12771974353
 20
621770.28272530949
 30
0.0
  0
VERTEX
  5
4A2
  8
LEIVA_HERRERA
 10
653437.34069315088
 20
621794.28957504872
 30
0.0
  0
SEQEND
  5
4A3
  8
LEIVA_HERRERA
  0
POLYLINE
  5
8A
  8
LEIVA_HERRERA
 66
     1
 10
0.0
 20
0.0
 30
0.0
 70
     1
  0
VERTEX
  5
4A4
  8
LEIVA_HERRERA
 10
652893.68722756824
 20
621983.91901769163
 30
0.0
  0
VERTEX
  5
4A5
  8
LEIVA_HERRERA
 10
652908.79471464397
 20
622009.21842826915
 30
0.0
  0
VERTEX
  5
4A6
  8
LEIVA_HERRERA
 10
652902.44333285582
 20
622025.62908784102
 30
0.0
  0
VERTEX
  5
4A7
  8
LEIVA_HERRERA
 10
652884.72950078815
 20
622038.22573484248
 30
0.0
  0
VERTEX
  5
4A8
  8
LEIVA_HERRERA
 10
652844.34382644971
 20
622017.92678109859
 30
0.0
  0
VERTEX
  5
4A9
  8
LEIVA_HERRERA
 10
652830.50502398284
 20
621990.10326587479
 30
0.0
  0
VERTEX
  5
4AA
  8
LEIVA_HERRERA
 10
652830.56073518447
 20
621963.57231148914
 30
0.0
  0
VERTEX
  5
4AB
  8
LEIVA_HERRERA
 10
652844.47912508261
 20
621953.49446330499
 30
0.0
  0
VERTEX
  5
4AC
  8
LEIVA_HERRERA
 10
652868.48597482208
 20
621952.28148989775
 30
0.0
  0
VERTEX
  5
4AD
  8
LEIVA_HERRERA
 10
652887.40482155385
 20
621967.48182897642
 30
0.0
  0
SEQEND
  5
4AE
  8
LEIVA_HERRERA
  0
POLYLINE
  5
8B
  8
LEIVA_HERRERA
 66
     1
 10
0.0
 20
0.0
 30
0.0
 70
     1
  0
VERTEX
  5
4AF
  8
LEIVA_HERRERA
 10
662200.4551640912
 20
617511.37078897713
 30
0.0
  0
VERTEX
  5
4B0
  8
LEIVA_HERRERA
 10
662145.92075342359
 20
617436.75554439286
 30
0.0
  0
VERTEX
  5
4B1
  8
LEIVA_HERRERA
 10
662119.36737330118
 20
617459.57760678744
 30
0.0
  0
VERTEX
  5
4B2
  8
LEIVA_HERRERA
 10
662090.28558628343
 20
617484.93488636846
 30
0.0
  0
VERTEX
  5
4B3
  8
LEIVA_HERRERA
 10
662095.395179827
 20
617519.10753863072
 30
0.0
  0
VERTEX
  5
4B4
  8
LEIVA_HERRERA
 10
662113.14170013112
 20
617536.80638690037
 30
0.0
  0
VERTEX
  5
4B5
  8
LEIVA_HERRERA
 10
662166.31996842742
 20
617544.33031497151
 30
0.0
  0
VERTEX
  5
4B6
  8
LEIVA_HERRERA
 10
662190.33302364545
 20
617515.18212761974
 30
0.0
  0
SEQEND
  5
4B7
  8
LEIVA_HERRERA
  0
POLYLINE
  5
8C
  8
LEIVA_HERRERA
 66
     1
 10
0.0
 20
0.0
 30
0.0
 70
     1
  0
VERTEX
  5
4B8
  8
LEIVA_HERRERA
 10
662428.56942049332
 20
616756.58263511606
 30
0.0
  0
VERTEX
  5
4B9
  8
LEIVA_HERRERA
 10
662479.24311791104
 20
616784.36446466018
 30
0.0
  0
VERTEX
  5
4BA
  8
LEIVA_HERRERA
 10
662512.13283842639
 20
616766.59751348407
 30
0.0
  0
VERTEX
  5
4BB
  8
LEIVA_HERRERA
 10
662508.44238244288
 20
616846.35470049293
 30
0.0
  0
VERTEX
  5
4BC
  8
LEIVA_HERRERA
 10
662466.6674837668
 20
616846.41088539059
 30
0.0
  0
VERTEX
  5
4BD
  8
LEIVA_HERRERA
 10
662424.85512849235
 20
616818.61713783769
 30
0.0
  0
VERTEX
  5
4BE
  8
LEIVA_HERRERA
 10
662421.01825125946
 20
616789.50640708464
 30
0.0
  0
SEQEND
  5
4BF
  8
LEIVA_HERRERA
  0
POLYLINE
  5
8D
  8
LEIVA_HERRERA
 66
     1
 10
0.0
 20
0.0
 30
0.0
 70
     1
  0
VERTEX
  5
4C0
  8
LEIVA_HERRERA
 10
662289.27889649605
 20
616726.38817361696
 30
0.0
  0
VERTEX
  5
4C1
  8
LEIVA_HERRERA
 10
662333.51750430628
 20
616675.69234275445
 30
0.0
  0
VERTEX
  5
4C2
  8
LEIVA_HERRERA
 10
662361.38446248393
 20
616688.31394636072
 30
0.0
  0
VERTEX
  5
4C3
  8
LEIVA_HERRERA
 10
662384.21674031438
 20
616722.46276260621
 30
0.0
  0
VERTEX
  5
4C4
  8
LEIVA_HERRERA
 10
662364.03034689277
 20
616773.12624458806
 30
0.0
  0
VERTEX
  5
4C5
  8
LEIVA_HERRERA
 10
662305.77142878808
 20
616752.95006660256
 30
0.0
  0
SEQEND
  5
4C6
  8
LEIVA_HERRERA
  0
POLYLINE
  5
8E
  8
LEIVA_HERRERA
 66
     1
 10
0.0
 20
0.0
 30
0.0
 70
     1
  0
VERTEX
  5
4C7
  8
LEIVA_HERRERA
 10
661526.88930426084
 20
617435.05629038322
 30
0.0
  0
VERTEX
  5
4C8
  8
LEIVA_HERRERA
 10
661578.86806687037
 20
617491.95225582621
 30
0.0
  0
VERTEX
  5
4C9
  8
LEIVA_HERRERA
 10
661553.58740305935
 20
617519.83623972978
 30
0.0
  0
VERTEX
  5
4CA
  8
LEIVA_HERRERA
 10
661506.76931117335
 20
617535.09010716423
 30
0.0
  0
VERTEX
  5
4CB
  8
LEIVA_HERRERA
 10
661475.0842040627
 20
617507.2827390302
 30
0.0
  0
VERTEX
  5
4CC
  8
LEIVA_HERRERA
 10
661483.87233558146
 20
617452.83686214045
 30
0.0
  0
VERTEX
  5
4CD
  8
LEIVA_HERRERA
 10
661514.24556720955
 20
617446.46647029405
 30
0.0
  0
SEQEND
  5
4CE
  8
LEIVA_HERRERA
  0
ENDSEC
  0
EOF
