  0
SECTION
  2
HEADER
  9
$ACADVER
  1
AC1009
  9
$INSBASE
 10
0.0
 20
0.0
 30
0.0
  9
$EXTMIN
 10
23.5
 20
88.0
 30
0.0
  9
$EXTMAX
 10
41.0
 20
104.0
 30
0.0
  9
$LIMMIN
 10
23.0
 20
88.0
  9
$LIMMAX
 10
40.0
 20
104.0
  9
$ORTHOMODE
 70
     0
  9
$REGENMODE
 70
     1
  9
$FILLMODE
 70
     1
  9
$QTEXTMODE
 70
     0
  9
$MIRRTEXT
 70
     1
  9
$DRAGMODE
 70
     2
  9
$LTSCALE
 40
1.0
  9
$OSMODE
 70
     0
  9
$ATTMODE
 70
     1
  9
$TEXTSIZE
 40
0.25
  9
$TRACEWID
 40
0.05
  9
$TEXTSTYLE
  7
STANDARD
  9
$CLAYER
  8
AREAS
  9
$CELTYPE
  6
BYLAYER
  9
$CECOLOR
 62
   256
  9
$DIMSCALE
 40
1.0
  9
$DIMASZ
 40
0.18
  9
$DIMEXO
 40
0.063
  9
$DIMDLI
 40
0.38
  9
$DIMRND
 40
0.0
  9
$DIMDLE
 40
0.0
  9
$DIMEXE
 40
0.18
  9
$DIMTP
 40
0.0
  9
$DIMTM
 40
0.0
  9
$DIMTXT
 40
0.18
  9
$DIMCEN
 40
0.09
  9
$DIMTSZ
 40
0.0
  9
$DIMTOL
 70
     0
  9
$DIMLIM
 70
     0
  9
$DIMTIH
 70
     1
  9
$DIMTOH
 70
     1
  9
$DIMSE1
 70
     0
  9
$DIMSE2
 70
     0
  9
$DIMTAD
 70
     0
  9
$DIMZIN
 70
     0
  9
$DIMBLK
  1

  9
$DIMASO
 70
     1
  9
$DIMSHO
 70
     0
  9
$DIMPOST
  1

  9
$DIMAPOST
  1

  9
$DIMALT
 70
     0
  9
$DIMALTD
 70
     2
  9
$DIMALTF
 40
25.4
  9
$DIMLFAC
 40
1.0
  9
$DIMTOFL
 70
     0
  9
$DIMTVP
 40
0.0
  9
$DIMTIX
 70
     0
  9
$DIMSOXD
 70
     0
  9
$DIMSAH
 70
     0
  9
$DIMBLK1
  1

  9
$DIMBLK2
  1

  9
$DIMSTYLE
  2
*UNNAMED
  9
$DIMCLRD
 70
     0
  9
$DIMCLRE
 70
     0
  9
$DIMCLRT
 70
     0
  9
$DIMTFAC
 40
1.0
  9
$DIMGAP
 40
0.09
  9
$LUNITS
 70
     2
  9
$LUPREC
 70
     4
  9
$SKETCHINC
 40
0.1
  9
$FILLETRAD
 40
0.0
  9
$AUNITS
 70
     0
  9
$AUPREC
 70
     0
  9
$MENU
  1
ACAD
  9
$ELEVATION
 40
0.0
  9
$PELEVATION
 40
0.0
  9
$THICKNESS
 40
0.0
  9
$LIMCHECK
 70
     0
  9
$BLIPMODE
 70
     1
  9
$CHAMFERA
 40
0.0
  9
$CHAMFERB
 40
0.0
  9
$SKPOLY
 70
     0
  9
$TDCREATE
 40
2450151.479491898
  9
$TDUPDATE
 40
2450151.496260069
  9
$TDINDWG
 40
0.0141649306
  9
$TDUSRTIMER
 40
0.0141649306
  9
$USRTIMER
 70
     1
  9
$ANGBASE
 50
0.0
  9
$ANGDIR
 70
     0
  9
$PDMODE
 70
     0
  9
$PDSIZE
 40
0.0
  9
$PLINEWID
 40
0.0
  9
$COORDS
 70
     2
  9
$SPLFRAME
 70
     0
  9
$SPLINETYPE
 70
     6
  9
$SPLINESEGS
 70
     8
  9
$ATTDIA
 70
     0
  9
$ATTREQ
 70
     1
  9
$HANDLING
 70
     0
  9
$HANDSEED
  5
0
  9
$SURFTAB1
 70
     6
  9
$SURFTAB2
 70
     6
  9
$SURFTYPE
 70
     6
  9
$SURFU
 70
     6
  9
$SURFV
 70
     6
  9
$UCSNAME
  2

  9
$UCSORG
 10
0.0
 20
0.0
 30
0.0
  9
$UCSXDIR
 10
1.0
 20
0.0
 30
0.0
  9
$UCSYDIR
 10
0.0
 20
1.0
 30
0.0
  9
$PUCSNAME
  2

  9
$PUCSORG
 10
0.0
 20
0.0
 30
0.0
  9
$PUCSXDIR
 10
1.0
 20
0.0
 30
0.0
  9
$PUCSYDIR
 10
0.0
 20
1.0
 30
0.0
  9
$USERI1
 70
     0
  9
$USERI2
 70
     0
  9
$USERI3
 70
     0
  9
$USERI4
 70
     0
  9
$USERI5
 70
     0
  9
$USERR1
 40
0.0
  9
$USERR2
 40
0.0
  9
$USERR3
 40
0.0
  9
$USERR4
 40
0.0
  9
$USERR5
 40
0.0
  9
$WORLDVIEW
 70
     1
  9
$SHADEDGE
 70
     3
  9
$SHADEDIF
 70
    70
  9
$TILEMODE
 70
     1
  9
$MAXACTVP
 70
    16
  9
$PINSBASE
 10
104.103
 20
50.0
 30
23.327
  9
$PLIMCHECK
 70
     0
  9
$PEXTMIN
 10
1.000E+20
 20
1.000E+20
 30
1.000E+20
  9
$PEXTMAX
 10
-1.000E+20
 20
-1.000E+20
 30
-1.000E+20
  9
$PLIMMIN
 10
0.0
 20
0.0
  9
$PLIMMAX
 10
12.0
 20
9.0
  9
$UNITMODE
 70
     0
  9
$VISRETAIN
 70
     0
  9
$PLINEGEN
 70
     0
  9
$PSLTSCALE
 70
     0
  9
$TREEDEPTH
 70
  3020
  9
$DWGCODEPAGE
  3
undefined
  0
ENDSEC
  0
SECTION
  2
TABLES
  0
TABLE
  2
VPORT
 70
     2
  0
VPORT
  2
*ACTIVE
 70
     0
 10
0.0
 20
0.0
 11
1.0
 21
1.0
 12
35.877724
 22
96.0
 13
0.0
 23
0.0
 14
1.0
 24
1.0
 15
0.0
 25
0.0
 16
0.0
 26
0.0
 36
1.0
 17
0.0
 27
0.0
 37
0.0
 40
16.0
 41
1.547215
 42
50.0
 43
0.0
 44
0.0
 50
0.0
 51
0.0
 71
     0
 72
   100
 73
     1
 74
     0
 75
     0
 76
     0
 77
     0
 78
     0
  0
ENDTAB
  0
TABLE
  2
LTYPE
 70
     1
  0
LTYPE
  2
CONTINUOUS
 70
    64
  3
Solid line
 72
    65
 73
     0
 40
0.0
  0
ENDTAB
  0
TABLE
  2
LAYER
 70
     4
  0
LAYER
  2
0
 70
    64
 62
     7
  6
CONTINUOUS
  0
LAYER
  2
FRAME
 70
    64
 62
     7
  6
CONTINUOUS
  0
LAYER
  2
SURVBND
 70
    64
 62
     1
  6
CONTINUOUS
  0
LAYER
  2
AREAS
 70
    64
 62
     2
  6
CONTINUOUS
  0
ENDTAB
  0
TABLE
  2
STYLE
 70
     1
  0
STYLE
  2
STANDARD
 70
     0
 40
0.25
 41
1.0
 50
0.0
 71
     0
 42
0.25
  3
complex
  4

  0
ENDTAB
  0
TABLE
  2
VIEW
 70
     0
  0
ENDTAB
  0
TABLE
  2
UCS
 70
     0
  0
ENDTAB
  0
TABLE
  2
APPID
 70
     1
  0
APPID
  2
ACAD
 70
    64
  0
ENDTAB
  0
TABLE
  2
DIMSTYLE
 70
     0
  0
ENDTAB
  0
ENDSEC
  0
SECTION
  2
BLOCKS
  0
ENDSEC
  0
SECTION
  2
ENTITIES
  0
POLYLINE
  8
AREAS
 66
     1
 10
0.0
 20
0.0
 30
0.0
 70
     1
  0
VERTEX
  8
AREAS
 10
38.942
 20
97.904
 30
0.0
  0
VERTEX
  8
AREAS
 10
38.998
 20
97.946
 30
0.0
  0
VERTEX
  8
AREAS
 10
39.005
 20
97.938
 30
0.0
  0
VERTEX
  8
AREAS
 10
39.01
 20
97.916
 30
0.0
  0
VERTEX
  8
AREAS
 10
39.002
 20
97.903
 30
0.0
  0
VERTEX
  8
AREAS
 10
38.995
 20
97.9
 30
0.0
  0
VERTEX
  8
AREAS
 10
38.983
 20
97.893
 30
0.0
  0
VERTEX
  8
AREAS
 10
38.975
 20
97.884
 30
0.0
  0
VERTEX
  8
AREAS
 10
38.955
 20
97.877
 30
0.0
  0
VERTEX
  8
AREAS
 10
38.944
 20
97.88
 30
0.0
  0
VERTEX
  8
AREAS
 10
38.939
 20
97.892
 30
0.0
  0
SEQEND
  8
AREAS
  0
POLYLINE
  8
AREAS
 66
     1
 10
0.0
 20
0.0
 30
0.0
 70
     1
  0
VERTEX
  8
AREAS
 10
39.02
 20
97.985
 30
0.0
  0
VERTEX
  8
AREAS
 10
39.027
 20
97.999
 30
0.0
  0
VERTEX
  8
AREAS
 10
39.03
 20
98.01
 30
0.0
  0
VERTEX
  8
AREAS
 10
39.048
 20
98.03
 30
0.0
  0
VERTEX
  8
AREAS
 10
39.058
 20
98.048
 30
0.0
  0
VERTEX
  8
AREAS
 10
39.057
 20
98.056
 30
0.0
  0
VERTEX
  8
AREAS
 10
39.071
 20
98.085
 30
0.0
  0
VERTEX
  8
AREAS
 10
39.088
 20
98.097
 30
0.0
  0
VERTEX
  8
AREAS
 10
39.115
 20
98.097
 30
0.0
  0
VERTEX
  8
AREAS
 10
39.129
 20
98.089
 30
0.0
  0
VERTEX
  8
AREAS
 10
39.176
 20
98.063
 30
0.0
  0
VERTEX
  8
AREAS
 10
39.193
 20
98.054
 30
0.0
  0
VERTEX
  8
AREAS
 10
39.211
 20
98.051
 30
0.0
  0
VERTEX
  8
AREAS
 10
39.228
 20
98.043
 30
0.0
  0
VERTEX
  8
AREAS
 10
39.235
 20
98.032
 30
0.0
  0
VERTEX
  8
AREAS
 10
39.244
 20
98.012
 30
0.0
  0
VERTEX
  8
AREAS
 10
39.244
 20
97.994
 30
0.0
  0
VERTEX
  8
AREAS
 10
39.245
 20
97.985
 30
0.0
  0
VERTEX
  8
AREAS
 10
39.245
 20
97.98
 30
0.0
  0
VERTEX
  8
AREAS
 10
39.237
 20
97.973
 30
0.0
  0
VERTEX
  8
AREAS
 10
39.225
 20
97.97
 30
0.0
  0
VERTEX
  8
AREAS
 10
39.207
 20
97.971
 30
0.0
  0
VERTEX
  8
AREAS
 10
39.196
 20
97.971
 30
0.0
  0
VERTEX
  8
AREAS
 10
39.184
 20
97.966
 30
0.0
  0
VERTEX
  8
AREAS
 10
39.171
 20
97.953
 30
0.0
  0
VERTEX
  8
AREAS
 10
39.171
 20
97.935
 30
0.0
  0
VERTEX
  8
AREAS
 10
39.169
 20
97.922
 30
0.0
  0
VERTEX
  8
AREAS
 10
39.165
 20
97.913
 30
0.0
  0
VERTEX
  8
AREAS
 10
39.15
 20
97.91
 30
0.0
  0
VERTEX
  8
AREAS
 10
39.14
 20
97.91
 30
0.0
  0
VERTEX
  8
AREAS
 10
39.122
 20
97.921
 30
0.0
  0
VERTEX
  8
AREAS
 10
39.092
 20
97.933
 30
0.0
  0
VERTEX
  8
AREAS
 10
39.068
 20
97.921
 30
0.0
  0
VERTEX
  8
AREAS
 10
39.033
 20
97.967
 30
0.0
  0
SEQEND
  8
AREAS
  0
POLYLINE
  8
AREAS
 66
     1
 10
0.0
 20
0.0
 30
0.0
 70
     1
  0
VERTEX
  8
AREAS
 10
39.058
 20
98.255
 30
0.0
  0
VERTEX
  8
AREAS
 10
39.072
 20
98.261
 30
0.0
  0
VERTEX
  8
AREAS
 10
39.097
 20
98.247
 30
0.0
  0
VERTEX
  8
AREAS
 10
39.108
 20
98.238
 30
0.0
  0
VERTEX
  8
AREAS
 10
39.118
 20
98.213
 30
0.0
  0
VERTEX
  8
AREAS
 10
39.113
 20
98.206
 30
0.0
  0
VERTEX
  8
AREAS
 10
39.102
 20
98.202
 30
0.0
  0
VERTEX
  8
AREAS
 10
39.096
 20
98.203
 30
0.0
  0
VERTEX
  8
AREAS
 10
39.085
 20
98.207
 30
0.0
  0
VERTEX
  8
AREAS
 10
39.07
 20
98.221
 30
0.0
  0
VERTEX
  8
AREAS
 10
39.057
 20
98.234
 30
0.0
  0
VERTEX
  8
AREAS
 10
39.056
 20
98.246
 30
0.0
  0
SEQEND
  8
AREAS
  0
POLYLINE
  8
AREAS
 66
     1
 10
0.0
 20
0.0
 30
0.0
 70
     1
  0
VERTEX
  8
AREAS
 10
31.043
 20
103.307
 30
0.0
  0
VERTEX
  8
AREAS
 10
31.056
 20
103.326
 30
0.0
  0
VERTEX
  8
AREAS
 10
31.072
 20
103.339
 30
0.0
  0
VERTEX
  8
AREAS
 10
31.105
 20
103.346
 30
0.0
  0
VERTEX
  8
AREAS
 10
31.14
 20
103.357
 30
0.0
  0
VERTEX
  8
AREAS
 10
31.179
 20
103.382
 30
0.0
  0
VERTEX
  8
AREAS
 10
31.184
 20
103.349
 30
0.0
  0
VERTEX
  8
AREAS
 10
31.255
 20
103.361
 30
0.0
  0
VERTEX
  8
AREAS
 10
31.256
 20
103.338
 30
0.0
  0
VERTEX
  8
AREAS
 10
31.244
 20
103.32
 30
0.0
  0
VERTEX
  8
AREAS
 10
31.236
 20
103.317
 30
0.0
  0
VERTEX
  8
AREAS
 10
31.222
 20
103.32
 30
0.0
  0
VERTEX
  8
AREAS
 10
31.192
 20
103.315
 30
0.0
  0
VERTEX
  8
AREAS
 10
31.165
 20
103.315
 30
0.0
  0
VERTEX
  8
AREAS
 10
31.141
 20
103.296
 30
0.0
  0
VERTEX
  8
AREAS
 10
31.169
 20
103.277
 30
0.0
  0
VERTEX
  8
AREAS
 10
31.193
 20
103.256
 30
0.0
  0
VERTEX
  8
AREAS
 10
31.201
 20
103.216
 30
0.0
  0
VERTEX
  8
AREAS
 10
31.193
 20
103.188
 30
0.0
  0
VERTEX
  8
AREAS
 10
31.179
 20
103.156
 30
0.0
  0
VERTEX
  8
AREAS
 10
31.163
 20
103.151
 30
0.0
  0
VERTEX
  8
AREAS
 10
31.147
 20
103.159
 30
0.0
  0
VERTEX
  8
AREAS
 10
31.123
 20
103.187
 30
0.0
  0
VERTEX
  8
AREAS
 10
31.107
 20
103.225
 30
0.0
  0
VERTEX
  8
AREAS
 10
31.098
 20
103.242
 30
0.0
  0
VERTEX
  8
AREAS
 10
31.062
 20
103.282
 30
0.0
  0
SEQEND
  8
AREAS
  0
POLYLINE
  8
AREAS
 66
     1
 10
0.0
 20
0.0
 30
0.0
 70
     1
  0
VERTEX
  8
AREAS
 10
31.006
 20
100.96
 30
0.0
  0
VERTEX
  8
AREAS
 10
31.022
 20
100.956
 30
0.0
  0
VERTEX
  8
AREAS
 10
31.042
 20
100.974
 30
0.0
  0
VERTEX
  8
AREAS
 10
31.054
 20
100.995
 30
0.0
  0
VERTEX
  8
AREAS
 10
31.058
 20
101.028
 30
0.0
  0
VERTEX
  8
AREAS
 10
31.053
 20
101.065
 30
0.0
  0
VERTEX
  8
AREAS
 10
31.045
 20
101.08
 30
0.0
  0
VERTEX
  8
AREAS
 10
31.032
 20
101.086
 30
0.0
  0
VERTEX
  8
AREAS
 10
31.019
 20
101.082
 30
0.0
  0
VERTEX
  8
AREAS
 10
31.015
 20
101.071
 30
0.0
  0
VERTEX
  8
AREAS
 10
31.019
 20
101.028
 30
0.0
  0
VERTEX
  8
AREAS
 10
31.018
 20
101.013
 30
0.0
  0
VERTEX
  8
AREAS
 10
31.014
 20
101.006
 30
0.0
  0
VERTEX
  8
AREAS
 10
31.004
 20
100.973
 30
0.0
  0
SEQEND
  8
AREAS
  0
POLYLINE
  8
AREAS
 66
     1
 10
0.0
 20
0.0
 30
0.0
 70
     1
  0
VERTEX
  8
AREAS
 10
30.835
 20
101.368
 30
0.0
  0
VERTEX
  8
AREAS
 10
30.848
 20
101.373
 30
0.0
  0
VERTEX
  8
AREAS
 10
30.902
 20
101.361
 30
0.0
  0
VERTEX
  8
AREAS
 10
30.909
 20
101.344
 30
0.0
  0
VERTEX
  8
AREAS
 10
30.917
 20
101.338
 30
0.0
  0
VERTEX
  8
AREAS
 10
30.918
 20
101.328
 30
0.0
  0
VERTEX
  8
AREAS
 10
30.914
 20
101.317
 30
0.0
  0
VERTEX
  8
AREAS
 10
30.908
 20
101.309
 30
0.0
  0
VERTEX
  8
AREAS
 10
30.898
 20
101.307
 30
0.0
  0
VERTEX
  8
AREAS
 10
30.871
 20
101.309
 30
0.0
  0
VERTEX
  8
AREAS
 10
30.843
 20
101.323
 30
0.0
  0
VERTEX
  8
AREAS
 10
30.834
 20
101.333
 30
0.0
  0
VERTEX
  8
AREAS
 10
30.828
 20
101.346
 30
0.0
  0
SEQEND
  8
AREAS
  0
POLYLINE
  8
AREAS
 66
     1
 10
0.0
 20
0.0
 30
0.0
 70
     1
  0
VERTEX
  8
AREAS
 10
30.697
 20
101.767
 30
0.0
  0
VERTEX
  8
AREAS
 10
30.729
 20
101.782
 30
0.0
  0
VERTEX
  8
AREAS
 10
30.745
 20
101.789
 30
0.0
  0
VERTEX
  8
AREAS
 10
30.76
 20
101.802
 30
0.0
  0
VERTEX
  8
AREAS
 10
30.776
 20
101.798
 30
0.0
  0
VERTEX
  8
AREAS
 10
30.792
 20
101.792
 30
0.0
  0
VERTEX
  8
AREAS
 10
30.802
 20
101.782
 30
0.0
  0
VERTEX
  8
AREAS
 10
30.807
 20
101.763
 30
0.0
  0
VERTEX
  8
AREAS
 10
30.796
 20
101.751
 30
0.0
  0
VERTEX
  8
AREAS
 10
30.782
 20
101.745
 30
0.0
  0
VERTEX
  8
AREAS
 10
30.733
 20
101.736
 30
0.0
  0
VERTEX
  8
AREAS
 10
30.708
 20
101.732
 30
0.0
  0
SEQEND
  8
AREAS
  0
POLYLINE
  8
AREAS
 66
     1
 10
0.0
 20
0.0
 30
0.0
 70
     1
  0
VERTEX
  8
AREAS
 10
30.83
 20
102.25
 30
0.0
  0
VERTEX
  8
AREAS
 10
30.848
 20
102.271
 30
0.0
  0
VERTEX
  8
AREAS
 10
30.865
 20
102.277
 30
0.0
  0
VERTEX
  8
AREAS
 10
30.899
 20
102.267
 30
0.0
  0
VERTEX
  8
AREAS
 10
30.922
 20
102.239
 30
0.0
  0
VERTEX
  8
AREAS
 10
30.948
 20
102.216
 30
0.0
  0
VERTEX
  8
AREAS
 10
30.943
 20
102.188
 30
0.0
  0
VERTEX
  8
AREAS
 10
30.968
 20
102.174
 30
0.0
  0
VERTEX
  8
AREAS
 10
30.961
 20
102.102
 30
0.0
  0
VERTEX
  8
AREAS
 10
30.879
 20
102.087
 30
0.0
  0
VERTEX
  8
AREAS
 10
30.851
 20
102.089
 30
0.0
  0
VERTEX
  8
AREAS
 10
30.852
 20
102.116
 30
0.0
  0
VERTEX
  8
AREAS
 10
30.869
 20
102.165
 30
0.0
  0
VERTEX
  8
AREAS
 10
30.879
 20
102.205
 30
0.0
  0
VERTEX
  8
AREAS
 10
30.897
 20
102.216
 30
0.0
  0
VERTEX
  8
AREAS
 10
30.872
 20
102.234
 30
0.0
  0
VERTEX
  8
AREAS
 10
30.852
 20
102.236
 30
0.0
  0
VERTEX
  8
AREAS
 10
30.836
 20
102.24
 30
0.0
  0
SEQEND
  8
AREAS
  0
POLYLINE
  8
AREAS
 66
     1
 10
0.0
 20
0.0
 30
0.0
 70
     1
  0
VERTEX
  8
AREAS
 10
31.605
 20
99.399
 30
0.0
  0
VERTEX
  8
AREAS
 10
31.685
 20
99.395
 30
0.0
  0
VERTEX
  8
AREAS
 10
31.681
 20
99.372
 30
0.0
  0
VERTEX
  8
AREAS
 10
31.655
 20
99.339
 30
0.0
  0
VERTEX
  8
AREAS
 10
31.636
 20
99.339
 30
0.0
  0
VERTEX
  8
AREAS
 10
31.616
 20
99.341
 30
0.0
  0
VERTEX
  8
AREAS
 10
31.603
 20
99.361
 30
0.0
  0
VERTEX
  8
AREAS
 10
31.598
 20
99.377
 30
0.0
  0
SEQEND
  8
AREAS
  0
POLYLINE
  8
AREAS
 66
     1
 10
0.0
 20
0.0
 30
0.0
 70
     1
  0
VERTEX
  8
AREAS
 10
31.464
 20
99.121
 30
0.0
  0
VERTEX
  8
AREAS
 10
31.466
 20
99.134
 30
0.0
  0
VERTEX
  8
AREAS
 10
31.478
 20
99.146
 30
0.0
  0
VERTEX
  8
AREAS
 10
31.538
 20
99.157
 30
0.0
  0
VERTEX
  8
AREAS
 10
31.565
 20
99.153
 30
0.0
  0
VERTEX
  8
AREAS
 10
31.578
 20
99.138
 30
0.0
  0
VERTEX
  8
AREAS
 10
31.572
 20
99.128
 30
0.0
  0
VERTEX
  8
AREAS
 10
31.577
 20
99.118
 30
0.0
  0
VERTEX
  8
AREAS
 10
31.581
 20
99.108
 30
0.0
  0
VERTEX
  8
AREAS
 10
31.597
 20
99.105
 30
0.0
  0
VERTEX
  8
AREAS
 10
31.622
 20
99.109
 30
0.0
  0
VERTEX
  8
AREAS
 10
31.633
 20
99.103
 30
0.0
  0
VERTEX
  8
AREAS
 10
31.636
 20
99.091
 30
0.0
  0
VERTEX
  8
AREAS
 10
31.636
 20
99.076
 30
0.0
  0
VERTEX
  8
AREAS
 10
31.63
 20
99.06
 30
0.0
  0
VERTEX
  8
AREAS
 10
31.612
 20
99.031
 30
0.0
  0
VERTEX
  8
AREAS
 10
31.606
 20
99.024
 30
0.0
  0
VERTEX
  8
AREAS
 10
31.59
 20
98.988
 30
0.0
  0
VERTEX
  8
AREAS
 10
31.586
 20
98.966
 30
0.0
  0
VERTEX
  8
AREAS
 10
31.586
 20
98.959
 30
0.0
  0
VERTEX
  8
AREAS
 10
31.572
 20
98.941
 30
0.0
  0
VERTEX
  8
AREAS
 10
31.556
 20
98.931
 30
0.0
  0
VERTEX
  8
AREAS
 10
31.536
 20
98.923
 30
0.0
  0
VERTEX
  8
AREAS
 10
31.513
 20
98.911
 30
0.0
  0
VERTEX
  8
AREAS
 10
31.51
 20
98.905
 30
0.0
  0
VERTEX
  8
AREAS
 10
31.49
 20
98.905
 30
0.0
  0
VERTEX
  8
AREAS
 10
31.473
 20
98.912
 30
0.0
  0
VERTEX
  8
AREAS
 10
31.465
 20
98.919
 30
0.0
  0
VERTEX
  8
AREAS
 10
31.462
 20
98.928
 30
0.0
  0
VERTEX
  8
AREAS
 10
31.468
 20
98.945
 30
0.0
  0
VERTEX
  8
AREAS
 10
31.481
 20
98.953
 30
0.0
  0
VERTEX
  8
AREAS
 10
31.494
 20
98.958
 30
0.0
  0
VERTEX
  8
AREAS
 10
31.5
 20
98.963
 30
0.0
  0
VERTEX
  8
AREAS
 10
31.495
 20
98.976
 30
0.0
  0
VERTEX
  8
AREAS
 10
31.482
 20
98.989
 30
0.0
  0
VERTEX
  8
AREAS
 10
31.446
 20
99.019
 30
0.0
  0
VERTEX
  8
AREAS
 10
31.431
 20
99.044
 30
0.0
  0
VERTEX
  8
AREAS
 10
31.427
 20
99.071
 30
0.0
  0
VERTEX
  8
AREAS
 10
31.441
 20
99.099
 30
0.0
  0
VERTEX
  8
AREAS
 10
31.454
 20
99.113
 30
0.0
  0
SEQEND
  8
AREAS
  0
POLYLINE
  8
AREAS
 66
     1
 10
0.0
 20
0.0
 30
0.0
 70
     1
  0
VERTEX
  8
AREAS
 10
30.755
 20
98.308
 30
0.0
  0
VERTEX
  8
AREAS
 10
30.784
 20
98.335
 30
0.0
  0
VERTEX
  8
AREAS
 10
30.801
 20
98.346
 30
0.0
  0
VERTEX
  8
AREAS
 10
30.814
 20
98.347
 30
0.0
  0
VERTEX
  8
AREAS
 10
30.84
 20
98.338
 30
0.0
  0
VERTEX
  8
AREAS
 10
30.847
 20
98.329
 30
0.0
  0
VERTEX
  8
AREAS
 10
30.859
 20
98.325
 30
0.0
  0
VERTEX
  8
AREAS
 10
30.862
 20
98.315
 30
0.0
  0
VERTEX
  8
AREAS
 10
30.847
 20
98.297
 30
0.0
  0
VERTEX
  8
AREAS
 10
30.828
 20
98.286
 30
0.0
  0
VERTEX
  8
AREAS
 10
30.813
 20
98.258
 30
0.0
  0
VERTEX
  8
AREAS
 10
30.81
 20
98.245
 30
0.0
  0
VERTEX
  8
AREAS
 10
30.785
 20
98.221
 30
0.0
  0
VERTEX
  8
AREAS
 10
30.797
 20
98.171
 30
0.0
  0
VERTEX
  8
AREAS
 10
30.805
 20
98.117
 30
0.0
  0
VERTEX
  8
AREAS
 10
30.81
 20
98.101
 30
0.0
  0
VERTEX
  8
AREAS
 10
30.807
 20
98.076
 30
0.0
  0
VERTEX
  8
AREAS
 10
30.797
 20
98.069
 30
0.0
  0
VERTEX
  8
AREAS
 10
30.777
 20
98.062
 30
0.0
  0
VERTEX
  8
AREAS
 10
30.741
 20
98.071
 30
0.0
  0
VERTEX
  8
AREAS
 10
30.736
 20
98.087
 30
0.0
  0
VERTEX
  8
AREAS
 10
30.741
 20
98.116
 30
0.0
  0
VERTEX
  8
AREAS
 10
30.737
 20
98.141
 30
0.0
  0
VERTEX
  8
AREAS
 10
30.741
 20
98.153
 30
0.0
  0
VERTEX
  8
AREAS
 10
30.736
 20
98.162
 30
0.0
  0
VERTEX
  8
AREAS
 10
30.725
 20
98.172
 30
0.0
  0
VERTEX
  8
AREAS
 10
30.725
 20
98.179
 30
0.0
  0
VERTEX
  8
AREAS
 10
30.712
 20
98.201
 30
0.0
  0
VERTEX
  8
AREAS
 10
30.699
 20
98.204
 30
0.0
  0
VERTEX
  8
AREAS
 10
30.687
 20
98.212
 30
0.0
  0
VERTEX
  8
AREAS
 10
30.683
 20
98.225
 30
0.0
  0
VERTEX
  8
AREAS
 10
30.69
 20
98.246
 30
0.0
  0
VERTEX
  8
AREAS
 10
30.705
 20
98.265
 30
0.0
  0
VERTEX
  8
AREAS
 10
30.729
 20
98.279
 30
0.0
  0
SEQEND
  8
AREAS
  0
POLYLINE
  8
AREAS
 66
     1
 10
0.0
 20
0.0
 30
0.0
 70
     1
  0
VERTEX
  8
AREAS
 10
30.658
 20
97.788
 30
0.0
  0
VERTEX
  8
AREAS
 10
30.662
 20
97.807
 30
0.0
  0
VERTEX
  8
AREAS
 10
30.675
 20
97.821
 30
0.0
  0
VERTEX
  8
AREAS
 10
30.698
 20
97.833
 30
0.0
  0
VERTEX
  8
AREAS
 10
30.738
 20
97.839
 30
0.0
  0
VERTEX
  8
AREAS
 10
30.751
 20
97.83
 30
0.0
  0
VERTEX
  8
AREAS
 10
30.764
 20
97.803
 30
0.0
  0
VERTEX
  8
AREAS
 10
30.777
 20
97.761
 30
0.0
  0
VERTEX
  8
AREAS
 10
30.784
 20
97.737
 30
0.0
  0
VERTEX
  8
AREAS
 10
30.796
 20
97.722
 30
0.0
  0
VERTEX
  8
AREAS
 10
30.794
 20
97.698
 30
0.0
  0
VERTEX
  8
AREAS
 10
30.761
 20
97.671
 30
0.0
  0
VERTEX
  8
AREAS
 10
30.742
 20
97.663
 30
0.0
  0
VERTEX
  8
AREAS
 10
30.721
 20
97.659
 30
0.0
  0
VERTEX
  8
AREAS
 10
30.703
 20
97.664
 30
0.0
  0
VERTEX
  8
AREAS
 10
30.69
 20
97.689
 30
0.0
  0
VERTEX
  8
AREAS
 10
30.677
 20
97.737
 30
0.0
  0
VERTEX
  8
AREAS
 10
30.667
 20
97.764
 30
0.0
  0
SEQEND
  8
AREAS
  0
POLYLINE
  8
AREAS
 66
     1
 10
0.0
 20
0.0
 30
0.0
 70
     1
  0
VERTEX
  8
AREAS
 10
38.281
 20
97.362
 30
0.0
  0
VERTEX
  8
AREAS
 10
38.288
 20
97.386
 30
0.0
  0
VERTEX
  8
AREAS
 10
38.318
 20
97.411
 30
0.0
  0
VERTEX
  8
AREAS
 10
38.336
 20
97.409
 30
0.0
  0
VERTEX
  8
AREAS
 10
38.344
 20
97.402
 30
0.0
  0
VERTEX
  8
AREAS
 10
38.342
 20
97.391
 30
0.0
  0
VERTEX
  8
AREAS
 10
38.331
 20
97.376
 30
0.0
  0
VERTEX
  8
AREAS
 10
38.315
 20
97.359
 30
0.0
  0
VERTEX
  8
AREAS
 10
38.307
 20
97.353
 30
0.0
  0
VERTEX
  8
AREAS
 10
38.287
 20
97.353
 30
0.0
  0
SEQEND
  8
AREAS
  0
POLYLINE
  8
AREAS
 66
     1
 10
0.0
 20
0.0
 30
0.0
 70
     1
  0
VERTEX
  8
AREAS
 10
26.526
 20
98.311
 30
0.0
  0
VERTEX
  8
AREAS
 10
26.524
 20
98.332
 30
0.0
  0
VERTEX
  8
AREAS
 10
26.537
 20
98.346
 30
0.0
  0
VERTEX
  8
AREAS
 10
26.554
 20
98.351
 30
0.0
  0
VERTEX
  8
AREAS
 10
26.574
 20
98.344
 30
0.0
  0
VERTEX
  8
AREAS
 10
26.579
 20
98.333
 30
0.0
  0
VERTEX
  8
AREAS
 10
26.608
 20
98.303
 30
0.0
  0
VERTEX
  8
AREAS
 10
26.57
 20
98.259
 30
0.0
  0
VERTEX
  8
AREAS
 10
26.559
 20
98.277
 30
0.0
  0
SEQEND
  8
AREAS
  0
POLYLINE
  8
AREAS
 66
     1
 10
0.0
 20
0.0
 30
0.0
 70
     1
  0
VERTEX
  8
AREAS
 10
26.452
 20
98.717
 30
0.0
  0
VERTEX
  8
AREAS
 10
26.509
 20
98.772
 30
0.0
  0
VERTEX
  8
AREAS
 10
26.531
 20
98.777
 30
0.0
  0
VERTEX
  8
AREAS
 10
26.555
 20
98.777
 30
0.0
  0
VERTEX
  8
AREAS
 10
26.559
 20
98.756
 30
0.0
  0
VERTEX
  8
AREAS
 10
26.591
 20
98.753
 30
0.0
  0
VERTEX
  8
AREAS
 10
26.612
 20
98.756
 30
0.0
  0
VERTEX
  8
AREAS
 10
26.654
 20
98.778
 30
0.0
  0
VERTEX
  8
AREAS
 10
26.677
 20
98.775
 30
0.0
  0
VERTEX
  8
AREAS
 10
26.684
 20
98.76
 30
0.0
  0
VERTEX
  8
AREAS
 10
26.684
 20
98.736
 30
0.0
  0
VERTEX
  8
AREAS
 10
26.705
 20
98.716
 30
0.0
  0
VERTEX
  8
AREAS
 10
26.673
 20
98.671
 30
0.0
  0
VERTEX
  8
AREAS
 10
26.69
 20
98.581
 30
0.0
  0
VERTEX
  8
AREAS
 10
26.649
 20
98.578
 30
0.0
  0
VERTEX
  8
AREAS
 10
26.6
 20
98.557
 30
0.0
  0
VERTEX
  8
AREAS
 10
26.569
 20
98.549
 30
0.0
  0
VERTEX
  8
AREAS
 10
26.601
 20
98.479
 30
0.0
  0
VERTEX
  8
AREAS
 10
26.575
 20
98.465
 30
0.0
  0
VERTEX
  8
AREAS
 10
26.561
 20
98.452
 30
0.0
  0
VERTEX
  8
AREAS
 10
26.545
 20
98.445
 30
0.0
  0
VERTEX
  8
AREAS
 10
26.522
 20
98.452
 30
0.0
  0
VERTEX
  8
AREAS
 10
26.467
 20
98.498
 30
0.0
  0
VERTEX
  8
AREAS
 10
26.49
 20
98.545
 30
0.0
  0
VERTEX
  8
AREAS
 10
26.452
 20
98.61
 30
0.0
  0
VERTEX
  8
AREAS
 10
26.455
 20
98.674
 30
0.0
  0
SEQEND
  8
AREAS
  0
POLYLINE
  8
AREAS
 66
     1
 10
0.0
 20
0.0
 30
0.0
 70
     1
  0
VERTEX
  8
AREAS
 10
25.772
 20
98.5
 30
0.0
  0
VERTEX
  8
AREAS
 10
25.783
 20
98.523
 30
0.0
  0
VERTEX
  8
AREAS
 10
25.806
 20
98.535
 30
0.0
  0
VERTEX
  8
AREAS
 10
25.85
 20
98.565
 30
0.0
  0
VERTEX
  8
AREAS
 10
25.891
 20
98.602
 30
0.0
  0
VERTEX
  8
AREAS
 10
25.917
 20
98.615
 30
0.0
  0
VERTEX
  8
AREAS
 10
25.927
 20
98.617
 30
0.0
  0
VERTEX
  8
AREAS
 10
25.939
 20
98.6
 30
0.0
  0
VERTEX
  8
AREAS
 10
25.941
 20
98.584
 30
0.0
  0
VERTEX
  8
AREAS
 10
25.93
 20
98.561
 30
0.0
  0
VERTEX
  8
AREAS
 10
25.911
 20
98.545
 30
0.0
  0
VERTEX
  8
AREAS
 10
25.879
 20
98.526
 30
0.0
  0
VERTEX
  8
AREAS
 10
25.847
 20
98.495
 30
0.0
  0
VERTEX
  8
AREAS
 10
25.773
 20
98.484
 30
0.0
  0
SEQEND
  8
AREAS
  0
POLYLINE
  8
AREAS
 66
     1
 10
0.0
 20
0.0
 30
0.0
 70
     1
  0
VERTEX
  8
AREAS
 10
27.623
 20
98.455
 30
0.0
  0
VERTEX
  8
AREAS
 10
27.643
 20
98.468
 30
0.0
  0
VERTEX
  8
AREAS
 10
27.669
 20
98.473
 30
0.0
  0
VERTEX
  8
AREAS
 10
27.678
 20
98.404
 30
0.0
  0
VERTEX
  8
AREAS
 10
27.621
 20
98.389
 30
0.0
  0
VERTEX
  8
AREAS
 10
27.615
 20
98.428
 30
0.0
  0
SEQEND
  8
AREAS
  0
POLYLINE
  8
AREAS
 66
     1
 10
0.0
 20
0.0
 30
0.0
 70
     1
  0
VERTEX
  8
AREAS
 10
24.125
 20
96.597
 30
0.0
  0
VERTEX
  8
AREAS
 10
24.123
 20
96.655
 30
0.0
  0
VERTEX
  8
AREAS
 10
24.142
 20
96.715
 30
0.0
  0
VERTEX
  8
AREAS
 10
24.268
 20
96.819
 30
0.0
  0
VERTEX
  8
AREAS
 10
24.183
 20
96.948
 30
0.0
  0
VERTEX
  8
AREAS
 10
24.262
 20
96.987
 30
0.0
  0
VERTEX
  8
AREAS
 10
24.317
 20
96.968
 30
0.0
  0
VERTEX
  8
AREAS
 10
24.371
 20
96.891
 30
0.0
  0
VERTEX
  8
AREAS
 10
24.409
 20
96.847
 30
0.0
  0
VERTEX
  8
AREAS
 10
24.394
 20
96.788
 30
0.0
  0
VERTEX
  8
AREAS
 10
24.359
 20
96.75
 30
0.0
  0
VERTEX
  8
AREAS
 10
24.304
 20
96.714
 30
0.0
  0
VERTEX
  8
AREAS
 10
24.279
 20
96.648
 30
0.0
  0
VERTEX
  8
AREAS
 10
24.256
 20
96.632
 30
0.0
  0
VERTEX
  8
AREAS
 10
24.227
 20
96.632
 30
0.0
  0
VERTEX
  8
AREAS
 10
24.199
 20
96.626
 30
0.0
  0
VERTEX
  8
AREAS
 10
24.154
 20
96.607
 30
0.0
  0
SEQEND
  8
AREAS
  0
POLYLINE
  8
AREAS
 66
     1
 10
0.0
 20
0.0
 30
0.0
 70
     1
  0
VERTEX
  8
AREAS
 10
24.311
 20
97.415
 30
0.0
  0
VERTEX
  8
AREAS
 10
24.428
 20
97.503
 30
0.0
  0
VERTEX
  8
AREAS
 10
24.447
 20
97.484
 30
0.0
  0
VERTEX
  8
AREAS
 10
24.465
 20
97.442
 30
0.0
  0
VERTEX
  8
AREAS
 10
24.463
 20
97.377
 30
0.0
  0
VERTEX
  8
AREAS
 10
24.483
 20
97.304
 30
0.0
  0
VERTEX
  8
AREAS
 10
24.558
 20
97.21
 30
0.0
  0
VERTEX
  8
AREAS
 10
24.546
 20
97.19
 30
0.0
  0
VERTEX
  8
AREAS
 10
24.509
 20
97.159
 30
0.0
  0
VERTEX
  8
AREAS
 10
24.456
 20
97.149
 30
0.0
  0
VERTEX
  8
AREAS
 10
24.352
 20
97.145
 30
0.0
  0
VERTEX
  8
AREAS
 10
24.279
 20
97.125
 30
0.0
  0
VERTEX
  8
AREAS
 10
24.249
 20
97.089
 30
0.0
  0
VERTEX
  8
AREAS
 10
24.227
 20
97.091
 30
0.0
  0
VERTEX
  8
AREAS
 10
24.219
 20
97.112
 30
0.0
  0
VERTEX
  8
AREAS
 10
24.228
 20
97.139
 30
0.0
  0
VERTEX
  8
AREAS
 10
24.249
 20
97.178
 30
0.0
  0
VERTEX
  8
AREAS
 10
24.299
 20
97.289
 30
0.0
  0
VERTEX
  8
AREAS
 10
24.312
 20
97.333
 30
0.0
  0
SEQEND
  8
AREAS
  0
POLYLINE
  8
AREAS
 66
     1
 10
0.0
 20
0.0
 30
0.0
 70
     1
  0
VERTEX
  8
AREAS
 10
24.242
 20
97.623
 30
0.0
  0
VERTEX
  8
AREAS
 10
24.268
 20
97.639
 30
0.0
  0
VERTEX
  8
AREAS
 10
24.312
 20
97.654
 30
0.0
  0
VERTEX
  8
AREAS
 10
24.368
 20
97.661
 30
0.0
  0
VERTEX
  8
AREAS
 10
24.4
 20
97.666
 30
0.0
  0
VERTEX
  8
AREAS
 10
24.424
 20
97.675
 30
0.0
  0
VERTEX
  8
AREAS
 10
24.452
 20
97.682
 30
0.0
  0
VERTEX
  8
AREAS
 10
24.465
 20
97.67
 30
0.0
  0
VERTEX
  8
AREAS
 10
24.441
 20
97.6
 30
0.0
  0
VERTEX
  8
AREAS
 10
24.417
 20
97.545
 30
0.0
  0
VERTEX
  8
AREAS
 10
24.369
 20
97.617
 30
0.0
  0
VERTEX
  8
AREAS
 10
24.253
 20
97.53
 30
0.0
  0
VERTEX
  8
AREAS
 10
24.238
 20
97.588
 30
0.0
  0
SEQEND
  8
AREAS
  0
POLYLINE
  8
AREAS
 66
     1
 10
0.0
 20
0.0
 30
0.0
 70
     1
  0
VERTEX
  8
AREAS
 10
24.945
 20
97.635
 30
0.0
  0
VERTEX
  8
AREAS
 10
24.965
 20
97.649
 30
0.0
  0
VERTEX
  8
AREAS
 10
24.985
 20
97.654
 30
0.0
  0
VERTEX
  8
AREAS
 10
25.004
 20
97.641
 30
0.0
  0
VERTEX
  8
AREAS
 10
25.007
 20
97.62
 30
0.0
  0
VERTEX
  8
AREAS
 10
24.997
 20
97.599
 30
0.0
  0
VERTEX
  8
AREAS
 10
24.982
 20
97.59
 30
0.0
  0
VERTEX
  8
AREAS
 10
24.968
 20
97.591
 30
0.0
  0
VERTEX
  8
AREAS
 10
24.945
 20
97.597
 30
0.0
  0
SEQEND
  8
AREAS
  0
POLYLINE
  8
AREAS
 66
     1
 10
0.0
 20
0.0
 30
0.0
 70
     1
  0
VERTEX
  8
AREAS
 10
33.027
 20
97.447
 30
0.0
  0
VERTEX
  8
AREAS
 10
33.026
 20
97.489
 30
0.0
  0
VERTEX
  8
AREAS
 10
33.111
 20
97.53
 30
0.0
  0
VERTEX
  8
AREAS
 10
33.157
 20
97.531
 30
0.0
  0
VERTEX
  8
AREAS
 10
33.095
 20
97.456
 30
0.0
  0
VERTEX
  8
AREAS
 10
33.13
 20
97.46
 30
0.0
  0
VERTEX
  8
AREAS
 10
33.162
 20
97.462
 30
0.0
  0
VERTEX
  8
AREAS
 10
33.176
 20
97.466
 30
0.0
  0
VERTEX
  8
AREAS
 10
33.207
 20
97.48
 30
0.0
  0
VERTEX
  8
AREAS
 10
33.215
 20
97.51
 30
0.0
  0
VERTEX
  8
AREAS
 10
33.22
 20
97.529
 30
0.0
  0
VERTEX
  8
AREAS
 10
33.245
 20
97.55
 30
0.0
  0
VERTEX
  8
AREAS
 10
33.261
 20
97.562
 30
0.0
  0
VERTEX
  8
AREAS
 10
33.269
 20
97.587
 30
0.0
  0
VERTEX
  8
AREAS
 10
33.262
 20
97.612
 30
0.0
  0
VERTEX
  8
AREAS
 10
33.212
 20
97.591
 30
0.0
  0
VERTEX
  8
AREAS
 10
33.134
 20
97.65
 30
0.0
  0
VERTEX
  8
AREAS
 10
33.096
 20
97.621
 30
0.0
  0
VERTEX
  8
AREAS
 10
33.055
 20
97.579
 30
0.0
  0
VERTEX
  8
AREAS
 10
33.039
 20
97.553
 30
0.0
  0
VERTEX
  8
AREAS
 10
33.005
 20
97.518
 30
0.0
  0
VERTEX
  8
AREAS
 10
32.968
 20
97.491
 30
0.0
  0
VERTEX
  8
AREAS
 10
32.938
 20
97.457
 30
0.0
  0
VERTEX
  8
AREAS
 10
32.938
 20
97.442
 30
0.0
  0
VERTEX
  8
AREAS
 10
32.952
 20
97.425
 30
0.0
  0
VERTEX
  8
AREAS
 10
32.966
 20
97.426
 30
0.0
  0
VERTEX
  8
AREAS
 10
32.99
 20
97.438
 30
0.0
  0
SEQEND
  8
AREAS
  0
POLYLINE
  8
AREAS
 66
     1
 10
0.0
 20
0.0
 30
0.0
 70
     1
  0
VERTEX
  8
AREAS
 10
28.13
 20
97.785
 30
0.0
  0
VERTEX
  8
AREAS
 10
28.144
 20
97.797
 30
0.0
  0
VERTEX
  8
AREAS
 10
28.167
 20
97.804
 30
0.0
  0
VERTEX
  8
AREAS
 10
28.21
 20
97.777
 30
0.0
  0
VERTEX
  8
AREAS
 10
28.215
 20
97.761
 30
0.0
  0
VERTEX
  8
AREAS
 10
28.212
 20
97.746
 30
0.0
  0
VERTEX
  8
AREAS
 10
28.198
 20
97.729
 30
0.0
  0
VERTEX
  8
AREAS
 10
28.178
 20
97.717
 30
0.0
  0
VERTEX
  8
AREAS
 10
28.158
 20
97.719
 30
0.0
  0
VERTEX
  8
AREAS
 10
28.138
 20
97.732
 30
0.0
  0
VERTEX
  8
AREAS
 10
28.124
 20
97.747
 30
0.0
  0
VERTEX
  8
AREAS
 10
28.121
 20
97.764
 30
0.0
  0
SEQEND
  8
AREAS
  0
POLYLINE
  8
AREAS
 66
     1
 10
0.0
 20
0.0
 30
0.0
 70
     1
  0
VERTEX
  8
AREAS
 10
27.05
 20
97.381
 30
0.0
  0
VERTEX
  8
AREAS
 10
27.064
 20
97.398
 30
0.0
  0
VERTEX
  8
AREAS
 10
27.084
 20
97.399
 30
0.0
  0
VERTEX
  8
AREAS
 10
27.115
 20
97.406
 30
0.0
  0
VERTEX
  8
AREAS
 10
27.134
 20
97.413
 30
0.0
  0
VERTEX
  8
AREAS
 10
27.143
 20
97.296
 30
0.0
  0
VERTEX
  8
AREAS
 10
27.213
 20
97.312
 30
0.0
  0
VERTEX
  8
AREAS
 10
27.199
 20
97.268
 30
0.0
  0
VERTEX
  8
AREAS
 10
27.22
 20
97.247
 30
0.0
  0
VERTEX
  8
AREAS
 10
27.219
 20
97.217
 30
0.0
  0
VERTEX
  8
AREAS
 10
27.21
 20
97.199
 30
0.0
  0
VERTEX
  8
AREAS
 10
27.171
 20
97.184
 30
0.0
  0
VERTEX
  8
AREAS
 10
27.12
 20
97.176
 30
0.0
  0
VERTEX
  8
AREAS
 10
27.139
 20
97.291
 30
0.0
  0
VERTEX
  8
AREAS
 10
27.075
 20
97.279
 30
0.0
  0
VERTEX
  8
AREAS
 10
27.053
 20
97.353
 30
0.0
  0
SEQEND
  8
AREAS
  0
POLYLINE
  8
AREAS
 66
     1
 10
0.0
 20
0.0
 30
0.0
 70
     1
  0
VERTEX
  8
AREAS
 10
27.834
 20
97.576
 30
0.0
  0
VERTEX
  8
AREAS
 10
27.837
 20
97.593
 30
0.0
  0
VERTEX
  8
AREAS
 10
27.845
 20
97.614
 30
0.0
  0
VERTEX
  8
AREAS
 10
27.869
 20
97.618
 30
0.0
  0
VERTEX
  8
AREAS
 10
27.882
 20
97.612
 30
0.0
  0
VERTEX
  8
AREAS
 10
27.898
 20
97.613
 30
0.0
  0
VERTEX
  8
AREAS
 10
27.906
 20
97.607
 30
0.0
  0
VERTEX
  8
AREAS
 10
27.914
 20
97.596
 30
0.0
  0
VERTEX
  8
AREAS
 10
27.912
 20
97.587
 30
0.0
  0
VERTEX
  8
AREAS
 10
27.895
 20
97.564
 30
0.0
  0
VERTEX
  8
AREAS
 10
27.878
 20
97.56
 30
0.0
  0
VERTEX
  8
AREAS
 10
27.855
 20
97.561
 30
0.0
  0
SEQEND
  8
AREAS
  0
POLYLINE
  8
AREAS
 66
     1
 10
0.0
 20
0.0
 30
0.0
 70
     1
  0
VERTEX
  8
AREAS
 10
27.855
 20
97.807
 30
0.0
  0
VERTEX
  8
AREAS
 10
27.872
 20
97.825
 30
0.0
  0
VERTEX
  8
AREAS
 10
27.887
 20
97.819
 30
0.0
  0
VERTEX
  8
AREAS
 10
27.894
 20
97.815
 30
0.0
  0
VERTEX
  8
AREAS
 10
27.895
 20
97.805
 30
0.0
  0
VERTEX
  8
AREAS
 10
27.893
 20
97.785
 30
0.0
  0
VERTEX
  8
AREAS
 10
27.888
 20
97.773
 30
0.0
  0
VERTEX
  8
AREAS
 10
27.878
 20
97.769
 30
0.0
  0
VERTEX
  8
AREAS
 10
27.863
 20
97.775
 30
0.0
  0
VERTEX
  8
AREAS
 10
27.856
 20
97.789
 30
0.0
  0
SEQEND
  8
AREAS
  0
POLYLINE
  8
AREAS
 66
     1
 10
0.0
 20
0.0
 30
0.0
 70
     1
  0
VERTEX
  8
AREAS
 10
32.496
 20
96.686
 30
0.0
  0
VERTEX
  8
AREAS
 10
32.526
 20
96.701
 30
0.0
  0
VERTEX
  8
AREAS
 10
32.548
 20
96.717
 30
0.0
  0
VERTEX
  8
AREAS
 10
32.564
 20
96.743
 30
0.0
  0
VERTEX
  8
AREAS
 10
32.565
 20
96.757
 30
0.0
  0
VERTEX
  8
AREAS
 10
32.55
 20
96.77
 30
0.0
  0
VERTEX
  8
AREAS
 10
32.529
 20
96.77
 30
0.0
  0
VERTEX
  8
AREAS
 10
32.508
 20
96.766
 30
0.0
  0
VERTEX
  8
AREAS
 10
32.495
 20
96.755
 30
0.0
  0
VERTEX
  8
AREAS
 10
32.479
 20
96.734
 30
0.0
  0
VERTEX
  8
AREAS
 10
32.475
 20
96.722
 30
0.0
  0
VERTEX
  8
AREAS
 10
32.48
 20
96.711
 30
0.0
  0
SEQEND
  8
AREAS
  0
POLYLINE
  8
AREAS
 66
     1
 10
0.0
 20
0.0
 30
0.0
 70
     1
  0
VERTEX
  8
AREAS
 10
32.591
 20
96.728
 30
0.0
  0
VERTEX
  8
AREAS
 10
32.597
 20
96.745
 30
0.0
  0
VERTEX
  8
AREAS
 10
32.602
 20
96.762
 30
0.0
  0
VERTEX
  8
AREAS
 10
32.618
 20
96.77
 30
0.0
  0
VERTEX
  8
AREAS
 10
32.646
 20
96.769
 30
0.0
  0
VERTEX
  8
AREAS
 10
32.639
 20
96.753
 30
0.0
  0
VERTEX
  8
AREAS
 10
32.613
 20
96.71
 30
0.0
  0
VERTEX
  8
AREAS
 10
32.61
 20
96.703
 30
0.0
  0
VERTEX
  8
AREAS
 10
32.597
 20
96.711
 30
0.0
  0
SEQEND
  8
AREAS
  0
POLYLINE
  8
AREAS
 66
     1
 10
0.0
 20
0.0
 30
0.0
 70
     1
  0
VERTEX
  8
AREAS
 10
32.531
 20
96.605
 30
0.0
  0
VERTEX
  8
AREAS
 10
32.536
 20
96.628
 30
0.0
  0
VERTEX
  8
AREAS
 10
32.538
 20
96.661
 30
0.0
  0
VERTEX
  8
AREAS
 10
32.554
 20
96.676
 30
0.0
  0
VERTEX
  8
AREAS
 10
32.577
 20
96.685
 30
0.0
  0
VERTEX
  8
AREAS
 10
32.591
 20
96.672
 30
0.0
  0
VERTEX
  8
AREAS
 10
32.586
 20
96.65
 30
0.0
  0
VERTEX
  8
AREAS
 10
32.58
 20
96.628
 30
0.0
  0
VERTEX
  8
AREAS
 10
32.584
 20
96.611
 30
0.0
  0
VERTEX
  8
AREAS
 10
32.597
 20
96.592
 30
0.0
  0
VERTEX
  8
AREAS
 10
32.614
 20
96.583
 30
0.0
  0
VERTEX
  8
AREAS
 10
32.62
 20
96.565
 30
0.0
  0
VERTEX
  8
AREAS
 10
32.616
 20
96.539
 30
0.0
  0
VERTEX
  8
AREAS
 10
32.607
 20
96.528
 30
0.0
  0
VERTEX
  8
AREAS
 10
32.597
 20
96.525
 30
0.0
  0
VERTEX
  8
AREAS
 10
32.587
 20
96.537
 30
0.0
  0
VERTEX
  8
AREAS
 10
32.565
 20
96.559
 30
0.0
  0
VERTEX
  8
AREAS
 10
32.55
 20
96.567
 30
0.0
  0
SEQEND
  8
AREAS
  0
POLYLINE
  8
AREAS
 66
     1
 10
0.0
 20
0.0
 30
0.0
 70
     1
  0
VERTEX
  8
AREAS
 10
32.521
 20
96.535
 30
0.0
  0
VERTEX
  8
AREAS
 10
32.548
 20
96.532
 30
0.0
  0
VERTEX
  8
AREAS
 10
32.572
 20
96.517
 30
0.0
  0
VERTEX
  8
AREAS
 10
32.571
 20
96.5
 30
0.0
  0
VERTEX
  8
AREAS
 10
32.564
 20
96.492
 30
0.0
  0
VERTEX
  8
AREAS
 10
32.549
 20
96.492
 30
0.0
  0
VERTEX
  8
AREAS
 10
32.518
 20
96.505
 30
0.0
  0
VERTEX
  8
AREAS
 10
32.514
 20
96.52
 30
0.0
  0
SEQEND
  8
AREAS
  0
POLYLINE
  8
AREAS
 66
     1
 10
0.0
 20
0.0
 30
0.0
 70
     1
  0
VERTEX
  8
AREAS
 10
32.669
 20
96.647
 30
0.0
  0
VERTEX
  8
AREAS
 10
32.7
 20
96.65
 30
0.0
  0
VERTEX
  8
AREAS
 10
32.713
 20
96.639
 30
0.0
  0
VERTEX
  8
AREAS
 10
32.719
 20
96.628
 30
0.0
  0
VERTEX
  8
AREAS
 10
32.714
 20
96.609
 30
0.0
  0
VERTEX
  8
AREAS
 10
32.688
 20
96.593
 30
0.0
  0
VERTEX
  8
AREAS
 10
32.674
 20
96.597
 30
0.0
  0
VERTEX
  8
AREAS
 10
32.665
 20
96.599
 30
0.0
  0
VERTEX
  8
AREAS
 10
32.655
 20
96.608
 30
0.0
  0
VERTEX
  8
AREAS
 10
32.662
 20
96.639
 30
0.0
  0
SEQEND
  8
AREAS
  0
POLYLINE
  8
AREAS
 66
     1
 10
0.0
 20
0.0
 30
0.0
 70
     1
  0
VERTEX
  8
AREAS
 10
32.763
 20
96.586
 30
0.0
  0
VERTEX
  8
AREAS
 10
32.814
 20
96.602
 30
0.0
  0
VERTEX
  8
AREAS
 10
32.825
 20
96.608
 30
0.0
  0
VERTEX
  8
AREAS
 10
32.837
 20
96.609
 30
0.0
  0
VERTEX
  8
AREAS
 10
32.854
 20
96.609
 30
0.0
  0
VERTEX
  8
AREAS
 10
32.868
 20
96.606
 30
0.0
  0
VERTEX
  8
AREAS
 10
32.876
 20
96.601
 30
0.0
  0
VERTEX
  8
AREAS
 10
32.876
 20
96.591
 30
0.0
  0
VERTEX
  8
AREAS
 10
32.868
 20
96.571
 30
0.0
  0
VERTEX
  8
AREAS
 10
32.856
 20
96.554
 30
0.0
  0
VERTEX
  8
AREAS
 10
32.84
 20
96.521
 30
0.0
  0
VERTEX
  8
AREAS
 10
32.825
 20
96.479
 30
0.0
  0
VERTEX
  8
AREAS
 10
32.817
 20
96.446
 30
0.0
  0
VERTEX
  8
AREAS
 10
32.804
 20
96.422
 30
0.0
  0
VERTEX
  8
AREAS
 10
32.78
 20
96.412
 30
0.0
  0
VERTEX
  8
AREAS
 10
32.762
 20
96.412
 30
0.0
  0
VERTEX
  8
AREAS
 10
32.754
 20
96.415
 30
0.0
  0
VERTEX
  8
AREAS
 10
32.747
 20
96.427
 30
0.0
  0
VERTEX
  8
AREAS
 10
32.75
 20
96.458
 30
0.0
  0
VERTEX
  8
AREAS
 10
32.74
 20
96.486
 30
0.0
  0
VERTEX
  8
AREAS
 10
32.738
 20
96.496
 30
0.0
  0
VERTEX
  8
AREAS
 10
32.737
 20
96.54
 30
0.0
  0
VERTEX
  8
AREAS
 10
32.741
 20
96.563
 30
0.0
  0
SEQEND
  8
AREAS
  0
POLYLINE
  8
AREAS
 66
     1
 10
0.0
 20
0.0
 30
0.0
 70
     1
  0
VERTEX
  8
AREAS
 10
32.852
 20
96.474
 30
0.0
  0
VERTEX
  8
AREAS
 10
32.857
 20
96.494
 30
0.0
  0
VERTEX
  8
AREAS
 10
32.882
 20
96.535
 30
0.0
  0
VERTEX
  8
AREAS
 10
32.892
 20
96.545
 30
0.0
  0
VERTEX
  8
AREAS
 10
32.914
 20
96.548
 30
0.0
  0
VERTEX
  8
AREAS
 10
32.932
 20
96.536
 30
0.0
  0
VERTEX
  8
AREAS
 10
32.932
 20
96.508
 30
0.0
  0
VERTEX
  8
AREAS
 10
32.918
 20
96.485
 30
0.0
  0
VERTEX
  8
AREAS
 10
32.893
 20
96.468
 30
0.0
  0
VERTEX
  8
AREAS
 10
32.873
 20
96.464
 30
0.0
  0
SEQEND
  8
AREAS
  0
POLYLINE
  8
AREAS
 66
     1
 10
0.0
 20
0.0
 30
0.0
 70
     1
  0
VERTEX
  8
AREAS
 10
32.346
 20
96.74
 30
0.0
  0
VERTEX
  8
AREAS
 10
32.354
 20
96.74
 30
0.0
  0
VERTEX
  8
AREAS
 10
32.379
 20
96.727
 30
0.0
  0
VERTEX
  8
AREAS
 10
32.4
 20
96.709
 30
0.0
  0
VERTEX
  8
AREAS
 10
32.363
 20
96.676
 30
0.0
  0
VERTEX
  8
AREAS
 10
32.341
 20
96.677
 30
0.0
  0
VERTEX
  8
AREAS
 10
32.333
 20
96.699
 30
0.0
  0
VERTEX
  8
AREAS
 10
32.334
 20
96.723
 30
0.0
  0
VERTEX
  8
AREAS
 10
32.342
 20
96.734
 30
0.0
  0
SEQEND
  8
AREAS
  0
POLYLINE
  8
AREAS
 66
     1
 10
0.0
 20
0.0
 30
0.0
 70
     1
  0
VERTEX
  8
AREAS
 10
32.226
 20
96.709
 30
0.0
  0
VERTEX
  8
AREAS
 10
32.291
 20
96.703
 30
0.0
  0
VERTEX
  8
AREAS
 10
32.303
 20
96.696
 30
0.0
  0
VERTEX
  8
AREAS
 10
32.303
 20
96.683
 30
0.0
  0
VERTEX
  8
AREAS
 10
32.3
 20
96.673
 30
0.0
  0
VERTEX
  8
AREAS
 10
32.285
 20
96.674
 30
0.0
  0
VERTEX
  8
AREAS
 10
32.269
 20
96.678
 30
0.0
  0
VERTEX
  8
AREAS
 10
32.253
 20
96.678
 30
0.0
  0
VERTEX
  8
AREAS
 10
32.246
 20
96.674
 30
0.0
  0
SEQEND
  8
AREAS
  0
POLYLINE
  8
AREAS
 66
     1
 10
0.0
 20
0.0
 30
0.0
 70
     1
  0
VERTEX
  8
AREAS
 10
32.269
 20
96.661
 30
0.0
  0
VERTEX
  8
AREAS
 10
32.292
 20
96.655
 30
0.0
  0
VERTEX
  8
AREAS
 10
32.297
 20
96.637
 30
0.0
  0
VERTEX
  8
AREAS
 10
32.289
 20
96.609
 30
0.0
  0
VERTEX
  8
AREAS
 10
32.275
 20
96.598
 30
0.0
  0
VERTEX
  8
AREAS
 10
32.261
 20
96.601
 30
0.0
  0
VERTEX
  8
AREAS
 10
32.251
 20
96.618
 30
0.0
  0
VERTEX
  8
AREAS
 10
32.253
 20
96.645
 30
0.0
  0
SEQEND
  8
AREAS
  0
POLYLINE
  8
AREAS
 66
     1
 10
0.0
 20
0.0
 30
0.0
 70
     1
  0
VERTEX
  8
AREAS
 10
32.257
 20
96.32
 30
0.0
  0
VERTEX
  8
AREAS
 10
32.276
 20
96.328
 30
0.0
  0
VERTEX
  8
AREAS
 10
32.293
 20
96.327
 30
0.0
  0
VERTEX
  8
AREAS
 10
32.303
 20
96.312
 30
0.0
  0
VERTEX
  8
AREAS
 10
32.305
 20
96.294
 30
0.0
  0
VERTEX
  8
AREAS
 10
32.303
 20
96.275
 30
0.0
  0
VERTEX
  8
AREAS
 10
32.289
 20
96.258
 30
0.0
  0
VERTEX
  8
AREAS
 10
32.283
 20
96.256
 30
0.0
  0
SEQEND
  8
AREAS
  0
POLYLINE
  8
AREAS
 66
     1
 10
0.0
 20
0.0
 30
0.0
 70
     1
  0
VERTEX
  8
AREAS
 10
32.21
 20
96.404
 30
0.0
  0
VERTEX
  8
AREAS
 10
32.219
 20
96.419
 30
0.0
  0
VERTEX
  8
AREAS
 10
32.238
 20
96.427
 30
0.0
  0
VERTEX
  8
AREAS
 10
32.288
 20
96.417
 30
0.0
  0
VERTEX
  8
AREAS
 10
32.305
 20
96.413
 30
0.0
  0
VERTEX
  8
AREAS
 10
32.309
 20
96.401
 30
0.0
  0
VERTEX
  8
AREAS
 10
32.297
 20
96.382
 30
0.0
  0
VERTEX
  8
AREAS
 10
32.283
 20
96.379
 30
0.0
  0
VERTEX
  8
AREAS
 10
32.274
 20
96.379
 30
0.0
  0
VERTEX
  8
AREAS
 10
32.262
 20
96.383
 30
0.0
  0
VERTEX
  8
AREAS
 10
32.255
 20
96.383
 30
0.0
  0
SEQEND
  8
AREAS
  0
POLYLINE
  8
AREAS
 66
     1
 10
0.0
 20
0.0
 30
0.0
 70
     1
  0
VERTEX
  8
AREAS
 10
32.093
 20
96.404
 30
0.0
  0
VERTEX
  8
AREAS
 10
32.135
 20
96.467
 30
0.0
  0
VERTEX
  8
AREAS
 10
32.172
 20
96.451
 30
0.0
  0
VERTEX
  8
AREAS
 10
32.179
 20
96.437
 30
0.0
  0
VERTEX
  8
AREAS
 10
32.174
 20
96.41
 30
0.0
  0
VERTEX
  8
AREAS
 10
32.157
 20
96.395
 30
0.0
  0
VERTEX
  8
AREAS
 10
32.139
 20
96.388
 30
0.0
  0
VERTEX
  8
AREAS
 10
32.121
 20
96.394
 30
0.0
  0
VERTEX
  8
AREAS
 10
32.107
 20
96.395
 30
0.0
  0
SEQEND
  8
AREAS
  0
POLYLINE
  8
AREAS
 66
     1
 10
0.0
 20
0.0
 30
0.0
 70
     1
  0
VERTEX
  8
AREAS
 10
31.956
 20
96.625
 30
0.0
  0
VERTEX
  8
AREAS
 10
31.983
 20
96.643
 30
0.0
  0
VERTEX
  8
AREAS
 10
31.997
 20
96.62
 30
0.0
  0
VERTEX
  8
AREAS
 10
31.987
 20
96.598
 30
0.0
  0
VERTEX
  8
AREAS
 10
31.96
 20
96.582
 30
0.0
  0
VERTEX
  8
AREAS
 10
31.949
 20
96.582
 30
0.0
  0
VERTEX
  8
AREAS
 10
31.941
 20
96.593
 30
0.0
  0
SEQEND
  8
AREAS
  0
POLYLINE
  8
AREAS
 66
     1
 10
0.0
 20
0.0
 30
0.0
 70
     1
  0
VERTEX
  8
AREAS
 10
32.017
 20
96.511
 30
0.0
  0
VERTEX
  8
AREAS
 10
32.023
 20
96.533
 30
0.0
  0
VERTEX
  8
AREAS
 10
32.041
 20
96.547
 30
0.0
  0
VERTEX
  8
AREAS
 10
32.071
 20
96.531
 30
0.0
  0
VERTEX
  8
AREAS
 10
32.076
 20
96.522
 30
0.0
  0
VERTEX
  8
AREAS
 10
32.09
 20
96.517
 30
0.0
  0
VERTEX
  8
AREAS
 10
32.036
 20
96.458
 30
0.0
  0
SEQEND
  8
AREAS
  0
POLYLINE
  8
AREAS
 66
     1
 10
0.0
 20
0.0
 30
0.0
 70
     1
  0
VERTEX
  8
AREAS
 10
33.595
 20
96.835
 30
0.0
  0
VERTEX
  8
AREAS
 10
33.615
 20
96.867
 30
0.0
  0
VERTEX
  8
AREAS
 10
33.638
 20
96.877
 30
0.0
  0
VERTEX
  8
AREAS
 10
33.654
 20
96.88
 30
0.0
  0
VERTEX
  8
AREAS
 10
33.676
 20
96.891
 30
0.0
  0
VERTEX
  8
AREAS
 10
33.688
 20
96.881
 30
0.0
  0
VERTEX
  8
AREAS
 10
33.682
 20
96.867
 30
0.0
  0
VERTEX
  8
AREAS
 10
33.657
 20
96.841
 30
0.0
  0
VERTEX
  8
AREAS
 10
33.637
 20
96.818
 30
0.0
  0
VERTEX
  8
AREAS
 10
33.639
 20
96.793
 30
0.0
  0
SEQEND
  8
AREAS
  0
POLYLINE
  8
AREAS
 66
     1
 10
0.0
 20
0.0
 30
0.0
 70
     1
  0
VERTEX
  8
AREAS
 10
33.587
 20
96.604
 30
0.0
  0
VERTEX
  8
AREAS
 10
33.637
 20
96.572
 30
0.0
  0
VERTEX
  8
AREAS
 10
33.635
 20
96.556
 30
0.0
  0
VERTEX
  8
AREAS
 10
33.619
 20
96.538
 30
0.0
  0
VERTEX
  8
AREAS
 10
33.602
 20
96.526
 30
0.0
  0
VERTEX
  8
AREAS
 10
33.591
 20
96.501
 30
0.0
  0
VERTEX
  8
AREAS
 10
33.548
 20
96.529
 30
0.0
  0
VERTEX
  8
AREAS
 10
33.566
 20
96.58
 30
0.0
  0
SEQEND
  8
AREAS
  0
POLYLINE
  8
AREAS
 66
     1
 10
0.0
 20
0.0
 30
0.0
 70
     1
  0
VERTEX
  8
AREAS
 10
33.377
 20
96.407
 30
0.0
  0
VERTEX
  8
AREAS
 10
33.396
 20
96.438
 30
0.0
  0
VERTEX
  8
AREAS
 10
33.42
 20
96.45
 30
0.0
  0
VERTEX
  8
AREAS
 10
33.437
 20
96.407
 30
0.0
  0
VERTEX
  8
AREAS
 10
33.4
 20
96.391
 30
0.0
  0
SEQEND
  8
AREAS
  0
POLYLINE
  8
AREAS
 66
     1
 10
0.0
 20
0.0
 30
0.0
 70
     1
  0
VERTEX
  8
AREAS
 10
33.122
 20
95.933
 30
0.0
  0
VERTEX
  8
AREAS
 10
33.167
 20
95.926
 30
0.0
  0
VERTEX
  8
AREAS
 10
33.167
 20
95.921
 30
0.0
  0
VERTEX
  8
AREAS
 10
33.168
 20
95.907
 30
0.0
  0
VERTEX
  8
AREAS
 10
33.166
 20
95.894
 30
0.0
  0
VERTEX
  8
AREAS
 10
33.153
 20
95.875
 30
0.0
  0
VERTEX
  8
AREAS
 10
33.135
 20
95.861
 30
0.0
  0
VERTEX
  8
AREAS
 10
33.123
 20
95.858
 30
0.0
  0
VERTEX
  8
AREAS
 10
33.107
 20
95.858
 30
0.0
  0
VERTEX
  8
AREAS
 10
33.098
 20
95.875
 30
0.0
  0
VERTEX
  8
AREAS
 10
33.101
 20
95.889
 30
0.0
  0
VERTEX
  8
AREAS
 10
33.117
 20
95.912
 30
0.0
  0
SEQEND
  8
AREAS
  0
POLYLINE
  8
AREAS
 66
     1
 10
0.0
 20
0.0
 30
0.0
 70
     1
  0
VERTEX
  8
AREAS
 10
32.032
 20
94.973
 30
0.0
  0
VERTEX
  8
AREAS
 10
32.027
 20
94.983
 30
0.0
  0
VERTEX
  8
AREAS
 10
31.987
 20
94.991
 30
0.0
  0
VERTEX
  8
AREAS
 10
31.933
 20
94.974
 30
0.0
  0
VERTEX
  8
AREAS
 10
31.912
 20
94.955
 30
0.0
  0
VERTEX
  8
AREAS
 10
31.889
 20
94.917
 30
0.0
  0
VERTEX
  8
AREAS
 10
31.87
 20
94.906
 30
0.0
  0
VERTEX
  8
AREAS
 10
31.859
 20
94.883
 30
0.0
  0
VERTEX
  8
AREAS
 10
31.814
 20
94.84
 30
0.0
  0
VERTEX
  8
AREAS
 10
31.823
 20
94.775
 30
0.0
  0
VERTEX
  8
AREAS
 10
31.817
 20
94.729
 30
0.0
  0
VERTEX
  8
AREAS
 10
31.823
 20
94.715
 30
0.0
  0
VERTEX
  8
AREAS
 10
31.82
 20
94.683
 30
0.0
  0
VERTEX
  8
AREAS
 10
31.842
 20
94.685
 30
0.0
  0
VERTEX
  8
AREAS
 10
31.872
 20
94.692
 30
0.0
  0
VERTEX
  8
AREAS
 10
31.898
 20
94.703
 30
0.0
  0
VERTEX
  8
AREAS
 10
31.907
 20
94.71
 30
0.0
  0
VERTEX
  8
AREAS
 10
31.958
 20
94.71
 30
0.0
  0
VERTEX
  8
AREAS
 10
31.989
 20
94.707
 30
0.0
  0
VERTEX
  8
AREAS
 10
32.025
 20
94.727
 30
0.0
  0
VERTEX
  8
AREAS
 10
32.041
 20
94.747
 30
0.0
  0
VERTEX
  8
AREAS
 10
32.043
 20
94.766
 30
0.0
  0
VERTEX
  8
AREAS
 10
32.03
 20
94.797
 30
0.0
  0
VERTEX
  8
AREAS
 10
32.001
 20
94.81
 30
0.0
  0
VERTEX
  8
AREAS
 10
31.965
 20
94.801
 30
0.0
  0
VERTEX
  8
AREAS
 10
31.902
 20
94.792
 30
0.0
  0
VERTEX
  8
AREAS
 10
31.878
 20
94.802
 30
0.0
  0
VERTEX
  8
AREAS
 10
31.874
 20
94.847
 30
0.0
  0
VERTEX
  8
AREAS
 10
31.934
 20
94.882
 30
0.0
  0
VERTEX
  8
AREAS
 10
31.93
 20
94.906
 30
0.0
  0
VERTEX
  8
AREAS
 10
31.941
 20
94.926
 30
0.0
  0
VERTEX
  8
AREAS
 10
31.969
 20
94.945
 30
0.0
  0
VERTEX
  8
AREAS
 10
31.991
 20
94.952
 30
0.0
  0
VERTEX
  8
AREAS
 10
32.02
 20
94.967
 30
0.0
  0
SEQEND
  8
AREAS
  0
POLYLINE
  8
AREAS
 66
     1
 10
0.0
 20
0.0
 30
0.0
 70
     1
  0
VERTEX
  8
AREAS
 10
32.037
 20
94.971
 30
0.0
  0
VERTEX
  8
AREAS
 10
32.041
 20
94.98
 30
0.0
  0
VERTEX
  8
AREAS
 10
32.064
 20
94.986
 30
0.0
  0
VERTEX
  8
AREAS
 10
32.081
 20
94.98
 30
0.0
  0
VERTEX
  8
AREAS
 10
32.086
 20
94.965
 30
0.0
  0
VERTEX
  8
AREAS
 10
32.093
 20
94.931
 30
0.0
  0
VERTEX
  8
AREAS
 10
32.079
 20
94.898
 30
0.0
  0
VERTEX
  8
AREAS
 10
32.061
 20
94.888
 30
0.0
  0
VERTEX
  8
AREAS
 10
32.028
 20
94.885
 30
0.0
  0
SEQEND
  8
AREAS
  0
POLYLINE
  8
AREAS
 66
     1
 10
0.0
 20
0.0
 30
0.0
 70
     1
  0
VERTEX
  8
AREAS
 10
32.083
 20
94.75
 30
0.0
  0
VERTEX
  8
AREAS
 10
32.115
 20
94.752
 30
0.0
  0
VERTEX
  8
AREAS
 10
32.133
 20
94.724
 30
0.0
  0
VERTEX
  8
AREAS
 10
32.133
 20
94.706
 30
0.0
  0
VERTEX
  8
AREAS
 10
32.131
 20
94.689
 30
0.0
  0
VERTEX
  8
AREAS
 10
32.119
 20
94.679
 30
0.0
  0
VERTEX
  8
AREAS
 10
32.107
 20
94.677
 30
0.0
  0
VERTEX
  8
AREAS
 10
32.092
 20
94.683
 30
0.0
  0
VERTEX
  8
AREAS
 10
32.082
 20
94.701
 30
0.0
  0
VERTEX
  8
AREAS
 10
32.091
 20
94.726
 30
0.0
  0
SEQEND
  8
AREAS
  0
POLYLINE
  8
AREAS
 66
     1
 10
0.0
 20
0.0
 30
0.0
 70
     1
  0
VERTEX
  8
AREAS
 10
31.343
 20
95.293
 30
0.0
  0
VERTEX
  8
AREAS
 10
31.373
 20
95.308
 30
0.0
  0
VERTEX
  8
AREAS
 10
31.391
 20
95.297
 30
0.0
  0
VERTEX
  8
AREAS
 10
31.4
 20
95.276
 30
0.0
  0
VERTEX
  8
AREAS
 10
31.41
 20
95.252
 30
0.0
  0
VERTEX
  8
AREAS
 10
31.421
 20
95.236
 30
0.0
  0
VERTEX
  8
AREAS
 10
31.432
 20
95.227
 30
0.0
  0
VERTEX
  8
AREAS
 10
31.345
 20
95.21
 30
0.0
  0
VERTEX
  8
AREAS
 10
31.377
 20
95.139
 30
0.0
  0
VERTEX
  8
AREAS
 10
31.425
 20
95.133
 30
0.0
  0
VERTEX
  8
AREAS
 10
31.465
 20
95.136
 30
0.0
  0
VERTEX
  8
AREAS
 10
31.464
 20
95.115
 30
0.0
  0
VERTEX
  8
AREAS
 10
31.46
 20
95.1
 30
0.0
  0
VERTEX
  8
AREAS
 10
31.462
 20
95.081
 30
0.0
  0
VERTEX
  8
AREAS
 10
31.46
 20
95.06
 30
0.0
  0
VERTEX
  8
AREAS
 10
31.455
 20
95.046
 30
0.0
  0
VERTEX
  8
AREAS
 10
31.445
 20
95.044
 30
0.0
  0
VERTEX
  8
AREAS
 10
31.425
 20
95.06
 30
0.0
  0
VERTEX
  8
AREAS
 10
31.402
 20
95.047
 30
0.0
  0
VERTEX
  8
AREAS
 10
31.351
 20
95.049
 30
0.0
  0
VERTEX
  8
AREAS
 10
31.32
 20
95.065
 30
0.0
  0
VERTEX
  8
AREAS
 10
31.307
 20
95.075
 30
0.0
  0
VERTEX
  8
AREAS
 10
31.299
 20
95.081
 30
0.0
  0
VERTEX
  8
AREAS
 10
31.295
 20
95.099
 30
0.0
  0
VERTEX
  8
AREAS
 10
31.292
 20
95.104
 30
0.0
  0
VERTEX
  8
AREAS
 10
31.299
 20
95.128
 30
0.0
  0
VERTEX
  8
AREAS
 10
31.297
 20
95.151
 30
0.0
  0
VERTEX
  8
AREAS
 10
31.284
 20
95.166
 30
0.0
  0
VERTEX
  8
AREAS
 10
31.277
 20
95.186
 30
0.0
  0
VERTEX
  8
AREAS
 10
31.276
 20
95.2
 30
0.0
  0
VERTEX
  8
AREAS
 10
31.278
 20
95.234
 30
0.0
  0
VERTEX
  8
AREAS
 10
31.285
 20
95.249
 30
0.0
  0
VERTEX
  8
AREAS
 10
31.287
 20
95.261
 30
0.0
  0
VERTEX
  8
AREAS
 10
31.306
 20
95.28
 30
0.0
  0
VERTEX
  8
AREAS
 10
31.331
 20
95.286
 30
0.0
  0
SEQEND
  8
AREAS
  0
POLYLINE
  8
AREAS
 66
     1
 10
0.0
 20
0.0
 30
0.0
 70
     1
  0
VERTEX
  8
AREAS
 10
31.601
 20
94.973
 30
0.0
  0
VERTEX
  8
AREAS
 10
31.609
 20
95.011
 30
0.0
  0
VERTEX
  8
AREAS
 10
31.578
 20
95.044
 30
0.0
  0
VERTEX
  8
AREAS
 10
31.561
 20
95.048
 30
0.0
  0
VERTEX
  8
AREAS
 10
31.547
 20
95.04
 30
0.0
  0
VERTEX
  8
AREAS
 10
31.548
 20
95.013
 30
0.0
  0
VERTEX
  8
AREAS
 10
31.569
 20
94.986
 30
0.0
  0
VERTEX
  8
AREAS
 10
31.583
 20
94.978
 30
0.0
  0
SEQEND
  8
AREAS
  0
POLYLINE
  8
AREAS
 66
     1
 10
0.0
 20
0.0
 30
0.0
 70
     1
  0
VERTEX
  8
AREAS
 10
32.168
 20
95.514
 30
0.0
  0
VERTEX
  8
AREAS
 10
32.14
 20
95.543
 30
0.0
  0
VERTEX
  8
AREAS
 10
32.142
 20
95.587
 30
0.0
  0
VERTEX
  8
AREAS
 10
32.166
 20
95.612
 30
0.0
  0
VERTEX
  8
AREAS
 10
32.192
 20
95.658
 30
0.0
  0
VERTEX
  8
AREAS
 10
32.228
 20
95.674
 30
0.0
  0
VERTEX
  8
AREAS
 10
32.238
 20
95.671
 30
0.0
  0
VERTEX
  8
AREAS
 10
32.247
 20
95.658
 30
0.0
  0
VERTEX
  8
AREAS
 10
32.245
 20
95.647
 30
0.0
  0
VERTEX
  8
AREAS
 10
32.218
 20
95.622
 30
0.0
  0
VERTEX
  8
AREAS
 10
32.204
 20
95.6
 30
0.0
  0
VERTEX
  8
AREAS
 10
32.196
 20
95.579
 30
0.0
  0
VERTEX
  8
AREAS
 10
32.208
 20
95.555
 30
0.0
  0
VERTEX
  8
AREAS
 10
32.236
 20
95.553
 30
0.0
  0
VERTEX
  8
AREAS
 10
32.259
 20
95.543
 30
0.0
  0
VERTEX
  8
AREAS
 10
32.256
 20
95.475
 30
0.0
  0
VERTEX
  8
AREAS
 10
32.227
 20
95.48
 30
0.0
  0
VERTEX
  8
AREAS
 10
32.175
 20
95.512
 30
0.0
  0
SEQEND
  8
AREAS
  0
POLYLINE
  8
AREAS
 66
     1
 10
0.0
 20
0.0
 30
0.0
 70
     1
  0
VERTEX
  8
AREAS
 10
31.987
 20
95.496
 30
0.0
  0
VERTEX
  8
AREAS
 10
32.006
 20
95.505
 30
0.0
  0
VERTEX
  8
AREAS
 10
32.042
 20
95.491
 30
0.0
  0
VERTEX
  8
AREAS
 10
32.047
 20
95.476
 30
0.0
  0
VERTEX
  8
AREAS
 10
32.081
 20
95.476
 30
0.0
  0
VERTEX
  8
AREAS
 10
32.125
 20
95.463
 30
0.0
  0
VERTEX
  8
AREAS
 10
32.155
 20
95.457
 30
0.0
  0
VERTEX
  8
AREAS
 10
32.177
 20
95.443
 30
0.0
  0
VERTEX
  8
AREAS
 10
32.214
 20
95.442
 30
0.0
  0
VERTEX
  8
AREAS
 10
32.259
 20
95.428
 30
0.0
  0
VERTEX
  8
AREAS
 10
32.258
 20
95.382
 30
0.0
  0
VERTEX
  8
AREAS
 10
32.221
 20
95.363
 30
0.0
  0
VERTEX
  8
AREAS
 10
32.21
 20
95.352
 30
0.0
  0
VERTEX
  8
AREAS
 10
32.207
 20
95.337
 30
0.0
  0
VERTEX
  8
AREAS
 10
32.206
 20
95.319
 30
0.0
  0
VERTEX
  8
AREAS
 10
32.189
 20
95.299
 30
0.0
  0
VERTEX
  8
AREAS
 10
32.174
 20
95.297
 30
0.0
  0
VERTEX
  8
AREAS
 10
32.161
 20
95.315
 30
0.0
  0
VERTEX
  8
AREAS
 10
32.16
 20
95.331
 30
0.0
  0
VERTEX
  8
AREAS
 10
32.146
 20
95.349
 30
0.0
  0
VERTEX
  8
AREAS
 10
32.135
 20
95.357
 30
0.0
  0
VERTEX
  8
AREAS
 10
32.102
 20
95.373
 30
0.0
  0
VERTEX
  8
AREAS
 10
32.085
 20
95.372
 30
0.0
  0
VERTEX
  8
AREAS
 10
32.063
 20
95.366
 30
0.0
  0
VERTEX
  8
AREAS
 10
32.046
 20
95.349
 30
0.0
  0
VERTEX
  8
AREAS
 10
32.025
 20
95.353
 30
0.0
  0
VERTEX
  8
AREAS
 10
32.006
 20
95.37
 30
0.0
  0
VERTEX
  8
AREAS
 10
31.999
 20
95.389
 30
0.0
  0
VERTEX
  8
AREAS
 10
32.004
 20
95.425
 30
0.0
  0
VERTEX
  8
AREAS
 10
32.001
 20
95.445
 30
0.0
  0
VERTEX
  8
AREAS
 10
31.993
 20
95.468
 30
0.0
  0
VERTEX
  8
AREAS
 10
31.987
 20
95.485
 30
0.0
  0
SEQEND
  8
AREAS
  0
POLYLINE
  8
AREAS
 66
     1
 10
0.0
 20
0.0
 30
0.0
 70
     1
  0
VERTEX
  8
AREAS
 10
32.266
 20
94.972
 30
0.0
  0
VERTEX
  8
AREAS
 10
32.297
 20
95.002
 30
0.0
  0
VERTEX
  8
AREAS
 10
32.326
 20
95.015
 30
0.0
  0
VERTEX
  8
AREAS
 10
32.348
 20
95.017
 30
0.0
  0
VERTEX
  8
AREAS
 10
32.361
 20
95.017
 30
0.0
  0
VERTEX
  8
AREAS
 10
32.382
 20
95.012
 30
0.0
  0
VERTEX
  8
AREAS
 10
32.416
 20
95.014
 30
0.0
  0
VERTEX
  8
AREAS
 10
32.433
 20
95.007
 30
0.0
  0
VERTEX
  8
AREAS
 10
32.436
 20
95.003
 30
0.0
  0
VERTEX
  8
AREAS
 10
32.431
 20
94.971
 30
0.0
  0
VERTEX
  8
AREAS
 10
32.418
 20
94.948
 30
0.0
  0
VERTEX
  8
AREAS
 10
32.4
 20
94.931
 30
0.0
  0
VERTEX
  8
AREAS
 10
32.388
 20
94.932
 30
0.0
  0
VERTEX
  8
AREAS
 10
32.376
 20
94.945
 30
0.0
  0
VERTEX
  8
AREAS
 10
32.372
 20
94.952
 30
0.0
  0
VERTEX
  8
AREAS
 10
32.372
 20
94.961
 30
0.0
  0
VERTEX
  8
AREAS
 10
32.357
 20
94.977
 30
0.0
  0
VERTEX
  8
AREAS
 10
32.346
 20
94.976
 30
0.0
  0
VERTEX
  8
AREAS
 10
32.336
 20
94.973
 30
0.0
  0
VERTEX
  8
AREAS
 10
32.331
 20
94.964
 30
0.0
  0
VERTEX
  8
AREAS
 10
32.321
 20
94.951
 30
0.0
  0
VERTEX
  8
AREAS
 10
32.283
 20
94.972
 30
0.0
  0
SEQEND
  8
AREAS
  0
POLYLINE
  8
AREAS
 66
     1
 10
0.0
 20
0.0
 30
0.0
 70
     1
  0
VERTEX
  8
AREAS
 10
32.484
 20
95.292
 30
0.0
  0
VERTEX
  8
AREAS
 10
32.531
 20
95.276
 30
0.0
  0
VERTEX
  8
AREAS
 10
32.565
 20
95.266
 30
0.0
  0
VERTEX
  8
AREAS
 10
32.568
 20
95.241
 30
0.0
  0
VERTEX
  8
AREAS
 10
32.548
 20
95.207
 30
0.0
  0
VERTEX
  8
AREAS
 10
32.529
 20
95.203
 30
0.0
  0
VERTEX
  8
AREAS
 10
32.501
 20
95.202
 30
0.0
  0
VERTEX
  8
AREAS
 10
32.48
 20
95.216
 30
0.0
  0
VERTEX
  8
AREAS
 10
32.456
 20
95.225
 30
0.0
  0
VERTEX
  8
AREAS
 10
32.45
 20
95.238
 30
0.0
  0
VERTEX
  8
AREAS
 10
32.45
 20
95.261
 30
0.0
  0
VERTEX
  8
AREAS
 10
32.458
 20
95.277
 30
0.0
  0
VERTEX
  8
AREAS
 10
32.47
 20
95.285
 30
0.0
  0
SEQEND
  8
AREAS
  0
POLYLINE
  8
AREAS
 66
     1
 10
0.0
 20
0.0
 30
0.0
 70
     1
  0
VERTEX
  8
AREAS
 10
31.638
 20
95.4
 30
0.0
  0
VERTEX
  8
AREAS
 10
31.658
 20
95.38
 30
0.0
  0
VERTEX
  8
AREAS
 10
31.657
 20
95.351
 30
0.0
  0
VERTEX
  8
AREAS
 10
31.652
 20
95.319
 30
0.0
  0
VERTEX
  8
AREAS
 10
31.631
 20
95.307
 30
0.0
  0
VERTEX
  8
AREAS
 10
31.616
 20
95.313
 30
0.0
  0
VERTEX
  8
AREAS
 10
31.619
 20
95.362
 30
0.0
  0
VERTEX
  8
AREAS
 10
31.624
 20
95.382
 30
0.0
  0
SEQEND
  8
AREAS
  0
POLYLINE
  8
AREAS
 66
     1
 10
0.0
 20
0.0
 30
0.0
 70
     1
  0
VERTEX
  8
AREAS
 10
31.673
 20
95.475
 30
0.0
  0
VERTEX
  8
AREAS
 10
31.699
 20
95.49
 30
0.0
  0
VERTEX
  8
AREAS
 10
31.736
 20
95.492
 30
0.0
  0
VERTEX
  8
AREAS
 10
31.758
 20
95.484
 30
0.0
  0
VERTEX
  8
AREAS
 10
31.763
 20
95.468
 30
0.0
  0
VERTEX
  8
AREAS
 10
31.76
 20
95.455
 30
0.0
  0
VERTEX
  8
AREAS
 10
31.753
 20
95.448
 30
0.0
  0
VERTEX
  8
AREAS
 10
31.748
 20
95.445
 30
0.0
  0
VERTEX
  8
AREAS
 10
31.744
 20
95.443
 30
0.0
  0
VERTEX
  8
AREAS
 10
31.74
 20
95.44
 30
0.0
  0
VERTEX
  8
AREAS
 10
31.736
 20
95.439
 30
0.0
  0
VERTEX
  8
AREAS
 10
31.73
 20
95.436
 30
0.0
  0
VERTEX
  8
AREAS
 10
31.726
 20
95.434
 30
0.0
  0
VERTEX
  8
AREAS
 10
31.681
 20
95.447
 30
0.0
  0
VERTEX
  8
AREAS
 10
31.674
 20
95.459
 30
0.0
  0
SEQEND
  8
AREAS
  0
POLYLINE
  8
AREAS
 66
     1
 10
0.0
 20
0.0
 30
0.0
 70
     1
  0
VERTEX
  8
AREAS
 10
32.129
 20
96.078
 30
0.0
  0
VERTEX
  8
AREAS
 10
32.125
 20
96.083
 30
0.0
  0
VERTEX
  8
AREAS
 10
32.123
 20
96.098
 30
0.0
  0
VERTEX
  8
AREAS
 10
32.124
 20
96.105
 30
0.0
  0
VERTEX
  8
AREAS
 10
32.13
 20
96.118
 30
0.0
  0
VERTEX
  8
AREAS
 10
32.141
 20
96.131
 30
0.0
  0
VERTEX
  8
AREAS
 10
32.148
 20
96.135
 30
0.0
  0
VERTEX
  8
AREAS
 10
32.162
 20
96.137
 30
0.0
  0
VERTEX
  8
AREAS
 10
32.173
 20
96.129
 30
0.0
  0
VERTEX
  8
AREAS
 10
32.174
 20
96.12
 30
0.0
  0
VERTEX
  8
AREAS
 10
32.173
 20
96.109
 30
0.0
  0
VERTEX
  8
AREAS
 10
32.165
 20
96.094
 30
0.0
  0
VERTEX
  8
AREAS
 10
32.152
 20
96.079
 30
0.0
  0
VERTEX
  8
AREAS
 10
32.139
 20
96.077
 30
0.0
  0
SEQEND
  8
AREAS
  0
POLYLINE
  8
AREAS
 66
     1
 10
0.0
 20
0.0
 30
0.0
 70
     1
  0
VERTEX
  8
AREAS
 10
32.479
 20
95.712
 30
0.0
  0
VERTEX
  8
AREAS
 10
32.495
 20
95.709
 30
0.0
  0
VERTEX
  8
AREAS
 10
32.502
 20
95.7
 30
0.0
  0
VERTEX
  8
AREAS
 10
32.535
 20
95.681
 30
0.0
  0
VERTEX
  8
AREAS
 10
32.55
 20
95.666
 30
0.0
  0
VERTEX
  8
AREAS
 10
32.555
 20
95.666
 30
0.0
  0
VERTEX
  8
AREAS
 10
32.563
 20
95.662
 30
0.0
  0
VERTEX
  8
AREAS
 10
32.577
 20
95.661
 30
0.0
  0
VERTEX
  8
AREAS
 10
32.545
 20
95.589
 30
0.0
  0
VERTEX
  8
AREAS
 10
32.532
 20
95.589
 30
0.0
  0
VERTEX
  8
AREAS
 10
32.513
 20
95.596
 30
0.0
  0
VERTEX
  8
AREAS
 10
32.499
 20
95.609
 30
0.0
  0
VERTEX
  8
AREAS
 10
32.487
 20
95.63
 30
0.0
  0
VERTEX
  8
AREAS
 10
32.473
 20
95.634
 30
0.0
  0
VERTEX
  8
AREAS
 10
32.459
 20
95.642
 30
0.0
  0
VERTEX
  8
AREAS
 10
32.437
 20
95.65
 30
0.0
  0
VERTEX
  8
AREAS
 10
32.427
 20
95.674
 30
0.0
  0
VERTEX
  8
AREAS
 10
32.437
 20
95.691
 30
0.0
  0
SEQEND
  8
AREAS
  0
POLYLINE
  8
AREAS
 66
     1
 10
0.0
 20
0.0
 30
0.0
 70
     1
  0
VERTEX
  8
AREAS
 10
32.691
 20
95.549
 30
0.0
  0
VERTEX
  8
AREAS
 10
32.762
 20
95.564
 30
0.0
  0
VERTEX
  8
AREAS
 10
32.768
 20
95.556
 30
0.0
  0
VERTEX
  8
AREAS
 10
32.744
 20
95.511
 30
0.0
  0
VERTEX
  8
AREAS
 10
32.728
 20
95.496
 30
0.0
  0
VERTEX
  8
AREAS
 10
32.715
 20
95.488
 30
0.0
  0
VERTEX
  8
AREAS
 10
32.707
 20
95.485
 30
0.0
  0
VERTEX
  8
AREAS
 10
32.697
 20
95.485
 30
0.0
  0
VERTEX
  8
AREAS
 10
32.686
 20
95.491
 30
0.0
  0
VERTEX
  8
AREAS
 10
32.682
 20
95.507
 30
0.0
  0
VERTEX
  8
AREAS
 10
32.688
 20
95.53
 30
0.0
  0
SEQEND
  8
AREAS
  0
POLYLINE
  8
AREAS
 66
     1
 10
0.0
 20
0.0
 30
0.0
 70
     1
  0
VERTEX
  8
AREAS
 10
32.514
 20
95.909
 30
0.0
  0
VERTEX
  8
AREAS
 10
32.525
 20
95.917
 30
0.0
  0
VERTEX
  8
AREAS
 10
32.573
 20
95.926
 30
0.0
  0
VERTEX
  8
AREAS
 10
32.578
 20
95.885
 30
0.0
  0
VERTEX
  8
AREAS
 10
32.557
 20
95.88
 30
0.0
  0
VERTEX
  8
AREAS
 10
32.538
 20
95.881
 30
0.0
  0
VERTEX
  8
AREAS
 10
32.521
 20
95.881
 30
0.0
  0
VERTEX
  8
AREAS
 10
32.51
 20
95.884
 30
0.0
  0
SEQEND
  8
AREAS
  0
POLYLINE
  8
AREAS
 66
     1
 10
0.0
 20
0.0
 30
0.0
 70
     1
  0
VERTEX
  8
AREAS
 10
34.196
 20
94.635
 30
0.0
  0
VERTEX
  8
AREAS
 10
34.224
 20
94.661
 30
0.0
  0
VERTEX
  8
AREAS
 10
34.21
 20
94.707
 30
0.0
  0
VERTEX
  8
AREAS
 10
34.232
 20
94.737
 30
0.0
  0
VERTEX
  8
AREAS
 10
34.298
 20
94.735
 30
0.0
  0
VERTEX
  8
AREAS
 10
34.335
 20
94.731
 30
0.0
  0
VERTEX
  8
AREAS
 10
34.368
 20
94.717
 30
0.0
  0
VERTEX
  8
AREAS
 10
34.382
 20
94.686
 30
0.0
  0
VERTEX
  8
AREAS
 10
34.388
 20
94.657
 30
0.0
  0
VERTEX
  8
AREAS
 10
34.388
 20
94.639
 30
0.0
  0
VERTEX
  8
AREAS
 10
34.399
 20
94.627
 30
0.0
  0
VERTEX
  8
AREAS
 10
34.393
 20
94.588
 30
0.0
  0
VERTEX
  8
AREAS
 10
34.413
 20
94.53
 30
0.0
  0
VERTEX
  8
AREAS
 10
34.417
 20
94.495
 30
0.0
  0
VERTEX
  8
AREAS
 10
34.43
 20
94.487
 30
0.0
  0
VERTEX
  8
AREAS
 10
34.448
 20
94.436
 30
0.0
  0
VERTEX
  8
AREAS
 10
34.508
 20
94.395
 30
0.0
  0
VERTEX
  8
AREAS
 10
34.536
 20
94.405
 30
0.0
  0
VERTEX
  8
AREAS
 10
34.581
 20
94.403
 30
0.0
  0
VERTEX
  8
AREAS
 10
34.618
 20
94.387
 30
0.0
  0
VERTEX
  8
AREAS
 10
34.604
 20
94.354
 30
0.0
  0
VERTEX
  8
AREAS
 10
34.573
 20
94.36
 30
0.0
  0
VERTEX
  8
AREAS
 10
34.557
 20
94.338
 30
0.0
  0
VERTEX
  8
AREAS
 10
34.625
 20
94.311
 30
0.0
  0
VERTEX
  8
AREAS
 10
34.653
 20
94.374
 30
0.0
  0
VERTEX
  8
AREAS
 10
34.69
 20
94.372
 30
0.0
  0
VERTEX
  8
AREAS
 10
34.75
 20
94.358
 30
0.0
  0
VERTEX
  8
AREAS
 10
34.752
 20
94.34
 30
0.0
  0
VERTEX
  8
AREAS
 10
34.762
 20
94.331
 30
0.0
  0
VERTEX
  8
AREAS
 10
34.762
 20
94.317
 30
0.0
  0
VERTEX
  8
AREAS
 10
34.752
 20
94.301
 30
0.0
  0
VERTEX
  8
AREAS
 10
34.676
 20
94.338
 30
0.0
  0
VERTEX
  8
AREAS
 10
34.692
 20
94.274
 30
0.0
  0
VERTEX
  8
AREAS
 10
34.676
 20
94.254
 30
0.0
  0
VERTEX
  8
AREAS
 10
34.655
 20
94.247
 30
0.0
  0
VERTEX
  8
AREAS
 10
34.635
 20
94.247
 30
0.0
  0
VERTEX
  8
AREAS
 10
34.618
 20
94.258
 30
0.0
  0
VERTEX
  8
AREAS
 10
34.61
 20
94.284
 30
0.0
  0
VERTEX
  8
AREAS
 10
34.567
 20
94.297
 30
0.0
  0
VERTEX
  8
AREAS
 10
34.54
 20
94.313
 30
0.0
  0
VERTEX
  8
AREAS
 10
34.479
 20
94.327
 30
0.0
  0
VERTEX
  8
AREAS
 10
34.45
 20
94.319
 30
0.0
  0
VERTEX
  8
AREAS
 10
34.454
 20
94.293
 30
0.0
  0
VERTEX
  8
AREAS
 10
34.454
 20
94.278
 30
0.0
  0
VERTEX
  8
AREAS
 10
34.442
 20
94.264
 30
0.0
  0
VERTEX
  8
AREAS
 10
34.466
 20
94.223
 30
0.0
  0
VERTEX
  8
AREAS
 10
34.475
 20
94.198
 30
0.0
  0
VERTEX
  8
AREAS
 10
34.471
 20
94.18
 30
0.0
  0
VERTEX
  8
AREAS
 10
34.471
 20
94.172
 30
0.0
  0
VERTEX
  8
AREAS
 10
34.481
 20
94.159
 30
0.0
  0
VERTEX
  8
AREAS
 10
34.493
 20
94.169
 30
0.0
  0
VERTEX
  8
AREAS
 10
34.53
 20
94.182
 30
0.0
  0
VERTEX
  8
AREAS
 10
34.549
 20
94.176
 30
0.0
  0
VERTEX
  8
AREAS
 10
34.561
 20
94.163
 30
0.0
  0
VERTEX
  8
AREAS
 10
34.559
 20
94.149
 30
0.0
  0
VERTEX
  8
AREAS
 10
34.579
 20
94.108
 30
0.0
  0
VERTEX
  8
AREAS
 10
34.579
 20
94.092
 30
0.0
  0
VERTEX
  8
AREAS
 10
34.561
 20
94.073
 30
0.0
  0
VERTEX
  8
AREAS
 10
34.542
 20
94.061
 30
0.0
  0
VERTEX
  8
AREAS
 10
34.514
 20
94.049
 30
0.0
  0
VERTEX
  8
AREAS
 10
34.487
 20
94.051
 30
0.0
  0
VERTEX
  8
AREAS
 10
34.469
 20
94.067
 30
0.0
  0
VERTEX
  8
AREAS
 10
34.448
 20
94.112
 30
0.0
  0
VERTEX
  8
AREAS
 10
34.442
 20
94.126
 30
0.0
  0
VERTEX
  8
AREAS
 10
34.411
 20
94.124
 30
0.0
  0
VERTEX
  8
AREAS
 10
34.411
 20
94.11
 30
0.0
  0
VERTEX
  8
AREAS
 10
34.395
 20
94.096
 30
0.0
  0
VERTEX
  8
AREAS
 10
34.376
 20
94.087
 30
0.0
  0
VERTEX
  8
AREAS
 10
34.356
 20
94.085
 30
0.0
  0
VERTEX
  8
AREAS
 10
34.356
 20
94.071
 30
0.0
  0
VERTEX
  8
AREAS
 10
34.39
 20
94.048
 30
0.0
  0
VERTEX
  8
AREAS
 10
34.401
 20
94.024
 30
0.0
  0
VERTEX
  8
AREAS
 10
34.401
 20
94.005
 30
0.0
  0
VERTEX
  8
AREAS
 10
34.37
 20
93.997
 30
0.0
  0
VERTEX
  8
AREAS
 10
34.345
 20
94.001
 30
0.0
  0
VERTEX
  8
AREAS
 10
34.333
 20
94.01
 30
0.0
  0
VERTEX
  8
AREAS
 10
34.317
 20
94.028
 30
0.0
  0
VERTEX
  8
AREAS
 10
34.302
 20
94.026
 30
0.0
  0
VERTEX
  8
AREAS
 10
34.265
 20
94.049
 30
0.0
  0
VERTEX
  8
AREAS
 10
34.235
 20
94.044
 30
0.0
  0
VERTEX
  8
AREAS
 10
34.206
 20
94.051
 30
0.0
  0
VERTEX
  8
AREAS
 10
34.193
 20
94.051
 30
0.0
  0
VERTEX
  8
AREAS
 10
34.189
 20
94.067
 30
0.0
  0
VERTEX
  8
AREAS
 10
34.167
 20
94.055
 30
0.0
  0
VERTEX
  8
AREAS
 10
34.155
 20
94.044
 30
0.0
  0
VERTEX
  8
AREAS
 10
34.14
 20
94.042
 30
0.0
  0
VERTEX
  8
AREAS
 10
34.122
 20
94.053
 30
0.0
  0
VERTEX
  8
AREAS
 10
34.124
 20
94.067
 30
0.0
  0
VERTEX
  8
AREAS
 10
34.115
 20
94.067
 30
0.0
  0
VERTEX
  8
AREAS
 10
34.093
 20
94.075
 30
0.0
  0
VERTEX
  8
AREAS
 10
34.089
 20
94.104
 30
0.0
  0
VERTEX
  8
AREAS
 10
34.089
 20
94.126
 30
0.0
  0
VERTEX
  8
AREAS
 10
34.077
 20
94.153
 30
0.0
  0
VERTEX
  8
AREAS
 10
34.029
 20
94.178
 30
0.0
  0
VERTEX
  8
AREAS
 10
34.021
 20
94.219
 30
0.0
  0
VERTEX
  8
AREAS
 10
33.996
 20
94.245
 30
0.0
  0
VERTEX
  8
AREAS
 10
33.98
 20
94.26
 30
0.0
  0
VERTEX
  8
AREAS
 10
33.984
 20
94.286
 30
0.0
  0
VERTEX
  8
AREAS
 10
33.996
 20
94.309
 30
0.0
  0
VERTEX
  8
AREAS
 10
33.996
 20
94.331
 30
0.0
  0
VERTEX
  8
AREAS
 10
33.992
 20
94.358
 30
0.0
  0
VERTEX
  8
AREAS
 10
34.044
 20
94.377
 30
0.0
  0
VERTEX
  8
AREAS
 10
34.062
 20
94.375
 30
0.0
  0
VERTEX
  8
AREAS
 10
34.076
 20
94.36
 30
0.0
  0
VERTEX
  8
AREAS
 10
34.068
 20
94.342
 30
0.0
  0
VERTEX
  8
AREAS
 10
34.04
 20
94.336
 30
0.0
  0
VERTEX
  8
AREAS
 10
34.007
 20
94.311
 30
0.0
  0
VERTEX
  8
AREAS
 10
34.068
 20
94.26
 30
0.0
  0
VERTEX
  8
AREAS
 10
34.099
 20
94.333
 30
0.0
  0
VERTEX
  8
AREAS
 10
34.126
 20
94.307
 30
0.0
  0
VERTEX
  8
AREAS
 10
34.157
 20
94.299
 30
0.0
  0
VERTEX
  8
AREAS
 10
34.165
 20
94.295
 30
0.0
  0
VERTEX
  8
AREAS
 10
34.198
 20
94.295
 30
0.0
  0
VERTEX
  8
AREAS
 10
34.239
 20
94.319
 30
0.0
  0
VERTEX
  8
AREAS
 10
34.286
 20
94.372
 30
0.0
  0
VERTEX
  8
AREAS
 10
34.306
 20
94.401
 30
0.0
  0
VERTEX
  8
AREAS
 10
34.294
 20
94.413
 30
0.0
  0
VERTEX
  8
AREAS
 10
34.284
 20
94.44
 30
0.0
  0
VERTEX
  8
AREAS
 10
34.267
 20
94.446
 30
0.0
  0
VERTEX
  8
AREAS
 10
34.259
 20
94.498
 30
0.0
  0
VERTEX
  8
AREAS
 10
34.235
 20
94.569
 30
0.0
  0
VERTEX
  8
AREAS
 10
34.206
 20
94.61
 30
0.0
  0
SEQEND
  8
AREAS
  0
POLYLINE
  8
AREAS
 66
     1
 10
0.0
 20
0.0
 30
0.0
 70
     1
  0
VERTEX
  8
AREAS
 10
34.503
 20
94.641
 30
0.0
  0
VERTEX
  8
AREAS
 10
34.54
 20
94.639
 30
0.0
  0
VERTEX
  8
AREAS
 10
34.569
 20
94.61
 30
0.0
  0
VERTEX
  8
AREAS
 10
34.583
 20
94.6
 30
0.0
  0
VERTEX
  8
AREAS
 10
34.585
 20
94.59
 30
0.0
  0
VERTEX
  8
AREAS
 10
34.538
 20
94.575
 30
0.0
  0
VERTEX
  8
AREAS
 10
34.528
 20
94.592
 30
0.0
  0
VERTEX
  8
AREAS
 10
34.499
 20
94.602
 30
0.0
  0
SEQEND
  8
AREAS
  0
POLYLINE
  8
AREAS
 66
     1
 10
0.0
 20
0.0
 30
0.0
 70
     1
  0
VERTEX
  8
AREAS
 10
33.658
 20
94.231
 30
0.0
  0
VERTEX
  8
AREAS
 10
33.67
 20
94.253
 30
0.0
  0
VERTEX
  8
AREAS
 10
33.683
 20
94.262
 30
0.0
  0
VERTEX
  8
AREAS
 10
33.718
 20
94.265
 30
0.0
  0
VERTEX
  8
AREAS
 10
33.769
 20
94.288
 30
0.0
  0
VERTEX
  8
AREAS
 10
33.815
 20
94.3
 30
0.0
  0
VERTEX
  8
AREAS
 10
33.853
 20
94.302
 30
0.0
  0
VERTEX
  8
AREAS
 10
33.868
 20
94.301
 30
0.0
  0
VERTEX
  8
AREAS
 10
33.898
 20
94.291
 30
0.0
  0
VERTEX
  8
AREAS
 10
33.92
 20
94.281
 30
0.0
  0
VERTEX
  8
AREAS
 10
33.928
 20
94.266
 30
0.0
  0
VERTEX
  8
AREAS
 10
33.919
 20
94.232
 30
0.0
  0
VERTEX
  8
AREAS
 10
33.91
 20
94.221
 30
0.0
  0
VERTEX
  8
AREAS
 10
33.889
 20
94.214
 30
0.0
  0
VERTEX
  8
AREAS
 10
33.866
 20
94.176
 30
0.0
  0
VERTEX
  8
AREAS
 10
33.859
 20
94.154
 30
0.0
  0
VERTEX
  8
AREAS
 10
33.858
 20
94.123
 30
0.0
  0
VERTEX
  8
AREAS
 10
33.843
 20
94.099
 30
0.0
  0
VERTEX
  8
AREAS
 10
33.83
 20
94.092
 30
0.0
  0
VERTEX
  8
AREAS
 10
33.798
 20
94.089
 30
0.0
  0
VERTEX
  8
AREAS
 10
33.782
 20
94.095
 30
0.0
  0
VERTEX
  8
AREAS
 10
33.743
 20
94.092
 30
0.0
  0
VERTEX
  8
AREAS
 10
33.713
 20
94.065
 30
0.0
  0
VERTEX
  8
AREAS
 10
33.688
 20
94.054
 30
0.0
  0
VERTEX
  8
AREAS
 10
33.667
 20
94.058
 30
0.0
  0
VERTEX
  8
AREAS
 10
33.652
 20
94.066
 30
0.0
  0
VERTEX
  8
AREAS
 10
33.648
 20
94.081
 30
0.0
  0
VERTEX
  8
AREAS
 10
33.656
 20
94.093
 30
0.0
  0
VERTEX
  8
AREAS
 10
33.672
 20
94.11
 30
0.0
  0
VERTEX
  8
AREAS
 10
33.683
 20
94.113
 30
0.0
  0
VERTEX
  8
AREAS
 10
33.699
 20
94.113
 30
0.0
  0
VERTEX
  8
AREAS
 10
33.734
 20
94.153
 30
0.0
  0
VERTEX
  8
AREAS
 10
33.722
 20
94.178
 30
0.0
  0
VERTEX
  8
AREAS
 10
33.709
 20
94.201
 30
0.0
  0
VERTEX
  8
AREAS
 10
33.703
 20
94.208
 30
0.0
  0
VERTEX
  8
AREAS
 10
33.683
 20
94.217
 30
0.0
  0
VERTEX
  8
AREAS
 10
33.67
 20
94.22
 30
0.0
  0
SEQEND
  8
AREAS
  0
POLYLINE
  8
AREAS
 66
     1
 10
0.0
 20
0.0
 30
0.0
 70
     1
  0
VERTEX
  8
AREAS
 10
33.951
 20
94.205
 30
0.0
  0
VERTEX
  8
AREAS
 10
33.922
 20
94.191
 30
0.0
  0
VERTEX
  8
AREAS
 10
33.908
 20
94.175
 30
0.0
  0
VERTEX
  8
AREAS
 10
33.9
 20
94.155
 30
0.0
  0
VERTEX
  8
AREAS
 10
33.901
 20
94.131
 30
0.0
  0
VERTEX
  8
AREAS
 10
33.922
 20
94.101
 30
0.0
  0
VERTEX
  8
AREAS
 10
33.936
 20
94.062
 30
0.0
  0
VERTEX
  8
AREAS
 10
33.946
 20
94.057
 30
0.0
  0
VERTEX
  8
AREAS
 10
33.971
 20
94.059
 30
0.0
  0
VERTEX
  8
AREAS
 10
33.994
 20
94.073
 30
0.0
  0
VERTEX
  8
AREAS
 10
33.996
 20
94.083
 30
0.0
  0
VERTEX
  8
AREAS
 10
33.994
 20
94.163
 30
0.0
  0
VERTEX
  8
AREAS
 10
33.99
 20
94.178
 30
0.0
  0
SEQEND
  8
AREAS
  0
POLYLINE
  8
AREAS
 66
     1
 10
0.0
 20
0.0
 30
0.0
 70
     1
  0
VERTEX
  8
AREAS
 10
34.046
 20
93.776
 30
0.0
  0
VERTEX
  8
AREAS
 10
34.067
 20
93.766
 30
0.0
  0
VERTEX
  8
AREAS
 10
34.087
 20
93.817
 30
0.0
  0
VERTEX
  8
AREAS
 10
34.097
 20
93.816
 30
0.0
  0
VERTEX
  8
AREAS
 10
34.122
 20
93.787
 30
0.0
  0
VERTEX
  8
AREAS
 10
34.107
 20
93.741
 30
0.0
  0
VERTEX
  8
AREAS
 10
34.098
 20
93.725
 30
0.0
  0
VERTEX
  8
AREAS
 10
34.081
 20
93.698
 30
0.0
  0
VERTEX
  8
AREAS
 10
34.066
 20
93.697
 30
0.0
  0
VERTEX
  8
AREAS
 10
34.053
 20
93.703
 30
0.0
  0
VERTEX
  8
AREAS
 10
34.05
 20
93.718
 30
0.0
  0
VERTEX
  8
AREAS
 10
34.05
 20
93.741
 30
0.0
  0
SEQEND
  8
AREAS
  0
POLYLINE
  8
AREAS
 66
     1
 10
0.0
 20
0.0
 30
0.0
 70
     1
  0
VERTEX
  8
AREAS
 10
33.982
 20
94.036
 30
0.0
  0
VERTEX
  8
AREAS
 10
34.012
 20
94.015
 30
0.0
  0
VERTEX
  8
AREAS
 10
34.054
 20
93.992
 30
0.0
  0
VERTEX
  8
AREAS
 10
34.06
 20
93.982
 30
0.0
  0
VERTEX
  8
AREAS
 10
34.068
 20
93.967
 30
0.0
  0
VERTEX
  8
AREAS
 10
34.074
 20
93.952
 30
0.0
  0
VERTEX
  8
AREAS
 10
34.07
 20
93.928
 30
0.0
  0
VERTEX
  8
AREAS
 10
34.062
 20
93.899
 30
0.0
  0
VERTEX
  8
AREAS
 10
34.05
 20
93.882
 30
0.0
  0
VERTEX
  8
AREAS
 10
34.049
 20
93.872
 30
0.0
  0
VERTEX
  8
AREAS
 10
34.042
 20
93.863
 30
0.0
  0
VERTEX
  8
AREAS
 10
34.02
 20
93.858
 30
0.0
  0
VERTEX
  8
AREAS
 10
34.0
 20
93.866
 30
0.0
  0
VERTEX
  8
AREAS
 10
33.992
 20
93.881
 30
0.0
  0
VERTEX
  8
AREAS
 10
34.02
 20
93.915
 30
0.0
  0
VERTEX
  8
AREAS
 10
34.024
 20
93.944
 30
0.0
  0
VERTEX
  8
AREAS
 10
34.015
 20
93.965
 30
0.0
  0
VERTEX
  8
AREAS
 10
33.987
 20
93.978
 30
0.0
  0
VERTEX
  8
AREAS
 10
33.958
 20
93.985
 30
0.0
  0
VERTEX
  8
AREAS
 10
33.946
 20
94.001
 30
0.0
  0
VERTEX
  8
AREAS
 10
33.96
 20
94.025
 30
0.0
  0
SEQEND
  8
AREAS
  0
POLYLINE
  8
AREAS
 66
     1
 10
0.0
 20
0.0
 30
0.0
 70
     1
  0
VERTEX
  8
AREAS
 10
33.967
 20
95.063
 30
0.0
  0
VERTEX
  8
AREAS
 10
34.042
 20
95.016
 30
0.0
  0
VERTEX
  8
AREAS
 10
33.997
 20
94.989
 30
0.0
  0
VERTEX
  8
AREAS
 10
33.978
 20
94.987
 30
0.0
  0
VERTEX
  8
AREAS
 10
33.959
 20
94.983
 30
0.0
  0
VERTEX
  8
AREAS
 10
33.926
 20
94.985
 30
0.0
  0
VERTEX
  8
AREAS
 10
33.919
 20
94.993
 30
0.0
  0
VERTEX
  8
AREAS
 10
33.919
 20
95.001
 30
0.0
  0
VERTEX
  8
AREAS
 10
33.924
 20
95.015
 30
0.0
  0
VERTEX
  8
AREAS
 10
33.937
 20
95.031
 30
0.0
  0
VERTEX
  8
AREAS
 10
33.95
 20
95.04
 30
0.0
  0
SEQEND
  8
AREAS
  0
POLYLINE
  8
AREAS
 66
     1
 10
0.0
 20
0.0
 30
0.0
 70
     1
  0
VERTEX
  8
AREAS
 10
34.22
 20
95.236
 30
0.0
  0
VERTEX
  8
AREAS
 10
34.236
 20
95.228
 30
0.0
  0
VERTEX
  8
AREAS
 10
34.233
 20
95.207
 30
0.0
  0
VERTEX
  8
AREAS
 10
34.224
 20
95.194
 30
0.0
  0
VERTEX
  8
AREAS
 10
34.216
 20
95.19
 30
0.0
  0
VERTEX
  8
AREAS
 10
34.198
 20
95.194
 30
0.0
  0
VERTEX
  8
AREAS
 10
34.19
 20
95.206
 30
0.0
  0
VERTEX
  8
AREAS
 10
34.19
 20
95.218
 30
0.0
  0
VERTEX
  8
AREAS
 10
34.195
 20
95.227
 30
0.0
  0
VERTEX
  8
AREAS
 10
34.202
 20
95.234
 30
0.0
  0
SEQEND
  8
AREAS
  0
POLYLINE
  8
AREAS
 66
     1
 10
0.0
 20
0.0
 30
0.0
 70
     1
  0
VERTEX
  8
AREAS
 10
33.655
 20
94.503
 30
0.0
  0
VERTEX
  8
AREAS
 10
33.658
 20
94.515
 30
0.0
  0
VERTEX
  8
AREAS
 10
33.655
 20
94.528
 30
0.0
  0
VERTEX
  8
AREAS
 10
33.649
 20
94.541
 30
0.0
  0
VERTEX
  8
AREAS
 10
33.663
 20
94.568
 30
0.0
  0
VERTEX
  8
AREAS
 10
33.677
 20
94.578
 30
0.0
  0
VERTEX
  8
AREAS
 10
33.711
 20
94.582
 30
0.0
  0
VERTEX
  8
AREAS
 10
33.691
 20
94.512
 30
0.0
  0
SEQEND
  8
AREAS
  0
POLYLINE
  8
AREAS
 66
     1
 10
0.0
 20
0.0
 30
0.0
 70
     1
  0
VERTEX
  8
AREAS
 10
33.784
 20
94.434
 30
0.0
  0
VERTEX
  8
AREAS
 10
33.832
 20
94.428
 30
0.0
  0
VERTEX
  8
AREAS
 10
33.84
 20
94.414
 30
0.0
  0
VERTEX
  8
AREAS
 10
33.843
 20
94.406
 30
0.0
  0
VERTEX
  8
AREAS
 10
33.838
 20
94.389
 30
0.0
  0
VERTEX
  8
AREAS
 10
33.828
 20
94.377
 30
0.0
  0
VERTEX
  8
AREAS
 10
33.817
 20
94.375
 30
0.0
  0
VERTEX
  8
AREAS
 10
33.801
 20
94.379
 30
0.0
  0
VERTEX
  8
AREAS
 10
33.783
 20
94.388
 30
0.0
  0
VERTEX
  8
AREAS
 10
33.772
 20
94.397
 30
0.0
  0
VERTEX
  8
AREAS
 10
33.77
 20
94.413
 30
0.0
  0
VERTEX
  8
AREAS
 10
33.776
 20
94.425
 30
0.0
  0
SEQEND
  8
AREAS
  0
POLYLINE
  8
AREAS
 66
     1
 10
0.0
 20
0.0
 30
0.0
 70
     1
  0
VERTEX
  8
AREAS
 10
33.565
 20
94.348
 30
0.0
  0
VERTEX
  8
AREAS
 10
33.571
 20
94.371
 30
0.0
  0
VERTEX
  8
AREAS
 10
33.591
 20
94.384
 30
0.0
  0
VERTEX
  8
AREAS
 10
33.596
 20
94.388
 30
0.0
  0
VERTEX
  8
AREAS
 10
33.616
 20
94.368
 30
0.0
  0
VERTEX
  8
AREAS
 10
33.613
 20
94.352
 30
0.0
  0
VERTEX
  8
AREAS
 10
33.623
 20
94.334
 30
0.0
  0
VERTEX
  8
AREAS
 10
33.591
 20
94.328
 30
0.0
  0
VERTEX
  8
AREAS
 10
33.573
 20
94.339
 30
0.0
  0
SEQEND
  8
AREAS
  0
POLYLINE
  8
AREAS
 66
     1
 10
0.0
 20
0.0
 30
0.0
 70
     1
  0
VERTEX
  8
AREAS
 10
33.525
 20
94.445
 30
0.0
  0
VERTEX
  8
AREAS
 10
33.533
 20
94.472
 30
0.0
  0
VERTEX
  8
AREAS
 10
33.616
 20
94.476
 30
0.0
  0
VERTEX
  8
AREAS
 10
33.616
 20
94.489
 30
0.0
  0
VERTEX
  8
AREAS
 10
33.622
 20
94.505
 30
0.0
  0
VERTEX
  8
AREAS
 10
33.62
 20
94.514
 30
0.0
  0
VERTEX
  8
AREAS
 10
33.602
 20
94.521
 30
0.0
  0
VERTEX
  8
AREAS
 10
33.549
 20
94.502
 30
0.0
  0
VERTEX
  8
AREAS
 10
33.525
 20
94.506
 30
0.0
  0
VERTEX
  8
AREAS
 10
33.499
 20
94.504
 30
0.0
  0
VERTEX
  8
AREAS
 10
33.481
 20
94.498
 30
0.0
  0
VERTEX
  8
AREAS
 10
33.471
 20
94.488
 30
0.0
  0
VERTEX
  8
AREAS
 10
33.467
 20
94.482
 30
0.0
  0
VERTEX
  8
AREAS
 10
33.47
 20
94.471
 30
0.0
  0
VERTEX
  8
AREAS
 10
33.477
 20
94.463
 30
0.0
  0
VERTEX
  8
AREAS
 10
33.498
 20
94.457
 30
0.0
  0
VERTEX
  8
AREAS
 10
33.51
 20
94.453
 30
0.0
  0
SEQEND
  8
AREAS
  0
POLYLINE
  8
AREAS
 66
     1
 10
0.0
 20
0.0
 30
0.0
 70
     1
  0
VERTEX
  8
AREAS
 10
33.514
 20
94.7
 30
0.0
  0
VERTEX
  8
AREAS
 10
33.507
 20
94.734
 30
0.0
  0
VERTEX
  8
AREAS
 10
33.59
 20
94.747
 30
0.0
  0
VERTEX
  8
AREAS
 10
33.594
 20
94.7
 30
0.0
  0
VERTEX
  8
AREAS
 10
33.615
 20
94.699
 30
0.0
  0
VERTEX
  8
AREAS
 10
33.637
 20
94.694
 30
0.0
  0
VERTEX
  8
AREAS
 10
33.657
 20
94.765
 30
0.0
  0
VERTEX
  8
AREAS
 10
33.639
 20
94.773
 30
0.0
  0
VERTEX
  8
AREAS
 10
33.613
 20
94.782
 30
0.0
  0
VERTEX
  8
AREAS
 10
33.594
 20
94.782
 30
0.0
  0
VERTEX
  8
AREAS
 10
33.566
 20
94.788
 30
0.0
  0
VERTEX
  8
AREAS
 10
33.549
 20
94.78
 30
0.0
  0
VERTEX
  8
AREAS
 10
33.533
 20
94.78
 30
0.0
  0
VERTEX
  8
AREAS
 10
33.514
 20
94.776
 30
0.0
  0
VERTEX
  8
AREAS
 10
33.497
 20
94.776
 30
0.0
  0
VERTEX
  8
AREAS
 10
33.48
 20
94.789
 30
0.0
  0
VERTEX
  8
AREAS
 10
33.461
 20
94.793
 30
0.0
  0
VERTEX
  8
AREAS
 10
33.445
 20
94.791
 30
0.0
  0
VERTEX
  8
AREAS
 10
33.429
 20
94.785
 30
0.0
  0
VERTEX
  8
AREAS
 10
33.425
 20
94.779
 30
0.0
  0
VERTEX
  8
AREAS
 10
33.42
 20
94.759
 30
0.0
  0
VERTEX
  8
AREAS
 10
33.423
 20
94.732
 30
0.0
  0
VERTEX
  8
AREAS
 10
33.426
 20
94.717
 30
0.0
  0
VERTEX
  8
AREAS
 10
33.435
 20
94.701
 30
0.0
  0
VERTEX
  8
AREAS
 10
33.448
 20
94.695
 30
0.0
  0
VERTEX
  8
AREAS
 10
33.476
 20
94.69
 30
0.0
  0
SEQEND
  8
AREAS
  0
POLYLINE
  8
AREAS
 66
     1
 10
0.0
 20
0.0
 30
0.0
 70
     1
  0
VERTEX
  8
AREAS
 10
33.347
 20
94.276
 30
0.0
  0
VERTEX
  8
AREAS
 10
33.348
 20
94.32
 30
0.0
  0
VERTEX
  8
AREAS
 10
33.352
 20
94.327
 30
0.0
  0
VERTEX
  8
AREAS
 10
33.366
 20
94.334
 30
0.0
  0
VERTEX
  8
AREAS
 10
33.395
 20
94.325
 30
0.0
  0
VERTEX
  8
AREAS
 10
33.405
 20
94.321
 30
0.0
  0
VERTEX
  8
AREAS
 10
33.407
 20
94.305
 30
0.0
  0
VERTEX
  8
AREAS
 10
33.408
 20
94.283
 30
0.0
  0
VERTEX
  8
AREAS
 10
33.402
 20
94.271
 30
0.0
  0
VERTEX
  8
AREAS
 10
33.404
 20
94.248
 30
0.0
  0
VERTEX
  8
AREAS
 10
33.403
 20
94.236
 30
0.0
  0
VERTEX
  8
AREAS
 10
33.403
 20
94.205
 30
0.0
  0
VERTEX
  8
AREAS
 10
33.341
 20
94.196
 30
0.0
  0
VERTEX
  8
AREAS
 10
33.331
 20
94.204
 30
0.0
  0
VERTEX
  8
AREAS
 10
33.331
 20
94.211
 30
0.0
  0
VERTEX
  8
AREAS
 10
33.331
 20
94.236
 30
0.0
  0
VERTEX
  8
AREAS
 10
33.345
 20
94.27
 30
0.0
  0
SEQEND
  8
AREAS
  0
POLYLINE
  8
AREAS
 66
     1
 10
0.0
 20
0.0
 30
0.0
 70
     1
  0
VERTEX
  8
AREAS
 10
33.538
 20
94.207
 30
0.0
  0
VERTEX
  8
AREAS
 10
33.554
 20
94.178
 30
0.0
  0
VERTEX
  8
AREAS
 10
33.532
 20
94.144
 30
0.0
  0
VERTEX
  8
AREAS
 10
33.536
 20
94.119
 30
0.0
  0
VERTEX
  8
AREAS
 10
33.607
 20
94.133
 30
0.0
  0
VERTEX
  8
AREAS
 10
33.607
 20
94.116
 30
0.0
  0
VERTEX
  8
AREAS
 10
33.61
 20
94.105
 30
0.0
  0
VERTEX
  8
AREAS
 10
33.61
 20
94.092
 30
0.0
  0
VERTEX
  8
AREAS
 10
33.601
 20
94.081
 30
0.0
  0
VERTEX
  8
AREAS
 10
33.592
 20
94.076
 30
0.0
  0
VERTEX
  8
AREAS
 10
33.576
 20
94.076
 30
0.0
  0
VERTEX
  8
AREAS
 10
33.565
 20
94.083
 30
0.0
  0
VERTEX
  8
AREAS
 10
33.546
 20
94.09
 30
0.0
  0
VERTEX
  8
AREAS
 10
33.52
 20
94.114
 30
0.0
  0
VERTEX
  8
AREAS
 10
33.511
 20
94.119
 30
0.0
  0
VERTEX
  8
AREAS
 10
33.496
 20
94.127
 30
0.0
  0
VERTEX
  8
AREAS
 10
33.483
 20
94.147
 30
0.0
  0
VERTEX
  8
AREAS
 10
33.498
 20
94.174
 30
0.0
  0
VERTEX
  8
AREAS
 10
33.521
 20
94.194
 30
0.0
  0
SEQEND
  8
AREAS
  0
POLYLINE
  8
AREAS
 66
     1
 10
0.0
 20
0.0
 30
0.0
 70
     1
  0
VERTEX
  8
AREAS
 10
33.402
 20
93.672
 30
0.0
  0
VERTEX
  8
AREAS
 10
33.442
 20
93.656
 30
0.0
  0
VERTEX
  8
AREAS
 10
33.42
 20
93.631
 30
0.0
  0
VERTEX
  8
AREAS
 10
33.391
 20
93.638
 30
0.0
  0
VERTEX
  8
AREAS
 10
33.386
 20
93.65
 30
0.0
  0
VERTEX
  8
AREAS
 10
33.393
 20
93.668
 30
0.0
  0
SEQEND
  8
AREAS
  0
POLYLINE
  8
AREAS
 66
     1
 10
0.0
 20
0.0
 30
0.0
 70
     1
  0
VERTEX
  8
AREAS
 10
33.369
 20
93.833
 30
0.0
  0
VERTEX
  8
AREAS
 10
33.376
 20
93.84
 30
0.0
  0
VERTEX
  8
AREAS
 10
33.393
 20
93.847
 30
0.0
  0
VERTEX
  8
AREAS
 10
33.406
 20
93.854
 30
0.0
  0
VERTEX
  8
AREAS
 10
33.419
 20
93.849
 30
0.0
  0
VERTEX
  8
AREAS
 10
33.428
 20
93.829
 30
0.0
  0
VERTEX
  8
AREAS
 10
33.424
 20
93.814
 30
0.0
  0
VERTEX
  8
AREAS
 10
33.41
 20
93.804
 30
0.0
  0
VERTEX
  8
AREAS
 10
33.393
 20
93.796
 30
0.0
  0
VERTEX
  8
AREAS
 10
33.378
 20
93.796
 30
0.0
  0
VERTEX
  8
AREAS
 10
33.367
 20
93.8
 30
0.0
  0
VERTEX
  8
AREAS
 10
33.361
 20
93.813
 30
0.0
  0
VERTEX
  8
AREAS
 10
33.363
 20
93.824
 30
0.0
  0
SEQEND
  8
AREAS
  0
POLYLINE
  8
AREAS
 66
     1
 10
0.0
 20
0.0
 30
0.0
 70
     1
  0
VERTEX
  8
AREAS
 10
30.978
 20
94.279
 30
0.0
  0
VERTEX
  8
AREAS
 10
30.962
 20
94.26
 30
0.0
  0
VERTEX
  8
AREAS
 10
30.972
 20
94.236
 30
0.0
  0
VERTEX
  8
AREAS
 10
31.001
 20
94.229
 30
0.0
  0
VERTEX
  8
AREAS
 10
31.014
 20
94.24
 30
0.0
  0
VERTEX
  8
AREAS
 10
31.025
 20
94.256
 30
0.0
  0
VERTEX
  8
AREAS
 10
31.025
 20
94.272
 30
0.0
  0
VERTEX
  8
AREAS
 10
31.02
 20
94.279
 30
0.0
  0
VERTEX
  8
AREAS
 10
31.006
 20
94.284
 30
0.0
  0
SEQEND
  8
AREAS
  0
POLYLINE
  8
AREAS
 66
     1
 10
0.0
 20
0.0
 30
0.0
 70
     1
  0
VERTEX
  8
AREAS
 10
31.181
 20
94.238
 30
0.0
  0
VERTEX
  8
AREAS
 10
31.211
 20
94.254
 30
0.0
  0
VERTEX
  8
AREAS
 10
31.242
 20
94.242
 30
0.0
  0
VERTEX
  8
AREAS
 10
31.23
 20
94.22
 30
0.0
  0
VERTEX
  8
AREAS
 10
31.203
 20
94.203
 30
0.0
  0
VERTEX
  8
AREAS
 10
31.192
 20
94.203
 30
0.0
  0
VERTEX
  8
AREAS
 10
31.181
 20
94.211
 30
0.0
  0
SEQEND
  8
AREAS
  0
POLYLINE
  8
AREAS
 66
     1
 10
0.0
 20
0.0
 30
0.0
 70
     1
  0
VERTEX
  8
AREAS
 10
30.716
 20
94.42
 30
0.0
  0
VERTEX
  8
AREAS
 10
30.722
 20
94.444
 30
0.0
  0
VERTEX
  8
AREAS
 10
30.741
 20
94.458
 30
0.0
  0
VERTEX
  8
AREAS
 10
30.765
 20
94.453
 30
0.0
  0
VERTEX
  8
AREAS
 10
30.781
 20
94.446
 30
0.0
  0
VERTEX
  8
AREAS
 10
30.775
 20
94.423
 30
0.0
  0
VERTEX
  8
AREAS
 10
30.763
 20
94.41
 30
0.0
  0
VERTEX
  8
AREAS
 10
30.741
 20
94.401
 30
0.0
  0
SEQEND
  8
AREAS
  0
POLYLINE
  8
AREAS
 66
     1
 10
0.0
 20
0.0
 30
0.0
 70
     1
  0
VERTEX
  8
AREAS
 10
30.974
 20
94.392
 30
0.0
  0
VERTEX
  8
AREAS
 10
30.99
 20
94.395
 30
0.0
  0
VERTEX
  8
AREAS
 10
31.012
 20
94.417
 30
0.0
  0
VERTEX
  8
AREAS
 10
31.026
 20
94.44
 30
0.0
  0
VERTEX
  8
AREAS
 10
31.029
 20
94.454
 30
0.0
  0
VERTEX
  8
AREAS
 10
31.012
 20
94.467
 30
0.0
  0
VERTEX
  8
AREAS
 10
30.973
 20
94.45
 30
0.0
  0
VERTEX
  8
AREAS
 10
30.958
 20
94.423
 30
0.0
  0
VERTEX
  8
AREAS
 10
30.962
 20
94.407
 30
0.0
  0
SEQEND
  8
AREAS
  0
POLYLINE
  8
AREAS
 66
     1
 10
0.0
 20
0.0
 30
0.0
 70
     1
  0
VERTEX
  8
AREAS
 10
31.19
 20
94.417
 30
0.0
  0
VERTEX
  8
AREAS
 10
31.189
 20
94.442
 30
0.0
  0
VERTEX
  8
AREAS
 10
31.226
 20
94.515
 30
0.0
  0
VERTEX
  8
AREAS
 10
31.244
 20
94.491
 30
0.0
  0
VERTEX
  8
AREAS
 10
31.252
 20
94.452
 30
0.0
  0
SEQEND
  8
AREAS
  0
POLYLINE
  8
AREAS
 66
     1
 10
0.0
 20
0.0
 30
0.0
 70
     1
  0
VERTEX
  8
AREAS
 10
31.27
 20
94.574
 30
0.0
  0
VERTEX
  8
AREAS
 10
31.279
 20
94.592
 30
0.0
  0
VERTEX
  8
AREAS
 10
31.297
 20
94.596
 30
0.0
  0
VERTEX
  8
AREAS
 10
31.309
 20
94.588
 30
0.0
  0
VERTEX
  8
AREAS
 10
31.324
 20
94.56
 30
0.0
  0
VERTEX
  8
AREAS
 10
31.324
 20
94.522
 30
0.0
  0
VERTEX
  8
AREAS
 10
31.301
 20
94.52
 30
0.0
  0
SEQEND
  8
AREAS
  0
POLYLINE
  8
AREAS
 66
     1
 10
0.0
 20
0.0
 30
0.0
 70
     1
  0
VERTEX
  8
AREAS
 10
30.789
 20
94.307
 30
0.0
  0
VERTEX
  8
AREAS
 10
30.801
 20
94.32
 30
0.0
  0
VERTEX
  8
AREAS
 10
30.82
 20
94.328
 30
0.0
  0
VERTEX
  8
AREAS
 10
30.839
 20
94.325
 30
0.0
  0
VERTEX
  8
AREAS
 10
30.846
 20
94.309
 30
0.0
  0
VERTEX
  8
AREAS
 10
30.836
 20
94.278
 30
0.0
  0
VERTEX
  8
AREAS
 10
30.825
 20
94.266
 30
0.0
  0
VERTEX
  8
AREAS
 10
30.807
 20
94.27
 30
0.0
  0
VERTEX
  8
AREAS
 10
30.791
 20
94.291
 30
0.0
  0
SEQEND
  8
AREAS
  0
POLYLINE
  8
AREAS
 66
     1
 10
0.0
 20
0.0
 30
0.0
 70
     1
  0
VERTEX
  8
AREAS
 10
33.403
 20
93.24
 30
0.0
  0
VERTEX
  8
AREAS
 10
33.462
 20
93.218
 30
0.0
  0
VERTEX
  8
AREAS
 10
33.503
 20
93.306
 30
0.0
  0
VERTEX
  8
AREAS
 10
33.426
 20
93.38
 30
0.0
  0
VERTEX
  8
AREAS
 10
33.447
 20
93.431
 30
0.0
  0
VERTEX
  8
AREAS
 10
33.448
 20
93.443
 30
0.0
  0
VERTEX
  8
AREAS
 10
33.466
 20
93.472
 30
0.0
  0
VERTEX
  8
AREAS
 10
33.484
 20
93.477
 30
0.0
  0
VERTEX
  8
AREAS
 10
33.498
 20
93.475
 30
0.0
  0
VERTEX
  8
AREAS
 10
33.514
 20
93.458
 30
0.0
  0
VERTEX
  8
AREAS
 10
33.549
 20
93.421
 30
0.0
  0
VERTEX
  8
AREAS
 10
33.576
 20
93.412
 30
0.0
  0
VERTEX
  8
AREAS
 10
33.6
 20
93.413
 30
0.0
  0
VERTEX
  8
AREAS
 10
33.636
 20
93.4
 30
0.0
  0
VERTEX
  8
AREAS
 10
33.569
 20
93.302
 30
0.0
  0
VERTEX
  8
AREAS
 10
33.574
 20
93.272
 30
0.0
  0
VERTEX
  8
AREAS
 10
33.62
 20
93.258
 30
0.0
  0
VERTEX
  8
AREAS
 10
33.644
 20
93.266
 30
0.0
  0
VERTEX
  8
AREAS
 10
33.664
 20
93.237
 30
0.0
  0
VERTEX
  8
AREAS
 10
33.672
 20
93.201
 30
0.0
  0
VERTEX
  8
AREAS
 10
33.728
 20
93.2
 30
0.0
  0
VERTEX
  8
AREAS
 10
33.735
 20
93.178
 30
0.0
  0
VERTEX
  8
AREAS
 10
33.708
 20
93.162
 30
0.0
  0
VERTEX
  8
AREAS
 10
33.677
 20
93.172
 30
0.0
  0
VERTEX
  8
AREAS
 10
33.669
 20
93.176
 30
0.0
  0
VERTEX
  8
AREAS
 10
33.658
 20
93.169
 30
0.0
  0
VERTEX
  8
AREAS
 10
33.617
 20
93.159
 30
0.0
  0
VERTEX
  8
AREAS
 10
33.59
 20
93.145
 30
0.0
  0
VERTEX
  8
AREAS
 10
33.535
 20
93.139
 30
0.0
  0
VERTEX
  8
AREAS
 10
33.521
 20
93.114
 30
0.0
  0
VERTEX
  8
AREAS
 10
33.515
 20
93.106
 30
0.0
  0
VERTEX
  8
AREAS
 10
33.503
 20
93.106
 30
0.0
  0
VERTEX
  8
AREAS
 10
33.483
 20
93.117
 30
0.0
  0
VERTEX
  8
AREAS
 10
33.452
 20
93.129
 30
0.0
  0
VERTEX
  8
AREAS
 10
33.416
 20
93.16
 30
0.0
  0
VERTEX
  8
AREAS
 10
33.387
 20
93.192
 30
0.0
  0
VERTEX
  8
AREAS
 10
33.389
 20
93.217
 30
0.0
  0
SEQEND
  8
AREAS
  0
POLYLINE
  8
AREAS
 66
     1
 10
0.0
 20
0.0
 30
0.0
 70
     1
  0
VERTEX
  8
AREAS
 10
33.291
 20
93.272
 30
0.0
  0
VERTEX
  8
AREAS
 10
33.336
 20
93.28
 30
0.0
  0
VERTEX
  8
AREAS
 10
33.342
 20
93.247
 30
0.0
  0
VERTEX
  8
AREAS
 10
33.35
 20
93.228
 30
0.0
  0
VERTEX
  8
AREAS
 10
33.348
 20
93.208
 30
0.0
  0
VERTEX
  8
AREAS
 10
33.323
 20
93.194
 30
0.0
  0
VERTEX
  8
AREAS
 10
33.305
 20
93.202
 30
0.0
  0
VERTEX
  8
AREAS
 10
33.287
 20
93.245
 30
0.0
  0
SEQEND
  8
AREAS
  0
POLYLINE
  8
AREAS
 66
     1
 10
0.0
 20
0.0
 30
0.0
 70
     1
  0
VERTEX
  8
AREAS
 10
33.186
 20
93.39
 30
0.0
  0
VERTEX
  8
AREAS
 10
33.21
 20
93.413
 30
0.0
  0
VERTEX
  8
AREAS
 10
33.267
 20
93.373
 30
0.0
  0
VERTEX
  8
AREAS
 10
33.241
 20
93.351
 30
0.0
  0
SEQEND
  8
AREAS
  0
POLYLINE
  8
AREAS
 66
     1
 10
0.0
 20
0.0
 30
0.0
 70
     1
  0
VERTEX
  8
AREAS
 10
33.691
 20
93.419
 30
0.0
  0
VERTEX
  8
AREAS
 10
33.711
 20
93.421
 30
0.0
  0
VERTEX
  8
AREAS
 10
33.723
 20
93.409
 30
0.0
  0
VERTEX
  8
AREAS
 10
33.734
 20
93.39
 30
0.0
  0
VERTEX
  8
AREAS
 10
33.729
 20
93.373
 30
0.0
  0
VERTEX
  8
AREAS
 10
33.731
 20
93.345
 30
0.0
  0
VERTEX
  8
AREAS
 10
33.696
 20
93.347
 30
0.0
  0
SEQEND
  8
AREAS
  0
POLYLINE
  8
AREAS
 66
     1
 10
0.0
 20
0.0
 30
0.0
 70
     1
  0
VERTEX
  8
AREAS
 10
33.009
 20
94.337
 30
0.0
  0
VERTEX
  8
AREAS
 10
33.051
 20
94.384
 30
0.0
  0
VERTEX
  8
AREAS
 10
33.055
 20
94.405
 30
0.0
  0
VERTEX
  8
AREAS
 10
33.094
 20
94.383
 30
0.0
  0
VERTEX
  8
AREAS
 10
33.074
 20
94.365
 30
0.0
  0
VERTEX
  8
AREAS
 10
33.101
 20
94.357
 30
0.0
  0
VERTEX
  8
AREAS
 10
33.098
 20
94.304
 30
0.0
  0
VERTEX
  8
AREAS
 10
33.151
 20
94.319
 30
0.0
  0
VERTEX
  8
AREAS
 10
33.153
 20
94.304
 30
0.0
  0
VERTEX
  8
AREAS
 10
33.151
 20
94.287
 30
0.0
  0
VERTEX
  8
AREAS
 10
33.153
 20
94.28
 30
0.0
  0
VERTEX
  8
AREAS
 10
33.147
 20
94.256
 30
0.0
  0
VERTEX
  8
AREAS
 10
33.139
 20
94.246
 30
0.0
  0
VERTEX
  8
AREAS
 10
33.122
 20
94.24
 30
0.0
  0
VERTEX
  8
AREAS
 10
33.104
 20
94.24
 30
0.0
  0
VERTEX
  8
AREAS
 10
33.09
 20
94.304
 30
0.0
  0
VERTEX
  8
AREAS
 10
33.024
 20
94.271
 30
0.0
  0
VERTEX
  8
AREAS
 10
33.029
 20
94.249
 30
0.0
  0
VERTEX
  8
AREAS
 10
33.011
 20
94.254
 30
0.0
  0
VERTEX
  8
AREAS
 10
32.997
 20
94.267
 30
0.0
  0
VERTEX
  8
AREAS
 10
32.993
 20
94.311
 30
0.0
  0
SEQEND
  8
AREAS
  0
POLYLINE
  8
AREAS
 66
     1
 10
0.0
 20
0.0
 30
0.0
 70
     1
  0
VERTEX
  8
AREAS
 10
33.122
 20
94.442
 30
0.0
  0
VERTEX
  8
AREAS
 10
33.136
 20
94.456
 30
0.0
  0
VERTEX
  8
AREAS
 10
33.154
 20
94.458
 30
0.0
  0
VERTEX
  8
AREAS
 10
33.162
 20
94.455
 30
0.0
  0
VERTEX
  8
AREAS
 10
33.168
 20
94.441
 30
0.0
  0
VERTEX
  8
AREAS
 10
33.155
 20
94.407
 30
0.0
  0
VERTEX
  8
AREAS
 10
33.156
 20
94.394
 30
0.0
  0
VERTEX
  8
AREAS
 10
33.148
 20
94.39
 30
0.0
  0
SEQEND
  8
AREAS
  0
POLYLINE
  8
AREAS
 66
     1
 10
0.0
 20
0.0
 30
0.0
 70
     1
  0
VERTEX
  8
AREAS
 10
33.194
 20
94.391
 30
0.0
  0
VERTEX
  8
AREAS
 10
33.248
 20
94.41
 30
0.0
  0
VERTEX
  8
AREAS
 10
33.248
 20
94.394
 30
0.0
  0
VERTEX
  8
AREAS
 10
33.259
 20
94.368
 30
0.0
  0
VERTEX
  8
AREAS
 10
33.262
 20
94.36
 30
0.0
  0
VERTEX
  8
AREAS
 10
33.256
 20
94.345
 30
0.0
  0
VERTEX
  8
AREAS
 10
33.239
 20
94.337
 30
0.0
  0
VERTEX
  8
AREAS
 10
33.228
 20
94.338
 30
0.0
  0
VERTEX
  8
AREAS
 10
33.209
 20
94.365
 30
0.0
  0
SEQEND
  8
AREAS
  0
POLYLINE
  8
AREAS
 66
     1
 10
0.0
 20
0.0
 30
0.0
 70
     1
  0
VERTEX
  8
AREAS
 10
32.924
 20
94.548
 30
0.0
  0
VERTEX
  8
AREAS
 10
32.907
 20
94.563
 30
0.0
  0
VERTEX
  8
AREAS
 10
32.866
 20
94.559
 30
0.0
  0
VERTEX
  8
AREAS
 10
32.864
 20
94.539
 30
0.0
  0
VERTEX
  8
AREAS
 10
32.873
 20
94.521
 30
0.0
  0
VERTEX
  8
AREAS
 10
32.89
 20
94.515
 30
0.0
  0
VERTEX
  8
AREAS
 10
32.917
 20
94.515
 30
0.0
  0
VERTEX
  8
AREAS
 10
32.925
 20
94.529
 30
0.0
  0
SEQEND
  8
AREAS
  0
POLYLINE
  8
AREAS
 66
     1
 10
0.0
 20
0.0
 30
0.0
 70
     1
  0
VERTEX
  8
AREAS
 10
32.684
 20
94.454
 30
0.0
  0
VERTEX
  8
AREAS
 10
32.732
 20
94.451
 30
0.0
  0
VERTEX
  8
AREAS
 10
32.739
 20
94.416
 30
0.0
  0
VERTEX
  8
AREAS
 10
32.717
 20
94.411
 30
0.0
  0
VERTEX
  8
AREAS
 10
32.722
 20
94.378
 30
0.0
  0
VERTEX
  8
AREAS
 10
32.679
 20
94.416
 30
0.0
  0
VERTEX
  8
AREAS
 10
32.683
 20
94.437
 30
0.0
  0
SEQEND
  8
AREAS
  0
POLYLINE
  8
AREAS
 66
     1
 10
0.0
 20
0.0
 30
0.0
 70
     1
  0
VERTEX
  8
AREAS
 10
32.588
 20
94.25
 30
0.0
  0
VERTEX
  8
AREAS
 10
32.61
 20
94.276
 30
0.0
  0
VERTEX
  8
AREAS
 10
32.634
 20
94.286
 30
0.0
  0
VERTEX
  8
AREAS
 10
32.653
 20
94.286
 30
0.0
  0
VERTEX
  8
AREAS
 10
32.661
 20
94.276
 30
0.0
  0
VERTEX
  8
AREAS
 10
32.662
 20
94.268
 30
0.0
  0
VERTEX
  8
AREAS
 10
32.675
 20
94.261
 30
0.0
  0
VERTEX
  8
AREAS
 10
32.676
 20
94.249
 30
0.0
  0
VERTEX
  8
AREAS
 10
32.663
 20
94.229
 30
0.0
  0
VERTEX
  8
AREAS
 10
32.635
 20
94.216
 30
0.0
  0
VERTEX
  8
AREAS
 10
32.614
 20
94.22
 30
0.0
  0
VERTEX
  8
AREAS
 10
32.601
 20
94.222
 30
0.0
  0
VERTEX
  8
AREAS
 10
32.605
 20
94.238
 30
0.0
  0
SEQEND
  8
AREAS
  0
POLYLINE
  8
AREAS
 66
     1
 10
0.0
 20
0.0
 30
0.0
 70
     1
  0
VERTEX
  8
AREAS
 10
32.75
 20
94.185
 30
0.0
  0
VERTEX
  8
AREAS
 10
32.768
 20
94.181
 30
0.0
  0
VERTEX
  8
AREAS
 10
32.775
 20
94.171
 30
0.0
  0
VERTEX
  8
AREAS
 10
32.789
 20
94.161
 30
0.0
  0
VERTEX
  8
AREAS
 10
32.803
 20
94.165
 30
0.0
  0
VERTEX
  8
AREAS
 10
32.814
 20
94.166
 30
0.0
  0
VERTEX
  8
AREAS
 10
32.82
 20
94.166
 30
0.0
  0
VERTEX
  8
AREAS
 10
32.838
 20
94.159
 30
0.0
  0
VERTEX
  8
AREAS
 10
32.84
 20
94.141
 30
0.0
  0
VERTEX
  8
AREAS
 10
32.829
 20
94.13
 30
0.0
  0
VERTEX
  8
AREAS
 10
32.815
 20
94.117
 30
0.0
  0
VERTEX
  8
AREAS
 10
32.802
 20
94.11
 30
0.0
  0
VERTEX
  8
AREAS
 10
32.793
 20
94.108
 30
0.0
  0
VERTEX
  8
AREAS
 10
32.78
 20
94.11
 30
0.0
  0
VERTEX
  8
AREAS
 10
32.766
 20
94.111
 30
0.0
  0
VERTEX
  8
AREAS
 10
32.752
 20
94.111
 30
0.0
  0
VERTEX
  8
AREAS
 10
32.736
 20
94.111
 30
0.0
  0
VERTEX
  8
AREAS
 10
32.728
 20
94.111
 30
0.0
  0
VERTEX
  8
AREAS
 10
32.718
 20
94.111
 30
0.0
  0
VERTEX
  8
AREAS
 10
32.713
 20
94.118
 30
0.0
  0
VERTEX
  8
AREAS
 10
32.715
 20
94.133
 30
0.0
  0
VERTEX
  8
AREAS
 10
32.724
 20
94.148
 30
0.0
  0
VERTEX
  8
AREAS
 10
32.73
 20
94.159
 30
0.0
  0
VERTEX
  8
AREAS
 10
32.742
 20
94.179
 30
0.0
  0
SEQEND
  8
AREAS
  0
POLYLINE
  8
AREAS
 66
     1
 10
0.0
 20
0.0
 30
0.0
 70
     1
  0
VERTEX
  8
AREAS
 10
33.001
 20
93.862
 30
0.0
  0
VERTEX
  8
AREAS
 10
33.017
 20
93.891
 30
0.0
  0
VERTEX
  8
AREAS
 10
33.037
 20
93.875
 30
0.0
  0
VERTEX
  8
AREAS
 10
33.051
 20
93.851
 30
0.0
  0
VERTEX
  8
AREAS
 10
33.052
 20
93.843
 30
0.0
  0
VERTEX
  8
AREAS
 10
33.038
 20
93.821
 30
0.0
  0
VERTEX
  8
AREAS
 10
33.061
 20
93.78
 30
0.0
  0
VERTEX
  8
AREAS
 10
33.052
 20
93.767
 30
0.0
  0
VERTEX
  8
AREAS
 10
33.031
 20
93.763
 30
0.0
  0
VERTEX
  8
AREAS
 10
33.014
 20
93.781
 30
0.0
  0
VERTEX
  8
AREAS
 10
33.01
 20
93.805
 30
0.0
  0
VERTEX
  8
AREAS
 10
33.018
 20
93.81
 30
0.0
  0
SEQEND
  8
AREAS
  0
POLYLINE
  8
AREAS
 66
     1
 10
0.0
 20
0.0
 30
0.0
 70
     1
  0
VERTEX
  8
AREAS
 10
32.955
 20
93.853
 30
0.0
  0
VERTEX
  8
AREAS
 10
32.934
 20
93.82
 30
0.0
  0
VERTEX
  8
AREAS
 10
32.932
 20
93.795
 30
0.0
  0
VERTEX
  8
AREAS
 10
32.939
 20
93.78
 30
0.0
  0
VERTEX
  8
AREAS
 10
32.946
 20
93.777
 30
0.0
  0
VERTEX
  8
AREAS
 10
32.957
 20
93.777
 30
0.0
  0
VERTEX
  8
AREAS
 10
32.977
 20
93.781
 30
0.0
  0
VERTEX
  8
AREAS
 10
32.986
 20
93.788
 30
0.0
  0
SEQEND
  8
AREAS
  0
POLYLINE
  8
AREAS
 66
     1
 10
0.0
 20
0.0
 30
0.0
 70
     1
  0
VERTEX
  8
AREAS
 10
32.872
 20
93.824
 30
0.0
  0
VERTEX
  8
AREAS
 10
32.905
 20
93.809
 30
0.0
  0
VERTEX
  8
AREAS
 10
32.908
 20
93.804
 30
0.0
  0
VERTEX
  8
AREAS
 10
32.905
 20
93.784
 30
0.0
  0
VERTEX
  8
AREAS
 10
32.898
 20
93.776
 30
0.0
  0
VERTEX
  8
AREAS
 10
32.884
 20
93.777
 30
0.0
  0
VERTEX
  8
AREAS
 10
32.868
 20
93.783
 30
0.0
  0
VERTEX
  8
AREAS
 10
32.856
 20
93.793
 30
0.0
  0
VERTEX
  8
AREAS
 10
32.856
 20
93.802
 30
0.0
  0
VERTEX
  8
AREAS
 10
32.862
 20
93.818
 30
0.0
  0
SEQEND
  8
AREAS
  0
POLYLINE
  8
AREAS
 66
     1
 10
0.0
 20
0.0
 30
0.0
 70
     1
  0
VERTEX
  8
AREAS
 10
32.576
 20
93.885
 30
0.0
  0
VERTEX
  8
AREAS
 10
32.613
 20
93.883
 30
0.0
  0
VERTEX
  8
AREAS
 10
32.613
 20
93.848
 30
0.0
  0
VERTEX
  8
AREAS
 10
32.605
 20
93.829
 30
0.0
  0
VERTEX
  8
AREAS
 10
32.586
 20
93.829
 30
0.0
  0
VERTEX
  8
AREAS
 10
32.576
 20
93.858
 30
0.0
  0
SEQEND
  8
AREAS
  0
POLYLINE
  8
AREAS
 66
     1
 10
0.0
 20
0.0
 30
0.0
 70
     1
  0
VERTEX
  8
AREAS
 10
32.601
 20
93.624
 30
0.0
  0
VERTEX
  8
AREAS
 10
32.632
 20
93.627
 30
0.0
  0
VERTEX
  8
AREAS
 10
32.657
 20
93.625
 30
0.0
  0
VERTEX
  8
AREAS
 10
32.669
 20
93.618
 30
0.0
  0
VERTEX
  8
AREAS
 10
32.675
 20
93.606
 30
0.0
  0
VERTEX
  8
AREAS
 10
32.667
 20
93.587
 30
0.0
  0
VERTEX
  8
AREAS
 10
32.636
 20
93.579
 30
0.0
  0
VERTEX
  8
AREAS
 10
32.594
 20
93.579
 30
0.0
  0
VERTEX
  8
AREAS
 10
32.603
 20
93.596
 30
0.0
  0
SEQEND
  8
AREAS
  0
POLYLINE
  8
AREAS
 66
     1
 10
0.0
 20
0.0
 30
0.0
 70
     1
  0
VERTEX
  8
AREAS
 10
32.476
 20
93.635
 30
0.0
  0
VERTEX
  8
AREAS
 10
32.493
 20
93.606
 30
0.0
  0
VERTEX
  8
AREAS
 10
32.481
 20
93.554
 30
0.0
  0
VERTEX
  8
AREAS
 10
32.443
 20
93.577
 30
0.0
  0
VERTEX
  8
AREAS
 10
32.449
 20
93.616
 30
0.0
  0
SEQEND
  8
AREAS
  0
POLYLINE
  8
AREAS
 66
     1
 10
0.0
 20
0.0
 30
0.0
 70
     1
  0
VERTEX
  8
AREAS
 10
32.524
 20
93.36
 30
0.0
  0
VERTEX
  8
AREAS
 10
32.555
 20
93.349
 30
0.0
  0
VERTEX
  8
AREAS
 10
32.561
 20
93.358
 30
0.0
  0
VERTEX
  8
AREAS
 10
32.584
 20
93.281
 30
0.0
  0
VERTEX
  8
AREAS
 10
32.541
 20
93.296
 30
0.0
  0
SEQEND
  8
AREAS
  0
POLYLINE
  8
AREAS
 66
     1
 10
0.0
 20
0.0
 30
0.0
 70
     1
  0
VERTEX
  8
AREAS
 10
30.226
 20
96.281
 30
0.0
  0
VERTEX
  8
AREAS
 10
30.249
 20
96.267
 30
0.0
  0
VERTEX
  8
AREAS
 10
30.25
 20
96.225
 30
0.0
  0
VERTEX
  8
AREAS
 10
30.231
 20
96.213
 30
0.0
  0
VERTEX
  8
AREAS
 10
30.207
 20
96.212
 30
0.0
  0
VERTEX
  8
AREAS
 10
30.197
 20
96.233
 30
0.0
  0
VERTEX
  8
AREAS
 10
30.207
 20
96.267
 30
0.0
  0
SEQEND
  8
AREAS
  0
POLYLINE
  8
AREAS
 66
     1
 10
0.0
 20
0.0
 30
0.0
 70
     1
  0
VERTEX
  8
AREAS
 10
30.335
 20
96.816
 30
0.0
  0
VERTEX
  8
AREAS
 10
30.389
 20
96.828
 30
0.0
  0
VERTEX
  8
AREAS
 10
30.407
 20
96.816
 30
0.0
  0
VERTEX
  8
AREAS
 10
30.415
 20
96.797
 30
0.0
  0
VERTEX
  8
AREAS
 10
30.403
 20
96.782
 30
0.0
  0
VERTEX
  8
AREAS
 10
30.375
 20
96.772
 30
0.0
  0
VERTEX
  8
AREAS
 10
30.346
 20
96.769
 30
0.0
  0
VERTEX
  8
AREAS
 10
30.327
 20
96.779
 30
0.0
  0
VERTEX
  8
AREAS
 10
30.326
 20
96.799
 30
0.0
  0
SEQEND
  8
AREAS
  0
POLYLINE
  8
AREAS
 66
     1
 10
0.0
 20
0.0
 30
0.0
 70
     1
  0
VERTEX
  8
AREAS
 10
28.707
 20
95.984
 30
0.0
  0
VERTEX
  8
AREAS
 10
28.712
 20
96.008
 30
0.0
  0
VERTEX
  8
AREAS
 10
28.733
 20
96.033
 30
0.0
  0
VERTEX
  8
AREAS
 10
28.762
 20
96.044
 30
0.0
  0
VERTEX
  8
AREAS
 10
28.779
 20
96.062
 30
0.0
  0
VERTEX
  8
AREAS
 10
28.782
 20
96.069
 30
0.0
  0
VERTEX
  8
AREAS
 10
28.816
 20
96.095
 30
0.0
  0
VERTEX
  8
AREAS
 10
28.848
 20
96.151
 30
0.0
  0
VERTEX
  8
AREAS
 10
28.914
 20
96.153
 30
0.0
  0
VERTEX
  8
AREAS
 10
28.919
 20
96.076
 30
0.0
  0
VERTEX
  8
AREAS
 10
28.929
 20
96.033
 30
0.0
  0
VERTEX
  8
AREAS
 10
28.945
 20
95.998
 30
0.0
  0
VERTEX
  8
AREAS
 10
28.95
 20
95.981
 30
0.0
  0
VERTEX
  8
AREAS
 10
28.95
 20
95.931
 30
0.0
  0
VERTEX
  8
AREAS
 10
28.964
 20
95.918
 30
0.0
  0
VERTEX
  8
AREAS
 10
28.976
 20
95.877
 30
0.0
  0
VERTEX
  8
AREAS
 10
28.986
 20
95.846
 30
0.0
  0
VERTEX
  8
AREAS
 10
29.009
 20
95.827
 30
0.0
  0
VERTEX
  8
AREAS
 10
29.004
 20
95.809
 30
0.0
  0
VERTEX
  8
AREAS
 10
28.987
 20
95.79
 30
0.0
  0
VERTEX
  8
AREAS
 10
28.964
 20
95.781
 30
0.0
  0
VERTEX
  8
AREAS
 10
28.923
 20
95.779
 30
0.0
  0
VERTEX
  8
AREAS
 10
28.891
 20
95.785
 30
0.0
  0
VERTEX
  8
AREAS
 10
28.862
 20
95.799
 30
0.0
  0
VERTEX
  8
AREAS
 10
28.822
 20
95.799
 30
0.0
  0
VERTEX
  8
AREAS
 10
28.817
 20
95.806
 30
0.0
  0
VERTEX
  8
AREAS
 10
28.786
 20
95.803
 30
0.0
  0
VERTEX
  8
AREAS
 10
28.731
 20
95.812
 30
0.0
  0
VERTEX
  8
AREAS
 10
28.714
 20
95.831
 30
0.0
  0
VERTEX
  8
AREAS
 10
28.711
 20
95.873
 30
0.0
  0
VERTEX
  8
AREAS
 10
28.711
 20
95.891
 30
0.0
  0
VERTEX
  8
AREAS
 10
28.722
 20
95.921
 30
0.0
  0
VERTEX
  8
AREAS
 10
28.72
 20
95.972
 30
0.0
  0
SEQEND
  8
AREAS
  0
POLYLINE
  8
AREAS
 66
     1
 10
0.0
 20
0.0
 30
0.0
 70
     1
  0
VERTEX
  8
AREAS
 10
29.43
 20
95.894
 30
0.0
  0
VERTEX
  8
AREAS
 10
29.443
 20
95.929
 30
0.0
  0
VERTEX
  8
AREAS
 10
29.468
 20
95.943
 30
0.0
  0
VERTEX
  8
AREAS
 10
29.48
 20
95.927
 30
0.0
  0
VERTEX
  8
AREAS
 10
29.476
 20
95.909
 30
0.0
  0
VERTEX
  8
AREAS
 10
29.464
 20
95.892
 30
0.0
  0
VERTEX
  8
AREAS
 10
29.451
 20
95.886
 30
0.0
  0
SEQEND
  8
AREAS
  0
POLYLINE
  8
AREAS
 66
     1
 10
0.0
 20
0.0
 30
0.0
 70
     1
  0
VERTEX
  8
AREAS
 10
29.228
 20
95.548
 30
0.0
  0
VERTEX
  8
AREAS
 10
29.245
 20
95.554
 30
0.0
  0
VERTEX
  8
AREAS
 10
29.264
 20
95.56
 30
0.0
  0
VERTEX
  8
AREAS
 10
29.294
 20
95.552
 30
0.0
  0
VERTEX
  8
AREAS
 10
29.263
 20
95.495
 30
0.0
  0
SEQEND
  8
AREAS
  0
POLYLINE
  8
AREAS
 66
     1
 10
0.0
 20
0.0
 30
0.0
 70
     1
  0
VERTEX
  8
AREAS
 10
28.015
 20
96.95
 30
0.0
  0
VERTEX
  8
AREAS
 10
28.047
 20
96.95
 30
0.0
  0
VERTEX
  8
AREAS
 10
28.062
 20
96.926
 30
0.0
  0
VERTEX
  8
AREAS
 10
28.044
 20
96.908
 30
0.0
  0
VERTEX
  8
AREAS
 10
28.018
 20
96.911
 30
0.0
  0
VERTEX
  8
AREAS
 10
28.004
 20
96.919
 30
0.0
  0
SEQEND
  8
AREAS
  0
POLYLINE
  8
AREAS
 66
     1
 10
0.0
 20
0.0
 30
0.0
 70
     1
  0
VERTEX
  8
AREAS
 10
28.329
 20
96.642
 30
0.0
  0
VERTEX
  8
AREAS
 10
28.34
 20
96.658
 30
0.0
  0
VERTEX
  8
AREAS
 10
28.383
 20
96.655
 30
0.0
  0
VERTEX
  8
AREAS
 10
28.406
 20
96.647
 30
0.0
  0
VERTEX
  8
AREAS
 10
28.409
 20
96.62
 30
0.0
  0
VERTEX
  8
AREAS
 10
28.399
 20
96.61
 30
0.0
  0
VERTEX
  8
AREAS
 10
28.364
 20
96.612
 30
0.0
  0
VERTEX
  8
AREAS
 10
28.343
 20
96.618
 30
0.0
  0
SEQEND
  8
AREAS
  0
POLYLINE
  8
AREAS
 66
     1
 10
0.0
 20
0.0
 30
0.0
 70
     1
  0
VERTEX
  8
AREAS
 10
28.531
 20
95.917
 30
0.0
  0
VERTEX
  8
AREAS
 10
28.552
 20
95.953
 30
0.0
  0
VERTEX
  8
AREAS
 10
28.598
 20
95.958
 30
0.0
  0
VERTEX
  8
AREAS
 10
28.606
 20
95.936
 30
0.0
  0
VERTEX
  8
AREAS
 10
28.583
 20
95.915
 30
0.0
  0
VERTEX
  8
AREAS
 10
28.559
 20
95.902
 30
0.0
  0
VERTEX
  8
AREAS
 10
28.534
 20
95.903
 30
0.0
  0
SEQEND
  8
AREAS
  0
POLYLINE
  8
AREAS
 66
     1
 10
0.0
 20
0.0
 30
0.0
 70
     1
  0
VERTEX
  8
AREAS
 10
28.456
 20
95.732
 30
0.0
  0
VERTEX
  8
AREAS
 10
28.483
 20
95.767
 30
0.0
  0
VERTEX
  8
AREAS
 10
28.5
 20
95.804
 30
0.0
  0
VERTEX
  8
AREAS
 10
28.564
 20
95.84
 30
0.0
  0
VERTEX
  8
AREAS
 10
28.58
 20
95.845
 30
0.0
  0
VERTEX
  8
AREAS
 10
28.59
 20
95.835
 30
0.0
  0
VERTEX
  8
AREAS
 10
28.586
 20
95.811
 30
0.0
  0
VERTEX
  8
AREAS
 10
28.557
 20
95.789
 30
0.0
  0
VERTEX
  8
AREAS
 10
28.541
 20
95.744
 30
0.0
  0
VERTEX
  8
AREAS
 10
28.535
 20
95.717
 30
0.0
  0
VERTEX
  8
AREAS
 10
28.535
 20
95.631
 30
0.0
  0
VERTEX
  8
AREAS
 10
28.524
 20
95.623
 30
0.0
  0
VERTEX
  8
AREAS
 10
28.485
 20
95.614
 30
0.0
  0
VERTEX
  8
AREAS
 10
28.444
 20
95.686
 30
0.0
  0
VERTEX
  8
AREAS
 10
28.454
 20
95.718
 30
0.0
  0
SEQEND
  8
AREAS
  0
POLYLINE
  8
AREAS
 66
     1
 10
0.0
 20
0.0
 30
0.0
 70
     1
  0
VERTEX
  8
AREAS
 10
28.592
 20
95.562
 30
0.0
  0
VERTEX
  8
AREAS
 10
28.605
 20
95.591
 30
0.0
  0
VERTEX
  8
AREAS
 10
28.643
 20
95.6
 30
0.0
  0
VERTEX
  8
AREAS
 10
28.667
 20
95.591
 30
0.0
  0
VERTEX
  8
AREAS
 10
28.677
 20
95.577
 30
0.0
  0
VERTEX
  8
AREAS
 10
28.67
 20
95.558
 30
0.0
  0
VERTEX
  8
AREAS
 10
28.641
 20
95.549
 30
0.0
  0
VERTEX
  8
AREAS
 10
28.612
 20
95.549
 30
0.0
  0
SEQEND
  8
AREAS
  0
POLYLINE
  8
AREAS
 66
     1
 10
0.0
 20
0.0
 30
0.0
 70
     1
  0
VERTEX
  8
AREAS
 10
28.273
 20
95.615
 30
0.0
  0
VERTEX
  8
AREAS
 10
28.259
 20
95.621
 30
0.0
  0
VERTEX
  8
AREAS
 10
28.283
 20
95.664
 30
0.0
  0
VERTEX
  8
AREAS
 10
28.321
 20
95.68
 30
0.0
  0
VERTEX
  8
AREAS
 10
28.35
 20
95.665
 30
0.0
  0
VERTEX
  8
AREAS
 10
28.356
 20
95.654
 30
0.0
  0
VERTEX
  8
AREAS
 10
28.344
 20
95.637
 30
0.0
  0
VERTEX
  8
AREAS
 10
28.298
 20
95.624
 30
0.0
  0
SEQEND
  8
AREAS
  0
POLYLINE
  8
AREAS
 66
     1
 10
0.0
 20
0.0
 30
0.0
 70
     1
  0
VERTEX
  8
AREAS
 10
28.118
 20
95.911
 30
0.0
  0
VERTEX
  8
AREAS
 10
28.169
 20
95.933
 30
0.0
  0
VERTEX
  8
AREAS
 10
28.208
 20
95.941
 30
0.0
  0
VERTEX
  8
AREAS
 10
28.243
 20
95.936
 30
0.0
  0
VERTEX
  8
AREAS
 10
28.267
 20
95.911
 30
0.0
  0
VERTEX
  8
AREAS
 10
28.267
 20
95.879
 30
0.0
  0
VERTEX
  8
AREAS
 10
28.253
 20
95.854
 30
0.0
  0
VERTEX
  8
AREAS
 10
28.207
 20
95.841
 30
0.0
  0
VERTEX
  8
AREAS
 10
28.176
 20
95.842
 30
0.0
  0
VERTEX
  8
AREAS
 10
28.144
 20
95.838
 30
0.0
  0
VERTEX
  8
AREAS
 10
28.118
 20
95.852
 30
0.0
  0
VERTEX
  8
AREAS
 10
28.104
 20
95.897
 30
0.0
  0
SEQEND
  8
AREAS
  0
POLYLINE
  8
AREAS
 66
     1
 10
0.0
 20
0.0
 30
0.0
 70
     1
  0
VERTEX
  8
AREAS
 10
27.914
 20
96.221
 30
0.0
  0
VERTEX
  8
AREAS
 10
27.943
 20
96.251
 30
0.0
  0
VERTEX
  8
AREAS
 10
27.964
 20
96.227
 30
0.0
  0
VERTEX
  8
AREAS
 10
27.954
 20
96.185
 30
0.0
  0
VERTEX
  8
AREAS
 10
27.927
 20
96.182
 30
0.0
  0
VERTEX
  8
AREAS
 10
27.916
 20
96.193
 30
0.0
  0
SEQEND
  8
AREAS
  0
POLYLINE
  8
AREAS
 66
     1
 10
0.0
 20
0.0
 30
0.0
 70
     1
  0
VERTEX
  8
AREAS
 10
27.916
 20
95.906
 30
0.0
  0
VERTEX
  8
AREAS
 10
27.954
 20
95.932
 30
0.0
  0
VERTEX
  8
AREAS
 10
27.974
 20
95.929
 30
0.0
  0
VERTEX
  8
AREAS
 10
27.959
 20
95.892
 30
0.0
  0
VERTEX
  8
AREAS
 10
27.93
 20
95.858
 30
0.0
  0
VERTEX
  8
AREAS
 10
27.906
 20
95.865
 30
0.0
  0
SEQEND
  8
AREAS
  0
POLYLINE
  8
AREAS
 66
     1
 10
0.0
 20
0.0
 30
0.0
 70
     1
  0
VERTEX
  8
AREAS
 10
27.695
 20
96.01
 30
0.0
  0
VERTEX
  8
AREAS
 10
27.692
 20
96.021
 30
0.0
  0
VERTEX
  8
AREAS
 10
27.689
 20
96.032
 30
0.0
  0
VERTEX
  8
AREAS
 10
27.705
 20
96.042
 30
0.0
  0
VERTEX
  8
AREAS
 10
27.748
 20
96.048
 30
0.0
  0
VERTEX
  8
AREAS
 10
27.779
 20
96.05
 30
0.0
  0
VERTEX
  8
AREAS
 10
27.798
 20
96.032
 30
0.0
  0
VERTEX
  8
AREAS
 10
27.789
 20
96.013
 30
0.0
  0
VERTEX
  8
AREAS
 10
27.752
 20
96.006
 30
0.0
  0
VERTEX
  8
AREAS
 10
27.723
 20
96.005
 30
0.0
  0
SEQEND
  8
AREAS
  0
POLYLINE
  8
AREAS
 66
     1
 10
0.0
 20
0.0
 30
0.0
 70
     1
  0
VERTEX
  8
AREAS
 10
27.697
 20
95.642
 30
0.0
  0
VERTEX
  8
AREAS
 10
27.716
 20
95.673
 30
0.0
  0
VERTEX
  8
AREAS
 10
27.726
 20
95.697
 30
0.0
  0
VERTEX
  8
AREAS
 10
27.747
 20
95.713
 30
0.0
  0
VERTEX
  8
AREAS
 10
27.776
 20
95.713
 30
0.0
  0
VERTEX
  8
AREAS
 10
27.777
 20
95.662
 30
0.0
  0
VERTEX
  8
AREAS
 10
27.766
 20
95.625
 30
0.0
  0
SEQEND
  8
AREAS
  0
POLYLINE
  8
AREAS
 66
     1
 10
0.0
 20
0.0
 30
0.0
 70
     1
  0
VERTEX
  8
AREAS
 10
27.246
 20
95.985
 30
0.0
  0
VERTEX
  8
AREAS
 10
27.266
 20
96.005
 30
0.0
  0
VERTEX
  8
AREAS
 10
27.294
 20
96.007
 30
0.0
  0
VERTEX
  8
AREAS
 10
27.319
 20
95.982
 30
0.0
  0
VERTEX
  8
AREAS
 10
27.319
 20
95.947
 30
0.0
  0
VERTEX
  8
AREAS
 10
27.3
 20
95.921
 30
0.0
  0
VERTEX
  8
AREAS
 10
27.273
 20
95.926
 30
0.0
  0
SEQEND
  8
AREAS
  0
POLYLINE
  8
AREAS
 66
     1
 10
0.0
 20
0.0
 30
0.0
 70
     1
  0
VERTEX
  8
AREAS
 10
29.031
 20
92.563
 30
0.0
  0
VERTEX
  8
AREAS
 10
29.036
 20
92.601
 30
0.0
  0
VERTEX
  8
AREAS
 10
29.071
 20
92.597
 30
0.0
  0
VERTEX
  8
AREAS
 10
29.083
 20
92.58
 30
0.0
  0
VERTEX
  8
AREAS
 10
29.092
 20
92.56
 30
0.0
  0
VERTEX
  8
AREAS
 10
29.045
 20
92.564
 30
0.0
  0
SEQEND
  8
AREAS
  0
POLYLINE
  8
AREAS
 66
     1
 10
0.0
 20
0.0
 30
0.0
 70
     1
  0
VERTEX
  8
AREAS
 10
29.105
 20
92.309
 30
0.0
  0
VERTEX
  8
AREAS
 10
29.109
 20
92.324
 30
0.0
  0
VERTEX
  8
AREAS
 10
29.122
 20
92.336
 30
0.0
  0
VERTEX
  8
AREAS
 10
29.159
 20
92.336
 30
0.0
  0
VERTEX
  8
AREAS
 10
29.165
 20
92.282
 30
0.0
  0
VERTEX
  8
AREAS
 10
29.12
 20
92.293
 30
0.0
  0
SEQEND
  8
AREAS
  0
POLYLINE
  8
AREAS
 66
     1
 10
0.0
 20
0.0
 30
0.0
 70
     1
  0
VERTEX
  8
AREAS
 10
29.416
 20
92.946
 30
0.0
  0
VERTEX
  8
AREAS
 10
29.423
 20
92.959
 30
0.0
  0
VERTEX
  8
AREAS
 10
29.423
 20
92.969
 30
0.0
  0
VERTEX
  8
AREAS
 10
29.43
 20
92.979
 30
0.0
  0
VERTEX
  8
AREAS
 10
29.461
 20
92.98
 30
0.0
  0
VERTEX
  8
AREAS
 10
29.474
 20
92.962
 30
0.0
  0
VERTEX
  8
AREAS
 10
29.476
 20
92.941
 30
0.0
  0
VERTEX
  8
AREAS
 10
29.468
 20
92.931
 30
0.0
  0
VERTEX
  8
AREAS
 10
29.454
 20
92.928
 30
0.0
  0
VERTEX
  8
AREAS
 10
29.422
 20
92.928
 30
0.0
  0
SEQEND
  8
AREAS
  0
POLYLINE
  8
AREAS
 66
     1
 10
0.0
 20
0.0
 30
0.0
 70
     1
  0
VERTEX
  8
AREAS
 10
29.271
 20
93.154
 30
0.0
  0
VERTEX
  8
AREAS
 10
29.338
 20
93.167
 30
0.0
  0
VERTEX
  8
AREAS
 10
29.351
 20
93.199
 30
0.0
  0
VERTEX
  8
AREAS
 10
29.34
 20
93.202
 30
0.0
  0
VERTEX
  8
AREAS
 10
29.321
 20
93.202
 30
0.0
  0
VERTEX
  8
AREAS
 10
29.298
 20
93.201
 30
0.0
  0
VERTEX
  8
AREAS
 10
29.284
 20
93.198
 30
0.0
  0
VERTEX
  8
AREAS
 10
29.27
 20
93.188
 30
0.0
  0
VERTEX
  8
AREAS
 10
29.264
 20
93.174
 30
0.0
  0
SEQEND
  8
AREAS
  0
POLYLINE
  8
AREAS
 66
     1
 10
0.0
 20
0.0
 30
0.0
 70
     1
  0
VERTEX
  8
AREAS
 10
29.556
 20
93.263
 30
0.0
  0
VERTEX
  8
AREAS
 10
29.545
 20
93.28
 30
0.0
  0
VERTEX
  8
AREAS
 10
29.559
 20
93.309
 30
0.0
  0
VERTEX
  8
AREAS
 10
29.602
 20
93.328
 30
0.0
  0
VERTEX
  8
AREAS
 10
29.611
 20
93.311
 30
0.0
  0
SEQEND
  8
AREAS
  0
POLYLINE
  8
AREAS
 66
     1
 10
0.0
 20
0.0
 30
0.0
 70
     1
  0
VERTEX
  8
AREAS
 10
30.041
 20
92.897
 30
0.0
  0
VERTEX
  8
AREAS
 10
30.053
 20
92.912
 30
0.0
  0
VERTEX
  8
AREAS
 10
30.059
 20
92.927
 30
0.0
  0
VERTEX
  8
AREAS
 10
30.059
 20
92.936
 30
0.0
  0
VERTEX
  8
AREAS
 10
30.049
 20
92.966
 30
0.0
  0
VERTEX
  8
AREAS
 10
30.032
 20
92.964
 30
0.0
  0
VERTEX
  8
AREAS
 10
30.022
 20
92.956
 30
0.0
  0
VERTEX
  8
AREAS
 10
30.013
 20
92.912
 30
0.0
  0
VERTEX
  8
AREAS
 10
30.019
 20
92.898
 30
0.0
  0
SEQEND
  8
AREAS
  0
POLYLINE
  8
AREAS
 66
     1
 10
0.0
 20
0.0
 30
0.0
 70
     1
  0
VERTEX
  8
AREAS
 10
30.285
 20
93.408
 30
0.0
  0
VERTEX
  8
AREAS
 10
30.31
 20
93.394
 30
0.0
  0
VERTEX
  8
AREAS
 10
30.307
 20
93.371
 30
0.0
  0
VERTEX
  8
AREAS
 10
30.304
 20
93.358
 30
0.0
  0
VERTEX
  8
AREAS
 10
30.282
 20
93.341
 30
0.0
  0
VERTEX
  8
AREAS
 10
30.268
 20
93.34
 30
0.0
  0
VERTEX
  8
AREAS
 10
30.256
 20
93.344
 30
0.0
  0
VERTEX
  8
AREAS
 10
30.251
 20
93.355
 30
0.0
  0
VERTEX
  8
AREAS
 10
30.253
 20
93.379
 30
0.0
  0
VERTEX
  8
AREAS
 10
30.268
 20
93.396
 30
0.0
  0
SEQEND
  8
AREAS
  0
POLYLINE
  8
AREAS
 66
     1
 10
0.0
 20
0.0
 30
0.0
 70
     1
  0
VERTEX
  8
AREAS
 10
30.957
 20
92.931
 30
0.0
  0
VERTEX
  8
AREAS
 10
30.954
 20
92.935
 30
0.0
  0
VERTEX
  8
AREAS
 10
30.954
 20
92.971
 30
0.0
  0
VERTEX
  8
AREAS
 10
30.967
 20
92.983
 30
0.0
  0
VERTEX
  8
AREAS
 10
30.975
 20
92.987
 30
0.0
  0
VERTEX
  8
AREAS
 10
30.993
 20
92.989
 30
0.0
  0
VERTEX
  8
AREAS
 10
31.014
 20
92.985
 30
0.0
  0
VERTEX
  8
AREAS
 10
31.025
 20
92.972
 30
0.0
  0
VERTEX
  8
AREAS
 10
31.027
 20
92.959
 30
0.0
  0
VERTEX
  8
AREAS
 10
31.024
 20
92.914
 30
0.0
  0
SEQEND
  8
AREAS
  0
POLYLINE
  8
AREAS
 66
     1
 10
0.0
 20
0.0
 30
0.0
 70
     1
  0
VERTEX
  8
AREAS
 10
28.479
 20
93.618
 30
0.0
  0
VERTEX
  8
AREAS
 10
28.479
 20
93.645
 30
0.0
  0
VERTEX
  8
AREAS
 10
28.51
 20
93.657
 30
0.0
  0
VERTEX
  8
AREAS
 10
28.539
 20
93.696
 30
0.0
  0
VERTEX
  8
AREAS
 10
28.616
 20
93.689
 30
0.0
  0
VERTEX
  8
AREAS
 10
28.636
 20
93.664
 30
0.0
  0
VERTEX
  8
AREAS
 10
28.677
 20
93.64
 30
0.0
  0
VERTEX
  8
AREAS
 10
28.67
 20
93.599
 30
0.0
  0
VERTEX
  8
AREAS
 10
28.578
 20
93.631
 30
0.0
  0
VERTEX
  8
AREAS
 10
28.549
 20
93.609
 30
0.0
  0
SEQEND
  8
AREAS
  0
POLYLINE
  8
AREAS
 66
     1
 10
0.0
 20
0.0
 30
0.0
 70
     1
  0
VERTEX
  8
AREAS
 10
28.604
 20
93.989
 30
0.0
  0
VERTEX
  8
AREAS
 10
28.616
 20
93.981
 30
0.0
  0
VERTEX
  8
AREAS
 10
28.645
 20
94.001
 30
0.0
  0
VERTEX
  8
AREAS
 10
28.636
 20
94.047
 30
0.0
  0
VERTEX
  8
AREAS
 10
28.607
 20
94.068
 30
0.0
  0
VERTEX
  8
AREAS
 10
28.58
 20
94.042
 30
0.0
  0
SEQEND
  8
AREAS
  0
POLYLINE
  8
AREAS
 66
     1
 10
0.0
 20
0.0
 30
0.0
 70
     1
  0
VERTEX
  8
AREAS
 10
28.748
 20
93.935
 30
0.0
  0
VERTEX
  8
AREAS
 10
28.746
 20
93.956
 30
0.0
  0
VERTEX
  8
AREAS
 10
28.75
 20
93.967
 30
0.0
  0
VERTEX
  8
AREAS
 10
28.788
 20
93.969
 30
0.0
  0
VERTEX
  8
AREAS
 10
28.811
 20
93.96
 30
0.0
  0
VERTEX
  8
AREAS
 10
28.832
 20
93.936
 30
0.0
  0
VERTEX
  8
AREAS
 10
28.824
 20
93.916
 30
0.0
  0
VERTEX
  8
AREAS
 10
28.803
 20
93.913
 30
0.0
  0
VERTEX
  8
AREAS
 10
28.769
 20
93.922
 30
0.0
  0
SEQEND
  8
AREAS
  0
POLYLINE
  8
AREAS
 66
     1
 10
0.0
 20
0.0
 30
0.0
 70
     1
  0
VERTEX
  8
AREAS
 10
28.902
 20
93.867
 30
0.0
  0
VERTEX
  8
AREAS
 10
28.931
 20
93.909
 30
0.0
  0
VERTEX
  8
AREAS
 10
28.967
 20
93.928
 30
0.0
  0
VERTEX
  8
AREAS
 10
28.995
 20
93.909
 30
0.0
  0
VERTEX
  8
AREAS
 10
28.963
 20
93.869
 30
0.0
  0
SEQEND
  8
AREAS
  0
POLYLINE
  8
AREAS
 66
     1
 10
0.0
 20
0.0
 30
0.0
 70
     1
  0
VERTEX
  8
AREAS
 10
28.404
 20
93.536
 30
0.0
  0
VERTEX
  8
AREAS
 10
28.454
 20
93.529
 30
0.0
  0
VERTEX
  8
AREAS
 10
28.462
 20
93.488
 30
0.0
  0
VERTEX
  8
AREAS
 10
28.413
 20
93.473
 30
0.0
  0
SEQEND
  8
AREAS
  0
POLYLINE
  8
AREAS
 66
     1
 10
0.0
 20
0.0
 30
0.0
 70
     1
  0
VERTEX
  8
AREAS
 10
28.936
 20
95.169
 30
0.0
  0
VERTEX
  8
AREAS
 10
28.987
 20
95.126
 30
0.0
  0
VERTEX
  8
AREAS
 10
29.038
 20
95.195
 30
0.0
  0
VERTEX
  8
AREAS
 10
29.057
 20
95.174
 30
0.0
  0
VERTEX
  8
AREAS
 10
29.064
 20
95.161
 30
0.0
  0
VERTEX
  8
AREAS
 10
29.018
 20
95.098
 30
0.0
  0
VERTEX
  8
AREAS
 10
29.029
 20
95.09
 30
0.0
  0
VERTEX
  8
AREAS
 10
29.004
 20
95.042
 30
0.0
  0
VERTEX
  8
AREAS
 10
28.968
 20
95.052
 30
0.0
  0
VERTEX
  8
AREAS
 10
28.951
 20
95.058
 30
0.0
  0
VERTEX
  8
AREAS
 10
28.93
 20
95.064
 30
0.0
  0
VERTEX
  8
AREAS
 10
28.891
 20
95.06
 30
0.0
  0
VERTEX
  8
AREAS
 10
28.879
 20
95.062
 30
0.0
  0
VERTEX
  8
AREAS
 10
28.828
 20
95.052
 30
0.0
  0
VERTEX
  8
AREAS
 10
28.82
 20
95.065
 30
0.0
  0
VERTEX
  8
AREAS
 10
28.815
 20
95.08
 30
0.0
  0
VERTEX
  8
AREAS
 10
28.819
 20
95.115
 30
0.0
  0
VERTEX
  8
AREAS
 10
28.826
 20
95.124
 30
0.0
  0
VERTEX
  8
AREAS
 10
28.849
 20
95.126
 30
0.0
  0
VERTEX
  8
AREAS
 10
28.879
 20
95.142
 30
0.0
  0
VERTEX
  8
AREAS
 10
28.904
 20
95.148
 30
0.0
  0
VERTEX
  8
AREAS
 10
28.908
 20
95.158
 30
0.0
  0
SEQEND
  8
AREAS
  0
POLYLINE
  8
AREAS
 66
     1
 10
0.0
 20
0.0
 30
0.0
 70
     1
  0
VERTEX
  8
AREAS
 10
28.833
 20
94.74
 30
0.0
  0
VERTEX
  8
AREAS
 10
28.826
 20
94.756
 30
0.0
  0
VERTEX
  8
AREAS
 10
28.833
 20
94.771
 30
0.0
  0
VERTEX
  8
AREAS
 10
28.875
 20
94.803
 30
0.0
  0
VERTEX
  8
AREAS
 10
28.91
 20
94.82
 30
0.0
  0
VERTEX
  8
AREAS
 10
28.918
 20
94.816
 30
0.0
  0
VERTEX
  8
AREAS
 10
28.947
 20
94.819
 30
0.0
  0
VERTEX
  8
AREAS
 10
28.973
 20
94.806
 30
0.0
  0
VERTEX
  8
AREAS
 10
28.994
 20
94.804
 30
0.0
  0
VERTEX
  8
AREAS
 10
29.019
 20
94.793
 30
0.0
  0
VERTEX
  8
AREAS
 10
29.036
 20
94.788
 30
0.0
  0
VERTEX
  8
AREAS
 10
29.035
 20
94.777
 30
0.0
  0
VERTEX
  8
AREAS
 10
29.022
 20
94.77
 30
0.0
  0
VERTEX
  8
AREAS
 10
28.992
 20
94.769
 30
0.0
  0
VERTEX
  8
AREAS
 10
28.974
 20
94.778
 30
0.0
  0
VERTEX
  8
AREAS
 10
28.955
 20
94.782
 30
0.0
  0
VERTEX
  8
AREAS
 10
28.908
 20
94.774
 30
0.0
  0
VERTEX
  8
AREAS
 10
28.875
 20
94.747
 30
0.0
  0
SEQEND
  8
AREAS
  0
POLYLINE
  8
AREAS
 66
     1
 10
0.0
 20
0.0
 30
0.0
 70
     1
  0
VERTEX
  8
AREAS
 10
28.861
 20
94.568
 30
0.0
  0
VERTEX
  8
AREAS
 10
28.895
 20
94.638
 30
0.0
  0
VERTEX
  8
AREAS
 10
28.898
 20
94.668
 30
0.0
  0
VERTEX
  8
AREAS
 10
28.922
 20
94.681
 30
0.0
  0
VERTEX
  8
AREAS
 10
28.969
 20
94.684
 30
0.0
  0
VERTEX
  8
AREAS
 10
28.981
 20
94.68
 30
0.0
  0
VERTEX
  8
AREAS
 10
28.991
 20
94.666
 30
0.0
  0
VERTEX
  8
AREAS
 10
28.981
 20
94.651
 30
0.0
  0
VERTEX
  8
AREAS
 10
28.975
 20
94.636
 30
0.0
  0
VERTEX
  8
AREAS
 10
28.969
 20
94.629
 30
0.0
  0
VERTEX
  8
AREAS
 10
28.974
 20
94.617
 30
0.0
  0
VERTEX
  8
AREAS
 10
28.972
 20
94.597
 30
0.0
  0
VERTEX
  8
AREAS
 10
28.925
 20
94.569
 30
0.0
  0
SEQEND
  8
AREAS
  0
POLYLINE
  8
AREAS
 66
     1
 10
0.0
 20
0.0
 30
0.0
 70
     1
  0
VERTEX
  8
AREAS
 10
28.76
 20
94.57
 30
0.0
  0
VERTEX
  8
AREAS
 10
28.768
 20
94.574
 30
0.0
  0
VERTEX
  8
AREAS
 10
28.785
 20
94.575
 30
0.0
  0
VERTEX
  8
AREAS
 10
28.811
 20
94.568
 30
0.0
  0
VERTEX
  8
AREAS
 10
28.831
 20
94.574
 30
0.0
  0
VERTEX
  8
AREAS
 10
28.849
 20
94.605
 30
0.0
  0
VERTEX
  8
AREAS
 10
28.849
 20
94.617
 30
0.0
  0
VERTEX
  8
AREAS
 10
28.826
 20
94.636
 30
0.0
  0
VERTEX
  8
AREAS
 10
28.798
 20
94.638
 30
0.0
  0
VERTEX
  8
AREAS
 10
28.776
 20
94.635
 30
0.0
  0
VERTEX
  8
AREAS
 10
28.763
 20
94.624
 30
0.0
  0
VERTEX
  8
AREAS
 10
28.745
 20
94.598
 30
0.0
  0
VERTEX
  8
AREAS
 10
28.741
 20
94.58
 30
0.0
  0
SEQEND
  8
AREAS
  0
POLYLINE
  8
AREAS
 66
     1
 10
0.0
 20
0.0
 30
0.0
 70
     1
  0
VERTEX
  8
AREAS
 10
28.656
 20
95.105
 30
0.0
  0
VERTEX
  8
AREAS
 10
28.698
 20
95.131
 30
0.0
  0
VERTEX
  8
AREAS
 10
28.706
 20
95.122
 30
0.0
  0
VERTEX
  8
AREAS
 10
28.706
 20
95.111
 30
0.0
  0
VERTEX
  8
AREAS
 10
28.701
 20
95.105
 30
0.0
  0
VERTEX
  8
AREAS
 10
28.691
 20
95.097
 30
0.0
  0
VERTEX
  8
AREAS
 10
28.673
 20
95.092
 30
0.0
  0
VERTEX
  8
AREAS
 10
28.666
 20
95.09
 30
0.0
  0
VERTEX
  8
AREAS
 10
28.661
 20
95.092
 30
0.0
  0
SEQEND
  8
AREAS
  0
POLYLINE
  8
AREAS
 66
     1
 10
0.0
 20
0.0
 30
0.0
 70
     1
  0
VERTEX
  8
AREAS
 10
28.721
 20
94.973
 30
0.0
  0
VERTEX
  8
AREAS
 10
28.799
 20
95.006
 30
0.0
  0
VERTEX
  8
AREAS
 10
28.83
 20
94.966
 30
0.0
  0
VERTEX
  8
AREAS
 10
28.838
 20
94.946
 30
0.0
  0
VERTEX
  8
AREAS
 10
28.841
 20
94.906
 30
0.0
  0
VERTEX
  8
AREAS
 10
28.832
 20
94.897
 30
0.0
  0
VERTEX
  8
AREAS
 10
28.797
 20
94.89
 30
0.0
  0
VERTEX
  8
AREAS
 10
28.78
 20
94.887
 30
0.0
  0
VERTEX
  8
AREAS
 10
28.759
 20
94.901
 30
0.0
  0
VERTEX
  8
AREAS
 10
28.754
 20
94.92
 30
0.0
  0
VERTEX
  8
AREAS
 10
28.744
 20
94.945
 30
0.0
  0
SEQEND
  8
AREAS
  0
POLYLINE
  8
AREAS
 66
     1
 10
0.0
 20
0.0
 30
0.0
 70
     1
  0
VERTEX
  8
AREAS
 10
28.95
 20
94.957
 30
0.0
  0
VERTEX
  8
AREAS
 10
28.991
 20
94.965
 30
0.0
  0
VERTEX
  8
AREAS
 10
29.007
 20
94.971
 30
0.0
  0
VERTEX
  8
AREAS
 10
29.023
 20
94.964
 30
0.0
  0
VERTEX
  8
AREAS
 10
29.029
 20
94.953
 30
0.0
  0
VERTEX
  8
AREAS
 10
29.03
 20
94.945
 30
0.0
  0
VERTEX
  8
AREAS
 10
29.026
 20
94.936
 30
0.0
  0
VERTEX
  8
AREAS
 10
29.024
 20
94.927
 30
0.0
  0
VERTEX
  8
AREAS
 10
29.02
 20
94.921
 30
0.0
  0
VERTEX
  8
AREAS
 10
29.017
 20
94.915
 30
0.0
  0
VERTEX
  8
AREAS
 10
29.014
 20
94.908
 30
0.0
  0
VERTEX
  8
AREAS
 10
29.011
 20
94.905
 30
0.0
  0
VERTEX
  8
AREAS
 10
29.008
 20
94.9
 30
0.0
  0
VERTEX
  8
AREAS
 10
29.005
 20
94.895
 30
0.0
  0
VERTEX
  8
AREAS
 10
29.001
 20
94.895
 30
0.0
  0
VERTEX
  8
AREAS
 10
28.996
 20
94.895
 30
0.0
  0
VERTEX
  8
AREAS
 10
28.987
 20
94.895
 30
0.0
  0
VERTEX
  8
AREAS
 10
28.978
 20
94.895
 30
0.0
  0
VERTEX
  8
AREAS
 10
28.968
 20
94.897
 30
0.0
  0
VERTEX
  8
AREAS
 10
28.961
 20
94.898
 30
0.0
  0
VERTEX
  8
AREAS
 10
28.954
 20
94.898
 30
0.0
  0
VERTEX
  8
AREAS
 10
28.946
 20
94.901
 30
0.0
  0
VERTEX
  8
AREAS
 10
28.943
 20
94.907
 30
0.0
  0
VERTEX
  8
AREAS
 10
28.942
 20
94.911
 30
0.0
  0
VERTEX
  8
AREAS
 10
28.941
 20
94.915
 30
0.0
  0
VERTEX
  8
AREAS
 10
28.941
 20
94.921
 30
0.0
  0
VERTEX
  8
AREAS
 10
28.943
 20
94.925
 30
0.0
  0
VERTEX
  8
AREAS
 10
28.944
 20
94.928
 30
0.0
  0
VERTEX
  8
AREAS
 10
28.946
 20
94.934
 30
0.0
  0
VERTEX
  8
AREAS
 10
28.947
 20
94.937
 30
0.0
  0
VERTEX
  8
AREAS
 10
28.949
 20
94.942
 30
0.0
  0
VERTEX
  8
AREAS
 10
28.95
 20
94.946
 30
0.0
  0
SEQEND
  8
AREAS
  0
POLYLINE
  8
AREAS
 66
     1
 10
0.0
 20
0.0
 30
0.0
 70
     1
  0
VERTEX
  8
AREAS
 10
28.783
 20
95.382
 30
0.0
  0
VERTEX
  8
AREAS
 10
28.791
 20
95.414
 30
0.0
  0
VERTEX
  8
AREAS
 10
28.803
 20
95.439
 30
0.0
  0
VERTEX
  8
AREAS
 10
28.814
 20
95.445
 30
0.0
  0
VERTEX
  8
AREAS
 10
28.846
 20
95.43
 30
0.0
  0
VERTEX
  8
AREAS
 10
28.846
 20
95.405
 30
0.0
  0
VERTEX
  8
AREAS
 10
28.845
 20
95.387
 30
0.0
  0
VERTEX
  8
AREAS
 10
28.841
 20
95.379
 30
0.0
  0
VERTEX
  8
AREAS
 10
28.82
 20
95.356
 30
0.0
  0
VERTEX
  8
AREAS
 10
28.803
 20
95.359
 30
0.0
  0
SEQEND
  8
AREAS
  0
POLYLINE
  8
AREAS
 66
     1
 10
0.0
 20
0.0
 30
0.0
 70
     1
  0
VERTEX
  8
AREAS
 10
28.223
 20
95.256
 30
0.0
  0
VERTEX
  8
AREAS
 10
28.258
 20
95.266
 30
0.0
  0
VERTEX
  8
AREAS
 10
28.29
 20
95.282
 30
0.0
  0
VERTEX
  8
AREAS
 10
28.287
 20
95.311
 30
0.0
  0
VERTEX
  8
AREAS
 10
28.277
 20
95.333
 30
0.0
  0
VERTEX
  8
AREAS
 10
28.243
 20
95.343
 30
0.0
  0
VERTEX
  8
AREAS
 10
28.226
 20
95.346
 30
0.0
  0
VERTEX
  8
AREAS
 10
28.209
 20
95.333
 30
0.0
  0
VERTEX
  8
AREAS
 10
28.193
 20
95.303
 30
0.0
  0
VERTEX
  8
AREAS
 10
28.197
 20
95.274
 30
0.0
  0
VERTEX
  8
AREAS
 10
28.206
 20
95.26
 30
0.0
  0
SEQEND
  8
AREAS
  0
POLYLINE
  8
AREAS
 66
     1
 10
0.0
 20
0.0
 30
0.0
 70
     1
  0
VERTEX
  8
AREAS
 10
28.448
 20
95.337
 30
0.0
  0
VERTEX
  8
AREAS
 10
28.467
 20
95.376
 30
0.0
  0
VERTEX
  8
AREAS
 10
28.493
 20
95.388
 30
0.0
  0
VERTEX
  8
AREAS
 10
28.522
 20
95.369
 30
0.0
  0
VERTEX
  8
AREAS
 10
28.533
 20
95.347
 30
0.0
  0
VERTEX
  8
AREAS
 10
28.518
 20
95.307
 30
0.0
  0
VERTEX
  8
AREAS
 10
28.492
 20
95.298
 30
0.0
  0
VERTEX
  8
AREAS
 10
28.472
 20
95.3
 30
0.0
  0
VERTEX
  8
AREAS
 10
28.452
 20
95.324
 30
0.0
  0
SEQEND
  8
AREAS
  0
POLYLINE
  8
AREAS
 66
     1
 10
0.0
 20
0.0
 30
0.0
 70
     1
  0
VERTEX
  8
AREAS
 10
28.562
 20
95.359
 30
0.0
  0
VERTEX
  8
AREAS
 10
28.603
 20
95.369
 30
0.0
  0
VERTEX
  8
AREAS
 10
28.626
 20
95.369
 30
0.0
  0
VERTEX
  8
AREAS
 10
28.643
 20
95.355
 30
0.0
  0
VERTEX
  8
AREAS
 10
28.655
 20
95.346
 30
0.0
  0
VERTEX
  8
AREAS
 10
28.655
 20
95.327
 30
0.0
  0
VERTEX
  8
AREAS
 10
28.655
 20
95.301
 30
0.0
  0
VERTEX
  8
AREAS
 10
28.641
 20
95.288
 30
0.0
  0
VERTEX
  8
AREAS
 10
28.616
 20
95.277
 30
0.0
  0
VERTEX
  8
AREAS
 10
28.594
 20
95.271
 30
0.0
  0
VERTEX
  8
AREAS
 10
28.577
 20
95.271
 30
0.0
  0
VERTEX
  8
AREAS
 10
28.559
 20
95.28
 30
0.0
  0
VERTEX
  8
AREAS
 10
28.554
 20
95.312
 30
0.0
  0
VERTEX
  8
AREAS
 10
28.554
 20
95.337
 30
0.0
  0
SEQEND
  8
AREAS
  0
POLYLINE
  8
AREAS
 66
     1
 10
0.0
 20
0.0
 30
0.0
 70
     1
  0
VERTEX
  8
AREAS
 10
28.504
 20
95.15
 30
0.0
  0
VERTEX
  8
AREAS
 10
28.524
 20
95.187
 30
0.0
  0
VERTEX
  8
AREAS
 10
28.558
 20
95.202
 30
0.0
  0
VERTEX
  8
AREAS
 10
28.58
 20
95.201
 30
0.0
  0
VERTEX
  8
AREAS
 10
28.583
 20
95.196
 30
0.0
  0
VERTEX
  8
AREAS
 10
28.587
 20
95.181
 30
0.0
  0
VERTEX
  8
AREAS
 10
28.539
 20
95.149
 30
0.0
  0
VERTEX
  8
AREAS
 10
28.516
 20
95.141
 30
0.0
  0
SEQEND
  8
AREAS
  0
POLYLINE
  8
AREAS
 66
     1
 10
0.0
 20
0.0
 30
0.0
 70
     1
  0
VERTEX
  8
AREAS
 10
28.194
 20
95.141
 30
0.0
  0
VERTEX
  8
AREAS
 10
28.206
 20
95.159
 30
0.0
  0
VERTEX
  8
AREAS
 10
28.231
 20
95.165
 30
0.0
  0
VERTEX
  8
AREAS
 10
28.245
 20
95.155
 30
0.0
  0
VERTEX
  8
AREAS
 10
28.252
 20
95.143
 30
0.0
  0
VERTEX
  8
AREAS
 10
28.248
 20
95.126
 30
0.0
  0
VERTEX
  8
AREAS
 10
28.235
 20
95.123
 30
0.0
  0
VERTEX
  8
AREAS
 10
28.217
 20
95.129
 30
0.0
  0
SEQEND
  8
AREAS
  0
POLYLINE
  8
AREAS
 66
     1
 10
0.0
 20
0.0
 30
0.0
 70
     1
  0
VERTEX
  8
AREAS
 10
28.197
 20
95.089
 30
0.0
  0
VERTEX
  8
AREAS
 10
28.205
 20
95.095
 30
0.0
  0
VERTEX
  8
AREAS
 10
28.248
 20
95.104
 30
0.0
  0
VERTEX
  8
AREAS
 10
28.269
 20
95.144
 30
0.0
  0
VERTEX
  8
AREAS
 10
28.298
 20
95.144
 30
0.0
  0
VERTEX
  8
AREAS
 10
28.312
 20
95.158
 30
0.0
  0
VERTEX
  8
AREAS
 10
28.329
 20
95.165
 30
0.0
  0
VERTEX
  8
AREAS
 10
28.342
 20
95.169
 30
0.0
  0
VERTEX
  8
AREAS
 10
28.35
 20
95.169
 30
0.0
  0
VERTEX
  8
AREAS
 10
28.359
 20
95.164
 30
0.0
  0
VERTEX
  8
AREAS
 10
28.365
 20
95.152
 30
0.0
  0
VERTEX
  8
AREAS
 10
28.367
 20
95.141
 30
0.0
  0
VERTEX
  8
AREAS
 10
28.379
 20
95.141
 30
0.0
  0
VERTEX
  8
AREAS
 10
28.385
 20
95.133
 30
0.0
  0
VERTEX
  8
AREAS
 10
28.385
 20
95.12
 30
0.0
  0
VERTEX
  8
AREAS
 10
28.374
 20
95.107
 30
0.0
  0
VERTEX
  8
AREAS
 10
28.358
 20
95.089
 30
0.0
  0
VERTEX
  8
AREAS
 10
28.345
 20
95.083
 30
0.0
  0
VERTEX
  8
AREAS
 10
28.313
 20
95.095
 30
0.0
  0
VERTEX
  8
AREAS
 10
28.283
 20
95.089
 30
0.0
  0
VERTEX
  8
AREAS
 10
28.255
 20
95.074
 30
0.0
  0
VERTEX
  8
AREAS
 10
28.226
 20
95.066
 30
0.0
  0
VERTEX
  8
AREAS
 10
28.2
 20
95.062
 30
0.0
  0
VERTEX
  8
AREAS
 10
28.19
 20
95.069
 30
0.0
  0
SEQEND
  8
AREAS
  0
POLYLINE
  8
AREAS
 66
     1
 10
0.0
 20
0.0
 30
0.0
 70
     1
  0
VERTEX
  8
AREAS
 10
28.257
 20
95.02
 30
0.0
  0
VERTEX
  8
AREAS
 10
28.257
 20
95.042
 30
0.0
  0
VERTEX
  8
AREAS
 10
28.28
 20
95.055
 30
0.0
  0
VERTEX
  8
AREAS
 10
28.3
 20
95.059
 30
0.0
  0
VERTEX
  8
AREAS
 10
28.313
 20
95.051
 30
0.0
  0
VERTEX
  8
AREAS
 10
28.321
 20
95.034
 30
0.0
  0
VERTEX
  8
AREAS
 10
28.321
 20
95.02
 30
0.0
  0
VERTEX
  8
AREAS
 10
28.324
 20
95.005
 30
0.0
  0
VERTEX
  8
AREAS
 10
28.324
 20
94.988
 30
0.0
  0
VERTEX
  8
AREAS
 10
28.333
 20
94.979
 30
0.0
  0
VERTEX
  8
AREAS
 10
28.345
 20
94.964
 30
0.0
  0
VERTEX
  8
AREAS
 10
28.358
 20
94.949
 30
0.0
  0
VERTEX
  8
AREAS
 10
28.361
 20
94.932
 30
0.0
  0
VERTEX
  8
AREAS
 10
28.362
 20
94.913
 30
0.0
  0
VERTEX
  8
AREAS
 10
28.344
 20
94.906
 30
0.0
  0
VERTEX
  8
AREAS
 10
28.33
 20
94.906
 30
0.0
  0
VERTEX
  8
AREAS
 10
28.29
 20
94.926
 30
0.0
  0
VERTEX
  8
AREAS
 10
28.289
 20
94.952
 30
0.0
  0
VERTEX
  8
AREAS
 10
28.252
 20
94.971
 30
0.0
  0
VERTEX
  8
AREAS
 10
28.257
 20
95.004
 30
0.0
  0
SEQEND
  8
AREAS
  0
POLYLINE
  8
AREAS
 66
     1
 10
0.0
 20
0.0
 30
0.0
 70
     1
  0
VERTEX
  8
AREAS
 10
28.104
 20
93.685
 30
0.0
  0
VERTEX
  8
AREAS
 10
28.136
 20
93.68
 30
0.0
  0
VERTEX
  8
AREAS
 10
28.121
 20
93.632
 30
0.0
  0
VERTEX
  8
AREAS
 10
28.152
 20
93.583
 30
0.0
  0
VERTEX
  8
AREAS
 10
28.08
 20
93.597
 30
0.0
  0
VERTEX
  8
AREAS
 10
28.07
 20
93.624
 30
0.0
  0
SEQEND
  8
AREAS
  0
POLYLINE
  8
AREAS
 66
     1
 10
0.0
 20
0.0
 30
0.0
 70
     1
  0
VERTEX
  8
AREAS
 10
28.205
 20
93.667
 30
0.0
  0
VERTEX
  8
AREAS
 10
28.197
 20
93.664
 30
0.0
  0
VERTEX
  8
AREAS
 10
28.191
 20
93.653
 30
0.0
  0
VERTEX
  8
AREAS
 10
28.186
 20
93.6
 30
0.0
  0
VERTEX
  8
AREAS
 10
28.189
 20
93.597
 30
0.0
  0
VERTEX
  8
AREAS
 10
28.197
 20
93.599
 30
0.0
  0
VERTEX
  8
AREAS
 10
28.219
 20
93.602
 30
0.0
  0
VERTEX
  8
AREAS
 10
28.224
 20
93.612
 30
0.0
  0
VERTEX
  8
AREAS
 10
28.225
 20
93.64
 30
0.0
  0
VERTEX
  8
AREAS
 10
28.226
 20
93.655
 30
0.0
  0
VERTEX
  8
AREAS
 10
28.215
 20
93.664
 30
0.0
  0
SEQEND
  8
AREAS
  0
POLYLINE
  8
AREAS
 66
     1
 10
0.0
 20
0.0
 30
0.0
 70
     1
  0
VERTEX
  8
AREAS
 10
28.443
 20
94.599
 30
0.0
  0
VERTEX
  8
AREAS
 10
28.489
 20
94.611
 30
0.0
  0
VERTEX
  8
AREAS
 10
28.532
 20
94.616
 30
0.0
  0
VERTEX
  8
AREAS
 10
28.579
 20
94.619
 30
0.0
  0
VERTEX
  8
AREAS
 10
28.628
 20
94.628
 30
0.0
  0
VERTEX
  8
AREAS
 10
28.603
 20
94.574
 30
0.0
  0
VERTEX
  8
AREAS
 10
28.534
 20
94.567
 30
0.0
  0
VERTEX
  8
AREAS
 10
28.485
 20
94.568
 30
0.0
  0
VERTEX
  8
AREAS
 10
28.445
 20
94.56
 30
0.0
  0
SEQEND
  8
AREAS
  0
POLYLINE
  8
AREAS
 66
     1
 10
0.0
 20
0.0
 30
0.0
 70
     1
  0
VERTEX
  8
AREAS
 10
28.408
 20
94.45
 30
0.0
  0
VERTEX
  8
AREAS
 10
28.423
 20
94.477
 30
0.0
  0
VERTEX
  8
AREAS
 10
28.447
 20
94.473
 30
0.0
  0
VERTEX
  8
AREAS
 10
28.458
 20
94.414
 30
0.0
  0
VERTEX
  8
AREAS
 10
28.417
 20
94.391
 30
0.0
  0
VERTEX
  8
AREAS
 10
28.412
 20
94.409
 30
0.0
  0
VERTEX
  8
AREAS
 10
28.408
 20
94.434
 30
0.0
  0
SEQEND
  8
AREAS
  0
POLYLINE
  8
AREAS
 66
     1
 10
0.0
 20
0.0
 30
0.0
 70
     1
  0
VERTEX
  8
AREAS
 10
28.358
 20
94.666
 30
0.0
  0
VERTEX
  8
AREAS
 10
28.377
 20
94.649
 30
0.0
  0
VERTEX
  8
AREAS
 10
28.402
 20
94.647
 30
0.0
  0
VERTEX
  8
AREAS
 10
28.436
 20
94.657
 30
0.0
  0
VERTEX
  8
AREAS
 10
28.451
 20
94.665
 30
0.0
  0
VERTEX
  8
AREAS
 10
28.455
 20
94.679
 30
0.0
  0
VERTEX
  8
AREAS
 10
28.437
 20
94.687
 30
0.0
  0
VERTEX
  8
AREAS
 10
28.409
 20
94.691
 30
0.0
  0
SEQEND
  8
AREAS
  0
POLYLINE
  8
AREAS
 66
     1
 10
0.0
 20
0.0
 30
0.0
 70
     1
  0
VERTEX
  8
AREAS
 10
28.27
 20
94.755
 30
0.0
  0
VERTEX
  8
AREAS
 10
28.293
 20
94.77
 30
0.0
  0
VERTEX
  8
AREAS
 10
28.318
 20
94.768
 30
0.0
  0
VERTEX
  8
AREAS
 10
28.328
 20
94.74
 30
0.0
  0
VERTEX
  8
AREAS
 10
28.284
 20
94.731
 30
0.0
  0
SEQEND
  8
AREAS
  0
POLYLINE
  8
AREAS
 66
     1
 10
0.0
 20
0.0
 30
0.0
 70
     1
  0
VERTEX
  8
AREAS
 10
27.744
 20
95.491
 30
0.0
  0
VERTEX
  8
AREAS
 10
27.784
 20
95.537
 30
0.0
  0
VERTEX
  8
AREAS
 10
27.794
 20
95.543
 30
0.0
  0
VERTEX
  8
AREAS
 10
27.818
 20
95.534
 30
0.0
  0
VERTEX
  8
AREAS
 10
27.833
 20
95.516
 30
0.0
  0
VERTEX
  8
AREAS
 10
27.817
 20
95.468
 30
0.0
  0
VERTEX
  8
AREAS
 10
27.8
 20
95.436
 30
0.0
  0
SEQEND
  8
AREAS
  0
POLYLINE
  8
AREAS
 66
     1
 10
0.0
 20
0.0
 30
0.0
 70
     1
  0
VERTEX
  8
AREAS
 10
27.699
 20
95.366
 30
0.0
  0
VERTEX
  8
AREAS
 10
27.736
 20
95.389
 30
0.0
  0
VERTEX
  8
AREAS
 10
27.765
 20
95.382
 30
0.0
  0
VERTEX
  8
AREAS
 10
27.762
 20
95.353
 30
0.0
  0
VERTEX
  8
AREAS
 10
27.755
 20
95.335
 30
0.0
  0
VERTEX
  8
AREAS
 10
27.748
 20
95.32
 30
0.0
  0
VERTEX
  8
AREAS
 10
27.735
 20
95.308
 30
0.0
  0
VERTEX
  8
AREAS
 10
27.719
 20
95.303
 30
0.0
  0
VERTEX
  8
AREAS
 10
27.701
 20
95.303
 30
0.0
  0
VERTEX
  8
AREAS
 10
27.695
 20
95.315
 30
0.0
  0
SEQEND
  8
AREAS
  0
POLYLINE
  8
AREAS
 66
     1
 10
0.0
 20
0.0
 30
0.0
 70
     1
  0
VERTEX
  8
AREAS
 10
27.771
 20
95.307
 30
0.0
  0
VERTEX
  8
AREAS
 10
27.782
 20
95.341
 30
0.0
  0
VERTEX
  8
AREAS
 10
27.805
 20
95.36
 30
0.0
  0
VERTEX
  8
AREAS
 10
27.814
 20
95.354
 30
0.0
  0
VERTEX
  8
AREAS
 10
27.841
 20
95.335
 30
0.0
  0
VERTEX
  8
AREAS
 10
27.847
 20
95.321
 30
0.0
  0
VERTEX
  8
AREAS
 10
27.886
 20
95.284
 30
0.0
  0
VERTEX
  8
AREAS
 10
27.909
 20
95.253
 30
0.0
  0
VERTEX
  8
AREAS
 10
27.915
 20
95.223
 30
0.0
  0
VERTEX
  8
AREAS
 10
27.904
 20
95.205
 30
0.0
  0
VERTEX
  8
AREAS
 10
27.88
 20
95.199
 30
0.0
  0
VERTEX
  8
AREAS
 10
27.86
 20
95.204
 30
0.0
  0
VERTEX
  8
AREAS
 10
27.836
 20
95.216
 30
0.0
  0
VERTEX
  8
AREAS
 10
27.828
 20
95.239
 30
0.0
  0
VERTEX
  8
AREAS
 10
27.807
 20
95.262
 30
0.0
  0
VERTEX
  8
AREAS
 10
27.792
 20
95.274
 30
0.0
  0
VERTEX
  8
AREAS
 10
27.778
 20
95.293
 30
0.0
  0
SEQEND
  8
AREAS
  0
POLYLINE
  8
AREAS
 66
     1
 10
0.0
 20
0.0
 30
0.0
 70
     1
  0
VERTEX
  8
AREAS
 10
26.932
 20
94.448
 30
0.0
  0
VERTEX
  8
AREAS
 10
26.95
 20
94.485
 30
0.0
  0
VERTEX
  8
AREAS
 10
26.983
 20
94.497
 30
0.0
  0
VERTEX
  8
AREAS
 10
27.004
 20
94.515
 30
0.0
  0
VERTEX
  8
AREAS
 10
27.026
 20
94.469
 30
0.0
  0
VERTEX
  8
AREAS
 10
27.013
 20
94.451
 30
0.0
  0
VERTEX
  8
AREAS
 10
26.985
 20
94.443
 30
0.0
  0
SEQEND
  8
AREAS
  0
POLYLINE
  8
AREAS
 66
     1
 10
0.0
 20
0.0
 30
0.0
 70
     1
  0
VERTEX
  8
AREAS
 10
27.193
 20
94.539
 30
0.0
  0
VERTEX
  8
AREAS
 10
27.258
 20
94.57
 30
0.0
  0
VERTEX
  8
AREAS
 10
27.256
 20
94.539
 30
0.0
  0
VERTEX
  8
AREAS
 10
27.234
 20
94.512
 30
0.0
  0
VERTEX
  8
AREAS
 10
27.209
 20
94.499
 30
0.0
  0
SEQEND
  8
AREAS
  0
POLYLINE
  8
AREAS
 66
     1
 10
0.0
 20
0.0
 30
0.0
 70
     1
  0
VERTEX
  8
AREAS
 10
27.17
 20
94.24
 30
0.0
  0
VERTEX
  8
AREAS
 10
27.172
 20
94.267
 30
0.0
  0
VERTEX
  8
AREAS
 10
27.172
 20
94.294
 30
0.0
  0
VERTEX
  8
AREAS
 10
27.209
 20
94.315
 30
0.0
  0
VERTEX
  8
AREAS
 10
27.231
 20
94.318
 30
0.0
  0
VERTEX
  8
AREAS
 10
27.25
 20
94.31
 30
0.0
  0
VERTEX
  8
AREAS
 10
27.261
 20
94.3
 30
0.0
  0
VERTEX
  8
AREAS
 10
27.261
 20
94.283
 30
0.0
  0
VERTEX
  8
AREAS
 10
27.262
 20
94.267
 30
0.0
  0
VERTEX
  8
AREAS
 10
27.261
 20
94.254
 30
0.0
  0
VERTEX
  8
AREAS
 10
27.258
 20
94.242
 30
0.0
  0
VERTEX
  8
AREAS
 10
27.248
 20
94.232
 30
0.0
  0
VERTEX
  8
AREAS
 10
27.194
 20
94.202
 30
0.0
  0
VERTEX
  8
AREAS
 10
27.17
 20
94.205
 30
0.0
  0
SEQEND
  8
AREAS
  0
POLYLINE
  8
AREAS
 66
     1
 10
0.0
 20
0.0
 30
0.0
 70
     1
  0
VERTEX
  8
AREAS
 10
27.502
 20
94.257
 30
0.0
  0
VERTEX
  8
AREAS
 10
27.507
 20
94.291
 30
0.0
  0
VERTEX
  8
AREAS
 10
27.531
 20
94.311
 30
0.0
  0
VERTEX
  8
AREAS
 10
27.55
 20
94.291
 30
0.0
  0
VERTEX
  8
AREAS
 10
27.539
 20
94.264
 30
0.0
  0
VERTEX
  8
AREAS
 10
27.52
 20
94.254
 30
0.0
  0
SEQEND
  8
AREAS
  0
POLYLINE
  8
AREAS
 66
     1
 10
0.0
 20
0.0
 30
0.0
 70
     1
  0
VERTEX
  8
AREAS
 10
27.242
 20
94.718
 30
0.0
  0
VERTEX
  8
AREAS
 10
27.305
 20
94.755
 30
0.0
  0
VERTEX
  8
AREAS
 10
27.328
 20
94.718
 30
0.0
  0
VERTEX
  8
AREAS
 10
27.258
 20
94.683
 30
0.0
  0
SEQEND
  8
AREAS
  0
POLYLINE
  8
AREAS
 66
     1
 10
0.0
 20
0.0
 30
0.0
 70
     1
  0
VERTEX
  8
AREAS
 10
27.396
 20
94.588
 30
0.0
  0
VERTEX
  8
AREAS
 10
27.386
 20
94.602
 30
0.0
  0
VERTEX
  8
AREAS
 10
27.386
 20
94.624
 30
0.0
  0
VERTEX
  8
AREAS
 10
27.41
 20
94.624
 30
0.0
  0
VERTEX
  8
AREAS
 10
27.439
 20
94.601
 30
0.0
  0
VERTEX
  8
AREAS
 10
27.436
 20
94.567
 30
0.0
  0
SEQEND
  8
AREAS
  0
POLYLINE
  8
AREAS
 66
     1
 10
0.0
 20
0.0
 30
0.0
 70
     1
  0
VERTEX
  8
AREAS
 10
27.85
 20
94.274
 30
0.0
  0
VERTEX
  8
AREAS
 10
27.866
 20
94.303
 30
0.0
  0
VERTEX
  8
AREAS
 10
27.883
 20
94.322
 30
0.0
  0
VERTEX
  8
AREAS
 10
27.906
 20
94.336
 30
0.0
  0
VERTEX
  8
AREAS
 10
27.922
 20
94.339
 30
0.0
  0
VERTEX
  8
AREAS
 10
27.94
 20
94.331
 30
0.0
  0
VERTEX
  8
AREAS
 10
27.953
 20
94.299
 30
0.0
  0
VERTEX
  8
AREAS
 10
27.947
 20
94.271
 30
0.0
  0
VERTEX
  8
AREAS
 10
27.931
 20
94.25
 30
0.0
  0
VERTEX
  8
AREAS
 10
27.912
 20
94.269
 30
0.0
  0
VERTEX
  8
AREAS
 10
27.87
 20
94.262
 30
0.0
  0
SEQEND
  8
AREAS
  0
POLYLINE
  8
AREAS
 66
     1
 10
0.0
 20
0.0
 30
0.0
 70
     1
  0
VERTEX
  8
AREAS
 10
28.15
 20
94.436
 30
0.0
  0
VERTEX
  8
AREAS
 10
28.183
 20
94.425
 30
0.0
  0
VERTEX
  8
AREAS
 10
28.183
 20
94.412
 30
0.0
  0
VERTEX
  8
AREAS
 10
28.17
 20
94.38
 30
0.0
  0
VERTEX
  8
AREAS
 10
28.168
 20
94.359
 30
0.0
  0
VERTEX
  8
AREAS
 10
28.172
 20
94.347
 30
0.0
  0
VERTEX
  8
AREAS
 10
28.164
 20
94.33
 30
0.0
  0
VERTEX
  8
AREAS
 10
28.146
 20
94.339
 30
0.0
  0
VERTEX
  8
AREAS
 10
28.146
 20
94.351
 30
0.0
  0
VERTEX
  8
AREAS
 10
28.139
 20
94.361
 30
0.0
  0
VERTEX
  8
AREAS
 10
28.139
 20
94.373
 30
0.0
  0
VERTEX
  8
AREAS
 10
28.139
 20
94.384
 30
0.0
  0
VERTEX
  8
AREAS
 10
28.139
 20
94.393
 30
0.0
  0
VERTEX
  8
AREAS
 10
28.142
 20
94.401
 30
0.0
  0
VERTEX
  8
AREAS
 10
28.143
 20
94.413
 30
0.0
  0
VERTEX
  8
AREAS
 10
28.144
 20
94.42
 30
0.0
  0
SEQEND
  8
AREAS
  0
POLYLINE
  8
AREAS
 66
     1
 10
0.0
 20
0.0
 30
0.0
 70
     1
  0
VERTEX
  8
AREAS
 10
28.311
 20
94.254
 30
0.0
  0
VERTEX
  8
AREAS
 10
28.343
 20
94.239
 30
0.0
  0
VERTEX
  8
AREAS
 10
28.346
 20
94.23
 30
0.0
  0
VERTEX
  8
AREAS
 10
28.342
 20
94.213
 30
0.0
  0
VERTEX
  8
AREAS
 10
28.333
 20
94.202
 30
0.0
  0
VERTEX
  8
AREAS
 10
28.322
 20
94.197
 30
0.0
  0
VERTEX
  8
AREAS
 10
28.311
 20
94.193
 30
0.0
  0
VERTEX
  8
AREAS
 10
28.297
 20
94.185
 30
0.0
  0
VERTEX
  8
AREAS
 10
28.282
 20
94.181
 30
0.0
  0
VERTEX
  8
AREAS
 10
28.27
 20
94.181
 30
0.0
  0
VERTEX
  8
AREAS
 10
28.257
 20
94.18
 30
0.0
  0
VERTEX
  8
AREAS
 10
28.248
 20
94.18
 30
0.0
  0
VERTEX
  8
AREAS
 10
28.245
 20
94.18
 30
0.0
  0
VERTEX
  8
AREAS
 10
28.242
 20
94.19
 30
0.0
  0
VERTEX
  8
AREAS
 10
28.242
 20
94.2
 30
0.0
  0
VERTEX
  8
AREAS
 10
28.25
 20
94.206
 30
0.0
  0
VERTEX
  8
AREAS
 10
28.254
 20
94.212
 30
0.0
  0
VERTEX
  8
AREAS
 10
28.261
 20
94.216
 30
0.0
  0
VERTEX
  8
AREAS
 10
28.268
 20
94.218
 30
0.0
  0
VERTEX
  8
AREAS
 10
28.273
 20
94.221
 30
0.0
  0
VERTEX
  8
AREAS
 10
28.282
 20
94.225
 30
0.0
  0
VERTEX
  8
AREAS
 10
28.29
 20
94.229
 30
0.0
  0
VERTEX
  8
AREAS
 10
28.297
 20
94.231
 30
0.0
  0
VERTEX
  8
AREAS
 10
28.301
 20
94.235
 30
0.0
  0
VERTEX
  8
AREAS
 10
28.305
 20
94.238
 30
0.0
  0
VERTEX
  8
AREAS
 10
28.307
 20
94.241
 30
0.0
  0
SEQEND
  8
AREAS
  0
POLYLINE
  8
AREAS
 66
     1
 10
0.0
 20
0.0
 30
0.0
 70
     1
  0
VERTEX
  8
AREAS
 10
28.158
 20
94.011
 30
0.0
  0
VERTEX
  8
AREAS
 10
28.229
 20
94.003
 30
0.0
  0
VERTEX
  8
AREAS
 10
28.24
 20
93.978
 30
0.0
  0
VERTEX
  8
AREAS
 10
28.219
 20
93.948
 30
0.0
  0
VERTEX
  8
AREAS
 10
28.168
 20
93.95
 30
0.0
  0
VERTEX
  8
AREAS
 10
28.148
 20
93.973
 30
0.0
  0
VERTEX
  8
AREAS
 10
28.146
 20
93.995
 30
0.0
  0
SEQEND
  8
AREAS
  0
POLYLINE
  8
AREAS
 66
     1
 10
0.0
 20
0.0
 30
0.0
 70
     1
  0
VERTEX
  8
AREAS
 10
27.3
 20
95.349
 30
0.0
  0
VERTEX
  8
AREAS
 10
27.289
 20
95.387
 30
0.0
  0
VERTEX
  8
AREAS
 10
27.305
 20
95.411
 30
0.0
  0
VERTEX
  8
AREAS
 10
27.338
 20
95.407
 30
0.0
  0
VERTEX
  8
AREAS
 10
27.36
 20
95.389
 30
0.0
  0
VERTEX
  8
AREAS
 10
27.371
 20
95.36
 30
0.0
  0
VERTEX
  8
AREAS
 10
27.362
 20
95.336
 30
0.0
  0
VERTEX
  8
AREAS
 10
27.333
 20
95.345
 30
0.0
  0
SEQEND
  8
AREAS
  0
POLYLINE
  8
AREAS
 66
     1
 10
0.0
 20
0.0
 30
0.0
 70
     1
  0
VERTEX
  8
AREAS
 10
27.362
 20
95.007
 30
0.0
  0
VERTEX
  8
AREAS
 10
27.399
 20
95.058
 30
0.0
  0
VERTEX
  8
AREAS
 10
27.34
 20
95.078
 30
0.0
  0
VERTEX
  8
AREAS
 10
27.313
 20
95.063
 30
0.0
  0
VERTEX
  8
AREAS
 10
27.298
 20
95.052
 30
0.0
  0
VERTEX
  8
AREAS
 10
27.296
 20
95.034
 30
0.0
  0
VERTEX
  8
AREAS
 10
27.296
 20
95.023
 30
0.0
  0
VERTEX
  8
AREAS
 10
27.307
 20
95.016
 30
0.0
  0
VERTEX
  8
AREAS
 10
27.32
 20
95.016
 30
0.0
  0
VERTEX
  8
AREAS
 10
27.324
 20
95.014
 30
0.0
  0
VERTEX
  8
AREAS
 10
27.333
 20
95.012
 30
0.0
  0
SEQEND
  8
AREAS
  0
POLYLINE
  8
AREAS
 66
     1
 10
0.0
 20
0.0
 30
0.0
 70
     1
  0
VERTEX
  8
AREAS
 10
27.461
 20
94.904
 30
0.0
  0
VERTEX
  8
AREAS
 10
27.534
 20
94.891
 30
0.0
  0
VERTEX
  8
AREAS
 10
27.516
 20
94.851
 30
0.0
  0
VERTEX
  8
AREAS
 10
27.494
 20
94.835
 30
0.0
  0
VERTEX
  8
AREAS
 10
27.446
 20
94.838
 30
0.0
  0
VERTEX
  8
AREAS
 10
27.441
 20
94.862
 30
0.0
  0
SEQEND
  8
AREAS
  0
POLYLINE
  8
AREAS
 66
     1
 10
0.0
 20
0.0
 30
0.0
 70
     1
  0
VERTEX
  8
AREAS
 10
27.831
 20
94.602
 30
0.0
  0
VERTEX
  8
AREAS
 10
27.84
 20
94.626
 30
0.0
  0
VERTEX
  8
AREAS
 10
27.869
 20
94.632
 30
0.0
  0
VERTEX
  8
AREAS
 10
27.888
 20
94.624
 30
0.0
  0
VERTEX
  8
AREAS
 10
27.893
 20
94.606
 30
0.0
  0
VERTEX
  8
AREAS
 10
27.886
 20
94.584
 30
0.0
  0
VERTEX
  8
AREAS
 10
27.86
 20
94.584
 30
0.0
  0
SEQEND
  8
AREAS
  0
POLYLINE
  8
AREAS
 66
     1
 10
0.0
 20
0.0
 30
0.0
 70
     1
  0
VERTEX
  8
AREAS
 10
31.218
 20
88.952
 30
0.0
  0
VERTEX
  8
AREAS
 10
31.252
 20
88.959
 30
0.0
  0
VERTEX
  8
AREAS
 10
31.283
 20
88.942
 30
0.0
  0
VERTEX
  8
AREAS
 10
31.257
 20
88.893
 30
0.0
  0
VERTEX
  8
AREAS
 10
31.238
 20
88.892
 30
0.0
  0
VERTEX
  8
AREAS
 10
31.231
 20
88.899
 30
0.0
  0
VERTEX
  8
AREAS
 10
31.226
 20
88.925
 30
0.0
  0
VERTEX
  8
AREAS
 10
31.222
 20
88.926
 30
0.0
  0
SEQEND
  8
AREAS
  0
POLYLINE
  8
AREAS
 66
     1
 10
0.0
 20
0.0
 30
0.0
 70
     1
  0
VERTEX
  8
AREAS
 10
31.26
 20
89.103
 30
0.0
  0
VERTEX
  8
AREAS
 10
31.324
 20
89.172
 30
0.0
  0
VERTEX
  8
AREAS
 10
31.37
 20
89.137
 30
0.0
  0
VERTEX
  8
AREAS
 10
31.317
 20
89.054
 30
0.0
  0
VERTEX
  8
AREAS
 10
31.282
 20
89.088
 30
0.0
  0
VERTEX
  8
AREAS
 10
31.266
 20
89.083
 30
0.0
  0
SEQEND
  8
AREAS
  0
POLYLINE
  8
AREAS
 66
     1
 10
0.0
 20
0.0
 30
0.0
 70
     1
  0
VERTEX
  8
AREAS
 10
31.31
 20
88.991
 30
0.0
  0
VERTEX
  8
AREAS
 10
31.368
 20
89.006
 30
0.0
  0
VERTEX
  8
AREAS
 10
31.354
 20
89.048
 30
0.0
  0
VERTEX
  8
AREAS
 10
31.386
 20
89.073
 30
0.0
  0
VERTEX
  8
AREAS
 10
31.405
 20
89.063
 30
0.0
  0
VERTEX
  8
AREAS
 10
31.398
 20
89.047
 30
0.0
  0
VERTEX
  8
AREAS
 10
31.406
 20
89.028
 30
0.0
  0
VERTEX
  8
AREAS
 10
31.37
 20
89.002
 30
0.0
  0
VERTEX
  8
AREAS
 10
31.38
 20
88.983
 30
0.0
  0
VERTEX
  8
AREAS
 10
31.348
 20
88.968
 30
0.0
  0
VERTEX
  8
AREAS
 10
31.32
 20
88.966
 30
0.0
  0
SEQEND
  8
AREAS
  0
POLYLINE
  8
AREAS
 66
     1
 10
0.0
 20
0.0
 30
0.0
 70
     1
  0
VERTEX
  8
AREAS
 10
31.062
 20
89.215
 30
0.0
  0
VERTEX
  8
AREAS
 10
31.068
 20
89.229
 30
0.0
  0
VERTEX
  8
AREAS
 10
31.072
 20
89.233
 30
0.0
  0
VERTEX
  8
AREAS
 10
31.131
 20
89.222
 30
0.0
  0
VERTEX
  8
AREAS
 10
31.127
 20
89.172
 30
0.0
  0
VERTEX
  8
AREAS
 10
31.092
 20
89.167
 30
0.0
  0
VERTEX
  8
AREAS
 10
31.082
 20
89.191
 30
0.0
  0
SEQEND
  8
AREAS
  0
POLYLINE
  8
AREAS
 66
     1
 10
0.0
 20
0.0
 30
0.0
 70
     1
  0
VERTEX
  8
AREAS
 10
31.116
 20
89.115
 30
0.0
  0
VERTEX
  8
AREAS
 10
31.125
 20
89.145
 30
0.0
  0
VERTEX
  8
AREAS
 10
31.186
 20
89.15
 30
0.0
  0
VERTEX
  8
AREAS
 10
31.196
 20
89.19
 30
0.0
  0
VERTEX
  8
AREAS
 10
31.22
 20
89.185
 30
0.0
  0
VERTEX
  8
AREAS
 10
31.227
 20
89.149
 30
0.0
  0
VERTEX
  8
AREAS
 10
31.219
 20
89.13
 30
0.0
  0
VERTEX
  8
AREAS
 10
31.146
 20
89.096
 30
0.0
  0
SEQEND
  8
AREAS
  0
POLYLINE
  8
AREAS
 66
     1
 10
0.0
 20
0.0
 30
0.0
 70
     1
  0
VERTEX
  8
AREAS
 10
31.349
 20
89.442
 30
0.0
  0
VERTEX
  8
AREAS
 10
31.348
 20
89.451
 30
0.0
  0
VERTEX
  8
AREAS
 10
31.353
 20
89.462
 30
0.0
  0
VERTEX
  8
AREAS
 10
31.364
 20
89.469
 30
0.0
  0
VERTEX
  8
AREAS
 10
31.378
 20
89.47
 30
0.0
  0
VERTEX
  8
AREAS
 10
31.388
 20
89.467
 30
0.0
  0
VERTEX
  8
AREAS
 10
31.399
 20
89.464
 30
0.0
  0
VERTEX
  8
AREAS
 10
31.408
 20
89.459
 30
0.0
  0
VERTEX
  8
AREAS
 10
31.395
 20
89.428
 30
0.0
  0
VERTEX
  8
AREAS
 10
31.421
 20
89.405
 30
0.0
  0
VERTEX
  8
AREAS
 10
31.417
 20
89.357
 30
0.0
  0
VERTEX
  8
AREAS
 10
31.42
 20
89.347
 30
0.0
  0
VERTEX
  8
AREAS
 10
31.417
 20
89.331
 30
0.0
  0
VERTEX
  8
AREAS
 10
31.405
 20
89.323
 30
0.0
  0
VERTEX
  8
AREAS
 10
31.381
 20
89.33
 30
0.0
  0
VERTEX
  8
AREAS
 10
31.37
 20
89.325
 30
0.0
  0
VERTEX
  8
AREAS
 10
31.357
 20
89.325
 30
0.0
  0
VERTEX
  8
AREAS
 10
31.342
 20
89.351
 30
0.0
  0
VERTEX
  8
AREAS
 10
31.342
 20
89.365
 30
0.0
  0
VERTEX
  8
AREAS
 10
31.382
 20
89.369
 30
0.0
  0
VERTEX
  8
AREAS
 10
31.391
 20
89.43
 30
0.0
  0
VERTEX
  8
AREAS
 10
31.363
 20
89.438
 30
0.0
  0
SEQEND
  8
AREAS
  0
POLYLINE
  8
AREAS
 66
     1
 10
0.0
 20
0.0
 30
0.0
 70
     1
  0
VERTEX
  8
AREAS
 10
31.575
 20
89.38
 30
0.0
  0
VERTEX
  8
AREAS
 10
31.624
 20
89.353
 30
0.0
  0
VERTEX
  8
AREAS
 10
31.616
 20
89.337
 30
0.0
  0
VERTEX
  8
AREAS
 10
31.608
 20
89.33
 30
0.0
  0
VERTEX
  8
AREAS
 10
31.601
 20
89.33
 30
0.0
  0
VERTEX
  8
AREAS
 10
31.592
 20
89.332
 30
0.0
  0
VERTEX
  8
AREAS
 10
31.586
 20
89.333
 30
0.0
  0
VERTEX
  8
AREAS
 10
31.57
 20
89.339
 30
0.0
  0
VERTEX
  8
AREAS
 10
31.566
 20
89.345
 30
0.0
  0
VERTEX
  8
AREAS
 10
31.566
 20
89.369
 30
0.0
  0
SEQEND
  8
AREAS
  0
POLYLINE
  8
AREAS
 66
     1
 10
0.0
 20
0.0
 30
0.0
 70
     1
  0
VERTEX
  8
AREAS
 10
31.526
 20
89.283
 30
0.0
  0
VERTEX
  8
AREAS
 10
31.537
 20
89.286
 30
0.0
  0
VERTEX
  8
AREAS
 10
31.564
 20
89.286
 30
0.0
  0
VERTEX
  8
AREAS
 10
31.576
 20
89.275
 30
0.0
  0
VERTEX
  8
AREAS
 10
31.578
 20
89.267
 30
0.0
  0
VERTEX
  8
AREAS
 10
31.577
 20
89.256
 30
0.0
  0
VERTEX
  8
AREAS
 10
31.576
 20
89.249
 30
0.0
  0
VERTEX
  8
AREAS
 10
31.569
 20
89.244
 30
0.0
  0
VERTEX
  8
AREAS
 10
31.554
 20
89.244
 30
0.0
  0
VERTEX
  8
AREAS
 10
31.542
 20
89.241
 30
0.0
  0
SEQEND
  8
AREAS
  0
POLYLINE
  8
AREAS
 66
     1
 10
0.0
 20
0.0
 30
0.0
 70
     1
  0
VERTEX
  8
AREAS
 10
31.292
 20
89.229
 30
0.0
  0
VERTEX
  8
AREAS
 10
31.307
 20
89.23
 30
0.0
  0
VERTEX
  8
AREAS
 10
31.316
 20
89.232
 30
0.0
  0
VERTEX
  8
AREAS
 10
31.332
 20
89.231
 30
0.0
  0
VERTEX
  8
AREAS
 10
31.344
 20
89.229
 30
0.0
  0
VERTEX
  8
AREAS
 10
31.337
 20
89.203
 30
0.0
  0
VERTEX
  8
AREAS
 10
31.316
 20
89.19
 30
0.0
  0
VERTEX
  8
AREAS
 10
31.299
 20
89.218
 30
0.0
  0
SEQEND
  8
AREAS
  0
POLYLINE
  8
AREAS
 66
     1
 10
0.0
 20
0.0
 30
0.0
 70
     1
  0
VERTEX
  8
AREAS
 10
31.392
 20
89.219
 30
0.0
  0
VERTEX
  8
AREAS
 10
31.417
 20
89.222
 30
0.0
  0
VERTEX
  8
AREAS
 10
31.43
 20
89.221
 30
0.0
  0
VERTEX
  8
AREAS
 10
31.435
 20
89.217
 30
0.0
  0
VERTEX
  8
AREAS
 10
31.437
 20
89.207
 30
0.0
  0
VERTEX
  8
AREAS
 10
31.436
 20
89.204
 30
0.0
  0
VERTEX
  8
AREAS
 10
31.427
 20
89.19
 30
0.0
  0
VERTEX
  8
AREAS
 10
31.385
 20
89.186
 30
0.0
  0
SEQEND
  8
AREAS
  0
POLYLINE
  8
AREAS
 66
     1
 10
0.0
 20
0.0
 30
0.0
 70
     1
  0
VERTEX
  8
AREAS
 10
31.452
 20
89.541
 30
0.0
  0
VERTEX
  8
AREAS
 10
31.455
 20
89.541
 30
0.0
  0
VERTEX
  8
AREAS
 10
31.498
 20
89.527
 30
0.0
  0
VERTEX
  8
AREAS
 10
31.52
 20
89.553
 30
0.0
  0
VERTEX
  8
AREAS
 10
31.532
 20
89.535
 30
0.0
  0
VERTEX
  8
AREAS
 10
31.54
 20
89.508
 30
0.0
  0
VERTEX
  8
AREAS
 10
31.52
 20
89.492
 30
0.0
  0
VERTEX
  8
AREAS
 10
31.482
 20
89.494
 30
0.0
  0
VERTEX
  8
AREAS
 10
31.471
 20
89.5
 30
0.0
  0
VERTEX
  8
AREAS
 10
31.456
 20
89.514
 30
0.0
  0
VERTEX
  8
AREAS
 10
31.451
 20
89.523
 30
0.0
  0
VERTEX
  8
AREAS
 10
31.45
 20
89.532
 30
0.0
  0
SEQEND
  8
AREAS
  0
POLYLINE
  8
AREAS
 66
     1
 10
0.0
 20
0.0
 30
0.0
 70
     1
  0
VERTEX
  8
AREAS
 10
31.756
 20
89.709
 30
0.0
  0
VERTEX
  8
AREAS
 10
31.829
 20
89.717
 30
0.0
  0
VERTEX
  8
AREAS
 10
31.806
 20
89.667
 30
0.0
  0
VERTEX
  8
AREAS
 10
31.791
 20
89.667
 30
0.0
  0
VERTEX
  8
AREAS
 10
31.776
 20
89.676
 30
0.0
  0
VERTEX
  8
AREAS
 10
31.77
 20
89.689
 30
0.0
  0
SEQEND
  8
AREAS
  0
POLYLINE
  8
AREAS
 66
     1
 10
0.0
 20
0.0
 30
0.0
 70
     1
  0
VERTEX
  8
AREAS
 10
31.462
 20
89.705
 30
0.0
  0
VERTEX
  8
AREAS
 10
31.471
 20
89.709
 30
0.0
  0
VERTEX
  8
AREAS
 10
31.479
 20
89.72
 30
0.0
  0
VERTEX
  8
AREAS
 10
31.488
 20
89.726
 30
0.0
  0
VERTEX
  8
AREAS
 10
31.497
 20
89.727
 30
0.0
  0
VERTEX
  8
AREAS
 10
31.505
 20
89.723
 30
0.0
  0
VERTEX
  8
AREAS
 10
31.509
 20
89.719
 30
0.0
  0
VERTEX
  8
AREAS
 10
31.51
 20
89.711
 30
0.0
  0
VERTEX
  8
AREAS
 10
31.508
 20
89.701
 30
0.0
  0
VERTEX
  8
AREAS
 10
31.483
 20
89.658
 30
0.0
  0
VERTEX
  8
AREAS
 10
31.469
 20
89.655
 30
0.0
  0
SEQEND
  8
AREAS
  0
POLYLINE
  8
AREAS
 66
     1
 10
0.0
 20
0.0
 30
0.0
 70
     1
  0
VERTEX
  8
AREAS
 10
31.356
 20
89.791
 30
0.0
  0
VERTEX
  8
AREAS
 10
31.37
 20
89.785
 30
0.0
  0
VERTEX
  8
AREAS
 10
31.376
 20
89.786
 30
0.0
  0
VERTEX
  8
AREAS
 10
31.382
 20
89.791
 30
0.0
  0
VERTEX
  8
AREAS
 10
31.413
 20
89.771
 30
0.0
  0
VERTEX
  8
AREAS
 10
31.409
 20
89.76
 30
0.0
  0
VERTEX
  8
AREAS
 10
31.399
 20
89.747
 30
0.0
  0
VERTEX
  8
AREAS
 10
31.384
 20
89.739
 30
0.0
  0
VERTEX
  8
AREAS
 10
31.369
 20
89.737
 30
0.0
  0
VERTEX
  8
AREAS
 10
31.365
 20
89.738
 30
0.0
  0
VERTEX
  8
AREAS
 10
31.346
 20
89.748
 30
0.0
  0
SEQEND
  8
AREAS
  0
POLYLINE
  8
AREAS
 66
     1
 10
0.0
 20
0.0
 30
0.0
 70
     1
  0
VERTEX
  8
AREAS
 10
31.642
 20
89.79
 30
0.0
  0
VERTEX
  8
AREAS
 10
31.675
 20
89.806
 30
0.0
  0
VERTEX
  8
AREAS
 10
31.686
 20
89.798
 30
0.0
  0
VERTEX
  8
AREAS
 10
31.686
 20
89.778
 30
0.0
  0
VERTEX
  8
AREAS
 10
31.68
 20
89.771
 30
0.0
  0
VERTEX
  8
AREAS
 10
31.67
 20
89.764
 30
0.0
  0
VERTEX
  8
AREAS
 10
31.659
 20
89.762
 30
0.0
  0
VERTEX
  8
AREAS
 10
31.645
 20
89.764
 30
0.0
  0
VERTEX
  8
AREAS
 10
31.64
 20
89.772
 30
0.0
  0
SEQEND
  8
AREAS
  0
POLYLINE
  8
AREAS
 66
     1
 10
0.0
 20
0.0
 30
0.0
 70
     1
  0
VERTEX
  8
AREAS
 10
31.349
 20
89.981
 30
0.0
  0
VERTEX
  8
AREAS
 10
31.384
 20
89.986
 30
0.0
  0
VERTEX
  8
AREAS
 10
31.389
 20
89.985
 30
0.0
  0
VERTEX
  8
AREAS
 10
31.396
 20
89.986
 30
0.0
  0
VERTEX
  8
AREAS
 10
31.407
 20
89.984
 30
0.0
  0
VERTEX
  8
AREAS
 10
31.413
 20
89.979
 30
0.0
  0
VERTEX
  8
AREAS
 10
31.414
 20
89.967
 30
0.0
  0
VERTEX
  8
AREAS
 10
31.407
 20
89.939
 30
0.0
  0
VERTEX
  8
AREAS
 10
31.388
 20
89.918
 30
0.0
  0
VERTEX
  8
AREAS
 10
31.37
 20
89.914
 30
0.0
  0
VERTEX
  8
AREAS
 10
31.354
 20
89.932
 30
0.0
  0
VERTEX
  8
AREAS
 10
31.357
 20
89.949
 30
0.0
  0
SEQEND
  8
AREAS
  0
POLYLINE
  8
AREAS
 66
     1
 10
0.0
 20
0.0
 30
0.0
 70
     1
  0
VERTEX
  8
AREAS
 10
32.021
 20
88.997
 30
0.0
  0
VERTEX
  8
AREAS
 10
32.03
 20
89.013
 30
0.0
  0
VERTEX
  8
AREAS
 10
32.048
 20
89.016
 30
0.0
  0
VERTEX
  8
AREAS
 10
32.048
 20
89.025
 30
0.0
  0
VERTEX
  8
AREAS
 10
32.044
 20
89.034
 30
0.0
  0
VERTEX
  8
AREAS
 10
32.054
 20
89.051
 30
0.0
  0
VERTEX
  8
AREAS
 10
32.066
 20
89.051
 30
0.0
  0
VERTEX
  8
AREAS
 10
32.079
 20
89.05
 30
0.0
  0
VERTEX
  8
AREAS
 10
32.097
 20
89.043
 30
0.0
  0
VERTEX
  8
AREAS
 10
32.101
 20
89.033
 30
0.0
  0
VERTEX
  8
AREAS
 10
32.095
 20
89.007
 30
0.0
  0
VERTEX
  8
AREAS
 10
32.087
 20
88.998
 30
0.0
  0
VERTEX
  8
AREAS
 10
32.084
 20
88.988
 30
0.0
  0
VERTEX
  8
AREAS
 10
32.076
 20
88.974
 30
0.0
  0
SEQEND
  8
AREAS
  0
POLYLINE
  8
AREAS
 66
     1
 10
0.0
 20
0.0
 30
0.0
 70
     1
  0
VERTEX
  8
AREAS
 10
32.4
 20
89.191
 30
0.0
  0
VERTEX
  8
AREAS
 10
32.433
 20
89.149
 30
0.0
  0
VERTEX
  8
AREAS
 10
32.449
 20
89.16
 30
0.0
  0
VERTEX
  8
AREAS
 10
32.469
 20
89.155
 30
0.0
  0
VERTEX
  8
AREAS
 10
32.476
 20
89.147
 30
0.0
  0
VERTEX
  8
AREAS
 10
32.474
 20
89.125
 30
0.0
  0
VERTEX
  8
AREAS
 10
32.457
 20
89.112
 30
0.0
  0
VERTEX
  8
AREAS
 10
32.445
 20
89.108
 30
0.0
  0
VERTEX
  8
AREAS
 10
32.425
 20
89.109
 30
0.0
  0
VERTEX
  8
AREAS
 10
32.415
 20
89.116
 30
0.0
  0
VERTEX
  8
AREAS
 10
32.399
 20
89.12
 30
0.0
  0
VERTEX
  8
AREAS
 10
32.382
 20
89.131
 30
0.0
  0
VERTEX
  8
AREAS
 10
32.377
 20
89.143
 30
0.0
  0
VERTEX
  8
AREAS
 10
32.381
 20
89.152
 30
0.0
  0
VERTEX
  8
AREAS
 10
32.376
 20
89.165
 30
0.0
  0
VERTEX
  8
AREAS
 10
32.383
 20
89.178
 30
0.0
  0
VERTEX
  8
AREAS
 10
32.392
 20
89.184
 30
0.0
  0
SEQEND
  8
AREAS
  0
POLYLINE
  8
AREAS
 66
     1
 10
0.0
 20
0.0
 30
0.0
 70
     1
  0
VERTEX
  8
AREAS
 10
32.453
 20
89.044
 30
0.0
  0
VERTEX
  8
AREAS
 10
32.496
 20
89.034
 30
0.0
  0
VERTEX
  8
AREAS
 10
32.494
 20
89.016
 30
0.0
  0
VERTEX
  8
AREAS
 10
32.491
 20
89.001
 30
0.0
  0
VERTEX
  8
AREAS
 10
32.481
 20
88.988
 30
0.0
  0
VERTEX
  8
AREAS
 10
32.469
 20
88.988
 30
0.0
  0
VERTEX
  8
AREAS
 10
32.454
 20
88.993
 30
0.0
  0
VERTEX
  8
AREAS
 10
32.445
 20
89.001
 30
0.0
  0
VERTEX
  8
AREAS
 10
32.448
 20
89.023
 30
0.0
  0
VERTEX
  8
AREAS
 10
32.452
 20
89.033
 30
0.0
  0
SEQEND
  8
AREAS
  0
POLYLINE
  8
AREAS
 66
     1
 10
0.0
 20
0.0
 30
0.0
 70
     1
  0
VERTEX
  8
AREAS
 10
32.662
 20
89.578
 30
0.0
  0
VERTEX
  8
AREAS
 10
32.699
 20
89.556
 30
0.0
  0
VERTEX
  8
AREAS
 10
32.68
 20
89.544
 30
0.0
  0
VERTEX
  8
AREAS
 10
32.665
 20
89.537
 30
0.0
  0
VERTEX
  8
AREAS
 10
32.652
 20
89.536
 30
0.0
  0
VERTEX
  8
AREAS
 10
32.649
 20
89.54
 30
0.0
  0
VERTEX
  8
AREAS
 10
32.65
 20
89.556
 30
0.0
  0
VERTEX
  8
AREAS
 10
32.654
 20
89.559
 30
0.0
  0
VERTEX
  8
AREAS
 10
32.659
 20
89.57
 30
0.0
  0
SEQEND
  8
AREAS
  0
POLYLINE
  8
AREAS
 66
     1
 10
0.0
 20
0.0
 30
0.0
 70
     1
  0
VERTEX
  8
AREAS
 10
32.58
 20
89.46
 30
0.0
  0
VERTEX
  8
AREAS
 10
32.591
 20
89.463
 30
0.0
  0
VERTEX
  8
AREAS
 10
32.597
 20
89.457
 30
0.0
  0
VERTEX
  8
AREAS
 10
32.61
 20
89.459
 30
0.0
  0
VERTEX
  8
AREAS
 10
32.602
 20
89.422
 30
0.0
  0
VERTEX
  8
AREAS
 10
32.592
 20
89.419
 30
0.0
  0
VERTEX
  8
AREAS
 10
32.582
 20
89.423
 30
0.0
  0
VERTEX
  8
AREAS
 10
32.577
 20
89.425
 30
0.0
  0
VERTEX
  8
AREAS
 10
32.571
 20
89.43
 30
0.0
  0
VERTEX
  8
AREAS
 10
32.568
 20
89.442
 30
0.0
  0
VERTEX
  8
AREAS
 10
32.572
 20
89.451
 30
0.0
  0
SEQEND
  8
AREAS
  0
POLYLINE
  8
AREAS
 66
     1
 10
0.0
 20
0.0
 30
0.0
 70
     1
  0
VERTEX
  8
AREAS
 10
32.527
 20
89.756
 30
0.0
  0
VERTEX
  8
AREAS
 10
32.558
 20
89.766
 30
0.0
  0
VERTEX
  8
AREAS
 10
32.601
 20
89.708
 30
0.0
  0
VERTEX
  8
AREAS
 10
32.615
 20
89.661
 30
0.0
  0
VERTEX
  8
AREAS
 10
32.602
 20
89.652
 30
0.0
  0
VERTEX
  8
AREAS
 10
32.578
 20
89.652
 30
0.0
  0
VERTEX
  8
AREAS
 10
32.556
 20
89.663
 30
0.0
  0
VERTEX
  8
AREAS
 10
32.537
 20
89.696
 30
0.0
  0
VERTEX
  8
AREAS
 10
32.537
 20
89.72
 30
0.0
  0
VERTEX
  8
AREAS
 10
32.533
 20
89.739
 30
0.0
  0
SEQEND
  8
AREAS
  0
POLYLINE
  8
AREAS
 66
     1
 10
0.0
 20
0.0
 30
0.0
 70
     1
  0
VERTEX
  8
AREAS
 10
32.755
 20
89.936
 30
0.0
  0
VERTEX
  8
AREAS
 10
32.789
 20
89.944
 30
0.0
  0
VERTEX
  8
AREAS
 10
32.789
 20
89.927
 30
0.0
  0
VERTEX
  8
AREAS
 10
32.789
 20
89.926
 30
0.0
  0
VERTEX
  8
AREAS
 10
32.788
 20
89.92
 30
0.0
  0
VERTEX
  8
AREAS
 10
32.781
 20
89.911
 30
0.0
  0
VERTEX
  8
AREAS
 10
32.778
 20
89.91
 30
0.0
  0
VERTEX
  8
AREAS
 10
32.773
 20
89.905
 30
0.0
  0
VERTEX
  8
AREAS
 10
32.769
 20
89.903
 30
0.0
  0
VERTEX
  8
AREAS
 10
32.763
 20
89.903
 30
0.0
  0
VERTEX
  8
AREAS
 10
32.756
 20
89.903
 30
0.0
  0
VERTEX
  8
AREAS
 10
32.752
 20
89.904
 30
0.0
  0
VERTEX
  8
AREAS
 10
32.744
 20
89.906
 30
0.0
  0
VERTEX
  8
AREAS
 10
32.741
 20
89.915
 30
0.0
  0
SEQEND
  8
AREAS
  0
POLYLINE
  8
AREAS
 66
     1
 10
0.0
 20
0.0
 30
0.0
 70
     1
  0
VERTEX
  8
AREAS
 10
31.732
 20
88.236
 30
0.0
  0
VERTEX
  8
AREAS
 10
31.744
 20
88.21
 30
0.0
  0
VERTEX
  8
AREAS
 10
31.713
 20
88.187
 30
0.0
  0
VERTEX
  8
AREAS
 10
31.701
 20
88.185
 30
0.0
  0
VERTEX
  8
AREAS
 10
31.694
 20
88.187
 30
0.0
  0
VERTEX
  8
AREAS
 10
31.699
 20
88.204
 30
0.0
  0
VERTEX
  8
AREAS
 10
31.711
 20
88.216
 30
0.0
  0
VERTEX
  8
AREAS
 10
31.723
 20
88.228
 30
0.0
  0
SEQEND
  8
AREAS
  0
POLYLINE
  8
AREAS
 66
     1
 10
0.0
 20
0.0
 30
0.0
 70
     1
  0
VERTEX
  8
AREAS
 10
31.906
 20
88.727
 30
0.0
  0
VERTEX
  8
AREAS
 10
31.92
 20
88.73
 30
0.0
  0
VERTEX
  8
AREAS
 10
31.974
 20
88.711
 30
0.0
  0
VERTEX
  8
AREAS
 10
31.981
 20
88.702
 30
0.0
  0
VERTEX
  8
AREAS
 10
31.946
 20
88.667
 30
0.0
  0
VERTEX
  8
AREAS
 10
31.953
 20
88.658
 30
0.0
  0
VERTEX
  8
AREAS
 10
31.985
 20
88.644
 30
0.0
  0
VERTEX
  8
AREAS
 10
31.984
 20
88.631
 30
0.0
  0
VERTEX
  8
AREAS
 10
31.974
 20
88.609
 30
0.0
  0
VERTEX
  8
AREAS
 10
31.966
 20
88.603
 30
0.0
  0
VERTEX
  8
AREAS
 10
31.958
 20
88.603
 30
0.0
  0
VERTEX
  8
AREAS
 10
31.945
 20
88.606
 30
0.0
  0
VERTEX
  8
AREAS
 10
31.934
 20
88.613
 30
0.0
  0
VERTEX
  8
AREAS
 10
31.95
 20
88.637
 30
0.0
  0
VERTEX
  8
AREAS
 10
31.941
 20
88.668
 30
0.0
  0
VERTEX
  8
AREAS
 10
31.919
 20
88.705
 30
0.0
  0
SEQEND
  8
AREAS
  0
POLYLINE
  8
AREAS
 66
     1
 10
0.0
 20
0.0
 30
0.0
 70
     1
  0
VERTEX
  8
AREAS
 10
32.041
 20
88.759
 30
0.0
  0
VERTEX
  8
AREAS
 10
32.078
 20
88.782
 30
0.0
  0
VERTEX
  8
AREAS
 10
32.084
 20
88.779
 30
0.0
  0
VERTEX
  8
AREAS
 10
32.087
 20
88.773
 30
0.0
  0
VERTEX
  8
AREAS
 10
32.088
 20
88.768
 30
0.0
  0
VERTEX
  8
AREAS
 10
32.092
 20
88.767
 30
0.0
  0
VERTEX
  8
AREAS
 10
32.095
 20
88.765
 30
0.0
  0
VERTEX
  8
AREAS
 10
32.1
 20
88.763
 30
0.0
  0
VERTEX
  8
AREAS
 10
32.105
 20
88.762
 30
0.0
  0
VERTEX
  8
AREAS
 10
32.086
 20
88.735
 30
0.0
  0
VERTEX
  8
AREAS
 10
32.071
 20
88.736
 30
0.0
  0
VERTEX
  8
AREAS
 10
32.063
 20
88.742
 30
0.0
  0
VERTEX
  8
AREAS
 10
32.056
 20
88.745
 30
0.0
  0
VERTEX
  8
AREAS
 10
32.05
 20
88.749
 30
0.0
  0
SEQEND
  8
AREAS
  0
POLYLINE
  8
AREAS
 66
     1
 10
0.0
 20
0.0
 30
0.0
 70
     1
  0
VERTEX
  8
AREAS
 10
32.079
 20
88.64
 30
0.0
  0
VERTEX
  8
AREAS
 10
32.134
 20
88.663
 30
0.0
  0
VERTEX
  8
AREAS
 10
32.151
 20
88.632
 30
0.0
  0
VERTEX
  8
AREAS
 10
32.1
 20
88.602
 30
0.0
  0
SEQEND
  8
AREAS
  0
POLYLINE
  8
AREAS
 66
     1
 10
0.0
 20
0.0
 30
0.0
 70
     1
  0
VERTEX
  8
AREAS
 10
31.993
 20
88.528
 30
0.0
  0
VERTEX
  8
AREAS
 10
32.009
 20
88.541
 30
0.0
  0
VERTEX
  8
AREAS
 10
32.027
 20
88.544
 30
0.0
  0
VERTEX
  8
AREAS
 10
32.04
 20
88.539
 30
0.0
  0
VERTEX
  8
AREAS
 10
32.045
 20
88.527
 30
0.0
  0
VERTEX
  8
AREAS
 10
32.042
 20
88.52
 30
0.0
  0
VERTEX
  8
AREAS
 10
32.041
 20
88.512
 30
0.0
  0
VERTEX
  8
AREAS
 10
32.034
 20
88.508
 30
0.0
  0
VERTEX
  8
AREAS
 10
32.031
 20
88.504
 30
0.0
  0
VERTEX
  8
AREAS
 10
32.024
 20
88.5
 30
0.0
  0
VERTEX
  8
AREAS
 10
32.016
 20
88.496
 30
0.0
  0
SEQEND
  8
AREAS
  0
POLYLINE
  8
AREAS
 66
     1
 10
0.0
 20
0.0
 30
0.0
 70
     1
  0
VERTEX
  8
AREAS
 10
31.919
 20
88.567
 30
0.0
  0
VERTEX
  8
AREAS
 10
31.93
 20
88.58
 30
0.0
  0
VERTEX
  8
AREAS
 10
31.956
 20
88.58
 30
0.0
  0
VERTEX
  8
AREAS
 10
31.957
 20
88.57
 30
0.0
  0
VERTEX
  8
AREAS
 10
31.957
 20
88.561
 30
0.0
  0
VERTEX
  8
AREAS
 10
31.956
 20
88.553
 30
0.0
  0
VERTEX
  8
AREAS
 10
31.954
 20
88.548
 30
0.0
  0
VERTEX
  8
AREAS
 10
31.95
 20
88.54
 30
0.0
  0
VERTEX
  8
AREAS
 10
31.944
 20
88.534
 30
0.0
  0
VERTEX
  8
AREAS
 10
31.933
 20
88.523
 30
0.0
  0
VERTEX
  8
AREAS
 10
31.921
 20
88.523
 30
0.0
  0
VERTEX
  8
AREAS
 10
31.912
 20
88.546
 30
0.0
  0
VERTEX
  8
AREAS
 10
31.915
 20
88.558
 30
0.0
  0
SEQEND
  8
AREAS
  0
POLYLINE
  8
AREAS
 66
     1
 10
0.0
 20
0.0
 30
0.0
 70
     1
  0
VERTEX
  8
AREAS
 10
31.71
 20
88.758
 30
0.0
  0
VERTEX
  8
AREAS
 10
31.751
 20
88.781
 30
0.0
  0
VERTEX
  8
AREAS
 10
31.766
 20
88.761
 30
0.0
  0
VERTEX
  8
AREAS
 10
31.764
 20
88.752
 30
0.0
  0
VERTEX
  8
AREAS
 10
31.76
 20
88.746
 30
0.0
  0
VERTEX
  8
AREAS
 10
31.749
 20
88.74
 30
0.0
  0
VERTEX
  8
AREAS
 10
31.737
 20
88.737
 30
0.0
  0
VERTEX
  8
AREAS
 10
31.73
 20
88.74
 30
0.0
  0
VERTEX
  8
AREAS
 10
31.719
 20
88.741
 30
0.0
  0
SEQEND
  8
AREAS
  0
POLYLINE
  8
AREAS
 66
     1
 10
0.0
 20
0.0
 30
0.0
 70
     1
  0
VERTEX
  8
AREAS
 10
32.381
 20
88.683
 30
0.0
  0
VERTEX
  8
AREAS
 10
32.387
 20
88.691
 30
0.0
  0
VERTEX
  8
AREAS
 10
32.392
 20
88.701
 30
0.0
  0
VERTEX
  8
AREAS
 10
32.418
 20
88.709
 30
0.0
  0
VERTEX
  8
AREAS
 10
32.439
 20
88.696
 30
0.0
  0
VERTEX
  8
AREAS
 10
32.445
 20
88.669
 30
0.0
  0
VERTEX
  8
AREAS
 10
32.437
 20
88.664
 30
0.0
  0
VERTEX
  8
AREAS
 10
32.431
 20
88.661
 30
0.0
  0
VERTEX
  8
AREAS
 10
32.427
 20
88.66
 30
0.0
  0
VERTEX
  8
AREAS
 10
32.418
 20
88.658
 30
0.0
  0
VERTEX
  8
AREAS
 10
32.402
 20
88.66
 30
0.0
  0
VERTEX
  8
AREAS
 10
32.397
 20
88.665
 30
0.0
  0
VERTEX
  8
AREAS
 10
32.382
 20
88.673
 30
0.0
  0
SEQEND
  8
AREAS
  0
POLYLINE
  8
AREAS
 66
     1
 10
0.0
 20
0.0
 30
0.0
 70
     1
  0
VERTEX
  8
AREAS
 10
35.229
 20
91.298
 30
0.0
  0
VERTEX
  8
AREAS
 10
35.245
 20
91.264
 30
0.0
  0
VERTEX
  8
AREAS
 10
35.384
 20
91.321
 30
0.0
  0
VERTEX
  8
AREAS
 10
35.396
 20
91.34
 30
0.0
  0
VERTEX
  8
AREAS
 10
35.398
 20
91.353
 30
0.0
  0
VERTEX
  8
AREAS
 10
35.397
 20
91.359
 30
0.0
  0
VERTEX
  8
AREAS
 10
35.318
 20
91.33
 30
0.0
  0
VERTEX
  8
AREAS
 10
35.312
 20
91.361
 30
0.0
  0
VERTEX
  8
AREAS
 10
35.275
 20
91.321
 30
0.0
  0
VERTEX
  8
AREAS
 10
35.25
 20
91.309
 30
0.0
  0
SEQEND
  8
AREAS
  0
POLYLINE
  8
AREAS
 66
     1
 10
0.0
 20
0.0
 30
0.0
 70
     1
  0
VERTEX
  8
AREAS
 10
35.124
 20
91.248
 30
0.0
  0
VERTEX
  8
AREAS
 10
35.149
 20
91.234
 30
0.0
  0
VERTEX
  8
AREAS
 10
35.116
 20
91.187
 30
0.0
  0
VERTEX
  8
AREAS
 10
35.119
 20
91.179
 30
0.0
  0
VERTEX
  8
AREAS
 10
35.074
 20
91.184
 30
0.0
  0
VERTEX
  8
AREAS
 10
35.093
 20
91.218
 30
0.0
  0
SEQEND
  8
AREAS
  0
POLYLINE
  8
AREAS
 66
     1
 10
0.0
 20
0.0
 30
0.0
 70
     1
  0
VERTEX
  8
AREAS
 10
35.014
 20
91.376
 30
0.0
  0
VERTEX
  8
AREAS
 10
35.042
 20
91.436
 30
0.0
  0
VERTEX
  8
AREAS
 10
35.074
 20
91.452
 30
0.0
  0
VERTEX
  8
AREAS
 10
35.075
 20
91.48
 30
0.0
  0
VERTEX
  8
AREAS
 10
35.057
 20
91.514
 30
0.0
  0
VERTEX
  8
AREAS
 10
35.04
 20
91.523
 30
0.0
  0
VERTEX
  8
AREAS
 10
35.027
 20
91.523
 30
0.0
  0
VERTEX
  8
AREAS
 10
34.999
 20
91.508
 30
0.0
  0
VERTEX
  8
AREAS
 10
34.99
 20
91.47
 30
0.0
  0
VERTEX
  8
AREAS
 10
34.976
 20
91.441
 30
0.0
  0
VERTEX
  8
AREAS
 10
34.972
 20
91.43
 30
0.0
  0
VERTEX
  8
AREAS
 10
34.979
 20
91.405
 30
0.0
  0
VERTEX
  8
AREAS
 10
35.01
 20
91.387
 30
0.0
  0
SEQEND
  8
AREAS
  0
POLYLINE
  8
AREAS
 66
     1
 10
0.0
 20
0.0
 30
0.0
 70
     1
  0
VERTEX
  8
AREAS
 10
35.54
 20
91.95
 30
0.0
  0
VERTEX
  8
AREAS
 10
35.631
 20
91.964
 30
0.0
  0
VERTEX
  8
AREAS
 10
35.622
 20
91.951
 30
0.0
  0
VERTEX
  8
AREAS
 10
35.61
 20
91.923
 30
0.0
  0
VERTEX
  8
AREAS
 10
35.6
 20
91.915
 30
0.0
  0
VERTEX
  8
AREAS
 10
35.589
 20
91.909
 30
0.0
  0
VERTEX
  8
AREAS
 10
35.581
 20
91.902
 30
0.0
  0
VERTEX
  8
AREAS
 10
35.558
 20
91.899
 30
0.0
  0
VERTEX
  8
AREAS
 10
35.548
 20
91.899
 30
0.0
  0
VERTEX
  8
AREAS
 10
35.531
 20
91.906
 30
0.0
  0
VERTEX
  8
AREAS
 10
35.532
 20
91.923
 30
0.0
  0
VERTEX
  8
AREAS
 10
35.538
 20
91.942
 30
0.0
  0
SEQEND
  8
AREAS
  0
POLYLINE
  8
AREAS
 66
     1
 10
0.0
 20
0.0
 30
0.0
 70
     1
  0
VERTEX
  8
AREAS
 10
35.583
 20
91.823
 30
0.0
  0
VERTEX
  8
AREAS
 10
35.607
 20
91.848
 30
0.0
  0
VERTEX
  8
AREAS
 10
35.64
 20
91.851
 30
0.0
  0
VERTEX
  8
AREAS
 10
35.647
 20
91.83
 30
0.0
  0
VERTEX
  8
AREAS
 10
35.64
 20
91.813
 30
0.0
  0
VERTEX
  8
AREAS
 10
35.629
 20
91.799
 30
0.0
  0
VERTEX
  8
AREAS
 10
35.605
 20
91.786
 30
0.0
  0
VERTEX
  8
AREAS
 10
35.584
 20
91.795
 30
0.0
  0
SEQEND
  8
AREAS
  0
POLYLINE
  8
AREAS
 66
     1
 10
0.0
 20
0.0
 30
0.0
 70
     1
  0
VERTEX
  8
AREAS
 10
35.073
 20
91.684
 30
0.0
  0
VERTEX
  8
AREAS
 10
35.088
 20
91.693
 30
0.0
  0
VERTEX
  8
AREAS
 10
35.118
 20
91.686
 30
0.0
  0
VERTEX
  8
AREAS
 10
35.124
 20
91.687
 30
0.0
  0
VERTEX
  8
AREAS
 10
35.129
 20
91.683
 30
0.0
  0
VERTEX
  8
AREAS
 10
35.132
 20
91.675
 30
0.0
  0
VERTEX
  8
AREAS
 10
35.13
 20
91.663
 30
0.0
  0
VERTEX
  8
AREAS
 10
35.121
 20
91.658
 30
0.0
  0
VERTEX
  8
AREAS
 10
35.104
 20
91.657
 30
0.0
  0
VERTEX
  8
AREAS
 10
35.094
 20
91.66
 30
0.0
  0
VERTEX
  8
AREAS
 10
35.077
 20
91.671
 30
0.0
  0
SEQEND
  8
AREAS
  0
POLYLINE
  8
AREAS
 66
     1
 10
0.0
 20
0.0
 30
0.0
 70
     1
  0
VERTEX
  8
AREAS
 10
34.673
 20
91.611
 30
0.0
  0
VERTEX
  8
AREAS
 10
34.71
 20
91.595
 30
0.0
  0
VERTEX
  8
AREAS
 10
34.701
 20
91.585
 30
0.0
  0
VERTEX
  8
AREAS
 10
34.69
 20
91.545
 30
0.0
  0
VERTEX
  8
AREAS
 10
34.69
 20
91.535
 30
0.0
  0
VERTEX
  8
AREAS
 10
34.686
 20
91.515
 30
0.0
  0
VERTEX
  8
AREAS
 10
34.677
 20
91.511
 30
0.0
  0
VERTEX
  8
AREAS
 10
34.668
 20
91.51
 30
0.0
  0
VERTEX
  8
AREAS
 10
34.65
 20
91.528
 30
0.0
  0
VERTEX
  8
AREAS
 10
34.647
 20
91.544
 30
0.0
  0
VERTEX
  8
AREAS
 10
34.645
 20
91.551
 30
0.0
  0
VERTEX
  8
AREAS
 10
34.647
 20
91.573
 30
0.0
  0
SEQEND
  8
AREAS
  0
POLYLINE
  8
AREAS
 66
     1
 10
0.0
 20
0.0
 30
0.0
 70
     1
  0
VERTEX
  8
AREAS
 10
34.773
 20
91.568
 30
0.0
  0
VERTEX
  8
AREAS
 10
34.776
 20
91.59
 30
0.0
  0
VERTEX
  8
AREAS
 10
34.79
 20
91.598
 30
0.0
  0
VERTEX
  8
AREAS
 10
34.805
 20
91.594
 30
0.0
  0
VERTEX
  8
AREAS
 10
34.814
 20
91.568
 30
0.0
  0
VERTEX
  8
AREAS
 10
34.812
 20
91.543
 30
0.0
  0
VERTEX
  8
AREAS
 10
34.811
 20
91.52
 30
0.0
  0
VERTEX
  8
AREAS
 10
34.822
 20
91.509
 30
0.0
  0
VERTEX
  8
AREAS
 10
34.825
 20
91.491
 30
0.0
  0
VERTEX
  8
AREAS
 10
34.828
 20
91.477
 30
0.0
  0
VERTEX
  8
AREAS
 10
34.832
 20
91.456
 30
0.0
  0
VERTEX
  8
AREAS
 10
34.836
 20
91.432
 30
0.0
  0
VERTEX
  8
AREAS
 10
34.819
 20
91.419
 30
0.0
  0
VERTEX
  8
AREAS
 10
34.816
 20
91.383
 30
0.0
  0
VERTEX
  8
AREAS
 10
34.808
 20
91.368
 30
0.0
  0
VERTEX
  8
AREAS
 10
34.792
 20
91.353
 30
0.0
  0
VERTEX
  8
AREAS
 10
34.749
 20
91.391
 30
0.0
  0
VERTEX
  8
AREAS
 10
34.753
 20
91.407
 30
0.0
  0
VERTEX
  8
AREAS
 10
34.776
 20
91.428
 30
0.0
  0
VERTEX
  8
AREAS
 10
34.774
 20
91.493
 30
0.0
  0
VERTEX
  8
AREAS
 10
34.774
 20
91.514
 30
0.0
  0
VERTEX
  8
AREAS
 10
34.773
 20
91.522
 30
0.0
  0
VERTEX
  8
AREAS
 10
34.776
 20
91.542
 30
0.0
  0
SEQEND
  8
AREAS
  0
POLYLINE
  8
AREAS
 66
     1
 10
0.0
 20
0.0
 30
0.0
 70
     1
  0
VERTEX
  8
AREAS
 10
34.549
 20
91.685
 30
0.0
  0
VERTEX
  8
AREAS
 10
34.557
 20
91.687
 30
0.0
  0
VERTEX
  8
AREAS
 10
34.57
 20
91.693
 30
0.0
  0
VERTEX
  8
AREAS
 10
34.58
 20
91.695
 30
0.0
  0
VERTEX
  8
AREAS
 10
34.594
 20
91.698
 30
0.0
  0
VERTEX
  8
AREAS
 10
34.6
 20
91.694
 30
0.0
  0
VERTEX
  8
AREAS
 10
34.614
 20
91.677
 30
0.0
  0
VERTEX
  8
AREAS
 10
34.611
 20
91.663
 30
0.0
  0
VERTEX
  8
AREAS
 10
34.598
 20
91.648
 30
0.0
  0
VERTEX
  8
AREAS
 10
34.578
 20
91.642
 30
0.0
  0
VERTEX
  8
AREAS
 10
34.557
 20
91.639
 30
0.0
  0
SEQEND
  8
AREAS
  0
POLYLINE
  8
AREAS
 66
     1
 10
0.0
 20
0.0
 30
0.0
 70
     1
  0
VERTEX
  8
AREAS
 10
34.738
 20
91.223
 30
0.0
  0
VERTEX
  8
AREAS
 10
34.76
 20
91.223
 30
0.0
  0
VERTEX
  8
AREAS
 10
34.767
 20
91.209
 30
0.0
  0
VERTEX
  8
AREAS
 10
34.77
 20
91.195
 30
0.0
  0
VERTEX
  8
AREAS
 10
34.767
 20
91.181
 30
0.0
  0
VERTEX
  8
AREAS
 10
34.763
 20
91.171
 30
0.0
  0
VERTEX
  8
AREAS
 10
34.753
 20
91.163
 30
0.0
  0
VERTEX
  8
AREAS
 10
34.743
 20
91.16
 30
0.0
  0
VERTEX
  8
AREAS
 10
34.727
 20
91.16
 30
0.0
  0
VERTEX
  8
AREAS
 10
34.72
 20
91.178
 30
0.0
  0
VERTEX
  8
AREAS
 10
34.723
 20
91.194
 30
0.0
  0
VERTEX
  8
AREAS
 10
34.729
 20
91.21
 30
0.0
  0
SEQEND
  8
AREAS
  0
POLYLINE
  8
AREAS
 66
     1
 10
0.0
 20
0.0
 30
0.0
 70
     1
  0
VERTEX
  8
AREAS
 10
33.196
 20
89.579
 30
0.0
  0
VERTEX
  8
AREAS
 10
33.218
 20
89.592
 30
0.0
  0
VERTEX
  8
AREAS
 10
33.231
 20
89.59
 30
0.0
  0
VERTEX
  8
AREAS
 10
33.238
 20
89.575
 30
0.0
  0
VERTEX
  8
AREAS
 10
33.242
 20
89.551
 30
0.0
  0
VERTEX
  8
AREAS
 10
33.225
 20
89.542
 30
0.0
  0
VERTEX
  8
AREAS
 10
33.206
 20
89.536
 30
0.0
  0
VERTEX
  8
AREAS
 10
33.198
 20
89.54
 30
0.0
  0
VERTEX
  8
AREAS
 10
33.19
 20
89.554
 30
0.0
  0
VERTEX
  8
AREAS
 10
33.19
 20
89.565
 30
0.0
  0
SEQEND
  8
AREAS
  0
POLYLINE
  8
AREAS
 66
     1
 10
0.0
 20
0.0
 30
0.0
 70
     1
  0
VERTEX
  8
AREAS
 10
33.341
 20
89.618
 30
0.0
  0
VERTEX
  8
AREAS
 10
33.361
 20
89.609
 30
0.0
  0
VERTEX
  8
AREAS
 10
33.356
 20
89.573
 30
0.0
  0
VERTEX
  8
AREAS
 10
33.346
 20
89.561
 30
0.0
  0
VERTEX
  8
AREAS
 10
33.337
 20
89.557
 30
0.0
  0
VERTEX
  8
AREAS
 10
33.329
 20
89.559
 30
0.0
  0
VERTEX
  8
AREAS
 10
33.322
 20
89.565
 30
0.0
  0
VERTEX
  8
AREAS
 10
33.321
 20
89.581
 30
0.0
  0
VERTEX
  8
AREAS
 10
33.321
 20
89.59
 30
0.0
  0
VERTEX
  8
AREAS
 10
33.33
 20
89.6
 30
0.0
  0
SEQEND
  8
AREAS
  0
POLYLINE
  8
AREAS
 66
     1
 10
0.0
 20
0.0
 30
0.0
 70
     1
  0
VERTEX
  8
AREAS
 10
33.087
 20
89.512
 30
0.0
  0
VERTEX
  8
AREAS
 10
33.138
 20
89.515
 30
0.0
  0
VERTEX
  8
AREAS
 10
33.155
 20
89.506
 30
0.0
  0
VERTEX
  8
AREAS
 10
33.164
 20
89.494
 30
0.0
  0
VERTEX
  8
AREAS
 10
33.151
 20
89.47
 30
0.0
  0
VERTEX
  8
AREAS
 10
33.136
 20
89.463
 30
0.0
  0
VERTEX
  8
AREAS
 10
33.121
 20
89.463
 30
0.0
  0
VERTEX
  8
AREAS
 10
33.107
 20
89.467
 30
0.0
  0
VERTEX
  8
AREAS
 10
33.097
 20
89.472
 30
0.0
  0
VERTEX
  8
AREAS
 10
33.092
 20
89.484
 30
0.0
  0
VERTEX
  8
AREAS
 10
33.093
 20
89.498
 30
0.0
  0
VERTEX
  8
AREAS
 10
33.091
 20
89.507
 30
0.0
  0
SEQEND
  8
AREAS
  0
POLYLINE
  8
AREAS
 66
     1
 10
0.0
 20
0.0
 30
0.0
 70
     1
  0
VERTEX
  8
AREAS
 10
33.204
 20
89.483
 30
0.0
  0
VERTEX
  8
AREAS
 10
33.216
 20
89.497
 30
0.0
  0
VERTEX
  8
AREAS
 10
33.235
 20
89.503
 30
0.0
  0
VERTEX
  8
AREAS
 10
33.256
 20
89.514
 30
0.0
  0
VERTEX
  8
AREAS
 10
33.273
 20
89.481
 30
0.0
  0
VERTEX
  8
AREAS
 10
33.263
 20
89.472
 30
0.0
  0
VERTEX
  8
AREAS
 10
33.257
 20
89.461
 30
0.0
  0
VERTEX
  8
AREAS
 10
33.249
 20
89.452
 30
0.0
  0
VERTEX
  8
AREAS
 10
33.245
 20
89.449
 30
0.0
  0
VERTEX
  8
AREAS
 10
33.229
 20
89.446
 30
0.0
  0
VERTEX
  8
AREAS
 10
33.215
 20
89.449
 30
0.0
  0
VERTEX
  8
AREAS
 10
33.206
 20
89.455
 30
0.0
  0
VERTEX
  8
AREAS
 10
33.201
 20
89.468
 30
0.0
  0
SEQEND
  8
AREAS
  0
POLYLINE
  8
AREAS
 66
     1
 10
0.0
 20
0.0
 30
0.0
 70
     1
  0
VERTEX
  8
AREAS
 10
33.053
 20
89.424
 30
0.0
  0
VERTEX
  8
AREAS
 10
33.064
 20
89.429
 30
0.0
  0
VERTEX
  8
AREAS
 10
33.075
 20
89.444
 30
0.0
  0
VERTEX
  8
AREAS
 10
33.085
 20
89.449
 30
0.0
  0
VERTEX
  8
AREAS
 10
33.094
 20
89.449
 30
0.0
  0
VERTEX
  8
AREAS
 10
33.1
 20
89.445
 30
0.0
  0
VERTEX
  8
AREAS
 10
33.103
 20
89.439
 30
0.0
  0
VERTEX
  8
AREAS
 10
33.104
 20
89.427
 30
0.0
  0
VERTEX
  8
AREAS
 10
33.091
 20
89.41
 30
0.0
  0
VERTEX
  8
AREAS
 10
33.079
 20
89.402
 30
0.0
  0
VERTEX
  8
AREAS
 10
33.068
 20
89.396
 30
0.0
  0
SEQEND
  8
AREAS
  0
POLYLINE
  8
AREAS
 66
     1
 10
0.0
 20
0.0
 30
0.0
 70
     1
  0
VERTEX
  8
AREAS
 10
33.193
 20
89.883
 30
0.0
  0
VERTEX
  8
AREAS
 10
33.191
 20
89.895
 30
0.0
  0
VERTEX
  8
AREAS
 10
33.197
 20
89.909
 30
0.0
  0
VERTEX
  8
AREAS
 10
33.236
 20
89.923
 30
0.0
  0
VERTEX
  8
AREAS
 10
33.248
 20
89.923
 30
0.0
  0
VERTEX
  8
AREAS
 10
33.257
 20
89.918
 30
0.0
  0
VERTEX
  8
AREAS
 10
33.262
 20
89.908
 30
0.0
  0
VERTEX
  8
AREAS
 10
33.245
 20
89.873
 30
0.0
  0
VERTEX
  8
AREAS
 10
33.209
 20
89.88
 30
0.0
  0
SEQEND
  8
AREAS
  0
POLYLINE
  8
AREAS
 66
     1
 10
0.0
 20
0.0
 30
0.0
 70
     1
  0
VERTEX
  8
AREAS
 10
33.208
 20
89.788
 30
0.0
  0
VERTEX
  8
AREAS
 10
33.225
 20
89.82
 30
0.0
  0
VERTEX
  8
AREAS
 10
33.26
 20
89.833
 30
0.0
  0
VERTEX
  8
AREAS
 10
33.268
 20
89.83
 30
0.0
  0
VERTEX
  8
AREAS
 10
33.281
 20
89.832
 30
0.0
  0
VERTEX
  8
AREAS
 10
33.279
 20
89.801
 30
0.0
  0
VERTEX
  8
AREAS
 10
33.259
 20
89.793
 30
0.0
  0
VERTEX
  8
AREAS
 10
33.223
 20
89.79
 30
0.0
  0
SEQEND
  8
AREAS
  0
POLYLINE
  8
AREAS
 66
     1
 10
0.0
 20
0.0
 30
0.0
 70
     1
  0
VERTEX
  8
AREAS
 10
32.997
 20
89.774
 30
0.0
  0
VERTEX
  8
AREAS
 10
33.007
 20
89.786
 30
0.0
  0
VERTEX
  8
AREAS
 10
33.013
 20
89.798
 30
0.0
  0
VERTEX
  8
AREAS
 10
33.036
 20
89.803
 30
0.0
  0
VERTEX
  8
AREAS
 10
33.047
 20
89.804
 30
0.0
  0
VERTEX
  8
AREAS
 10
33.059
 20
89.797
 30
0.0
  0
VERTEX
  8
AREAS
 10
33.063
 20
89.788
 30
0.0
  0
VERTEX
  8
AREAS
 10
33.065
 20
89.777
 30
0.0
  0
VERTEX
  8
AREAS
 10
33.062
 20
89.766
 30
0.0
  0
VERTEX
  8
AREAS
 10
33.056
 20
89.758
 30
0.0
  0
VERTEX
  8
AREAS
 10
33.045
 20
89.751
 30
0.0
  0
VERTEX
  8
AREAS
 10
33.032
 20
89.749
 30
0.0
  0
VERTEX
  8
AREAS
 10
33.01
 20
89.75
 30
0.0
  0
SEQEND
  8
AREAS
  0
POLYLINE
  8
AREAS
 66
     1
 10
0.0
 20
0.0
 30
0.0
 70
     1
  0
VERTEX
  8
AREAS
 10
33.305
 20
90.014
 30
0.0
  0
VERTEX
  8
AREAS
 10
33.329
 20
90.023
 30
0.0
  0
VERTEX
  8
AREAS
 10
33.347
 20
90.007
 30
0.0
  0
VERTEX
  8
AREAS
 10
33.349
 20
90.0
 30
0.0
  0
VERTEX
  8
AREAS
 10
33.35
 20
89.991
 30
0.0
  0
VERTEX
  8
AREAS
 10
33.349
 20
89.985
 30
0.0
  0
VERTEX
  8
AREAS
 10
33.343
 20
89.979
 30
0.0
  0
VERTEX
  8
AREAS
 10
33.318
 20
89.969
 30
0.0
  0
VERTEX
  8
AREAS
 10
33.302
 20
89.972
 30
0.0
  0
VERTEX
  8
AREAS
 10
33.295
 20
89.98
 30
0.0
  0
VERTEX
  8
AREAS
 10
33.292
 20
89.988
 30
0.0
  0
VERTEX
  8
AREAS
 10
33.301
 20
90.002
 30
0.0
  0
SEQEND
  8
AREAS
  0
POLYLINE
  8
AREAS
 66
     1
 10
0.0
 20
0.0
 30
0.0
 70
     1
  0
VERTEX
  8
AREAS
 10
33.532
 20
89.888
 30
0.0
  0
VERTEX
  8
AREAS
 10
33.536
 20
89.907
 30
0.0
  0
VERTEX
  8
AREAS
 10
33.558
 20
89.916
 30
0.0
  0
VERTEX
  8
AREAS
 10
33.585
 20
89.911
 30
0.0
  0
VERTEX
  8
AREAS
 10
33.599
 20
89.904
 30
0.0
  0
VERTEX
  8
AREAS
 10
33.607
 20
89.901
 30
0.0
  0
VERTEX
  8
AREAS
 10
33.611
 20
89.885
 30
0.0
  0
SEQEND
  8
AREAS
  0
POLYLINE
  8
AREAS
 66
     1
 10
0.0
 20
0.0
 30
0.0
 70
     1
  0
VERTEX
  8
AREAS
 10
33.815
 20
93.114
 30
0.0
  0
VERTEX
  8
AREAS
 10
33.854
 20
93.106
 30
0.0
  0
VERTEX
  8
AREAS
 10
33.828
 20
93.056
 30
0.0
  0
VERTEX
  8
AREAS
 10
33.825
 20
93.045
 30
0.0
  0
VERTEX
  8
AREAS
 10
33.816
 20
93.031
 30
0.0
  0
VERTEX
  8
AREAS
 10
33.795
 20
93.018
 30
0.0
  0
VERTEX
  8
AREAS
 10
33.779
 20
93.028
 30
0.0
  0
VERTEX
  8
AREAS
 10
33.777
 20
93.043
 30
0.0
  0
VERTEX
  8
AREAS
 10
33.784
 20
93.071
 30
0.0
  0
VERTEX
  8
AREAS
 10
33.806
 20
93.097
 30
0.0
  0
SEQEND
  8
AREAS
  0
POLYLINE
  8
AREAS
 66
     1
 10
0.0
 20
0.0
 30
0.0
 70
     1
  0
VERTEX
  8
AREAS
 10
33.892
 20
92.97
 30
0.0
  0
VERTEX
  8
AREAS
 10
33.931
 20
92.955
 30
0.0
  0
VERTEX
  8
AREAS
 10
33.955
 20
92.928
 30
0.0
  0
VERTEX
  8
AREAS
 10
34.027
 20
92.942
 30
0.0
  0
VERTEX
  8
AREAS
 10
34.036
 20
92.931
 30
0.0
  0
VERTEX
  8
AREAS
 10
34.036
 20
92.92
 30
0.0
  0
VERTEX
  8
AREAS
 10
34.035
 20
92.905
 30
0.0
  0
VERTEX
  8
AREAS
 10
34.029
 20
92.881
 30
0.0
  0
VERTEX
  8
AREAS
 10
34.021
 20
92.866
 30
0.0
  0
VERTEX
  8
AREAS
 10
34.016
 20
92.851
 30
0.0
  0
VERTEX
  8
AREAS
 10
33.968
 20
92.873
 30
0.0
  0
VERTEX
  8
AREAS
 10
33.955
 20
92.921
 30
0.0
  0
VERTEX
  8
AREAS
 10
33.945
 20
92.923
 30
0.0
  0
VERTEX
  8
AREAS
 10
33.887
 20
92.899
 30
0.0
  0
VERTEX
  8
AREAS
 10
33.883
 20
92.849
 30
0.0
  0
VERTEX
  8
AREAS
 10
33.863
 20
92.832
 30
0.0
  0
VERTEX
  8
AREAS
 10
33.803
 20
92.845
 30
0.0
  0
VERTEX
  8
AREAS
 10
33.803
 20
92.88
 30
0.0
  0
VERTEX
  8
AREAS
 10
33.812
 20
92.885
 30
0.0
  0
VERTEX
  8
AREAS
 10
33.82
 20
92.897
 30
0.0
  0
VERTEX
  8
AREAS
 10
33.836
 20
92.908
 30
0.0
  0
SEQEND
  8
AREAS
  0
POLYLINE
  8
AREAS
 66
     1
 10
0.0
 20
0.0
 30
0.0
 70
     1
  0
VERTEX
  8
AREAS
 10
33.871
 20
91.499
 30
0.0
  0
VERTEX
  8
AREAS
 10
33.879
 20
91.518
 30
0.0
  0
VERTEX
  8
AREAS
 10
33.908
 20
91.506
 30
0.0
  0
VERTEX
  8
AREAS
 10
33.916
 20
91.496
 30
0.0
  0
VERTEX
  8
AREAS
 10
33.92
 20
91.479
 30
0.0
  0
VERTEX
  8
AREAS
 10
33.922
 20
91.46
 30
0.0
  0
VERTEX
  8
AREAS
 10
33.917
 20
91.451
 30
0.0
  0
VERTEX
  8
AREAS
 10
33.9
 20
91.448
 30
0.0
  0
VERTEX
  8
AREAS
 10
33.878
 20
91.463
 30
0.0
  0
SEQEND
  8
AREAS
  0
POLYLINE
  8
AREAS
 66
     1
 10
0.0
 20
0.0
 30
0.0
 70
     1
  0
VERTEX
  8
AREAS
 10
33.912
 20
91.382
 30
0.0
  0
VERTEX
  8
AREAS
 10
33.913
 20
91.395
 30
0.0
  0
VERTEX
  8
AREAS
 10
33.92
 20
91.414
 30
0.0
  0
VERTEX
  8
AREAS
 10
33.92
 20
91.421
 30
0.0
  0
VERTEX
  8
AREAS
 10
33.933
 20
91.45
 30
0.0
  0
VERTEX
  8
AREAS
 10
33.937
 20
91.453
 30
0.0
  0
VERTEX
  8
AREAS
 10
33.94
 20
91.461
 30
0.0
  0
VERTEX
  8
AREAS
 10
33.944
 20
91.464
 30
0.0
  0
VERTEX
  8
AREAS
 10
33.947
 20
91.464
 30
0.0
  0
VERTEX
  8
AREAS
 10
33.954
 20
91.464
 30
0.0
  0
VERTEX
  8
AREAS
 10
33.959
 20
91.462
 30
0.0
  0
VERTEX
  8
AREAS
 10
33.966
 20
91.459
 30
0.0
  0
VERTEX
  8
AREAS
 10
33.974
 20
91.456
 30
0.0
  0
VERTEX
  8
AREAS
 10
33.978
 20
91.451
 30
0.0
  0
VERTEX
  8
AREAS
 10
33.983
 20
91.446
 30
0.0
  0
VERTEX
  8
AREAS
 10
33.987
 20
91.44
 30
0.0
  0
VERTEX
  8
AREAS
 10
33.988
 20
91.434
 30
0.0
  0
VERTEX
  8
AREAS
 10
33.99
 20
91.428
 30
0.0
  0
VERTEX
  8
AREAS
 10
33.99
 20
91.422
 30
0.0
  0
VERTEX
  8
AREAS
 10
33.994
 20
91.403
 30
0.0
  0
VERTEX
  8
AREAS
 10
33.996
 20
91.393
 30
0.0
  0
VERTEX
  8
AREAS
 10
33.989
 20
91.378
 30
0.0
  0
VERTEX
  8
AREAS
 10
33.979
 20
91.369
 30
0.0
  0
VERTEX
  8
AREAS
 10
33.975
 20
91.365
 30
0.0
  0
VERTEX
  8
AREAS
 10
33.949
 20
91.366
 30
0.0
  0
SEQEND
  8
AREAS
  0
POLYLINE
  8
AREAS
 66
     1
 10
0.0
 20
0.0
 30
0.0
 70
     1
  0
VERTEX
  8
AREAS
 10
33.918
 20
91.314
 30
0.0
  0
VERTEX
  8
AREAS
 10
33.951
 20
91.321
 30
0.0
  0
VERTEX
  8
AREAS
 10
33.953
 20
91.309
 30
0.0
  0
VERTEX
  8
AREAS
 10
33.957
 20
91.302
 30
0.0
  0
VERTEX
  8
AREAS
 10
33.957
 20
91.298
 30
0.0
  0
VERTEX
  8
AREAS
 10
33.956
 20
91.289
 30
0.0
  0
VERTEX
  8
AREAS
 10
33.955
 20
91.283
 30
0.0
  0
VERTEX
  8
AREAS
 10
33.953
 20
91.276
 30
0.0
  0
VERTEX
  8
AREAS
 10
33.947
 20
91.271
 30
0.0
  0
VERTEX
  8
AREAS
 10
33.941
 20
91.267
 30
0.0
  0
VERTEX
  8
AREAS
 10
33.935
 20
91.266
 30
0.0
  0
VERTEX
  8
AREAS
 10
33.929
 20
91.267
 30
0.0
  0
VERTEX
  8
AREAS
 10
33.923
 20
91.268
 30
0.0
  0
VERTEX
  8
AREAS
 10
33.92
 20
91.272
 30
0.0
  0
VERTEX
  8
AREAS
 10
33.919
 20
91.276
 30
0.0
  0
VERTEX
  8
AREAS
 10
33.917
 20
91.281
 30
0.0
  0
VERTEX
  8
AREAS
 10
33.914
 20
91.286
 30
0.0
  0
VERTEX
  8
AREAS
 10
33.914
 20
91.296
 30
0.0
  0
VERTEX
  8
AREAS
 10
33.917
 20
91.302
 30
0.0
  0
VERTEX
  8
AREAS
 10
33.919
 20
91.306
 30
0.0
  0
SEQEND
  8
AREAS
  0
POLYLINE
  8
AREAS
 66
     1
 10
0.0
 20
0.0
 30
0.0
 70
     1
  0
VERTEX
  8
AREAS
 10
33.799
 20
92.705
 30
0.0
  0
VERTEX
  8
AREAS
 10
33.799
 20
92.718
 30
0.0
  0
VERTEX
  8
AREAS
 10
33.822
 20
92.736
 30
0.0
  0
VERTEX
  8
AREAS
 10
33.857
 20
92.734
 30
0.0
  0
VERTEX
  8
AREAS
 10
33.868
 20
92.716
 30
0.0
  0
VERTEX
  8
AREAS
 10
33.862
 20
92.699
 30
0.0
  0
VERTEX
  8
AREAS
 10
33.852
 20
92.694
 30
0.0
  0
VERTEX
  8
AREAS
 10
33.832
 20
92.694
 30
0.0
  0
SEQEND
  8
AREAS
  0
POLYLINE
  8
AREAS
 66
     1
 10
0.0
 20
0.0
 30
0.0
 70
     1
  0
VERTEX
  8
AREAS
 10
33.662
 20
92.628
 30
0.0
  0
VERTEX
  8
AREAS
 10
33.679
 20
92.629
 30
0.0
  0
VERTEX
  8
AREAS
 10
33.693
 20
92.613
 30
0.0
  0
VERTEX
  8
AREAS
 10
33.693
 20
92.589
 30
0.0
  0
VERTEX
  8
AREAS
 10
33.69
 20
92.569
 30
0.0
  0
VERTEX
  8
AREAS
 10
33.683
 20
92.563
 30
0.0
  0
VERTEX
  8
AREAS
 10
33.675
 20
92.559
 30
0.0
  0
VERTEX
  8
AREAS
 10
33.659
 20
92.563
 30
0.0
  0
VERTEX
  8
AREAS
 10
33.646
 20
92.576
 30
0.0
  0
VERTEX
  8
AREAS
 10
33.646
 20
92.6
 30
0.0
  0
VERTEX
  8
AREAS
 10
33.652
 20
92.623
 30
0.0
  0
SEQEND
  8
AREAS
  0
POLYLINE
  8
AREAS
 66
     1
 10
0.0
 20
0.0
 30
0.0
 70
     1
  0
VERTEX
  8
AREAS
 10
33.695
 20
92.474
 30
0.0
  0
VERTEX
  8
AREAS
 10
33.698
 20
92.502
 30
0.0
  0
VERTEX
  8
AREAS
 10
33.716
 20
92.528
 30
0.0
  0
VERTEX
  8
AREAS
 10
33.732
 20
92.522
 30
0.0
  0
VERTEX
  8
AREAS
 10
33.737
 20
92.477
 30
0.0
  0
VERTEX
  8
AREAS
 10
33.745
 20
92.47
 30
0.0
  0
VERTEX
  8
AREAS
 10
33.755
 20
92.458
 30
0.0
  0
VERTEX
  8
AREAS
 10
33.758
 20
92.442
 30
0.0
  0
VERTEX
  8
AREAS
 10
33.746
 20
92.435
 30
0.0
  0
VERTEX
  8
AREAS
 10
33.727
 20
92.428
 30
0.0
  0
VERTEX
  8
AREAS
 10
33.716
 20
92.421
 30
0.0
  0
VERTEX
  8
AREAS
 10
33.703
 20
92.421
 30
0.0
  0
VERTEX
  8
AREAS
 10
33.683
 20
92.432
 30
0.0
  0
VERTEX
  8
AREAS
 10
33.679
 20
92.45
 30
0.0
  0
VERTEX
  8
AREAS
 10
33.679
 20
92.458
 30
0.0
  0
SEQEND
  8
AREAS
  0
POLYLINE
  8
AREAS
 66
     1
 10
0.0
 20
0.0
 30
0.0
 70
     1
  0
VERTEX
  8
AREAS
 10
33.786
 20
92.475
 30
0.0
  0
VERTEX
  8
AREAS
 10
33.818
 20
92.503
 30
0.0
  0
VERTEX
  8
AREAS
 10
33.826
 20
92.484
 30
0.0
  0
VERTEX
  8
AREAS
 10
33.834
 20
92.474
 30
0.0
  0
VERTEX
  8
AREAS
 10
33.834
 20
92.457
 30
0.0
  0
VERTEX
  8
AREAS
 10
33.828
 20
92.448
 30
0.0
  0
VERTEX
  8
AREAS
 10
33.811
 20
92.448
 30
0.0
  0
VERTEX
  8
AREAS
 10
33.797
 20
92.45
 30
0.0
  0
SEQEND
  8
AREAS
  0
POLYLINE
  8
AREAS
 66
     1
 10
0.0
 20
0.0
 30
0.0
 70
     1
  0
VERTEX
  8
AREAS
 10
33.773
 20
92.392
 30
0.0
  0
VERTEX
  8
AREAS
 10
33.783
 20
92.418
 30
0.0
  0
VERTEX
  8
AREAS
 10
33.802
 20
92.414
 30
0.0
  0
VERTEX
  8
AREAS
 10
33.816
 20
92.414
 30
0.0
  0
VERTEX
  8
AREAS
 10
33.829
 20
92.411
 30
0.0
  0
VERTEX
  8
AREAS
 10
33.836
 20
92.404
 30
0.0
  0
VERTEX
  8
AREAS
 10
33.836
 20
92.396
 30
0.0
  0
VERTEX
  8
AREAS
 10
33.827
 20
92.392
 30
0.0
  0
VERTEX
  8
AREAS
 10
33.814
 20
92.387
 30
0.0
  0
VERTEX
  8
AREAS
 10
33.811
 20
92.386
 30
0.0
  0
VERTEX
  8
AREAS
 10
33.802
 20
92.382
 30
0.0
  0
VERTEX
  8
AREAS
 10
33.791
 20
92.386
 30
0.0
  0
VERTEX
  8
AREAS
 10
33.782
 20
92.388
 30
0.0
  0
SEQEND
  8
AREAS
  0
POLYLINE
  8
AREAS
 66
     1
 10
0.0
 20
0.0
 30
0.0
 70
     1
  0
VERTEX
  8
AREAS
 10
33.642
 20
92.357
 30
0.0
  0
VERTEX
  8
AREAS
 10
33.649
 20
92.382
 30
0.0
  0
VERTEX
  8
AREAS
 10
33.641
 20
92.396
 30
0.0
  0
VERTEX
  8
AREAS
 10
33.621
 20
92.399
 30
0.0
  0
VERTEX
  8
AREAS
 10
33.606
 20
92.398
 30
0.0
  0
VERTEX
  8
AREAS
 10
33.596
 20
92.392
 30
0.0
  0
VERTEX
  8
AREAS
 10
33.605
 20
92.382
 30
0.0
  0
SEQEND
  8
AREAS
  0
POLYLINE
  8
AREAS
 66
     1
 10
0.0
 20
0.0
 30
0.0
 70
     1
  0
VERTEX
  8
AREAS
 10
33.71
 20
92.306
 30
0.0
  0
VERTEX
  8
AREAS
 10
33.718
 20
92.336
 30
0.0
  0
VERTEX
  8
AREAS
 10
33.753
 20
92.339
 30
0.0
  0
VERTEX
  8
AREAS
 10
33.781
 20
92.327
 30
0.0
  0
VERTEX
  8
AREAS
 10
33.764
 20
92.297
 30
0.0
  0
SEQEND
  8
AREAS
  0
POLYLINE
  8
AREAS
 66
     1
 10
0.0
 20
0.0
 30
0.0
 70
     1
  0
VERTEX
  8
AREAS
 10
33.852
 20
92.302
 30
0.0
  0
VERTEX
  8
AREAS
 10
33.874
 20
92.326
 30
0.0
  0
VERTEX
  8
AREAS
 10
33.875
 20
92.339
 30
0.0
  0
VERTEX
  8
AREAS
 10
33.867
 20
92.358
 30
0.0
  0
VERTEX
  8
AREAS
 10
33.839
 20
92.354
 30
0.0
  0
VERTEX
  8
AREAS
 10
33.834
 20
92.354
 30
0.0
  0
VERTEX
  8
AREAS
 10
33.821
 20
92.348
 30
0.0
  0
VERTEX
  8
AREAS
 10
33.832
 20
92.312
 30
0.0
  0
SEQEND
  8
AREAS
  0
POLYLINE
  8
AREAS
 66
     1
 10
0.0
 20
0.0
 30
0.0
 70
     1
  0
VERTEX
  8
AREAS
 10
34.055
 20
92.294
 30
0.0
  0
VERTEX
  8
AREAS
 10
34.055
 20
92.302
 30
0.0
  0
VERTEX
  8
AREAS
 10
34.06
 20
92.329
 30
0.0
  0
VERTEX
  8
AREAS
 10
34.131
 20
92.321
 30
0.0
  0
VERTEX
  8
AREAS
 10
34.121
 20
92.301
 30
0.0
  0
VERTEX
  8
AREAS
 10
34.112
 20
92.281
 30
0.0
  0
SEQEND
  8
AREAS
  0
POLYLINE
  8
AREAS
 66
     1
 10
0.0
 20
0.0
 30
0.0
 70
     1
  0
VERTEX
  8
AREAS
 10
34.256
 20
91.224
 30
0.0
  0
VERTEX
  8
AREAS
 10
34.307
 20
91.25
 30
0.0
  0
VERTEX
  8
AREAS
 10
34.309
 20
91.262
 30
0.0
  0
VERTEX
  8
AREAS
 10
34.305
 20
91.275
 30
0.0
  0
VERTEX
  8
AREAS
 10
34.299
 20
91.281
 30
0.0
  0
VERTEX
  8
AREAS
 10
34.282
 20
91.282
 30
0.0
  0
VERTEX
  8
AREAS
 10
34.27
 20
91.278
 30
0.0
  0
VERTEX
  8
AREAS
 10
34.256
 20
91.269
 30
0.0
  0
VERTEX
  8
AREAS
 10
34.252
 20
91.264
 30
0.0
  0
VERTEX
  8
AREAS
 10
34.252
 20
91.256
 30
0.0
  0
VERTEX
  8
AREAS
 10
34.249
 20
91.249
 30
0.0
  0
VERTEX
  8
AREAS
 10
34.244
 20
91.242
 30
0.0
  0
VERTEX
  8
AREAS
 10
34.246
 20
91.227
 30
0.0
  0
SEQEND
  8
AREAS
  0
POLYLINE
  8
AREAS
 66
     1
 10
0.0
 20
0.0
 30
0.0
 70
     1
  0
VERTEX
  8
AREAS
 10
34.377
 20
91.945
 30
0.0
  0
VERTEX
  8
AREAS
 10
34.424
 20
91.967
 30
0.0
  0
VERTEX
  8
AREAS
 10
34.429
 20
91.95
 30
0.0
  0
VERTEX
  8
AREAS
 10
34.43
 20
91.932
 30
0.0
  0
VERTEX
  8
AREAS
 10
34.424
 20
91.916
 30
0.0
  0
VERTEX
  8
AREAS
 10
34.409
 20
91.905
 30
0.0
  0
VERTEX
  8
AREAS
 10
34.388
 20
91.9
 30
0.0
  0
SEQEND
  8
AREAS
  0
POLYLINE
  8
AREAS
 66
     1
 10
0.0
 20
0.0
 30
0.0
 70
     1
  0
VERTEX
  8
AREAS
 10
34.318
 20
91.731
 30
0.0
  0
VERTEX
  8
AREAS
 10
34.373
 20
91.776
 30
0.0
  0
VERTEX
  8
AREAS
 10
34.351
 20
91.792
 30
0.0
  0
VERTEX
  8
AREAS
 10
34.321
 20
91.783
 30
0.0
  0
VERTEX
  8
AREAS
 10
34.306
 20
91.767
 30
0.0
  0
VERTEX
  8
AREAS
 10
34.3
 20
91.756
 30
0.0
  0
SEQEND
  8
AREAS
  0
POLYLINE
  8
AREAS
 66
     1
 10
0.0
 20
0.0
 30
0.0
 70
     1
  0
VERTEX
  8
AREAS
 10
34.173
 20
91.835
 30
0.0
  0
VERTEX
  8
AREAS
 10
34.214
 20
91.839
 30
0.0
  0
VERTEX
  8
AREAS
 10
34.218
 20
91.777
 30
0.0
  0
VERTEX
  8
AREAS
 10
34.168
 20
91.792
 30
0.0
  0
VERTEX
  8
AREAS
 10
34.153
 20
91.805
 30
0.0
  0
SEQEND
  8
AREAS
  0
POLYLINE
  8
AREAS
 66
     1
 10
0.0
 20
0.0
 30
0.0
 70
     1
  0
VERTEX
  8
AREAS
 10
33.491
 20
92.377
 30
0.0
  0
VERTEX
  8
AREAS
 10
33.521
 20
92.355
 30
0.0
  0
VERTEX
  8
AREAS
 10
33.51
 20
92.336
 30
0.0
  0
VERTEX
  8
AREAS
 10
33.516
 20
92.314
 30
0.0
  0
VERTEX
  8
AREAS
 10
33.515
 20
92.283
 30
0.0
  0
VERTEX
  8
AREAS
 10
33.503
 20
92.259
 30
0.0
  0
VERTEX
  8
AREAS
 10
33.487
 20
92.249
 30
0.0
  0
VERTEX
  8
AREAS
 10
33.478
 20
92.252
 30
0.0
  0
VERTEX
  8
AREAS
 10
33.47
 20
92.256
 30
0.0
  0
VERTEX
  8
AREAS
 10
33.47
 20
92.267
 30
0.0
  0
VERTEX
  8
AREAS
 10
33.478
 20
92.287
 30
0.0
  0
VERTEX
  8
AREAS
 10
33.474
 20
92.308
 30
0.0
  0
VERTEX
  8
AREAS
 10
33.466
 20
92.32
 30
0.0
  0
VERTEX
  8
AREAS
 10
33.468
 20
92.341
 30
0.0
  0
SEQEND
  8
AREAS
  0
POLYLINE
  8
AREAS
 66
     1
 10
0.0
 20
0.0
 30
0.0
 70
     1
  0
VERTEX
  8
AREAS
 10
33.332
 20
92.347
 30
0.0
  0
VERTEX
  8
AREAS
 10
33.35
 20
92.329
 30
0.0
  0
VERTEX
  8
AREAS
 10
33.343
 20
92.303
 30
0.0
  0
VERTEX
  8
AREAS
 10
33.313
 20
92.29
 30
0.0
  0
VERTEX
  8
AREAS
 10
33.294
 20
92.295
 30
0.0
  0
VERTEX
  8
AREAS
 10
33.282
 20
92.301
 30
0.0
  0
VERTEX
  8
AREAS
 10
33.282
 20
92.312
 30
0.0
  0
VERTEX
  8
AREAS
 10
33.288
 20
92.318
 30
0.0
  0
VERTEX
  8
AREAS
 10
33.291
 20
92.321
 30
0.0
  0
VERTEX
  8
AREAS
 10
33.296
 20
92.323
 30
0.0
  0
VERTEX
  8
AREAS
 10
33.3
 20
92.323
 30
0.0
  0
VERTEX
  8
AREAS
 10
33.304
 20
92.323
 30
0.0
  0
VERTEX
  8
AREAS
 10
33.31
 20
92.326
 30
0.0
  0
VERTEX
  8
AREAS
 10
33.312
 20
92.328
 30
0.0
  0
VERTEX
  8
AREAS
 10
33.316
 20
92.331
 30
0.0
  0
VERTEX
  8
AREAS
 10
33.319
 20
92.333
 30
0.0
  0
VERTEX
  8
AREAS
 10
33.327
 20
92.339
 30
0.0
  0
SEQEND
  8
AREAS
  0
POLYLINE
  8
AREAS
 66
     1
 10
0.0
 20
0.0
 30
0.0
 70
     1
  0
VERTEX
  8
AREAS
 10
33.363
 20
92.166
 30
0.0
  0
VERTEX
  8
AREAS
 10
33.394
 20
92.206
 30
0.0
  0
VERTEX
  8
AREAS
 10
33.417
 20
92.195
 30
0.0
  0
VERTEX
  8
AREAS
 10
33.419
 20
92.184
 30
0.0
  0
VERTEX
  8
AREAS
 10
33.417
 20
92.174
 30
0.0
  0
VERTEX
  8
AREAS
 10
33.411
 20
92.167
 30
0.0
  0
VERTEX
  8
AREAS
 10
33.407
 20
92.163
 30
0.0
  0
VERTEX
  8
AREAS
 10
33.404
 20
92.16
 30
0.0
  0
VERTEX
  8
AREAS
 10
33.398
 20
92.157
 30
0.0
  0
VERTEX
  8
AREAS
 10
33.391
 20
92.154
 30
0.0
  0
VERTEX
  8
AREAS
 10
33.387
 20
92.154
 30
0.0
  0
VERTEX
  8
AREAS
 10
33.381
 20
92.153
 30
0.0
  0
VERTEX
  8
AREAS
 10
33.375
 20
92.153
 30
0.0
  0
VERTEX
  8
AREAS
 10
33.371
 20
92.157
 30
0.0
  0
VERTEX
  8
AREAS
 10
33.367
 20
92.16
 30
0.0
  0
SEQEND
  8
AREAS
  0
POLYLINE
  8
AREAS
 66
     1
 10
0.0
 20
0.0
 30
0.0
 70
     1
  0
VERTEX
  8
AREAS
 10
33.55
 20
92.204
 30
0.0
  0
VERTEX
  8
AREAS
 10
33.556
 20
92.223
 30
0.0
  0
VERTEX
  8
AREAS
 10
33.569
 20
92.235
 30
0.0
  0
VERTEX
  8
AREAS
 10
33.58
 20
92.24
 30
0.0
  0
VERTEX
  8
AREAS
 10
33.59
 20
92.241
 30
0.0
  0
VERTEX
  8
AREAS
 10
33.596
 20
92.239
 30
0.0
  0
VERTEX
  8
AREAS
 10
33.609
 20
92.232
 30
0.0
  0
VERTEX
  8
AREAS
 10
33.621
 20
92.228
 30
0.0
  0
VERTEX
  8
AREAS
 10
33.629
 20
92.221
 30
0.0
  0
VERTEX
  8
AREAS
 10
33.634
 20
92.207
 30
0.0
  0
VERTEX
  8
AREAS
 10
33.62
 20
92.197
 30
0.0
  0
VERTEX
  8
AREAS
 10
33.582
 20
92.192
 30
0.0
  0
VERTEX
  8
AREAS
 10
33.567
 20
92.192
 30
0.0
  0
SEQEND
  8
AREAS
  0
POLYLINE
  8
AREAS
 66
     1
 10
0.0
 20
0.0
 30
0.0
 70
     1
  0
VERTEX
  8
AREAS
 10
33.666
 20
92.207
 30
0.0
  0
VERTEX
  8
AREAS
 10
33.679
 20
92.234
 30
0.0
  0
VERTEX
  8
AREAS
 10
33.692
 20
92.245
 30
0.0
  0
VERTEX
  8
AREAS
 10
33.72
 20
92.245
 30
0.0
  0
VERTEX
  8
AREAS
 10
33.73
 20
92.24
 30
0.0
  0
VERTEX
  8
AREAS
 10
33.762
 20
92.238
 30
0.0
  0
VERTEX
  8
AREAS
 10
33.777
 20
92.221
 30
0.0
  0
VERTEX
  8
AREAS
 10
33.779
 20
92.2
 30
0.0
  0
VERTEX
  8
AREAS
 10
33.77
 20
92.185
 30
0.0
  0
VERTEX
  8
AREAS
 10
33.756
 20
92.178
 30
0.0
  0
VERTEX
  8
AREAS
 10
33.736
 20
92.197
 30
0.0
  0
VERTEX
  8
AREAS
 10
33.72
 20
92.2
 30
0.0
  0
VERTEX
  8
AREAS
 10
33.717
 20
92.203
 30
0.0
  0
VERTEX
  8
AREAS
 10
33.695
 20
92.198
 30
0.0
  0
VERTEX
  8
AREAS
 10
33.686
 20
92.184
 30
0.0
  0
SEQEND
  8
AREAS
  0
POLYLINE
  8
AREAS
 66
     1
 10
0.0
 20
0.0
 30
0.0
 70
     1
  0
VERTEX
  8
AREAS
 10
33.745
 20
92.147
 30
0.0
  0
VERTEX
  8
AREAS
 10
33.796
 20
92.112
 30
0.0
  0
VERTEX
  8
AREAS
 10
33.757
 20
92.073
 30
0.0
  0
VERTEX
  8
AREAS
 10
33.733
 20
92.075
 30
0.0
  0
VERTEX
  8
AREAS
 10
33.722
 20
92.076
 30
0.0
  0
VERTEX
  8
AREAS
 10
33.714
 20
92.084
 30
0.0
  0
VERTEX
  8
AREAS
 10
33.715
 20
92.1
 30
0.0
  0
VERTEX
  8
AREAS
 10
33.724
 20
92.12
 30
0.0
  0
SEQEND
  8
AREAS
  0
POLYLINE
  8
AREAS
 66
     1
 10
0.0
 20
0.0
 30
0.0
 70
     1
  0
VERTEX
  8
AREAS
 10
33.901
 20
92.192
 30
0.0
  0
VERTEX
  8
AREAS
 10
33.931
 20
92.183
 30
0.0
  0
VERTEX
  8
AREAS
 10
33.937
 20
92.171
 30
0.0
  0
VERTEX
  8
AREAS
 10
33.935
 20
92.129
 30
0.0
  0
VERTEX
  8
AREAS
 10
33.931
 20
92.115
 30
0.0
  0
VERTEX
  8
AREAS
 10
33.886
 20
92.121
 30
0.0
  0
SEQEND
  8
AREAS
  0
POLYLINE
  8
AREAS
 66
     1
 10
0.0
 20
0.0
 30
0.0
 70
     1
  0
VERTEX
  8
AREAS
 10
33.568
 20
92.108
 30
0.0
  0
VERTEX
  8
AREAS
 10
33.613
 20
92.13
 30
0.0
  0
VERTEX
  8
AREAS
 10
33.627
 20
92.092
 30
0.0
  0
VERTEX
  8
AREAS
 10
33.657
 20
92.075
 30
0.0
  0
VERTEX
  8
AREAS
 10
33.644
 20
92.064
 30
0.0
  0
VERTEX
  8
AREAS
 10
33.639
 20
92.054
 30
0.0
  0
VERTEX
  8
AREAS
 10
33.625
 20
92.044
 30
0.0
  0
VERTEX
  8
AREAS
 10
33.613
 20
92.041
 30
0.0
  0
VERTEX
  8
AREAS
 10
33.6
 20
92.044
 30
0.0
  0
VERTEX
  8
AREAS
 10
33.591
 20
92.053
 30
0.0
  0
VERTEX
  8
AREAS
 10
33.586
 20
92.076
 30
0.0
  0
VERTEX
  8
AREAS
 10
33.579
 20
92.091
 30
0.0
  0
SEQEND
  8
AREAS
  0
POLYLINE
  8
AREAS
 66
     1
 10
0.0
 20
0.0
 30
0.0
 70
     1
  0
VERTEX
  8
AREAS
 10
33.711
 20
91.878
 30
0.0
  0
VERTEX
  8
AREAS
 10
33.758
 20
91.891
 30
0.0
  0
VERTEX
  8
AREAS
 10
33.756
 20
91.877
 30
0.0
  0
VERTEX
  8
AREAS
 10
33.761
 20
91.866
 30
0.0
  0
VERTEX
  8
AREAS
 10
33.766
 20
91.852
 30
0.0
  0
VERTEX
  8
AREAS
 10
33.762
 20
91.84
 30
0.0
  0
VERTEX
  8
AREAS
 10
33.753
 20
91.829
 30
0.0
  0
VERTEX
  8
AREAS
 10
33.747
 20
91.83
 30
0.0
  0
VERTEX
  8
AREAS
 10
33.724
 20
91.853
 30
0.0
  0
SEQEND
  8
AREAS
  0
POLYLINE
  8
AREAS
 66
     1
 10
0.0
 20
0.0
 30
0.0
 70
     1
  0
VERTEX
  8
AREAS
 10
33.888
 20
91.739
 30
0.0
  0
VERTEX
  8
AREAS
 10
33.9
 20
91.762
 30
0.0
  0
VERTEX
  8
AREAS
 10
33.909
 20
91.773
 30
0.0
  0
VERTEX
  8
AREAS
 10
33.929
 20
91.776
 30
0.0
  0
VERTEX
  8
AREAS
 10
33.94
 20
91.757
 30
0.0
  0
VERTEX
  8
AREAS
 10
33.932
 20
91.729
 30
0.0
  0
VERTEX
  8
AREAS
 10
33.923
 20
91.706
 30
0.0
  0
VERTEX
  8
AREAS
 10
33.918
 20
91.697
 30
0.0
  0
VERTEX
  8
AREAS
 10
33.914
 20
91.682
 30
0.0
  0
VERTEX
  8
AREAS
 10
33.909
 20
91.672
 30
0.0
  0
VERTEX
  8
AREAS
 10
33.899
 20
91.642
 30
0.0
  0
VERTEX
  8
AREAS
 10
33.881
 20
91.635
 30
0.0
  0
VERTEX
  8
AREAS
 10
33.868
 20
91.652
 30
0.0
  0
VERTEX
  8
AREAS
 10
33.868
 20
91.674
 30
0.0
  0
VERTEX
  8
AREAS
 10
33.881
 20
91.699
 30
0.0
  0
VERTEX
  8
AREAS
 10
33.886
 20
91.724
 30
0.0
  0
SEQEND
  8
AREAS
  0
POLYLINE
  8
AREAS
 66
     1
 10
0.0
 20
0.0
 30
0.0
 70
     1
  0
VERTEX
  8
AREAS
 10
33.643
 20
91.714
 30
0.0
  0
VERTEX
  8
AREAS
 10
33.652
 20
91.716
 30
0.0
  0
VERTEX
  8
AREAS
 10
33.682
 20
91.714
 30
0.0
  0
VERTEX
  8
AREAS
 10
33.687
 20
91.684
 30
0.0
  0
VERTEX
  8
AREAS
 10
33.689
 20
91.668
 30
0.0
  0
VERTEX
  8
AREAS
 10
33.684
 20
91.664
 30
0.0
  0
VERTEX
  8
AREAS
 10
33.673
 20
91.661
 30
0.0
  0
VERTEX
  8
AREAS
 10
33.665
 20
91.655
 30
0.0
  0
VERTEX
  8
AREAS
 10
33.662
 20
91.648
 30
0.0
  0
VERTEX
  8
AREAS
 10
33.665
 20
91.638
 30
0.0
  0
VERTEX
  8
AREAS
 10
33.67
 20
91.623
 30
0.0
  0
VERTEX
  8
AREAS
 10
33.664
 20
91.603
 30
0.0
  0
VERTEX
  8
AREAS
 10
33.643
 20
91.586
 30
0.0
  0
VERTEX
  8
AREAS
 10
33.616
 20
91.575
 30
0.0
  0
VERTEX
  8
AREAS
 10
33.606
 20
91.573
 30
0.0
  0
VERTEX
  8
AREAS
 10
33.6
 20
91.578
 30
0.0
  0
VERTEX
  8
AREAS
 10
33.616
 20
91.622
 30
0.0
  0
VERTEX
  8
AREAS
 10
33.645
 20
91.638
 30
0.0
  0
VERTEX
  8
AREAS
 10
33.639
 20
91.645
 30
0.0
  0
SEQEND
  8
AREAS
  0
POLYLINE
  8
AREAS
 66
     1
 10
0.0
 20
0.0
 30
0.0
 70
     1
  0
VERTEX
  8
AREAS
 10
33.744
 20
91.611
 30
0.0
  0
VERTEX
  8
AREAS
 10
33.758
 20
91.617
 30
0.0
  0
VERTEX
  8
AREAS
 10
33.789
 20
91.618
 30
0.0
  0
VERTEX
  8
AREAS
 10
33.794
 20
91.599
 30
0.0
  0
VERTEX
  8
AREAS
 10
33.776
 20
91.592
 30
0.0
  0
VERTEX
  8
AREAS
 10
33.761
 20
91.575
 30
0.0
  0
VERTEX
  8
AREAS
 10
33.748
 20
91.57
 30
0.0
  0
VERTEX
  8
AREAS
 10
33.734
 20
91.576
 30
0.0
  0
VERTEX
  8
AREAS
 10
33.734
 20
91.59
 30
0.0
  0
SEQEND
  8
AREAS
  0
POLYLINE
  8
AREAS
 66
     1
 10
0.0
 20
0.0
 30
0.0
 70
     1
  0
VERTEX
  8
AREAS
 10
33.957
 20
92.082
 30
0.0
  0
VERTEX
  8
AREAS
 10
34.013
 20
92.108
 30
0.0
  0
VERTEX
  8
AREAS
 10
34.038
 20
92.095
 30
0.0
  0
VERTEX
  8
AREAS
 10
34.027
 20
92.085
 30
0.0
  0
VERTEX
  8
AREAS
 10
33.992
 20
92.067
 30
0.0
  0
VERTEX
  8
AREAS
 10
33.98
 20
92.063
 30
0.0
  0
VERTEX
  8
AREAS
 10
33.972
 20
92.063
 30
0.0
  0
SEQEND
  8
AREAS
  0
POLYLINE
  8
AREAS
 66
     1
 10
0.0
 20
0.0
 30
0.0
 70
     1
  0
VERTEX
  8
AREAS
 10
34.006
 20
91.932
 30
0.0
  0
VERTEX
  8
AREAS
 10
34.013
 20
91.941
 30
0.0
  0
VERTEX
  8
AREAS
 10
34.015
 20
91.947
 30
0.0
  0
VERTEX
  8
AREAS
 10
34.027
 20
91.956
 30
0.0
  0
VERTEX
  8
AREAS
 10
34.039
 20
91.961
 30
0.0
  0
VERTEX
  8
AREAS
 10
34.046
 20
91.96
 30
0.0
  0
VERTEX
  8
AREAS
 10
34.054
 20
91.954
 30
0.0
  0
VERTEX
  8
AREAS
 10
34.054
 20
91.945
 30
0.0
  0
VERTEX
  8
AREAS
 10
34.051
 20
91.937
 30
0.0
  0
VERTEX
  8
AREAS
 10
34.049
 20
91.928
 30
0.0
  0
VERTEX
  8
AREAS
 10
34.04
 20
91.918
 30
0.0
  0
SEQEND
  8
AREAS
  0
POLYLINE
  8
AREAS
 66
     1
 10
0.0
 20
0.0
 30
0.0
 70
     1
  0
VERTEX
  8
AREAS
 10
33.419
 20
91.757
 30
0.0
  0
VERTEX
  8
AREAS
 10
33.449
 20
91.779
 30
0.0
  0
VERTEX
  8
AREAS
 10
33.462
 20
91.773
 30
0.0
  0
VERTEX
  8
AREAS
 10
33.461
 20
91.765
 30
0.0
  0
VERTEX
  8
AREAS
 10
33.451
 20
91.741
 30
0.0
  0
VERTEX
  8
AREAS
 10
33.434
 20
91.728
 30
0.0
  0
VERTEX
  8
AREAS
 10
33.427
 20
91.728
 30
0.0
  0
VERTEX
  8
AREAS
 10
33.418
 20
91.735
 30
0.0
  0
VERTEX
  8
AREAS
 10
33.419
 20
91.748
 30
0.0
  0
SEQEND
  8
AREAS
  0
POLYLINE
  8
AREAS
 66
     1
 10
0.0
 20
0.0
 30
0.0
 70
     1
  0
VERTEX
  8
AREAS
 10
33.496
 20
91.763
 30
0.0
  0
VERTEX
  8
AREAS
 10
33.494
 20
91.784
 30
0.0
  0
VERTEX
  8
AREAS
 10
33.511
 20
91.798
 30
0.0
  0
VERTEX
  8
AREAS
 10
33.526
 20
91.798
 30
0.0
  0
VERTEX
  8
AREAS
 10
33.537
 20
91.793
 30
0.0
  0
VERTEX
  8
AREAS
 10
33.54
 20
91.786
 30
0.0
  0
VERTEX
  8
AREAS
 10
33.536
 20
91.761
 30
0.0
  0
VERTEX
  8
AREAS
 10
33.542
 20
91.754
 30
0.0
  0
VERTEX
  8
AREAS
 10
33.549
 20
91.739
 30
0.0
  0
VERTEX
  8
AREAS
 10
33.543
 20
91.716
 30
0.0
  0
VERTEX
  8
AREAS
 10
33.526
 20
91.702
 30
0.0
  0
VERTEX
  8
AREAS
 10
33.481
 20
91.708
 30
0.0
  0
VERTEX
  8
AREAS
 10
33.472
 20
91.715
 30
0.0
  0
VERTEX
  8
AREAS
 10
33.48
 20
91.734
 30
0.0
  0
VERTEX
  8
AREAS
 10
33.486
 20
91.741
 30
0.0
  0
SEQEND
  8
AREAS
  0
POLYLINE
  8
AREAS
 66
     1
 10
0.0
 20
0.0
 30
0.0
 70
     1
  0
VERTEX
  8
AREAS
 10
33.316
 20
92.028
 30
0.0
  0
VERTEX
  8
AREAS
 10
33.326
 20
92.032
 30
0.0
  0
VERTEX
  8
AREAS
 10
33.334
 20
92.024
 30
0.0
  0
VERTEX
  8
AREAS
 10
33.34
 20
92.014
 30
0.0
  0
VERTEX
  8
AREAS
 10
33.364
 20
91.993
 30
0.0
  0
VERTEX
  8
AREAS
 10
33.374
 20
91.992
 30
0.0
  0
VERTEX
  8
AREAS
 10
33.379
 20
91.995
 30
0.0
  0
VERTEX
  8
AREAS
 10
33.383
 20
91.941
 30
0.0
  0
VERTEX
  8
AREAS
 10
33.36
 20
91.941
 30
0.0
  0
VERTEX
  8
AREAS
 10
33.348
 20
91.943
 30
0.0
  0
VERTEX
  8
AREAS
 10
33.33
 20
91.97
 30
0.0
  0
VERTEX
  8
AREAS
 10
33.327
 20
91.971
 30
0.0
  0
VERTEX
  8
AREAS
 10
33.314
 20
91.992
 30
0.0
  0
VERTEX
  8
AREAS
 10
33.314
 20
91.998
 30
0.0
  0
VERTEX
  8
AREAS
 10
33.309
 20
92.008
 30
0.0
  0
VERTEX
  8
AREAS
 10
33.31
 20
92.02
 30
0.0
  0
SEQEND
  8
AREAS
  0
POLYLINE
  8
AREAS
 66
     1
 10
0.0
 20
0.0
 30
0.0
 70
     1
  0
VERTEX
  8
AREAS
 10
33.35
 20
91.542
 30
0.0
  0
VERTEX
  8
AREAS
 10
33.362
 20
91.523
 30
0.0
  0
VERTEX
  8
AREAS
 10
33.362
 20
91.5
 30
0.0
  0
VERTEX
  8
AREAS
 10
33.351
 20
91.475
 30
0.0
  0
VERTEX
  8
AREAS
 10
33.345
 20
91.467
 30
0.0
  0
VERTEX
  8
AREAS
 10
33.331
 20
91.465
 30
0.0
  0
VERTEX
  8
AREAS
 10
33.33
 20
91.496
 30
0.0
  0
SEQEND
  8
AREAS
  0
POLYLINE
  8
AREAS
 66
     1
 10
0.0
 20
0.0
 30
0.0
 70
     1
  0
VERTEX
  8
AREAS
 10
33.401
 20
91.53
 30
0.0
  0
VERTEX
  8
AREAS
 10
33.438
 20
91.538
 30
0.0
  0
VERTEX
  8
AREAS
 10
33.437
 20
91.515
 30
0.0
  0
VERTEX
  8
AREAS
 10
33.431
 20
91.5
 30
0.0
  0
VERTEX
  8
AREAS
 10
33.404
 20
91.47
 30
0.0
  0
VERTEX
  8
AREAS
 10
33.38
 20
91.472
 30
0.0
  0
VERTEX
  8
AREAS
 10
33.375
 20
91.487
 30
0.0
  0
VERTEX
  8
AREAS
 10
33.388
 20
91.507
 30
0.0
  0
VERTEX
  8
AREAS
 10
33.401
 20
91.523
 30
0.0
  0
SEQEND
  8
AREAS
  0
POLYLINE
  8
AREAS
 66
     1
 10
0.0
 20
0.0
 30
0.0
 70
     1
  0
VERTEX
  8
AREAS
 10
33.045
 20
91.416
 30
0.0
  0
VERTEX
  8
AREAS
 10
33.104
 20
91.468
 30
0.0
  0
VERTEX
  8
AREAS
 10
33.12
 20
91.48
 30
0.0
  0
VERTEX
  8
AREAS
 10
33.139
 20
91.485
 30
0.0
  0
VERTEX
  8
AREAS
 10
33.143
 20
91.461
 30
0.0
  0
VERTEX
  8
AREAS
 10
33.15
 20
91.45
 30
0.0
  0
VERTEX
  8
AREAS
 10
33.154
 20
91.434
 30
0.0
  0
VERTEX
  8
AREAS
 10
33.16
 20
91.427
 30
0.0
  0
VERTEX
  8
AREAS
 10
33.146
 20
91.4
 30
0.0
  0
VERTEX
  8
AREAS
 10
33.082
 20
91.369
 30
0.0
  0
SEQEND
  8
AREAS
  0
POLYLINE
  8
AREAS
 66
     1
 10
0.0
 20
0.0
 30
0.0
 70
     1
  0
VERTEX
  8
AREAS
 10
33.084
 20
91.326
 30
0.0
  0
VERTEX
  8
AREAS
 10
33.148
 20
91.357
 30
0.0
  0
VERTEX
  8
AREAS
 10
33.183
 20
91.35
 30
0.0
  0
VERTEX
  8
AREAS
 10
33.19
 20
91.337
 30
0.0
  0
VERTEX
  8
AREAS
 10
33.188
 20
91.324
 30
0.0
  0
VERTEX
  8
AREAS
 10
33.172
 20
91.299
 30
0.0
  0
VERTEX
  8
AREAS
 10
33.148
 20
91.283
 30
0.0
  0
VERTEX
  8
AREAS
 10
33.118
 20
91.27
 30
0.0
  0
VERTEX
  8
AREAS
 10
33.098
 20
91.27
 30
0.0
  0
SEQEND
  8
AREAS
  0
POLYLINE
  8
AREAS
 66
     1
 10
0.0
 20
0.0
 30
0.0
 70
     1
  0
VERTEX
  8
AREAS
 10
33.378
 20
91.191
 30
0.0
  0
VERTEX
  8
AREAS
 10
33.391
 20
91.174
 30
0.0
  0
VERTEX
  8
AREAS
 10
33.384
 20
91.153
 30
0.0
  0
VERTEX
  8
AREAS
 10
33.376
 20
91.136
 30
0.0
  0
VERTEX
  8
AREAS
 10
33.369
 20
91.124
 30
0.0
  0
VERTEX
  8
AREAS
 10
33.361
 20
91.114
 30
0.0
  0
VERTEX
  8
AREAS
 10
33.353
 20
91.107
 30
0.0
  0
VERTEX
  8
AREAS
 10
33.347
 20
91.104
 30
0.0
  0
VERTEX
  8
AREAS
 10
33.338
 20
91.104
 30
0.0
  0
VERTEX
  8
AREAS
 10
33.334
 20
91.113
 30
0.0
  0
VERTEX
  8
AREAS
 10
33.333
 20
91.135
 30
0.0
  0
VERTEX
  8
AREAS
 10
33.352
 20
91.163
 30
0.0
  0
VERTEX
  8
AREAS
 10
33.371
 20
91.182
 30
0.0
  0
SEQEND
  8
AREAS
  0
POLYLINE
  8
AREAS
 66
     1
 10
0.0
 20
0.0
 30
0.0
 70
     1
  0
VERTEX
  8
AREAS
 10
33.449
 20
91.021
 30
0.0
  0
VERTEX
  8
AREAS
 10
33.456
 20
91.032
 30
0.0
  0
VERTEX
  8
AREAS
 10
33.472
 20
91.037
 30
0.0
  0
VERTEX
  8
AREAS
 10
33.509
 20
91.032
 30
0.0
  0
VERTEX
  8
AREAS
 10
33.515
 20
91.021
 30
0.0
  0
VERTEX
  8
AREAS
 10
33.505
 20
91.001
 30
0.0
  0
VERTEX
  8
AREAS
 10
33.494
 20
90.997
 30
0.0
  0
VERTEX
  8
AREAS
 10
33.477
 20
90.997
 30
0.0
  0
VERTEX
  8
AREAS
 10
33.455
 20
91.003
 30
0.0
  0
VERTEX
  8
AREAS
 10
33.449
 20
91.01
 30
0.0
  0
SEQEND
  8
AREAS
  0
POLYLINE
  8
AREAS
 66
     1
 10
0.0
 20
0.0
 30
0.0
 70
     1
  0
VERTEX
  8
AREAS
 10
33.68
 20
91.025
 30
0.0
  0
VERTEX
  8
AREAS
 10
33.711
 20
91.032
 30
0.0
  0
VERTEX
  8
AREAS
 10
33.72
 20
91.028
 30
0.0
  0
VERTEX
  8
AREAS
 10
33.726
 20
91.022
 30
0.0
  0
VERTEX
  8
AREAS
 10
33.728
 20
91.018
 30
0.0
  0
VERTEX
  8
AREAS
 10
33.728
 20
91.012
 30
0.0
  0
VERTEX
  8
AREAS
 10
33.727
 20
91.008
 30
0.0
  0
VERTEX
  8
AREAS
 10
33.723
 20
90.999
 30
0.0
  0
VERTEX
  8
AREAS
 10
33.694
 20
91.0
 30
0.0
  0
VERTEX
  8
AREAS
 10
33.681
 20
91.015
 30
0.0
  0
SEQEND
  8
AREAS
  0
POLYLINE
  8
AREAS
 66
     1
 10
0.0
 20
0.0
 30
0.0
 70
     1
  0
VERTEX
  8
AREAS
 10
33.04
 20
91.842
 30
0.0
  0
VERTEX
  8
AREAS
 10
33.08
 20
91.869
 30
0.0
  0
VERTEX
  8
AREAS
 10
33.104
 20
91.861
 30
0.0
  0
VERTEX
  8
AREAS
 10
33.118
 20
91.847
 30
0.0
  0
VERTEX
  8
AREAS
 10
33.124
 20
91.81
 30
0.0
  0
VERTEX
  8
AREAS
 10
33.114
 20
91.8
 30
0.0
  0
VERTEX
  8
AREAS
 10
33.075
 20
91.781
 30
0.0
  0
VERTEX
  8
AREAS
 10
33.061
 20
91.783
 30
0.0
  0
VERTEX
  8
AREAS
 10
33.049
 20
91.788
 30
0.0
  0
VERTEX
  8
AREAS
 10
33.037
 20
91.798
 30
0.0
  0
SEQEND
  8
AREAS
  0
POLYLINE
  8
AREAS
 66
     1
 10
0.0
 20
0.0
 30
0.0
 70
     1
  0
VERTEX
  8
AREAS
 10
34.168
 20
90.795
 30
0.0
  0
VERTEX
  8
AREAS
 10
34.172
 20
90.832
 30
0.0
  0
VERTEX
  8
AREAS
 10
34.195
 20
90.832
 30
0.0
  0
VERTEX
  8
AREAS
 10
34.21
 20
90.83
 30
0.0
  0
VERTEX
  8
AREAS
 10
34.224
 20
90.825
 30
0.0
  0
VERTEX
  8
AREAS
 10
34.235
 20
90.8
 30
0.0
  0
VERTEX
  8
AREAS
 10
34.229
 20
90.796
 30
0.0
  0
VERTEX
  8
AREAS
 10
34.217
 20
90.792
 30
0.0
  0
VERTEX
  8
AREAS
 10
34.202
 20
90.791
 30
0.0
  0
VERTEX
  8
AREAS
 10
34.191
 20
90.791
 30
0.0
  0
VERTEX
  8
AREAS
 10
34.179
 20
90.794
 30
0.0
  0
SEQEND
  8
AREAS
  0
POLYLINE
  8
AREAS
 66
     1
 10
0.0
 20
0.0
 30
0.0
 70
     1
  0
VERTEX
  8
AREAS
 10
34.251
 20
90.757
 30
0.0
  0
VERTEX
  8
AREAS
 10
34.259
 20
90.768
 30
0.0
  0
VERTEX
  8
AREAS
 10
34.306
 20
90.795
 30
0.0
  0
VERTEX
  8
AREAS
 10
34.309
 20
90.772
 30
0.0
  0
VERTEX
  8
AREAS
 10
34.305
 20
90.755
 30
0.0
  0
VERTEX
  8
AREAS
 10
34.3
 20
90.748
 30
0.0
  0
VERTEX
  8
AREAS
 10
34.288
 20
90.746
 30
0.0
  0
VERTEX
  8
AREAS
 10
34.267
 20
90.746
 30
0.0
  0
VERTEX
  8
AREAS
 10
34.262
 20
90.747
 30
0.0
  0
SEQEND
  8
AREAS
  0
POLYLINE
  8
AREAS
 66
     1
 10
0.0
 20
0.0
 30
0.0
 70
     1
  0
VERTEX
  8
AREAS
 10
34.337
 20
90.806
 30
0.0
  0
VERTEX
  8
AREAS
 10
34.371
 20
90.801
 30
0.0
  0
VERTEX
  8
AREAS
 10
34.412
 20
90.769
 30
0.0
  0
VERTEX
  8
AREAS
 10
34.415
 20
90.762
 30
0.0
  0
VERTEX
  8
AREAS
 10
34.414
 20
90.753
 30
0.0
  0
VERTEX
  8
AREAS
 10
34.409
 20
90.746
 30
0.0
  0
VERTEX
  8
AREAS
 10
34.389
 20
90.737
 30
0.0
  0
VERTEX
  8
AREAS
 10
34.367
 20
90.753
 30
0.0
  0
VERTEX
  8
AREAS
 10
34.356
 20
90.757
 30
0.0
  0
VERTEX
  8
AREAS
 10
34.339
 20
90.772
 30
0.0
  0
VERTEX
  8
AREAS
 10
34.333
 20
90.786
 30
0.0
  0
SEQEND
  8
AREAS
  0
POLYLINE
  8
AREAS
 66
     1
 10
0.0
 20
0.0
 30
0.0
 70
     1
  0
VERTEX
  8
AREAS
 10
33.564
 20
90.697
 30
0.0
  0
VERTEX
  8
AREAS
 10
33.598
 20
90.697
 30
0.0
  0
VERTEX
  8
AREAS
 10
33.602
 20
90.695
 30
0.0
  0
VERTEX
  8
AREAS
 10
33.624
 20
90.693
 30
0.0
  0
VERTEX
  8
AREAS
 10
33.594
 20
90.656
 30
0.0
  0
VERTEX
  8
AREAS
 10
33.54
 20
90.669
 30
0.0
  0
VERTEX
  8
AREAS
 10
33.552
 20
90.683
 30
0.0
  0
VERTEX
  8
AREAS
 10
33.559
 20
90.693
 30
0.0
  0
SEQEND
  8
AREAS
  0
POLYLINE
  8
AREAS
 66
     1
 10
0.0
 20
0.0
 30
0.0
 70
     1
  0
VERTEX
  8
AREAS
 10
33.55
 20
90.554
 30
0.0
  0
VERTEX
  8
AREAS
 10
33.564
 20
90.561
 30
0.0
  0
VERTEX
  8
AREAS
 10
33.602
 20
90.559
 30
0.0
  0
VERTEX
  8
AREAS
 10
33.599
 20
90.509
 30
0.0
  0
VERTEX
  8
AREAS
 10
33.584
 20
90.502
 30
0.0
  0
VERTEX
  8
AREAS
 10
33.567
 20
90.501
 30
0.0
  0
VERTEX
  8
AREAS
 10
33.548
 20
90.507
 30
0.0
  0
VERTEX
  8
AREAS
 10
33.539
 20
90.516
 30
0.0
  0
VERTEX
  8
AREAS
 10
33.54
 20
90.529
 30
0.0
  0
SEQEND
  8
AREAS
  0
POLYLINE
  8
AREAS
 66
     1
 10
0.0
 20
0.0
 30
0.0
 70
     1
  0
VERTEX
  8
AREAS
 10
33.762
 20
90.58
 30
0.0
  0
VERTEX
  8
AREAS
 10
33.796
 20
90.574
 30
0.0
  0
VERTEX
  8
AREAS
 10
33.795
 20
90.53
 30
0.0
  0
VERTEX
  8
AREAS
 10
33.777
 20
90.512
 30
0.0
  0
VERTEX
  8
AREAS
 10
33.766
 20
90.516
 30
0.0
  0
VERTEX
  8
AREAS
 10
33.754
 20
90.516
 30
0.0
  0
VERTEX
  8
AREAS
 10
33.745
 20
90.521
 30
0.0
  0
VERTEX
  8
AREAS
 10
33.742
 20
90.542
 30
0.0
  0
VERTEX
  8
AREAS
 10
33.75
 20
90.547
 30
0.0
  0
SEQEND
  8
AREAS
  0
POLYLINE
  8
AREAS
 66
     1
 10
0.0
 20
0.0
 30
0.0
 70
     1
  0
VERTEX
  8
AREAS
 10
33.676
 20
90.317
 30
0.0
  0
VERTEX
  8
AREAS
 10
33.683
 20
90.329
 30
0.0
  0
VERTEX
  8
AREAS
 10
33.693
 20
90.33
 30
0.0
  0
VERTEX
  8
AREAS
 10
33.706
 20
90.328
 30
0.0
  0
VERTEX
  8
AREAS
 10
33.727
 20
90.293
 30
0.0
  0
VERTEX
  8
AREAS
 10
33.709
 20
90.268
 30
0.0
  0
VERTEX
  8
AREAS
 10
33.689
 20
90.286
 30
0.0
  0
VERTEX
  8
AREAS
 10
33.68
 20
90.304
 30
0.0
  0
VERTEX
  8
AREAS
 10
33.678
 20
90.312
 30
0.0
  0
SEQEND
  8
AREAS
  0
POLYLINE
  8
AREAS
 66
     1
 10
0.0
 20
0.0
 30
0.0
 70
     1
  0
VERTEX
  8
AREAS
 10
33.593
 20
90.309
 30
0.0
  0
VERTEX
  8
AREAS
 10
33.628
 20
90.313
 30
0.0
  0
VERTEX
  8
AREAS
 10
33.639
 20
90.305
 30
0.0
  0
VERTEX
  8
AREAS
 10
33.645
 20
90.295
 30
0.0
  0
VERTEX
  8
AREAS
 10
33.65
 20
90.283
 30
0.0
  0
VERTEX
  8
AREAS
 10
33.647
 20
90.268
 30
0.0
  0
VERTEX
  8
AREAS
 10
33.629
 20
90.25
 30
0.0
  0
VERTEX
  8
AREAS
 10
33.59
 20
90.244
 30
0.0
  0
VERTEX
  8
AREAS
 10
33.583
 20
90.251
 30
0.0
  0
VERTEX
  8
AREAS
 10
33.577
 20
90.266
 30
0.0
  0
VERTEX
  8
AREAS
 10
33.576
 20
90.277
 30
0.0
  0
VERTEX
  8
AREAS
 10
33.578
 20
90.289
 30
0.0
  0
SEQEND
  8
AREAS
  0
POLYLINE
  8
AREAS
 66
     1
 10
0.0
 20
0.0
 30
0.0
 70
     1
  0
VERTEX
  8
AREAS
 10
31.686
 20
90.474
 30
0.0
  0
VERTEX
  8
AREAS
 10
31.743
 20
90.494
 30
0.0
  0
VERTEX
  8
AREAS
 10
31.751
 20
90.486
 30
0.0
  0
VERTEX
  8
AREAS
 10
31.75
 20
90.442
 30
0.0
  0
VERTEX
  8
AREAS
 10
31.743
 20
90.422
 30
0.0
  0
VERTEX
  8
AREAS
 10
31.722
 20
90.396
 30
0.0
  0
VERTEX
  8
AREAS
 10
31.701
 20
90.405
 30
0.0
  0
VERTEX
  8
AREAS
 10
31.693
 20
90.426
 30
0.0
  0
VERTEX
  8
AREAS
 10
31.691
 20
90.446
 30
0.0
  0
VERTEX
  8
AREAS
 10
31.69
 20
90.46
 30
0.0
  0
SEQEND
  8
AREAS
  0
POLYLINE
  8
AREAS
 66
     1
 10
0.0
 20
0.0
 30
0.0
 70
     1
  0
VERTEX
  8
AREAS
 10
31.519
 20
90.469
 30
0.0
  0
VERTEX
  8
AREAS
 10
31.546
 20
90.475
 30
0.0
  0
VERTEX
  8
AREAS
 10
31.568
 20
90.453
 30
0.0
  0
VERTEX
  8
AREAS
 10
31.553
 20
90.434
 30
0.0
  0
VERTEX
  8
AREAS
 10
31.527
 20
90.422
 30
0.0
  0
VERTEX
  8
AREAS
 10
31.511
 20
90.422
 30
0.0
  0
VERTEX
  8
AREAS
 10
31.503
 20
90.44
 30
0.0
  0
SEQEND
  8
AREAS
  0
POLYLINE
  8
AREAS
 66
     1
 10
0.0
 20
0.0
 30
0.0
 70
     1
  0
VERTEX
  8
AREAS
 10
31.715
 20
90.269
 30
0.0
  0
VERTEX
  8
AREAS
 10
31.749
 20
90.292
 30
0.0
  0
VERTEX
  8
AREAS
 10
31.758
 20
90.28
 30
0.0
  0
VERTEX
  8
AREAS
 10
31.744
 20
90.255
 30
0.0
  0
VERTEX
  8
AREAS
 10
31.738
 20
90.248
 30
0.0
  0
VERTEX
  8
AREAS
 10
31.728
 20
90.244
 30
0.0
  0
VERTEX
  8
AREAS
 10
31.719
 20
90.25
 30
0.0
  0
VERTEX
  8
AREAS
 10
31.716
 20
90.259
 30
0.0
  0
SEQEND
  8
AREAS
  0
POLYLINE
  8
AREAS
 66
     1
 10
0.0
 20
0.0
 30
0.0
 70
     1
  0
VERTEX
  8
AREAS
 10
32.097
 20
90.316
 30
0.0
  0
VERTEX
  8
AREAS
 10
32.131
 20
90.318
 30
0.0
  0
VERTEX
  8
AREAS
 10
32.125
 20
90.344
 30
0.0
  0
VERTEX
  8
AREAS
 10
32.128
 20
90.354
 30
0.0
  0
VERTEX
  8
AREAS
 10
32.127
 20
90.366
 30
0.0
  0
VERTEX
  8
AREAS
 10
32.12
 20
90.372
 30
0.0
  0
VERTEX
  8
AREAS
 10
32.112
 20
90.377
 30
0.0
  0
VERTEX
  8
AREAS
 10
32.104
 20
90.38
 30
0.0
  0
VERTEX
  8
AREAS
 10
32.092
 20
90.38
 30
0.0
  0
VERTEX
  8
AREAS
 10
32.086
 20
90.377
 30
0.0
  0
VERTEX
  8
AREAS
 10
32.081
 20
90.37
 30
0.0
  0
VERTEX
  8
AREAS
 10
32.081
 20
90.357
 30
0.0
  0
VERTEX
  8
AREAS
 10
32.093
 20
90.327
 30
0.0
  0
SEQEND
  8
AREAS
  0
POLYLINE
  8
AREAS
 66
     1
 10
0.0
 20
0.0
 30
0.0
 70
     1
  0
VERTEX
  8
AREAS
 10
31.858
 20
90.18
 30
0.0
  0
VERTEX
  8
AREAS
 10
31.866
 20
90.188
 30
0.0
  0
VERTEX
  8
AREAS
 10
31.89
 20
90.19
 30
0.0
  0
VERTEX
  8
AREAS
 10
31.916
 20
90.169
 30
0.0
  0
VERTEX
  8
AREAS
 10
31.908
 20
90.157
 30
0.0
  0
VERTEX
  8
AREAS
 10
31.888
 20
90.16
 30
0.0
  0
VERTEX
  8
AREAS
 10
31.874
 20
90.166
 30
0.0
  0
SEQEND
  8
AREAS
  0
POLYLINE
  8
AREAS
 66
     1
 10
0.0
 20
0.0
 30
0.0
 70
     1
  0
VERTEX
  8
AREAS
 10
32.025
 20
90.446
 30
0.0
  0
VERTEX
  8
AREAS
 10
32.071
 20
90.43
 30
0.0
  0
VERTEX
  8
AREAS
 10
32.086
 20
90.46
 30
0.0
  0
VERTEX
  8
AREAS
 10
31.981
 20
90.486
 30
0.0
  0
VERTEX
  8
AREAS
 10
31.97
 20
90.482
 30
0.0
  0
VERTEX
  8
AREAS
 10
31.964
 20
90.475
 30
0.0
  0
VERTEX
  8
AREAS
 10
31.967
 20
90.468
 30
0.0
  0
VERTEX
  8
AREAS
 10
31.972
 20
90.462
 30
0.0
  0
VERTEX
  8
AREAS
 10
31.975
 20
90.455
 30
0.0
  0
VERTEX
  8
AREAS
 10
31.981
 20
90.448
 30
0.0
  0
VERTEX
  8
AREAS
 10
31.99
 20
90.447
 30
0.0
  0
VERTEX
  8
AREAS
 10
32.004
 20
90.447
 30
0.0
  0
VERTEX
  8
AREAS
 10
32.012
 20
90.447
 30
0.0
  0
SEQEND
  8
AREAS
  0
POLYLINE
  8
AREAS
 66
     1
 10
0.0
 20
0.0
 30
0.0
 70
     1
  0
VERTEX
  8
AREAS
 10
32.545
 20
90.497
 30
0.0
  0
VERTEX
  8
AREAS
 10
32.586
 20
90.503
 30
0.0
  0
VERTEX
  8
AREAS
 10
32.588
 20
90.476
 30
0.0
  0
VERTEX
  8
AREAS
 10
32.586
 20
90.459
 30
0.0
  0
VERTEX
  8
AREAS
 10
32.583
 20
90.447
 30
0.0
  0
VERTEX
  8
AREAS
 10
32.566
 20
90.433
 30
0.0
  0
VERTEX
  8
AREAS
 10
32.556
 20
90.434
 30
0.0
  0
VERTEX
  8
AREAS
 10
32.543
 20
90.445
 30
0.0
  0
VERTEX
  8
AREAS
 10
32.545
 20
90.485
 30
0.0
  0
SEQEND
  8
AREAS
  0
POLYLINE
  8
AREAS
 66
     1
 10
0.0
 20
0.0
 30
0.0
 70
     1
  0
VERTEX
  8
AREAS
 10
32.629
 20
90.4
 30
0.0
  0
VERTEX
  8
AREAS
 10
32.651
 20
90.42
 30
0.0
  0
VERTEX
  8
AREAS
 10
32.681
 20
90.425
 30
0.0
  0
VERTEX
  8
AREAS
 10
32.689
 20
90.413
 30
0.0
  0
VERTEX
  8
AREAS
 10
32.689
 20
90.396
 30
0.0
  0
VERTEX
  8
AREAS
 10
32.685
 20
90.386
 30
0.0
  0
VERTEX
  8
AREAS
 10
32.674
 20
90.372
 30
0.0
  0
VERTEX
  8
AREAS
 10
32.662
 20
90.371
 30
0.0
  0
VERTEX
  8
AREAS
 10
32.65
 20
90.375
 30
0.0
  0
SEQEND
  8
AREAS
  0
POLYLINE
  8
AREAS
 66
     1
 10
0.0
 20
0.0
 30
0.0
 70
     1
  0
VERTEX
  8
AREAS
 10
32.758
 20
90.477
 30
0.0
  0
VERTEX
  8
AREAS
 10
32.76
 20
90.496
 30
0.0
  0
VERTEX
  8
AREAS
 10
32.759
 20
90.518
 30
0.0
  0
VERTEX
  8
AREAS
 10
32.758
 20
90.536
 30
0.0
  0
VERTEX
  8
AREAS
 10
32.78
 20
90.554
 30
0.0
  0
VERTEX
  8
AREAS
 10
32.815
 20
90.536
 30
0.0
  0
VERTEX
  8
AREAS
 10
32.834
 20
90.509
 30
0.0
  0
VERTEX
  8
AREAS
 10
32.842
 20
90.49
 30
0.0
  0
VERTEX
  8
AREAS
 10
32.846
 20
90.455
 30
0.0
  0
VERTEX
  8
AREAS
 10
32.846
 20
90.427
 30
0.0
  0
VERTEX
  8
AREAS
 10
32.783
 20
90.42
 30
0.0
  0
VERTEX
  8
AREAS
 10
32.763
 20
90.429
 30
0.0
  0
SEQEND
  8
AREAS
  0
POLYLINE
  8
AREAS
 66
     1
 10
0.0
 20
0.0
 30
0.0
 70
     1
  0
VERTEX
  8
AREAS
 10
33.018
 20
90.455
 30
0.0
  0
VERTEX
  8
AREAS
 10
33.033
 20
90.467
 30
0.0
  0
VERTEX
  8
AREAS
 10
33.056
 20
90.455
 30
0.0
  0
VERTEX
  8
AREAS
 10
33.101
 20
90.447
 30
0.0
  0
VERTEX
  8
AREAS
 10
33.108
 20
90.435
 30
0.0
  0
VERTEX
  8
AREAS
 10
33.111
 20
90.419
 30
0.0
  0
VERTEX
  8
AREAS
 10
33.111
 20
90.407
 30
0.0
  0
VERTEX
  8
AREAS
 10
33.105
 20
90.394
 30
0.0
  0
VERTEX
  8
AREAS
 10
33.093
 20
90.39
 30
0.0
  0
VERTEX
  8
AREAS
 10
33.082
 20
90.387
 30
0.0
  0
VERTEX
  8
AREAS
 10
33.075
 20
90.382
 30
0.0
  0
VERTEX
  8
AREAS
 10
33.072
 20
90.377
 30
0.0
  0
VERTEX
  8
AREAS
 10
33.052
 20
90.382
 30
0.0
  0
VERTEX
  8
AREAS
 10
33.05
 20
90.407
 30
0.0
  0
SEQEND
  8
AREAS
  0
POLYLINE
  8
AREAS
 66
     1
 10
0.0
 20
0.0
 30
0.0
 70
     1
  0
VERTEX
  8
AREAS
 10
32.744
 20
90.382
 30
0.0
  0
VERTEX
  8
AREAS
 10
32.854
 20
90.38
 30
0.0
  0
VERTEX
  8
AREAS
 10
32.852
 20
90.365
 30
0.0
  0
VERTEX
  8
AREAS
 10
32.852
 20
90.343
 30
0.0
  0
VERTEX
  8
AREAS
 10
32.852
 20
90.329
 30
0.0
  0
VERTEX
  8
AREAS
 10
32.844
 20
90.324
 30
0.0
  0
VERTEX
  8
AREAS
 10
32.825
 20
90.305
 30
0.0
  0
VERTEX
  8
AREAS
 10
32.81
 20
90.295
 30
0.0
  0
VERTEX
  8
AREAS
 10
32.797
 20
90.285
 30
0.0
  0
VERTEX
  8
AREAS
 10
32.786
 20
90.287
 30
0.0
  0
VERTEX
  8
AREAS
 10
32.769
 20
90.28
 30
0.0
  0
VERTEX
  8
AREAS
 10
32.747
 20
90.273
 30
0.0
  0
VERTEX
  8
AREAS
 10
32.724
 20
90.267
 30
0.0
  0
VERTEX
  8
AREAS
 10
32.717
 20
90.275
 30
0.0
  0
VERTEX
  8
AREAS
 10
32.717
 20
90.287
 30
0.0
  0
VERTEX
  8
AREAS
 10
32.733
 20
90.335
 30
0.0
  0
VERTEX
  8
AREAS
 10
32.741
 20
90.374
 30
0.0
  0
SEQEND
  8
AREAS
  0
POLYLINE
  8
AREAS
 66
     1
 10
0.0
 20
0.0
 30
0.0
 70
     1
  0
VERTEX
  8
AREAS
 10
32.829
 20
90.132
 30
0.0
  0
VERTEX
  8
AREAS
 10
32.843
 20
90.151
 30
0.0
  0
VERTEX
  8
AREAS
 10
32.859
 20
90.158
 30
0.0
  0
VERTEX
  8
AREAS
 10
32.882
 20
90.177
 30
0.0
  0
VERTEX
  8
AREAS
 10
32.886
 20
90.194
 30
0.0
  0
VERTEX
  8
AREAS
 10
32.934
 20
90.192
 30
0.0
  0
VERTEX
  8
AREAS
 10
32.93
 20
90.157
 30
0.0
  0
VERTEX
  8
AREAS
 10
32.883
 20
90.167
 30
0.0
  0
VERTEX
  8
AREAS
 10
32.881
 20
90.15
 30
0.0
  0
VERTEX
  8
AREAS
 10
32.866
 20
90.098
 30
0.0
  0
VERTEX
  8
AREAS
 10
32.854
 20
90.096
 30
0.0
  0
VERTEX
  8
AREAS
 10
32.835
 20
90.105
 30
0.0
  0
SEQEND
  8
AREAS
  0
POLYLINE
  8
AREAS
 66
     1
 10
0.0
 20
0.0
 30
0.0
 70
     1
  0
VERTEX
  8
AREAS
 10
31.925
 20
91.156
 30
0.0
  0
VERTEX
  8
AREAS
 10
31.947
 20
91.166
 30
0.0
  0
VERTEX
  8
AREAS
 10
31.954
 20
91.151
 30
0.0
  0
VERTEX
  8
AREAS
 10
31.952
 20
91.138
 30
0.0
  0
VERTEX
  8
AREAS
 10
31.938
 20
91.134
 30
0.0
  0
VERTEX
  8
AREAS
 10
31.925
 20
91.141
 30
0.0
  0
SEQEND
  8
AREAS
  0
POLYLINE
  8
AREAS
 66
     1
 10
0.0
 20
0.0
 30
0.0
 70
     1
  0
VERTEX
  8
AREAS
 10
32.037
 20
91.084
 30
0.0
  0
VERTEX
  8
AREAS
 10
32.059
 20
91.097
 30
0.0
  0
VERTEX
  8
AREAS
 10
32.064
 20
91.113
 30
0.0
  0
VERTEX
  8
AREAS
 10
32.07
 20
91.119
 30
0.0
  0
VERTEX
  8
AREAS
 10
32.098
 20
91.116
 30
0.0
  0
VERTEX
  8
AREAS
 10
32.101
 20
91.11
 30
0.0
  0
VERTEX
  8
AREAS
 10
32.077
 20
91.05
 30
0.0
  0
VERTEX
  8
AREAS
 10
32.046
 20
91.043
 30
0.0
  0
SEQEND
  8
AREAS
  0
POLYLINE
  8
AREAS
 66
     1
 10
0.0
 20
0.0
 30
0.0
 70
     1
  0
VERTEX
  8
AREAS
 10
32.106
 20
90.986
 30
0.0
  0
VERTEX
  8
AREAS
 10
32.112
 20
90.995
 30
0.0
  0
VERTEX
  8
AREAS
 10
32.116
 20
91.002
 30
0.0
  0
VERTEX
  8
AREAS
 10
32.126
 20
91.008
 30
0.0
  0
VERTEX
  8
AREAS
 10
32.132
 20
91.012
 30
0.0
  0
VERTEX
  8
AREAS
 10
32.137
 20
91.014
 30
0.0
  0
VERTEX
  8
AREAS
 10
32.139
 20
91.015
 30
0.0
  0
VERTEX
  8
AREAS
 10
32.142
 20
91.015
 30
0.0
  0
VERTEX
  8
AREAS
 10
32.142
 20
91.015
 30
0.0
  0
VERTEX
  8
AREAS
 10
32.146
 20
91.017
 30
0.0
  0
VERTEX
  8
AREAS
 10
32.146
 20
91.017
 30
0.0
  0
VERTEX
  8
AREAS
 10
32.15
 20
91.019
 30
0.0
  0
VERTEX
  8
AREAS
 10
32.154
 20
91.021
 30
0.0
  0
VERTEX
  8
AREAS
 10
32.167
 20
91.015
 30
0.0
  0
VERTEX
  8
AREAS
 10
32.17
 20
90.985
 30
0.0
  0
VERTEX
  8
AREAS
 10
32.124
 20
90.955
 30
0.0
  0
SEQEND
  8
AREAS
  0
POLYLINE
  8
AREAS
 66
     1
 10
0.0
 20
0.0
 30
0.0
 70
     1
  0
VERTEX
  8
AREAS
 10
32.334
 20
90.56
 30
0.0
  0
VERTEX
  8
AREAS
 10
32.353
 20
90.562
 30
0.0
  0
VERTEX
  8
AREAS
 10
32.373
 20
90.559
 30
0.0
  0
VERTEX
  8
AREAS
 10
32.402
 20
90.539
 30
0.0
  0
VERTEX
  8
AREAS
 10
32.401
 20
90.525
 30
0.0
  0
VERTEX
  8
AREAS
 10
32.395
 20
90.515
 30
0.0
  0
VERTEX
  8
AREAS
 10
32.377
 20
90.503
 30
0.0
  0
VERTEX
  8
AREAS
 10
32.361
 20
90.501
 30
0.0
  0
VERTEX
  8
AREAS
 10
32.338
 20
90.495
 30
0.0
  0
SEQEND
  8
AREAS
  0
POLYLINE
  8
AREAS
 66
     1
 10
0.0
 20
0.0
 30
0.0
 70
     1
  0
VERTEX
  8
AREAS
 10
32.582
 20
90.911
 30
0.0
  0
VERTEX
  8
AREAS
 10
32.635
 20
90.951
 30
0.0
  0
VERTEX
  8
AREAS
 10
32.641
 20
90.932
 30
0.0
  0
VERTEX
  8
AREAS
 10
32.644
 20
90.923
 30
0.0
  0
VERTEX
  8
AREAS
 10
32.647
 20
90.914
 30
0.0
  0
VERTEX
  8
AREAS
 10
32.648
 20
90.909
 30
0.0
  0
VERTEX
  8
AREAS
 10
32.649
 20
90.903
 30
0.0
  0
VERTEX
  8
AREAS
 10
32.649
 20
90.886
 30
0.0
  0
VERTEX
  8
AREAS
 10
32.647
 20
90.874
 30
0.0
  0
VERTEX
  8
AREAS
 10
32.641
 20
90.862
 30
0.0
  0
VERTEX
  8
AREAS
 10
32.631
 20
90.857
 30
0.0
  0
VERTEX
  8
AREAS
 10
32.622
 20
90.859
 30
0.0
  0
VERTEX
  8
AREAS
 10
32.619
 20
90.862
 30
0.0
  0
VERTEX
  8
AREAS
 10
32.613
 20
90.867
 30
0.0
  0
VERTEX
  8
AREAS
 10
32.609
 20
90.872
 30
0.0
  0
VERTEX
  8
AREAS
 10
32.606
 20
90.878
 30
0.0
  0
VERTEX
  8
AREAS
 10
32.602
 20
90.883
 30
0.0
  0
VERTEX
  8
AREAS
 10
32.598
 20
90.887
 30
0.0
  0
VERTEX
  8
AREAS
 10
32.593
 20
90.89
 30
0.0
  0
VERTEX
  8
AREAS
 10
32.588
 20
90.894
 30
0.0
  0
VERTEX
  8
AREAS
 10
32.584
 20
90.899
 30
0.0
  0
SEQEND
  8
AREAS
  0
POLYLINE
  8
AREAS
 66
     1
 10
0.0
 20
0.0
 30
0.0
 70
     1
  0
VERTEX
  8
AREAS
 10
32.776
 20
90.926
 30
0.0
  0
VERTEX
  8
AREAS
 10
32.789
 20
90.95
 30
0.0
  0
VERTEX
  8
AREAS
 10
32.808
 20
90.96
 30
0.0
  0
VERTEX
  8
AREAS
 10
32.818
 20
90.953
 30
0.0
  0
VERTEX
  8
AREAS
 10
32.821
 20
90.947
 30
0.0
  0
VERTEX
  8
AREAS
 10
32.817
 20
90.94
 30
0.0
  0
VERTEX
  8
AREAS
 10
32.817
 20
90.928
 30
0.0
  0
VERTEX
  8
AREAS
 10
32.813
 20
90.923
 30
0.0
  0
VERTEX
  8
AREAS
 10
32.809
 20
90.918
 30
0.0
  0
VERTEX
  8
AREAS
 10
32.804
 20
90.915
 30
0.0
  0
VERTEX
  8
AREAS
 10
32.799
 20
90.914
 30
0.0
  0
VERTEX
  8
AREAS
 10
32.793
 20
90.914
 30
0.0
  0
VERTEX
  8
AREAS
 10
32.786
 20
90.914
 30
0.0
  0
VERTEX
  8
AREAS
 10
32.78
 20
90.914
 30
0.0
  0
SEQEND
  8
AREAS
  0
POLYLINE
  8
AREAS
 66
     1
 10
0.0
 20
0.0
 30
0.0
 70
     1
  0
VERTEX
  8
AREAS
 10
32.626
 20
90.798
 30
0.0
  0
VERTEX
  8
AREAS
 10
32.636
 20
90.791
 30
0.0
  0
VERTEX
  8
AREAS
 10
32.67
 20
90.805
 30
0.0
  0
VERTEX
  8
AREAS
 10
32.687
 20
90.831
 30
0.0
  0
VERTEX
  8
AREAS
 10
32.681
 20
90.837
 30
0.0
  0
VERTEX
  8
AREAS
 10
32.646
 20
90.84
 30
0.0
  0
VERTEX
  8
AREAS
 10
32.622
 20
90.825
 30
0.0
  0
SEQEND
  8
AREAS
  0
POLYLINE
  8
AREAS
 66
     1
 10
0.0
 20
0.0
 30
0.0
 70
     1
  0
VERTEX
  8
AREAS
 10
32.659
 20
90.766
 30
0.0
  0
VERTEX
  8
AREAS
 10
32.675
 20
90.762
 30
0.0
  0
VERTEX
  8
AREAS
 10
32.69
 20
90.752
 30
0.0
  0
VERTEX
  8
AREAS
 10
32.693
 20
90.741
 30
0.0
  0
VERTEX
  8
AREAS
 10
32.693
 20
90.729
 30
0.0
  0
VERTEX
  8
AREAS
 10
32.683
 20
90.708
 30
0.0
  0
VERTEX
  8
AREAS
 10
32.678
 20
90.705
 30
0.0
  0
VERTEX
  8
AREAS
 10
32.667
 20
90.706
 30
0.0
  0
VERTEX
  8
AREAS
 10
32.654
 20
90.71
 30
0.0
  0
VERTEX
  8
AREAS
 10
32.648
 20
90.727
 30
0.0
  0
VERTEX
  8
AREAS
 10
32.653
 20
90.748
 30
0.0
  0
SEQEND
  8
AREAS
  0
POLYLINE
  8
AREAS
 66
     1
 10
0.0
 20
0.0
 30
0.0
 70
     1
  0
VERTEX
  8
AREAS
 10
32.809
 20
90.756
 30
0.0
  0
VERTEX
  8
AREAS
 10
32.817
 20
90.772
 30
0.0
  0
VERTEX
  8
AREAS
 10
32.834
 20
90.778
 30
0.0
  0
VERTEX
  8
AREAS
 10
32.859
 20
90.765
 30
0.0
  0
VERTEX
  8
AREAS
 10
32.859
 20
90.733
 30
0.0
  0
VERTEX
  8
AREAS
 10
32.852
 20
90.718
 30
0.0
  0
VERTEX
  8
AREAS
 10
32.835
 20
90.713
 30
0.0
  0
VERTEX
  8
AREAS
 10
32.819
 20
90.717
 30
0.0
  0
VERTEX
  8
AREAS
 10
32.809
 20
90.731
 30
0.0
  0
SEQEND
  8
AREAS
  0
POLYLINE
  8
AREAS
 66
     1
 10
0.0
 20
0.0
 30
0.0
 70
     1
  0
VERTEX
  8
AREAS
 10
32.449
 20
90.749
 30
0.0
  0
VERTEX
  8
AREAS
 10
32.449
 20
90.774
 30
0.0
  0
VERTEX
  8
AREAS
 10
32.475
 20
90.792
 30
0.0
  0
VERTEX
  8
AREAS
 10
32.486
 20
90.798
 30
0.0
  0
VERTEX
  8
AREAS
 10
32.493
 20
90.798
 30
0.0
  0
VERTEX
  8
AREAS
 10
32.498
 20
90.796
 30
0.0
  0
VERTEX
  8
AREAS
 10
32.506
 20
90.789
 30
0.0
  0
VERTEX
  8
AREAS
 10
32.506
 20
90.783
 30
0.0
  0
VERTEX
  8
AREAS
 10
32.506
 20
90.777
 30
0.0
  0
VERTEX
  8
AREAS
 10
32.505
 20
90.774
 30
0.0
  0
VERTEX
  8
AREAS
 10
32.501
 20
90.771
 30
0.0
  0
VERTEX
  8
AREAS
 10
32.498
 20
90.764
 30
0.0
  0
VERTEX
  8
AREAS
 10
32.495
 20
90.76
 30
0.0
  0
VERTEX
  8
AREAS
 10
32.491
 20
90.756
 30
0.0
  0
VERTEX
  8
AREAS
 10
32.489
 20
90.752
 30
0.0
  0
VERTEX
  8
AREAS
 10
32.483
 20
90.749
 30
0.0
  0
VERTEX
  8
AREAS
 10
32.475
 20
90.745
 30
0.0
  0
VERTEX
  8
AREAS
 10
32.47
 20
90.741
 30
0.0
  0
VERTEX
  8
AREAS
 10
32.464
 20
90.733
 30
0.0
  0
SEQEND
  8
AREAS
  0
POLYLINE
  8
AREAS
 66
     1
 10
0.0
 20
0.0
 30
0.0
 70
     1
  0
VERTEX
  8
AREAS
 10
33.121
 20
90.64
 30
0.0
  0
VERTEX
  8
AREAS
 10
33.127
 20
90.649
 30
0.0
  0
VERTEX
  8
AREAS
 10
33.141
 20
90.657
 30
0.0
  0
VERTEX
  8
AREAS
 10
33.17
 20
90.663
 30
0.0
  0
VERTEX
  8
AREAS
 10
33.199
 20
90.627
 30
0.0
  0
VERTEX
  8
AREAS
 10
33.159
 20
90.612
 30
0.0
  0
VERTEX
  8
AREAS
 10
33.145
 20
90.61
 30
0.0
  0
VERTEX
  8
AREAS
 10
33.135
 20
90.615
 30
0.0
  0
VERTEX
  8
AREAS
 10
33.129
 20
90.621
 30
0.0
  0
SEQEND
  8
AREAS
  0
POLYLINE
  8
AREAS
 66
     1
 10
0.0
 20
0.0
 30
0.0
 70
     1
  0
VERTEX
  8
AREAS
 10
32.902
 20
91.436
 30
0.0
  0
VERTEX
  8
AREAS
 10
32.916
 20
91.44
 30
0.0
  0
VERTEX
  8
AREAS
 10
32.939
 20
91.455
 30
0.0
  0
VERTEX
  8
AREAS
 10
32.972
 20
91.426
 30
0.0
  0
VERTEX
  8
AREAS
 10
32.942
 20
91.41
 30
0.0
  0
VERTEX
  8
AREAS
 10
32.932
 20
91.404
 30
0.0
  0
VERTEX
  8
AREAS
 10
32.92
 20
91.402
 30
0.0
  0
VERTEX
  8
AREAS
 10
32.91
 20
91.401
 30
0.0
  0
VERTEX
  8
AREAS
 10
32.903
 20
91.406
 30
0.0
  0
SEQEND
  8
AREAS
  0
POLYLINE
  8
AREAS
 66
     1
 10
0.0
 20
0.0
 30
0.0
 70
     1
  0
VERTEX
  8
AREAS
 10
32.792
 20
91.433
 30
0.0
  0
VERTEX
  8
AREAS
 10
32.821
 20
91.436
 30
0.0
  0
VERTEX
  8
AREAS
 10
32.84
 20
91.413
 30
0.0
  0
VERTEX
  8
AREAS
 10
32.831
 20
91.384
 30
0.0
  0
VERTEX
  8
AREAS
 10
32.823
 20
91.374
 30
0.0
  0
VERTEX
  8
AREAS
 10
32.816
 20
91.37
 30
0.0
  0
VERTEX
  8
AREAS
 10
32.79
 20
91.403
 30
0.0
  0
SEQEND
  8
AREAS
  0
POLYLINE
  8
AREAS
 66
     1
 10
0.0
 20
0.0
 30
0.0
 70
     1
  0
VERTEX
  8
AREAS
 10
32.859
 20
91.265
 30
0.0
  0
VERTEX
  8
AREAS
 10
32.853
 20
91.278
 30
0.0
  0
VERTEX
  8
AREAS
 10
32.855
 20
91.29
 30
0.0
  0
VERTEX
  8
AREAS
 10
32.866
 20
91.298
 30
0.0
  0
VERTEX
  8
AREAS
 10
32.878
 20
91.294
 30
0.0
  0
VERTEX
  8
AREAS
 10
32.881
 20
91.294
 30
0.0
  0
VERTEX
  8
AREAS
 10
32.898
 20
91.287
 30
0.0
  0
VERTEX
  8
AREAS
 10
32.898
 20
91.266
 30
0.0
  0
VERTEX
  8
AREAS
 10
32.884
 20
91.256
 30
0.0
  0
SEQEND
  8
AREAS
  0
POLYLINE
  8
AREAS
 66
     1
 10
0.0
 20
0.0
 30
0.0
 70
     1
  0
VERTEX
  8
AREAS
 10
32.396
 20
91.235
 30
0.0
  0
VERTEX
  8
AREAS
 10
32.453
 20
91.256
 30
0.0
  0
VERTEX
  8
AREAS
 10
32.458
 20
91.235
 30
0.0
  0
VERTEX
  8
AREAS
 10
32.45
 20
91.226
 30
0.0
  0
VERTEX
  8
AREAS
 10
32.424
 20
91.213
 30
0.0
  0
SEQEND
  8
AREAS
  0
POLYLINE
  8
AREAS
 66
     1
 10
0.0
 20
0.0
 30
0.0
 70
     1
  0
VERTEX
  8
AREAS
 10
32.447
 20
91.185
 30
0.0
  0
VERTEX
  8
AREAS
 10
32.462
 20
91.196
 30
0.0
  0
VERTEX
  8
AREAS
 10
32.493
 20
91.17
 30
0.0
  0
VERTEX
  8
AREAS
 10
32.471
 20
91.129
 30
0.0
  0
VERTEX
  8
AREAS
 10
32.464
 20
91.128
 30
0.0
  0
VERTEX
  8
AREAS
 10
32.45
 20
91.135
 30
0.0
  0
VERTEX
  8
AREAS
 10
32.439
 20
91.151
 30
0.0
  0
VERTEX
  8
AREAS
 10
32.44
 20
91.17
 30
0.0
  0
SEQEND
  8
AREAS
  0
POLYLINE
  8
AREAS
 66
     1
 10
0.0
 20
0.0
 30
0.0
 70
     1
  0
VERTEX
  8
AREAS
 10
32.536
 20
91.067
 30
0.0
  0
VERTEX
  8
AREAS
 10
32.56
 20
91.067
 30
0.0
  0
VERTEX
  8
AREAS
 10
32.578
 20
91.055
 30
0.0
  0
VERTEX
  8
AREAS
 10
32.578
 20
91.044
 30
0.0
  0
VERTEX
  8
AREAS
 10
32.574
 20
91.03
 30
0.0
  0
VERTEX
  8
AREAS
 10
32.557
 20
91.025
 30
0.0
  0
VERTEX
  8
AREAS
 10
32.54
 20
91.026
 30
0.0
  0
VERTEX
  8
AREAS
 10
32.526
 20
91.032
 30
0.0
  0
VERTEX
  8
AREAS
 10
32.52
 20
91.038
 30
0.0
  0
VERTEX
  8
AREAS
 10
32.524
 20
91.051
 30
0.0
  0
SEQEND
  8
AREAS
  0
POLYLINE
  8
AREAS
 66
     1
 10
0.0
 20
0.0
 30
0.0
 70
     1
  0
VERTEX
  8
AREAS
 10
32.777
 20
91.121
 30
0.0
  0
VERTEX
  8
AREAS
 10
32.8
 20
91.137
 30
0.0
  0
VERTEX
  8
AREAS
 10
32.833
 20
91.114
 30
0.0
  0
VERTEX
  8
AREAS
 10
32.838
 20
91.106
 30
0.0
  0
VERTEX
  8
AREAS
 10
32.848
 20
91.094
 30
0.0
  0
VERTEX
  8
AREAS
 10
32.852
 20
91.078
 30
0.0
  0
VERTEX
  8
AREAS
 10
32.849
 20
91.067
 30
0.0
  0
VERTEX
  8
AREAS
 10
32.841
 20
91.061
 30
0.0
  0
VERTEX
  8
AREAS
 10
32.833
 20
91.057
 30
0.0
  0
VERTEX
  8
AREAS
 10
32.824
 20
91.057
 30
0.0
  0
VERTEX
  8
AREAS
 10
32.816
 20
91.059
 30
0.0
  0
VERTEX
  8
AREAS
 10
32.808
 20
91.059
 30
0.0
  0
VERTEX
  8
AREAS
 10
32.799
 20
91.062
 30
0.0
  0
VERTEX
  8
AREAS
 10
32.791
 20
91.067
 30
0.0
  0
VERTEX
  8
AREAS
 10
32.781
 20
91.092
 30
0.0
  0
VERTEX
  8
AREAS
 10
32.78
 20
91.109
 30
0.0
  0
SEQEND
  8
AREAS
  0
POLYLINE
  8
AREAS
 66
     1
 10
0.0
 20
0.0
 30
0.0
 70
     1
  0
VERTEX
  8
AREAS
 10
32.403
 20
90.983
 30
0.0
  0
VERTEX
  8
AREAS
 10
32.399
 20
90.998
 30
0.0
  0
VERTEX
  8
AREAS
 10
32.417
 20
91.019
 30
0.0
  0
VERTEX
  8
AREAS
 10
32.43
 20
91.026
 30
0.0
  0
VERTEX
  8
AREAS
 10
32.445
 20
91.016
 30
0.0
  0
VERTEX
  8
AREAS
 10
32.449
 20
91.002
 30
0.0
  0
VERTEX
  8
AREAS
 10
32.435
 20
90.989
 30
0.0
  0
VERTEX
  8
AREAS
 10
32.422
 20
90.985
 30
0.0
  0
SEQEND
  8
AREAS
  0
POLYLINE
  8
AREAS
 66
     1
 10
0.0
 20
0.0
 30
0.0
 70
     1
  0
VERTEX
  8
AREAS
 10
32.55
 20
91.435
 30
0.0
  0
VERTEX
  8
AREAS
 10
32.582
 20
91.435
 30
0.0
  0
VERTEX
  8
AREAS
 10
32.606
 20
91.398
 30
0.0
  0
VERTEX
  8
AREAS
 10
32.596
 20
91.392
 30
0.0
  0
VERTEX
  8
AREAS
 10
32.572
 20
91.391
 30
0.0
  0
VERTEX
  8
AREAS
 10
32.566
 20
91.394
 30
0.0
  0
VERTEX
  8
AREAS
 10
32.556
 20
91.395
 30
0.0
  0
VERTEX
  8
AREAS
 10
32.543
 20
91.399
 30
0.0
  0
SEQEND
  8
AREAS
  0
POLYLINE
  8
FRAME
 66
     1
 10
0.0
 20
0.0
 30
0.0
 70
     1
  0
VERTEX
  8
FRAME
 10
23.5
 20
88.0
 30
0.0
  0
VERTEX
  8
FRAME
 10
23.5
 20
104.0
 30
0.0
  0
VERTEX
  8
FRAME
 10
41.0
 20
104.0
 30
0.0
  0
VERTEX
  8
FRAME
 10
41.0
 20
88.0
 30
0.0
  0
SEQEND
  8
FRAME
  0
POLYLINE
  8
SURVBND
 66
     1
 10
0.0
 20
0.0
 30
0.0
 70
     1
  0
VERTEX
  8
SURVBND
 10
32.702
 20
99.786
 30
0.0
  0
VERTEX
  8
SURVBND
 10
32.707
 20
99.777
 30
0.0
  0
VERTEX
  8
SURVBND
 10
32.733
 20
99.743
 30
0.0
  0
VERTEX
  8
SURVBND
 10
32.757
 20
99.723
 30
0.0
  0
VERTEX
  8
SURVBND
 10
32.794
 20
99.689
 30
0.0
  0
VERTEX
  8
SURVBND
 10
32.842
 20
99.662
 30
0.0
  0
VERTEX
  8
SURVBND
 10
32.88
 20
99.638
 30
0.0
  0
VERTEX
  8
SURVBND
 10
32.921
 20
99.6
 30
0.0
  0
VERTEX
  8
SURVBND
 10
32.955
 20
99.584
 30
0.0
  0
VERTEX
  8
SURVBND
 10
32.987
 20
99.558
 30
0.0
  0
VERTEX
  8
SURVBND
 10
33.016
 20
99.519
 30
0.0
  0
VERTEX
  8
SURVBND
 10
33.032
 20
99.492
 30
0.0
  0
VERTEX
  8
SURVBND
 10
33.068
 20
99.463
 30
0.0
  0
VERTEX
  8
SURVBND
 10
33.099
 20
99.44
 30
0.0
  0
VERTEX
  8
SURVBND
 10
33.13
 20
99.412
 30
0.0
  0
VERTEX
  8
SURVBND
 10
33.168
 20
99.385
 30
0.0
  0
VERTEX
  8
SURVBND
 10
33.209
 20
99.354
 30
0.0
  0
VERTEX
  8
SURVBND
 10
33.247
 20
99.314
 30
0.0
  0
VERTEX
  8
SURVBND
 10
33.28
 20
99.275
 30
0.0
  0
VERTEX
  8
SURVBND
 10
33.333
 20
99.226
 30
0.0
  0
VERTEX
  8
SURVBND
 10
33.378
 20
99.189
 30
0.0
  0
VERTEX
  8
SURVBND
 10
33.424
 20
99.145
 30
0.0
  0
VERTEX
  8
SURVBND
 10
33.497
 20
99.076
 30
0.0
  0
VERTEX
  8
SURVBND
 10
33.557
 20
99.034
 30
0.0
  0
VERTEX
  8
SURVBND
 10
33.605
 20
98.974
 30
0.0
  0
VERTEX
  8
SURVBND
 10
33.663
 20
98.922
 30
0.0
  0
VERTEX
  8
SURVBND
 10
33.697
 20
98.896
 30
0.0
  0
VERTEX
  8
SURVBND
 10
33.694
 20
98.887
 30
0.0
  0
VERTEX
  8
SURVBND
 10
33.707
 20
98.88
 30
0.0
  0
VERTEX
  8
SURVBND
 10
33.721
 20
98.869
 30
0.0
  0
VERTEX
  8
SURVBND
 10
33.73
 20
98.863
 30
0.0
  0
VERTEX
  8
SURVBND
 10
33.741
 20
98.852
 30
0.0
  0
VERTEX
  8
SURVBND
 10
33.752
 20
98.838
 30
0.0
  0
VERTEX
  8
SURVBND
 10
33.759
 20
98.828
 30
0.0
  0
VERTEX
  8
SURVBND
 10
33.769
 20
98.816
 30
0.0
  0
VERTEX
  8
SURVBND
 10
33.777
 20
98.81
 30
0.0
  0
VERTEX
  8
SURVBND
 10
33.784
 20
98.801
 30
0.0
  0
VERTEX
  8
SURVBND
 10
33.807
 20
98.789
 30
0.0
  0
VERTEX
  8
SURVBND
 10
33.827
 20
98.778
 30
0.0
  0
VERTEX
  8
SURVBND
 10
33.836
 20
98.77
 30
0.0
  0
VERTEX
  8
SURVBND
 10
33.842
 20
98.765
 30
0.0
  0
VERTEX
  8
SURVBND
 10
33.854
 20
98.754
 30
0.0
  0
VERTEX
  8
SURVBND
 10
33.866
 20
98.742
 30
0.0
  0
VERTEX
  8
SURVBND
 10
33.875
 20
98.734
 30
0.0
  0
VERTEX
  8
SURVBND
 10
33.883
 20
98.726
 30
0.0
  0
VERTEX
  8
SURVBND
 10
33.899
 20
98.711
 30
0.0
  0
VERTEX
  8
SURVBND
 10
33.909
 20
98.697
 30
0.0
  0
VERTEX
  8
SURVBND
 10
33.916
 20
98.692
 30
0.0
  0
VERTEX
  8
SURVBND
 10
33.945
 20
98.725
 30
0.0
  0
VERTEX
  8
SURVBND
 10
33.959
 20
98.718
 30
0.0
  0
VERTEX
  8
SURVBND
 10
33.971
 20
98.717
 30
0.0
  0
VERTEX
  8
SURVBND
 10
33.986
 20
98.715
 30
0.0
  0
VERTEX
  8
SURVBND
 10
33.989
 20
98.718
 30
0.0
  0
VERTEX
  8
SURVBND
 10
33.991
 20
98.721
 30
0.0
  0
VERTEX
  8
SURVBND
 10
34.006
 20
98.733
 30
0.0
  0
VERTEX
  8
SURVBND
 10
34.014
 20
98.744
 30
0.0
  0
VERTEX
  8
SURVBND
 10
34.029
 20
98.742
 30
0.0
  0
VERTEX
  8
SURVBND
 10
34.021
 20
98.725
 30
0.0
  0
VERTEX
  8
SURVBND
 10
34.021
 20
98.718
 30
0.0
  0
VERTEX
  8
SURVBND
 10
34.021
 20
98.703
 30
0.0
  0
VERTEX
  8
SURVBND
 10
34.021
 20
98.691
 30
0.0
  0
VERTEX
  8
SURVBND
 10
34.028
 20
98.686
 30
0.0
  0
VERTEX
  8
SURVBND
 10
34.039
 20
98.687
 30
0.0
  0
VERTEX
  8
SURVBND
 10
34.045
 20
98.693
 30
0.0
  0
VERTEX
  8
SURVBND
 10
34.048
 20
98.697
 30
0.0
  0
VERTEX
  8
SURVBND
 10
34.057
 20
98.697
 30
0.0
  0
VERTEX
  8
SURVBND
 10
34.065
 20
98.689
 30
0.0
  0
VERTEX
  8
SURVBND
 10
34.074
 20
98.68
 30
0.0
  0
VERTEX
  8
SURVBND
 10
34.083
 20
98.67
 30
0.0
  0
VERTEX
  8
SURVBND
 10
34.093
 20
98.659
 30
0.0
  0
VERTEX
  8
SURVBND
 10
34.12
 20
98.615
 30
0.0
  0
VERTEX
  8
SURVBND
 10
34.132
 20
98.601
 30
0.0
  0
VERTEX
  8
SURVBND
 10
34.141
 20
98.596
 30
0.0
  0
VERTEX
  8
SURVBND
 10
34.152
 20
98.592
 30
0.0
  0
VERTEX
  8
SURVBND
 10
34.161
 20
98.595
 30
0.0
  0
VERTEX
  8
SURVBND
 10
34.173
 20
98.601
 30
0.0
  0
VERTEX
  8
SURVBND
 10
34.179
 20
98.601
 30
0.0
  0
VERTEX
  8
SURVBND
 10
34.187
 20
98.585
 30
0.0
  0
VERTEX
  8
SURVBND
 10
34.184
 20
98.577
 30
0.0
  0
VERTEX
  8
SURVBND
 10
34.182
 20
98.567
 30
0.0
  0
VERTEX
  8
SURVBND
 10
34.19
 20
98.562
 30
0.0
  0
VERTEX
  8
SURVBND
 10
34.202
 20
98.552
 30
0.0
  0
VERTEX
  8
SURVBND
 10
34.221
 20
98.563
 30
0.0
  0
VERTEX
  8
SURVBND
 10
34.226
 20
98.564
 30
0.0
  0
VERTEX
  8
SURVBND
 10
34.234
 20
98.552
 30
0.0
  0
VERTEX
  8
SURVBND
 10
34.24
 20
98.54
 30
0.0
  0
VERTEX
  8
SURVBND
 10
34.255
 20
98.524
 30
0.0
  0
VERTEX
  8
SURVBND
 10
34.268
 20
98.519
 30
0.0
  0
VERTEX
  8
SURVBND
 10
34.276
 20
98.519
 30
0.0
  0
VERTEX
  8
SURVBND
 10
34.281
 20
98.517
 30
0.0
  0
VERTEX
  8
SURVBND
 10
34.293
 20
98.512
 30
0.0
  0
VERTEX
  8
SURVBND
 10
34.303
 20
98.502
 30
0.0
  0
VERTEX
  8
SURVBND
 10
34.311
 20
98.496
 30
0.0
  0
VERTEX
  8
SURVBND
 10
34.321
 20
98.497
 30
0.0
  0
VERTEX
  8
SURVBND
 10
34.325
 20
98.496
 30
0.0
  0
VERTEX
  8
SURVBND
 10
34.33
 20
98.488
 30
0.0
  0
VERTEX
  8
SURVBND
 10
34.329
 20
98.481
 30
0.0
  0
VERTEX
  8
SURVBND
 10
34.332
 20
98.469
 30
0.0
  0
VERTEX
  8
SURVBND
 10
34.351
 20
98.455
 30
0.0
  0
VERTEX
  8
SURVBND
 10
34.352
 20
98.456
 30
0.0
  0
VERTEX
  8
SURVBND
 10
34.36
 20
98.457
 30
0.0
  0
VERTEX
  8
SURVBND
 10
34.366
 20
98.453
 30
0.0
  0
VERTEX
  8
SURVBND
 10
34.382
 20
98.445
 30
0.0
  0
VERTEX
  8
SURVBND
 10
34.396
 20
98.446
 30
0.0
  0
VERTEX
  8
SURVBND
 10
34.412
 20
98.441
 30
0.0
  0
VERTEX
  8
SURVBND
 10
34.418
 20
98.439
 30
0.0
  0
VERTEX
  8
SURVBND
 10
34.431
 20
98.435
 30
0.0
  0
VERTEX
  8
SURVBND
 10
34.435
 20
98.427
 30
0.0
  0
VERTEX
  8
SURVBND
 10
34.44
 20
98.421
 30
0.0
  0
VERTEX
  8
SURVBND
 10
34.451
 20
98.407
 30
0.0
  0
VERTEX
  8
SURVBND
 10
34.459
 20
98.399
 30
0.0
  0
VERTEX
  8
SURVBND
 10
34.47
 20
98.398
 30
0.0
  0
VERTEX
  8
SURVBND
 10
34.471
 20
98.402
 30
0.0
  0
VERTEX
  8
SURVBND
 10
34.467
 20
98.407
 30
0.0
  0
VERTEX
  8
SURVBND
 10
34.465
 20
98.413
 30
0.0
  0
VERTEX
  8
SURVBND
 10
34.464
 20
98.422
 30
0.0
  0
VERTEX
  8
SURVBND
 10
34.467
 20
98.426
 30
0.0
  0
VERTEX
  8
SURVBND
 10
34.48
 20
98.42
 30
0.0
  0
VERTEX
  8
SURVBND
 10
34.485
 20
98.414
 30
0.0
  0
VERTEX
  8
SURVBND
 10
34.496
 20
98.407
 30
0.0
  0
VERTEX
  8
SURVBND
 10
34.505
 20
98.401
 30
0.0
  0
VERTEX
  8
SURVBND
 10
34.525
 20
98.394
 30
0.0
  0
VERTEX
  8
SURVBND
 10
34.537
 20
98.393
 30
0.0
  0
VERTEX
  8
SURVBND
 10
34.548
 20
98.39
 30
0.0
  0
VERTEX
  8
SURVBND
 10
34.554
 20
98.384
 30
0.0
  0
VERTEX
  8
SURVBND
 10
34.566
 20
98.391
 30
0.0
  0
VERTEX
  8
SURVBND
 10
34.568
 20
98.392
 30
0.0
  0
VERTEX
  8
SURVBND
 10
34.585
 20
98.384
 30
0.0
  0
VERTEX
  8
SURVBND
 10
34.599
 20
98.377
 30
0.0
  0
VERTEX
  8
SURVBND
 10
34.627
 20
98.367
 30
0.0
  0
VERTEX
  8
SURVBND
 10
34.636
 20
98.359
 30
0.0
  0
VERTEX
  8
SURVBND
 10
34.641
 20
98.35
 30
0.0
  0
VERTEX
  8
SURVBND
 10
34.651
 20
98.343
 30
0.0
  0
VERTEX
  8
SURVBND
 10
34.665
 20
98.337
 30
0.0
  0
VERTEX
  8
SURVBND
 10
34.671
 20
98.324
 30
0.0
  0
VERTEX
  8
SURVBND
 10
34.676
 20
98.316
 30
0.0
  0
VERTEX
  8
SURVBND
 10
34.682
 20
98.31
 30
0.0
  0
VERTEX
  8
SURVBND
 10
34.69
 20
98.303
 30
0.0
  0
VERTEX
  8
SURVBND
 10
34.705
 20
98.306
 30
0.0
  0
VERTEX
  8
SURVBND
 10
34.713
 20
98.308
 30
0.0
  0
VERTEX
  8
SURVBND
 10
34.719
 20
98.306
 30
0.0
  0
VERTEX
  8
SURVBND
 10
34.728
 20
98.299
 30
0.0
  0
VERTEX
  8
SURVBND
 10
34.734
 20
98.291
 30
0.0
  0
VERTEX
  8
SURVBND
 10
34.741
 20
98.288
 30
0.0
  0
VERTEX
  8
SURVBND
 10
34.75
 20
98.283
 30
0.0
  0
VERTEX
  8
SURVBND
 10
34.757
 20
98.277
 30
0.0
  0
VERTEX
  8
SURVBND
 10
34.765
 20
98.271
 30
0.0
  0
VERTEX
  8
SURVBND
 10
34.759
 20
98.264
 30
0.0
  0
VERTEX
  8
SURVBND
 10
34.773
 20
98.261
 30
0.0
  0
VERTEX
  8
SURVBND
 10
34.785
 20
98.255
 30
0.0
  0
VERTEX
  8
SURVBND
 10
34.794
 20
98.26
 30
0.0
  0
VERTEX
  8
SURVBND
 10
34.8
 20
98.256
 30
0.0
  0
VERTEX
  8
SURVBND
 10
34.811
 20
98.248
 30
0.0
  0
VERTEX
  8
SURVBND
 10
34.819
 20
98.249
 30
0.0
  0
VERTEX
  8
SURVBND
 10
34.821
 20
98.255
 30
0.0
  0
VERTEX
  8
SURVBND
 10
34.824
 20
98.257
 30
0.0
  0
VERTEX
  8
SURVBND
 10
34.828
 20
98.26
 30
0.0
  0
VERTEX
  8
SURVBND
 10
34.835
 20
98.26
 30
0.0
  0
VERTEX
  8
SURVBND
 10
34.852
 20
98.256
 30
0.0
  0
VERTEX
  8
SURVBND
 10
34.869
 20
98.251
 30
0.0
  0
VERTEX
  8
SURVBND
 10
34.883
 20
98.245
 30
0.0
  0
VERTEX
  8
SURVBND
 10
34.891
 20
98.243
 30
0.0
  0
VERTEX
  8
SURVBND
 10
34.897
 20
98.241
 30
0.0
  0
VERTEX
  8
SURVBND
 10
34.909
 20
98.24
 30
0.0
  0
VERTEX
  8
SURVBND
 10
34.92
 20
98.239
 30
0.0
  0
VERTEX
  8
SURVBND
 10
34.922
 20
98.239
 30
0.0
  0
VERTEX
  8
SURVBND
 10
34.928
 20
98.241
 30
0.0
  0
VERTEX
  8
SURVBND
 10
34.935
 20
98.245
 30
0.0
  0
VERTEX
  8
SURVBND
 10
34.94
 20
98.25
 30
0.0
  0
VERTEX
  8
SURVBND
 10
34.944
 20
98.25
 30
0.0
  0
VERTEX
  8
SURVBND
 10
35.015
 20
98.2
 30
0.0
  0
VERTEX
  8
SURVBND
 10
35.137
 20
98.22
 30
0.0
  0
VERTEX
  8
SURVBND
 10
35.137
 20
98.219
 30
0.0
  0
VERTEX
  8
SURVBND
 10
35.143
 20
98.216
 30
0.0
  0
VERTEX
  8
SURVBND
 10
35.152
 20
98.211
 30
0.0
  0
VERTEX
  8
SURVBND
 10
35.162
 20
98.208
 30
0.0
  0
VERTEX
  8
SURVBND
 10
35.169
 20
98.204
 30
0.0
  0
VERTEX
  8
SURVBND
 10
35.176
 20
98.204
 30
0.0
  0
VERTEX
  8
SURVBND
 10
35.184
 20
98.205
 30
0.0
  0
VERTEX
  8
SURVBND
 10
35.19
 20
98.197
 30
0.0
  0
VERTEX
  8
SURVBND
 10
35.194
 20
98.193
 30
0.0
  0
VERTEX
  8
SURVBND
 10
35.206
 20
98.188
 30
0.0
  0
VERTEX
  8
SURVBND
 10
35.21
 20
98.187
 30
0.0
  0
VERTEX
  8
SURVBND
 10
35.222
 20
98.187
 30
0.0
  0
VERTEX
  8
SURVBND
 10
35.224
 20
98.189
 30
0.0
  0
VERTEX
  8
SURVBND
 10
35.226
 20
98.192
 30
0.0
  0
VERTEX
  8
SURVBND
 10
35.223
 20
98.196
 30
0.0
  0
VERTEX
  8
SURVBND
 10
35.221
 20
98.199
 30
0.0
  0
VERTEX
  8
SURVBND
 10
35.219
 20
98.204
 30
0.0
  0
VERTEX
  8
SURVBND
 10
35.219
 20
98.205
 30
0.0
  0
VERTEX
  8
SURVBND
 10
35.225
 20
98.208
 30
0.0
  0
VERTEX
  8
SURVBND
 10
35.228
 20
98.206
 30
0.0
  0
VERTEX
  8
SURVBND
 10
35.24
 20
98.203
 30
0.0
  0
VERTEX
  8
SURVBND
 10
35.244
 20
98.202
 30
0.0
  0
VERTEX
  8
SURVBND
 10
35.257
 20
98.202
 30
0.0
  0
VERTEX
  8
SURVBND
 10
35.261
 20
98.202
 30
0.0
  0
VERTEX
  8
SURVBND
 10
35.261
 20
98.203
 30
0.0
  0
VERTEX
  8
SURVBND
 10
35.268
 20
98.205
 30
0.0
  0
VERTEX
  8
SURVBND
 10
35.273
 20
98.204
 30
0.0
  0
VERTEX
  8
SURVBND
 10
35.283
 20
98.201
 30
0.0
  0
VERTEX
  8
SURVBND
 10
35.295
 20
98.199
 30
0.0
  0
VERTEX
  8
SURVBND
 10
35.312
 20
98.199
 30
0.0
  0
VERTEX
  8
SURVBND
 10
35.315
 20
98.198
 30
0.0
  0
VERTEX
  8
SURVBND
 10
35.333
 20
98.201
 30
0.0
  0
VERTEX
  8
SURVBND
 10
35.341
 20
98.205
 30
0.0
  0
VERTEX
  8
SURVBND
 10
35.345
 20
98.206
 30
0.0
  0
VERTEX
  8
SURVBND
 10
35.36
 20
98.211
 30
0.0
  0
VERTEX
  8
SURVBND
 10
35.363
 20
98.212
 30
0.0
  0
VERTEX
  8
SURVBND
 10
35.375
 20
98.207
 30
0.0
  0
VERTEX
  8
SURVBND
 10
35.378
 20
98.2
 30
0.0
  0
VERTEX
  8
SURVBND
 10
35.399
 20
98.196
 30
0.0
  0
VERTEX
  8
SURVBND
 10
35.407
 20
98.198
 30
0.0
  0
VERTEX
  8
SURVBND
 10
35.416
 20
98.204
 30
0.0
  0
VERTEX
  8
SURVBND
 10
35.419
 20
98.209
 30
0.0
  0
VERTEX
  8
SURVBND
 10
35.419
 20
98.209
 30
0.0
  0
VERTEX
  8
SURVBND
 10
35.426
 20
98.206
 30
0.0
  0
VERTEX
  8
SURVBND
 10
35.44
 20
98.209
 30
0.0
  0
VERTEX
  8
SURVBND
 10
35.447
 20
98.208
 30
0.0
  0
VERTEX
  8
SURVBND
 10
35.454
 20
98.209
 30
0.0
  0
VERTEX
  8
SURVBND
 10
35.462
 20
98.211
 30
0.0
  0
VERTEX
  8
SURVBND
 10
35.477
 20
98.212
 30
0.0
  0
VERTEX
  8
SURVBND
 10
35.488
 20
98.218
 30
0.0
  0
VERTEX
  8
SURVBND
 10
35.494
 20
98.223
 30
0.0
  0
VERTEX
  8
SURVBND
 10
35.498
 20
98.229
 30
0.0
  0
VERTEX
  8
SURVBND
 10
35.5
 20
98.236
 30
0.0
  0
VERTEX
  8
SURVBND
 10
35.501
 20
98.237
 30
0.0
  0
VERTEX
  8
SURVBND
 10
35.507
 20
98.238
 30
0.0
  0
VERTEX
  8
SURVBND
 10
35.51
 20
98.235
 30
0.0
  0
VERTEX
  8
SURVBND
 10
35.516
 20
98.224
 30
0.0
  0
VERTEX
  8
SURVBND
 10
35.524
 20
98.227
 30
0.0
  0
VERTEX
  8
SURVBND
 10
35.531
 20
98.234
 30
0.0
  0
VERTEX
  8
SURVBND
 10
35.536
 20
98.24
 30
0.0
  0
VERTEX
  8
SURVBND
 10
35.547
 20
98.245
 30
0.0
  0
VERTEX
  8
SURVBND
 10
35.552
 20
98.25
 30
0.0
  0
VERTEX
  8
SURVBND
 10
35.557
 20
98.257
 30
0.0
  0
VERTEX
  8
SURVBND
 10
35.562
 20
98.262
 30
0.0
  0
VERTEX
  8
SURVBND
 10
35.576
 20
98.272
 30
0.0
  0
VERTEX
  8
SURVBND
 10
35.586
 20
98.283
 30
0.0
  0
VERTEX
  8
SURVBND
 10
35.592
 20
98.289
 30
0.0
  0
VERTEX
  8
SURVBND
 10
35.598
 20
98.29
 30
0.0
  0
VERTEX
  8
SURVBND
 10
35.596
 20
98.281
 30
0.0
  0
VERTEX
  8
SURVBND
 10
35.601
 20
98.275
 30
0.0
  0
VERTEX
  8
SURVBND
 10
35.612
 20
98.267
 30
0.0
  0
VERTEX
  8
SURVBND
 10
35.621
 20
98.268
 30
0.0
  0
VERTEX
  8
SURVBND
 10
35.638
 20
98.272
 30
0.0
  0
VERTEX
  8
SURVBND
 10
35.642
 20
98.274
 30
0.0
  0
VERTEX
  8
SURVBND
 10
35.652
 20
98.277
 30
0.0
  0
VERTEX
  8
SURVBND
 10
35.657
 20
98.279
 30
0.0
  0
VERTEX
  8
SURVBND
 10
35.664
 20
98.287
 30
0.0
  0
VERTEX
  8
SURVBND
 10
35.667
 20
98.292
 30
0.0
  0
VERTEX
  8
SURVBND
 10
35.672
 20
98.295
 30
0.0
  0
VERTEX
  8
SURVBND
 10
35.675
 20
98.29
 30
0.0
  0
VERTEX
  8
SURVBND
 10
35.68
 20
98.281
 30
0.0
  0
VERTEX
  8
SURVBND
 10
35.69
 20
98.284
 30
0.0
  0
VERTEX
  8
SURVBND
 10
35.692
 20
98.286
 30
0.0
  0
VERTEX
  8
SURVBND
 10
35.703
 20
98.293
 30
0.0
  0
VERTEX
  8
SURVBND
 10
35.709
 20
98.296
 30
0.0
  0
VERTEX
  8
SURVBND
 10
35.717
 20
98.3
 30
0.0
  0
VERTEX
  8
SURVBND
 10
35.719
 20
98.302
 30
0.0
  0
VERTEX
  8
SURVBND
 10
35.729
 20
98.304
 30
0.0
  0
VERTEX
  8
SURVBND
 10
35.734
 20
98.301
 30
0.0
  0
VERTEX
  8
SURVBND
 10
35.739
 20
98.3
 30
0.0
  0
VERTEX
  8
SURVBND
 10
35.74
 20
98.3
 30
0.0
  0
VERTEX
  8
SURVBND
 10
35.745
 20
98.301
 30
0.0
  0
VERTEX
  8
SURVBND
 10
35.746
 20
98.302
 30
0.0
  0
VERTEX
  8
SURVBND
 10
35.754
 20
98.309
 30
0.0
  0
VERTEX
  8
SURVBND
 10
35.757
 20
98.315
 30
0.0
  0
VERTEX
  8
SURVBND
 10
35.769
 20
98.32
 30
0.0
  0
VERTEX
  8
SURVBND
 10
35.787
 20
98.321
 30
0.0
  0
VERTEX
  8
SURVBND
 10
35.787
 20
98.321
 30
0.0
  0
VERTEX
  8
SURVBND
 10
35.801
 20
98.326
 30
0.0
  0
VERTEX
  8
SURVBND
 10
35.813
 20
98.333
 30
0.0
  0
VERTEX
  8
SURVBND
 10
35.829
 20
98.339
 30
0.0
  0
VERTEX
  8
SURVBND
 10
35.838
 20
98.342
 30
0.0
  0
VERTEX
  8
SURVBND
 10
35.853
 20
98.349
 30
0.0
  0
VERTEX
  8
SURVBND
 10
35.872
 20
98.356
 30
0.0
  0
VERTEX
  8
SURVBND
 10
35.876
 20
98.362
 30
0.0
  0
VERTEX
  8
SURVBND
 10
35.88
 20
98.372
 30
0.0
  0
VERTEX
  8
SURVBND
 10
35.875
 20
98.381
 30
0.0
  0
VERTEX
  8
SURVBND
 10
35.875
 20
98.387
 30
0.0
  0
VERTEX
  8
SURVBND
 10
35.885
 20
98.394
 30
0.0
  0
VERTEX
  8
SURVBND
 10
35.889
 20
98.392
 30
0.0
  0
VERTEX
  8
SURVBND
 10
35.893
 20
98.383
 30
0.0
  0
VERTEX
  8
SURVBND
 10
35.898
 20
98.377
 30
0.0
  0
VERTEX
  8
SURVBND
 10
35.91
 20
98.378
 30
0.0
  0
VERTEX
  8
SURVBND
 10
35.916
 20
98.381
 30
0.0
  0
VERTEX
  8
SURVBND
 10
35.916
 20
98.388
 30
0.0
  0
VERTEX
  8
SURVBND
 10
35.913
 20
98.395
 30
0.0
  0
VERTEX
  8
SURVBND
 10
35.914
 20
98.405
 30
0.0
  0
VERTEX
  8
SURVBND
 10
35.923
 20
98.412
 30
0.0
  0
VERTEX
  8
SURVBND
 10
35.933
 20
98.415
 30
0.0
  0
VERTEX
  8
SURVBND
 10
35.941
 20
98.417
 30
0.0
  0
VERTEX
  8
SURVBND
 10
35.954
 20
98.419
 30
0.0
  0
VERTEX
  8
SURVBND
 10
35.954
 20
98.419
 30
0.0
  0
VERTEX
  8
SURVBND
 10
35.953
 20
98.411
 30
0.0
  0
VERTEX
  8
SURVBND
 10
35.952
 20
98.403
 30
0.0
  0
VERTEX
  8
SURVBND
 10
35.96
 20
98.396
 30
0.0
  0
VERTEX
  8
SURVBND
 10
35.966
 20
98.395
 30
0.0
  0
VERTEX
  8
SURVBND
 10
35.984
 20
98.398
 30
0.0
  0
VERTEX
  8
SURVBND
 10
35.991
 20
98.401
 30
0.0
  0
VERTEX
  8
SURVBND
 10
35.999
 20
98.404
 30
0.0
  0
VERTEX
  8
SURVBND
 10
36.004
 20
98.407
 30
0.0
  0
VERTEX
  8
SURVBND
 10
36.012
 20
98.415
 30
0.0
  0
VERTEX
  8
SURVBND
 10
36.019
 20
98.424
 30
0.0
  0
VERTEX
  8
SURVBND
 10
36.024
 20
98.433
 30
0.0
  0
VERTEX
  8
SURVBND
 10
36.059
 20
98.39
 30
0.0
  0
VERTEX
  8
SURVBND
 10
36.121
 20
98.403
 30
0.0
  0
VERTEX
  8
SURVBND
 10
36.147
 20
98.421
 30
0.0
  0
VERTEX
  8
SURVBND
 10
36.188
 20
98.467
 30
0.0
  0
VERTEX
  8
SURVBND
 10
36.191
 20
98.466
 30
0.0
  0
VERTEX
  8
SURVBND
 10
36.199
 20
98.466
 30
0.0
  0
VERTEX
  8
SURVBND
 10
36.212
 20
98.468
 30
0.0
  0
VERTEX
  8
SURVBND
 10
36.214
 20
98.47
 30
0.0
  0
VERTEX
  8
SURVBND
 10
36.221
 20
98.475
 30
0.0
  0
VERTEX
  8
SURVBND
 10
36.233
 20
98.483
 30
0.0
  0
VERTEX
  8
SURVBND
 10
36.238
 20
98.488
 30
0.0
  0
VERTEX
  8
SURVBND
 10
36.241
 20
98.496
 30
0.0
  0
VERTEX
  8
SURVBND
 10
36.246
 20
98.504
 30
0.0
  0
VERTEX
  8
SURVBND
 10
36.255
 20
98.514
 30
0.0
  0
VERTEX
  8
SURVBND
 10
36.262
 20
98.52
 30
0.0
  0
VERTEX
  8
SURVBND
 10
36.272
 20
98.528
 30
0.0
  0
VERTEX
  8
SURVBND
 10
36.275
 20
98.529
 30
0.0
  0
VERTEX
  8
SURVBND
 10
36.291
 20
98.528
 30
0.0
  0
VERTEX
  8
SURVBND
 10
36.294
 20
98.528
 30
0.0
  0
VERTEX
  8
SURVBND
 10
36.3
 20
98.529
 30
0.0
  0
VERTEX
  8
SURVBND
 10
36.304
 20
98.538
 30
0.0
  0
VERTEX
  8
SURVBND
 10
36.307
 20
98.543
 30
0.0
  0
VERTEX
  8
SURVBND
 10
36.313
 20
98.547
 30
0.0
  0
VERTEX
  8
SURVBND
 10
36.319
 20
98.556
 30
0.0
  0
VERTEX
  8
SURVBND
 10
36.324
 20
98.569
 30
0.0
  0
VERTEX
  8
SURVBND
 10
36.327
 20
98.576
 30
0.0
  0
VERTEX
  8
SURVBND
 10
36.328
 20
98.583
 30
0.0
  0
VERTEX
  8
SURVBND
 10
36.327
 20
98.591
 30
0.0
  0
VERTEX
  8
SURVBND
 10
36.327
 20
98.593
 30
0.0
  0
VERTEX
  8
SURVBND
 10
36.356
 20
98.613
 30
0.0
  0
VERTEX
  8
SURVBND
 10
36.365
 20
98.618
 30
0.0
  0
VERTEX
  8
SURVBND
 10
36.363
 20
98.634
 30
0.0
  0
VERTEX
  8
SURVBND
 10
36.371
 20
98.646
 30
0.0
  0
VERTEX
  8
SURVBND
 10
36.379
 20
98.648
 30
0.0
  0
VERTEX
  8
SURVBND
 10
36.381
 20
98.643
 30
0.0
  0
VERTEX
  8
SURVBND
 10
36.388
 20
98.642
 30
0.0
  0
VERTEX
  8
SURVBND
 10
36.4
 20
98.647
 30
0.0
  0
VERTEX
  8
SURVBND
 10
36.41
 20
98.654
 30
0.0
  0
VERTEX
  8
SURVBND
 10
36.419
 20
98.66
 30
0.0
  0
VERTEX
  8
SURVBND
 10
36.424
 20
98.664
 30
0.0
  0
VERTEX
  8
SURVBND
 10
36.432
 20
98.669
 30
0.0
  0
VERTEX
  8
SURVBND
 10
36.441
 20
98.673
 30
0.0
  0
VERTEX
  8
SURVBND
 10
36.455
 20
98.681
 30
0.0
  0
VERTEX
  8
SURVBND
 10
36.458
 20
98.686
 30
0.0
  0
VERTEX
  8
SURVBND
 10
36.459
 20
98.69
 30
0.0
  0
VERTEX
  8
SURVBND
 10
36.454
 20
98.703
 30
0.0
  0
VERTEX
  8
SURVBND
 10
36.459
 20
98.706
 30
0.0
  0
VERTEX
  8
SURVBND
 10
36.48
 20
98.714
 30
0.0
  0
VERTEX
  8
SURVBND
 10
36.491
 20
98.718
 30
0.0
  0
VERTEX
  8
SURVBND
 10
36.495
 20
98.72
 30
0.0
  0
VERTEX
  8
SURVBND
 10
36.504
 20
98.725
 30
0.0
  0
VERTEX
  8
SURVBND
 10
36.508
 20
98.732
 30
0.0
  0
VERTEX
  8
SURVBND
 10
36.519
 20
98.741
 30
0.0
  0
VERTEX
  8
SURVBND
 10
36.53
 20
98.747
 30
0.0
  0
VERTEX
  8
SURVBND
 10
36.533
 20
98.748
 30
0.0
  0
VERTEX
  8
SURVBND
 10
36.539
 20
98.741
 30
0.0
  0
VERTEX
  8
SURVBND
 10
36.543
 20
98.738
 30
0.0
  0
VERTEX
  8
SURVBND
 10
36.549
 20
98.734
 30
0.0
  0
VERTEX
  8
SURVBND
 10
36.555
 20
98.73
 30
0.0
  0
VERTEX
  8
SURVBND
 10
36.559
 20
98.728
 30
0.0
  0
VERTEX
  8
SURVBND
 10
36.565
 20
98.726
 30
0.0
  0
VERTEX
  8
SURVBND
 10
36.572
 20
98.726
 30
0.0
  0
VERTEX
  8
SURVBND
 10
36.579
 20
98.731
 30
0.0
  0
VERTEX
  8
SURVBND
 10
36.58
 20
98.737
 30
0.0
  0
VERTEX
  8
SURVBND
 10
36.581
 20
98.743
 30
0.0
  0
VERTEX
  8
SURVBND
 10
36.58
 20
98.749
 30
0.0
  0
VERTEX
  8
SURVBND
 10
36.594
 20
98.763
 30
0.0
  0
VERTEX
  8
SURVBND
 10
36.608
 20
98.764
 30
0.0
  0
VERTEX
  8
SURVBND
 10
36.614
 20
98.759
 30
0.0
  0
VERTEX
  8
SURVBND
 10
36.618
 20
98.754
 30
0.0
  0
VERTEX
  8
SURVBND
 10
36.621
 20
98.749
 30
0.0
  0
VERTEX
  8
SURVBND
 10
36.629
 20
98.747
 30
0.0
  0
VERTEX
  8
SURVBND
 10
36.638
 20
98.744
 30
0.0
  0
VERTEX
  8
SURVBND
 10
36.652
 20
98.744
 30
0.0
  0
VERTEX
  8
SURVBND
 10
36.653
 20
98.745
 30
0.0
  0
VERTEX
  8
SURVBND
 10
36.66
 20
98.748
 30
0.0
  0
VERTEX
  8
SURVBND
 10
36.663
 20
98.747
 30
0.0
  0
VERTEX
  8
SURVBND
 10
36.695
 20
98.742
 30
0.0
  0
VERTEX
  8
SURVBND
 10
36.701
 20
98.738
 30
0.0
  0
VERTEX
  8
SURVBND
 10
36.71
 20
98.731
 30
0.0
  0
VERTEX
  8
SURVBND
 10
36.714
 20
98.724
 30
0.0
  0
VERTEX
  8
SURVBND
 10
36.714
 20
98.717
 30
0.0
  0
VERTEX
  8
SURVBND
 10
36.713
 20
98.709
 30
0.0
  0
VERTEX
  8
SURVBND
 10
36.716
 20
98.703
 30
0.0
  0
VERTEX
  8
SURVBND
 10
36.718
 20
98.7
 30
0.0
  0
VERTEX
  8
SURVBND
 10
36.721
 20
98.694
 30
0.0
  0
VERTEX
  8
SURVBND
 10
36.723
 20
98.69
 30
0.0
  0
VERTEX
  8
SURVBND
 10
36.721
 20
98.682
 30
0.0
  0
VERTEX
  8
SURVBND
 10
36.72
 20
98.675
 30
0.0
  0
VERTEX
  8
SURVBND
 10
36.728
 20
98.672
 30
0.0
  0
VERTEX
  8
SURVBND
 10
36.739
 20
98.671
 30
0.0
  0
VERTEX
  8
SURVBND
 10
36.749
 20
98.669
 30
0.0
  0
VERTEX
  8
SURVBND
 10
36.753
 20
98.666
 30
0.0
  0
VERTEX
  8
SURVBND
 10
36.764
 20
98.663
 30
0.0
  0
VERTEX
  8
SURVBND
 10
36.773
 20
98.663
 30
0.0
  0
VERTEX
  8
SURVBND
 10
36.781
 20
98.663
 30
0.0
  0
VERTEX
  8
SURVBND
 10
36.784
 20
98.665
 30
0.0
  0
VERTEX
  8
SURVBND
 10
36.795
 20
98.667
 30
0.0
  0
VERTEX
  8
SURVBND
 10
36.799
 20
98.67
 30
0.0
  0
VERTEX
  8
SURVBND
 10
36.809
 20
98.677
 30
0.0
  0
VERTEX
  8
SURVBND
 10
36.822
 20
98.683
 30
0.0
  0
VERTEX
  8
SURVBND
 10
36.826
 20
98.684
 30
0.0
  0
VERTEX
  8
SURVBND
 10
36.838
 20
98.681
 30
0.0
  0
VERTEX
  8
SURVBND
 10
36.839
 20
98.675
 30
0.0
  0
VERTEX
  8
SURVBND
 10
36.833
 20
98.668
 30
0.0
  0
VERTEX
  8
SURVBND
 10
36.83
 20
98.664
 30
0.0
  0
VERTEX
  8
SURVBND
 10
36.823
 20
98.656
 30
0.0
  0
VERTEX
  8
SURVBND
 10
36.815
 20
98.646
 30
0.0
  0
VERTEX
  8
SURVBND
 10
36.813
 20
98.639
 30
0.0
  0
VERTEX
  8
SURVBND
 10
36.811
 20
98.633
 30
0.0
  0
VERTEX
  8
SURVBND
 10
36.809
 20
98.626
 30
0.0
  0
VERTEX
  8
SURVBND
 10
36.809
 20
98.625
 30
0.0
  0
VERTEX
  8
SURVBND
 10
36.805
 20
98.616
 30
0.0
  0
VERTEX
  8
SURVBND
 10
36.794
 20
98.604
 30
0.0
  0
VERTEX
  8
SURVBND
 10
36.794
 20
98.599
 30
0.0
  0
VERTEX
  8
SURVBND
 10
36.79
 20
98.576
 30
0.0
  0
VERTEX
  8
SURVBND
 10
36.789
 20
98.571
 30
0.0
  0
VERTEX
  8
SURVBND
 10
36.789
 20
98.56
 30
0.0
  0
VERTEX
  8
SURVBND
 10
36.788
 20
98.556
 30
0.0
  0
VERTEX
  8
SURVBND
 10
36.791
 20
98.546
 30
0.0
  0
VERTEX
  8
SURVBND
 10
36.797
 20
98.536
 30
0.0
  0
VERTEX
  8
SURVBND
 10
36.799
 20
98.535
 30
0.0
  0
VERTEX
  8
SURVBND
 10
36.806
 20
98.533
 30
0.0
  0
VERTEX
  8
SURVBND
 10
36.818
 20
98.529
 30
0.0
  0
VERTEX
  8
SURVBND
 10
36.825
 20
98.527
 30
0.0
  0
VERTEX
  8
SURVBND
 10
36.836
 20
98.52
 30
0.0
  0
VERTEX
  8
SURVBND
 10
36.838
 20
98.511
 30
0.0
  0
VERTEX
  8
SURVBND
 10
36.837
 20
98.505
 30
0.0
  0
VERTEX
  8
SURVBND
 10
36.834
 20
98.496
 30
0.0
  0
VERTEX
  8
SURVBND
 10
36.834
 20
98.487
 30
0.0
  0
VERTEX
  8
SURVBND
 10
36.828
 20
98.466
 30
0.0
  0
VERTEX
  8
SURVBND
 10
36.829
 20
98.459
 30
0.0
  0
VERTEX
  8
SURVBND
 10
36.83
 20
98.444
 30
0.0
  0
VERTEX
  8
SURVBND
 10
36.832
 20
98.434
 30
0.0
  0
VERTEX
  8
SURVBND
 10
36.837
 20
98.419
 30
0.0
  0
VERTEX
  8
SURVBND
 10
36.84
 20
98.414
 30
0.0
  0
VERTEX
  8
SURVBND
 10
36.845
 20
98.409
 30
0.0
  0
VERTEX
  8
SURVBND
 10
36.848
 20
98.403
 30
0.0
  0
VERTEX
  8
SURVBND
 10
36.852
 20
98.389
 30
0.0
  0
VERTEX
  8
SURVBND
 10
36.854
 20
98.381
 30
0.0
  0
VERTEX
  8
SURVBND
 10
36.853
 20
98.375
 30
0.0
  0
VERTEX
  8
SURVBND
 10
36.85
 20
98.366
 30
0.0
  0
VERTEX
  8
SURVBND
 10
36.846
 20
98.357
 30
0.0
  0
VERTEX
  8
SURVBND
 10
36.845
 20
98.345
 30
0.0
  0
VERTEX
  8
SURVBND
 10
36.845
 20
98.339
 30
0.0
  0
VERTEX
  8
SURVBND
 10
36.854
 20
98.334
 30
0.0
  0
VERTEX
  8
SURVBND
 10
36.867
 20
98.33
 30
0.0
  0
VERTEX
  8
SURVBND
 10
36.877
 20
98.32
 30
0.0
  0
VERTEX
  8
SURVBND
 10
36.881
 20
98.308
 30
0.0
  0
VERTEX
  8
SURVBND
 10
36.884
 20
98.3
 30
0.0
  0
VERTEX
  8
SURVBND
 10
36.886
 20
98.29
 30
0.0
  0
VERTEX
  8
SURVBND
 10
36.887
 20
98.282
 30
0.0
  0
VERTEX
  8
SURVBND
 10
36.881
 20
98.269
 30
0.0
  0
VERTEX
  8
SURVBND
 10
36.881
 20
98.265
 30
0.0
  0
VERTEX
  8
SURVBND
 10
36.883
 20
98.259
 30
0.0
  0
VERTEX
  8
SURVBND
 10
36.877
 20
98.242
 30
0.0
  0
VERTEX
  8
SURVBND
 10
36.877
 20
98.24
 30
0.0
  0
VERTEX
  8
SURVBND
 10
36.883
 20
98.232
 30
0.0
  0
VERTEX
  8
SURVBND
 10
36.902
 20
98.225
 30
0.0
  0
VERTEX
  8
SURVBND
 10
36.906
 20
98.224
 30
0.0
  0
VERTEX
  8
SURVBND
 10
36.919
 20
98.22
 30
0.0
  0
VERTEX
  8
SURVBND
 10
36.93
 20
98.226
 30
0.0
  0
VERTEX
  8
SURVBND
 10
36.929
 20
98.231
 30
0.0
  0
VERTEX
  8
SURVBND
 10
36.924
 20
98.239
 30
0.0
  0
VERTEX
  8
SURVBND
 10
36.92
 20
98.246
 30
0.0
  0
VERTEX
  8
SURVBND
 10
36.922
 20
98.258
 30
0.0
  0
VERTEX
  8
SURVBND
 10
36.919
 20
98.268
 30
0.0
  0
VERTEX
  8
SURVBND
 10
36.92
 20
98.275
 30
0.0
  0
VERTEX
  8
SURVBND
 10
36.919
 20
98.284
 30
0.0
  0
VERTEX
  8
SURVBND
 10
36.915
 20
98.297
 30
0.0
  0
VERTEX
  8
SURVBND
 10
36.913
 20
98.303
 30
0.0
  0
VERTEX
  8
SURVBND
 10
36.917
 20
98.314
 30
0.0
  0
VERTEX
  8
SURVBND
 10
36.921
 20
98.333
 30
0.0
  0
VERTEX
  8
SURVBND
 10
36.921
 20
98.343
 30
0.0
  0
VERTEX
  8
SURVBND
 10
36.924
 20
98.35
 30
0.0
  0
VERTEX
  8
SURVBND
 10
36.927
 20
98.369
 30
0.0
  0
VERTEX
  8
SURVBND
 10
36.926
 20
98.375
 30
0.0
  0
VERTEX
  8
SURVBND
 10
36.924
 20
98.382
 30
0.0
  0
VERTEX
  8
SURVBND
 10
36.923
 20
98.4
 30
0.0
  0
VERTEX
  8
SURVBND
 10
36.922
 20
98.407
 30
0.0
  0
VERTEX
  8
SURVBND
 10
36.923
 20
98.414
 30
0.0
  0
VERTEX
  8
SURVBND
 10
36.914
 20
98.433
 30
0.0
  0
VERTEX
  8
SURVBND
 10
36.913
 20
98.435
 30
0.0
  0
VERTEX
  8
SURVBND
 10
36.906
 20
98.456
 30
0.0
  0
VERTEX
  8
SURVBND
 10
36.911
 20
98.475
 30
0.0
  0
VERTEX
  8
SURVBND
 10
36.906
 20
98.486
 30
0.0
  0
VERTEX
  8
SURVBND
 10
36.911
 20
98.495
 30
0.0
  0
VERTEX
  8
SURVBND
 10
36.925
 20
98.489
 30
0.0
  0
VERTEX
  8
SURVBND
 10
36.936
 20
98.488
 30
0.0
  0
VERTEX
  8
SURVBND
 10
36.941
 20
98.489
 30
0.0
  0
VERTEX
  8
SURVBND
 10
36.947
 20
98.485
 30
0.0
  0
VERTEX
  8
SURVBND
 10
36.95
 20
98.485
 30
0.0
  0
VERTEX
  8
SURVBND
 10
36.953
 20
98.487
 30
0.0
  0
VERTEX
  8
SURVBND
 10
36.955
 20
98.493
 30
0.0
  0
VERTEX
  8
SURVBND
 10
36.957
 20
98.497
 30
0.0
  0
VERTEX
  8
SURVBND
 10
36.967
 20
98.503
 30
0.0
  0
VERTEX
  8
SURVBND
 10
36.971
 20
98.505
 30
0.0
  0
VERTEX
  8
SURVBND
 10
36.975
 20
98.506
 30
0.0
  0
VERTEX
  8
SURVBND
 10
36.983
 20
98.502
 30
0.0
  0
VERTEX
  8
SURVBND
 10
36.986
 20
98.497
 30
0.0
  0
VERTEX
  8
SURVBND
 10
36.991
 20
98.482
 30
0.0
  0
VERTEX
  8
SURVBND
 10
36.994
 20
98.469
 30
0.0
  0
VERTEX
  8
SURVBND
 10
36.996
 20
98.453
 30
0.0
  0
VERTEX
  8
SURVBND
 10
36.998
 20
98.44
 30
0.0
  0
VERTEX
  8
SURVBND
 10
37.0
 20
98.426
 30
0.0
  0
VERTEX
  8
SURVBND
 10
37.0
 20
98.407
 30
0.0
  0
VERTEX
  8
SURVBND
 10
37.0
 20
98.398
 30
0.0
  0
VERTEX
  8
SURVBND
 10
36.999
 20
98.384
 30
0.0
  0
VERTEX
  8
SURVBND
 10
37.0
 20
98.376
 30
0.0
  0
VERTEX
  8
SURVBND
 10
37.003
 20
98.359
 30
0.0
  0
VERTEX
  8
SURVBND
 10
37.003
 20
98.346
 30
0.0
  0
VERTEX
  8
SURVBND
 10
37.004
 20
98.338
 30
0.0
  0
VERTEX
  8
SURVBND
 10
37.012
 20
98.324
 30
0.0
  0
VERTEX
  8
SURVBND
 10
37.022
 20
98.311
 30
0.0
  0
VERTEX
  8
SURVBND
 10
37.024
 20
98.295
 30
0.0
  0
VERTEX
  8
SURVBND
 10
37.023
 20
98.283
 30
0.0
  0
VERTEX
  8
SURVBND
 10
37.022
 20
98.269
 30
0.0
  0
VERTEX
  8
SURVBND
 10
37.025
 20
98.258
 30
0.0
  0
VERTEX
  8
SURVBND
 10
37.03
 20
98.244
 30
0.0
  0
VERTEX
  8
SURVBND
 10
37.03
 20
98.229
 30
0.0
  0
VERTEX
  8
SURVBND
 10
37.031
 20
98.216
 30
0.0
  0
VERTEX
  8
SURVBND
 10
37.039
 20
98.206
 30
0.0
  0
VERTEX
  8
SURVBND
 10
37.041
 20
98.186
 30
0.0
  0
VERTEX
  8
SURVBND
 10
37.037
 20
98.17
 30
0.0
  0
VERTEX
  8
SURVBND
 10
37.038
 20
98.16
 30
0.0
  0
VERTEX
  8
SURVBND
 10
37.042
 20
98.147
 30
0.0
  0
VERTEX
  8
SURVBND
 10
37.042
 20
98.133
 30
0.0
  0
VERTEX
  8
SURVBND
 10
37.042
 20
98.119
 30
0.0
  0
VERTEX
  8
SURVBND
 10
37.043
 20
98.11
 30
0.0
  0
VERTEX
  8
SURVBND
 10
37.044
 20
98.1
 30
0.0
  0
VERTEX
  8
SURVBND
 10
37.046
 20
98.089
 30
0.0
  0
VERTEX
  8
SURVBND
 10
37.047
 20
98.08
 30
0.0
  0
VERTEX
  8
SURVBND
 10
37.05
 20
98.072
 30
0.0
  0
VERTEX
  8
SURVBND
 10
37.057
 20
98.065
 30
0.0
  0
VERTEX
  8
SURVBND
 10
37.061
 20
98.055
 30
0.0
  0
VERTEX
  8
SURVBND
 10
37.063
 20
98.047
 30
0.0
  0
VERTEX
  8
SURVBND
 10
37.063
 20
98.03
 30
0.0
  0
VERTEX
  8
SURVBND
 10
37.067
 20
98.013
 30
0.0
  0
VERTEX
  8
SURVBND
 10
37.072
 20
97.998
 30
0.0
  0
VERTEX
  8
SURVBND
 10
37.078
 20
97.985
 30
0.0
  0
VERTEX
  8
SURVBND
 10
37.083
 20
97.977
 30
0.0
  0
VERTEX
  8
SURVBND
 10
37.086
 20
97.966
 30
0.0
  0
VERTEX
  8
SURVBND
 10
37.091
 20
97.955
 30
0.0
  0
VERTEX
  8
SURVBND
 10
37.093
 20
97.935
 30
0.0
  0
VERTEX
  8
SURVBND
 10
37.098
 20
97.923
 30
0.0
  0
VERTEX
  8
SURVBND
 10
37.102
 20
97.906
 30
0.0
  0
VERTEX
  8
SURVBND
 10
37.102
 20
97.895
 30
0.0
  0
VERTEX
  8
SURVBND
 10
37.101
 20
97.883
 30
0.0
  0
VERTEX
  8
SURVBND
 10
37.102
 20
97.876
 30
0.0
  0
VERTEX
  8
SURVBND
 10
37.103
 20
97.865
 30
0.0
  0
VERTEX
  8
SURVBND
 10
37.101
 20
97.857
 30
0.0
  0
VERTEX
  8
SURVBND
 10
37.099
 20
97.848
 30
0.0
  0
VERTEX
  8
SURVBND
 10
37.096
 20
97.843
 30
0.0
  0
VERTEX
  8
SURVBND
 10
37.09
 20
97.834
 30
0.0
  0
VERTEX
  8
SURVBND
 10
37.088
 20
97.826
 30
0.0
  0
VERTEX
  8
SURVBND
 10
37.083
 20
97.813
 30
0.0
  0
VERTEX
  8
SURVBND
 10
37.082
 20
97.804
 30
0.0
  0
VERTEX
  8
SURVBND
 10
37.08
 20
97.791
 30
0.0
  0
VERTEX
  8
SURVBND
 10
37.083
 20
97.776
 30
0.0
  0
VERTEX
  8
SURVBND
 10
37.089
 20
97.766
 30
0.0
  0
VERTEX
  8
SURVBND
 10
37.087
 20
97.75
 30
0.0
  0
VERTEX
  8
SURVBND
 10
37.086
 20
97.74
 30
0.0
  0
VERTEX
  8
SURVBND
 10
37.086
 20
97.725
 30
0.0
  0
VERTEX
  8
SURVBND
 10
37.078
 20
97.71
 30
0.0
  0
VERTEX
  8
SURVBND
 10
37.078
 20
97.697
 30
0.0
  0
VERTEX
  8
SURVBND
 10
37.08
 20
97.687
 30
0.0
  0
VERTEX
  8
SURVBND
 10
37.084
 20
97.674
 30
0.0
  0
VERTEX
  8
SURVBND
 10
37.091
 20
97.657
 30
0.0
  0
VERTEX
  8
SURVBND
 10
37.098
 20
97.643
 30
0.0
  0
VERTEX
  8
SURVBND
 10
37.103
 20
97.632
 30
0.0
  0
VERTEX
  8
SURVBND
 10
37.107
 20
97.625
 30
0.0
  0
VERTEX
  8
SURVBND
 10
37.108
 20
97.623
 30
0.0
  0
VERTEX
  8
SURVBND
 10
37.111
 20
97.62
 30
0.0
  0
VERTEX
  8
SURVBND
 10
37.116
 20
97.61
 30
0.0
  0
VERTEX
  8
SURVBND
 10
37.126
 20
97.608
 30
0.0
  0
VERTEX
  8
SURVBND
 10
37.135
 20
97.61
 30
0.0
  0
VERTEX
  8
SURVBND
 10
37.144
 20
97.62
 30
0.0
  0
VERTEX
  8
SURVBND
 10
37.154
 20
97.63
 30
0.0
  0
VERTEX
  8
SURVBND
 10
37.16
 20
97.636
 30
0.0
  0
VERTEX
  8
SURVBND
 10
37.169
 20
97.641
 30
0.0
  0
VERTEX
  8
SURVBND
 10
37.211
 20
97.672
 30
0.0
  0
VERTEX
  8
SURVBND
 10
37.22
 20
97.682
 30
0.0
  0
VERTEX
  8
SURVBND
 10
37.23
 20
97.686
 30
0.0
  0
VERTEX
  8
SURVBND
 10
37.234
 20
97.682
 30
0.0
  0
VERTEX
  8
SURVBND
 10
37.236
 20
97.676
 30
0.0
  0
VERTEX
  8
SURVBND
 10
37.232
 20
97.665
 30
0.0
  0
VERTEX
  8
SURVBND
 10
37.232
 20
97.661
 30
0.0
  0
VERTEX
  8
SURVBND
 10
37.231
 20
97.65
 30
0.0
  0
VERTEX
  8
SURVBND
 10
37.213
 20
97.642
 30
0.0
  0
VERTEX
  8
SURVBND
 10
37.212
 20
97.639
 30
0.0
  0
VERTEX
  8
SURVBND
 10
37.209
 20
97.628
 30
0.0
  0
VERTEX
  8
SURVBND
 10
37.21
 20
97.621
 30
0.0
  0
VERTEX
  8
SURVBND
 10
37.213
 20
97.616
 30
0.0
  0
VERTEX
  8
SURVBND
 10
37.212
 20
97.599
 30
0.0
  0
VERTEX
  8
SURVBND
 10
37.59
 20
97.609
 30
0.0
  0
VERTEX
  8
SURVBND
 10
38.329
 20
97.931
 30
0.0
  0
VERTEX
  8
SURVBND
 10
38.315
 20
98.54
 30
0.0
  0
VERTEX
  8
SURVBND
 10
38.772
 20
98.507
 30
0.0
  0
VERTEX
  8
SURVBND
 10
38.758
 20
98.435
 30
0.0
  0
VERTEX
  8
SURVBND
 10
39.221
 20
98.531
 30
0.0
  0
VERTEX
  8
SURVBND
 10
39.331
 20
98.493
 30
0.0
  0
VERTEX
  8
SURVBND
 10
39.364
 20
98.411
 30
0.0
  0
VERTEX
  8
SURVBND
 10
39.601
 20
98.483
 30
0.0
  0
VERTEX
  8
SURVBND
 10
39.594
 20
98.009
 30
0.0
  0
VERTEX
  8
SURVBND
 10
39.539
 20
97.98
 30
0.0
  0
VERTEX
  8
SURVBND
 10
39.643
 20
97.88
 30
0.0
  0
VERTEX
  8
SURVBND
 10
39.467
 20
97.629
 30
0.0
  0
VERTEX
  8
SURVBND
 10
39.482
 20
97.54
 30
0.0
  0
VERTEX
  8
SURVBND
 10
39.438
 20
97.478
 30
0.0
  0
VERTEX
  8
SURVBND
 10
39.442
 20
97.481
 30
0.0
  0
VERTEX
  8
SURVBND
 10
39.443
 20
97.481
 30
0.0
  0
VERTEX
  8
SURVBND
 10
39.445
 20
97.481
 30
0.0
  0
VERTEX
  8
SURVBND
 10
39.471
 20
97.482
 30
0.0
  0
VERTEX
  8
SURVBND
 10
39.476
 20
97.46
 30
0.0
  0
VERTEX
  8
SURVBND
 10
39.489
 20
97.46
 30
0.0
  0
VERTEX
  8
SURVBND
 10
39.504
 20
97.455
 30
0.0
  0
VERTEX
  8
SURVBND
 10
39.514
 20
97.45
 30
0.0
  0
VERTEX
  8
SURVBND
 10
39.517
 20
97.438
 30
0.0
  0
VERTEX
  8
SURVBND
 10
39.539
 20
97.442
 30
0.0
  0
VERTEX
  8
SURVBND
 10
39.541
 20
97.443
 30
0.0
  0
VERTEX
  8
SURVBND
 10
39.544
 20
97.449
 30
0.0
  0
VERTEX
  8
SURVBND
 10
39.559
 20
97.463
 30
0.0
  0
VERTEX
  8
SURVBND
 10
39.564
 20
97.471
 30
0.0
  0
VERTEX
  8
SURVBND
 10
39.579
 20
97.46
 30
0.0
  0
VERTEX
  8
SURVBND
 10
39.576
 20
97.457
 30
0.0
  0
VERTEX
  8
SURVBND
 10
39.575
 20
97.454
 30
0.0
  0
VERTEX
  8
SURVBND
 10
39.581
 20
97.445
 30
0.0
  0
VERTEX
  8
SURVBND
 10
39.588
 20
97.443
 30
0.0
  0
VERTEX
  8
SURVBND
 10
39.59
 20
97.44
 30
0.0
  0
VERTEX
  8
SURVBND
 10
39.594
 20
97.427
 30
0.0
  0
VERTEX
  8
SURVBND
 10
39.594
 20
97.426
 30
0.0
  0
VERTEX
  8
SURVBND
 10
39.599
 20
97.425
 30
0.0
  0
VERTEX
  8
SURVBND
 10
39.6
 20
97.425
 30
0.0
  0
VERTEX
  8
SURVBND
 10
39.609
 20
97.42
 30
0.0
  0
VERTEX
  8
SURVBND
 10
39.614
 20
97.412
 30
0.0
  0
VERTEX
  8
SURVBND
 10
39.619
 20
97.414
 30
0.0
  0
VERTEX
  8
SURVBND
 10
39.64
 20
97.418
 30
0.0
  0
VERTEX
  8
SURVBND
 10
39.643
 20
97.411
 30
0.0
  0
VERTEX
  8
SURVBND
 10
39.64
 20
97.398
 30
0.0
  0
VERTEX
  8
SURVBND
 10
39.639
 20
97.389
 30
0.0
  0
VERTEX
  8
SURVBND
 10
39.66
 20
97.39
 30
0.0
  0
VERTEX
  8
SURVBND
 10
39.674
 20
97.401
 30
0.0
  0
VERTEX
  8
SURVBND
 10
39.693
 20
97.392
 30
0.0
  0
VERTEX
  8
SURVBND
 10
39.702
 20
97.389
 30
0.0
  0
VERTEX
  8
SURVBND
 10
39.704
 20
97.372
 30
0.0
  0
VERTEX
  8
SURVBND
 10
39.709
 20
97.369
 30
0.0
  0
VERTEX
  8
SURVBND
 10
39.726
 20
97.365
 30
0.0
  0
VERTEX
  8
SURVBND
 10
39.729
 20
97.361
 30
0.0
  0
VERTEX
  8
SURVBND
 10
39.735
 20
97.353
 30
0.0
  0
VERTEX
  8
SURVBND
 10
39.745
 20
97.348
 30
0.0
  0
VERTEX
  8
SURVBND
 10
39.759
 20
97.35
 30
0.0
  0
VERTEX
  8
SURVBND
 10
39.771
 20
97.348
 30
0.0
  0
VERTEX
  8
SURVBND
 10
39.79
 20
97.344
 30
0.0
  0
VERTEX
  8
SURVBND
 10
39.785
 20
97.332
 30
0.0
  0
VERTEX
  8
SURVBND
 10
39.772
 20
97.323
 30
0.0
  0
VERTEX
  8
SURVBND
 10
39.778
 20
97.312
 30
0.0
  0
VERTEX
  8
SURVBND
 10
39.789
 20
97.31
 30
0.0
  0
VERTEX
  8
SURVBND
 10
39.802
 20
97.315
 30
0.0
  0
VERTEX
  8
SURVBND
 10
39.809
 20
97.318
 30
0.0
  0
VERTEX
  8
SURVBND
 10
39.821
 20
97.325
 30
0.0
  0
VERTEX
  8
SURVBND
 10
39.843
 20
97.325
 30
0.0
  0
VERTEX
  8
SURVBND
 10
39.846
 20
97.318
 30
0.0
  0
VERTEX
  8
SURVBND
 10
39.848
 20
97.31
 30
0.0
  0
VERTEX
  8
SURVBND
 10
39.853
 20
97.308
 30
0.0
  0
VERTEX
  8
SURVBND
 10
39.867
 20
97.305
 30
0.0
  0
VERTEX
  8
SURVBND
 10
39.881
 20
97.296
 30
0.0
  0
VERTEX
  8
SURVBND
 10
39.885
 20
97.292
 30
0.0
  0
VERTEX
  8
SURVBND
 10
39.897
 20
97.275
 30
0.0
  0
VERTEX
  8
SURVBND
 10
39.909
 20
97.272
 30
0.0
  0
VERTEX
  8
SURVBND
 10
39.918
 20
97.263
 30
0.0
  0
VERTEX
  8
SURVBND
 10
39.915
 20
97.247
 30
0.0
  0
VERTEX
  8
SURVBND
 10
39.927
 20
97.24
 30
0.0
  0
VERTEX
  8
SURVBND
 10
39.945
 20
97.238
 30
0.0
  0
VERTEX
  8
SURVBND
 10
39.945
 20
97.24
 30
0.0
  0
VERTEX
  8
SURVBND
 10
39.953
 20
97.243
 30
0.0
  0
VERTEX
  8
SURVBND
 10
39.959
 20
97.237
 30
0.0
  0
VERTEX
  8
SURVBND
 10
39.963
 20
97.229
 30
0.0
  0
VERTEX
  8
SURVBND
 10
39.966
 20
97.219
 30
0.0
  0
VERTEX
  8
SURVBND
 10
39.964
 20
97.211
 30
0.0
  0
VERTEX
  8
SURVBND
 10
39.955
 20
97.199
 30
0.0
  0
VERTEX
  8
SURVBND
 10
39.959
 20
97.192
 30
0.0
  0
VERTEX
  8
SURVBND
 10
39.956
 20
97.182
 30
0.0
  0
VERTEX
  8
SURVBND
 10
39.952
 20
97.163
 30
0.0
  0
VERTEX
  8
SURVBND
 10
39.953
 20
97.163
 30
0.0
  0
VERTEX
  8
SURVBND
 10
39.968
 20
97.159
 30
0.0
  0
VERTEX
  8
SURVBND
 10
39.975
 20
97.153
 30
0.0
  0
VERTEX
  8
SURVBND
 10
39.98
 20
97.145
 30
0.0
  0
VERTEX
  8
SURVBND
 10
39.982
 20
97.135
 30
0.0
  0
VERTEX
  8
SURVBND
 10
39.991
 20
97.129
 30
0.0
  0
VERTEX
  8
SURVBND
 10
40.008
 20
97.114
 30
0.0
  0
VERTEX
  8
SURVBND
 10
40.021
 20
97.103
 30
0.0
  0
VERTEX
  8
SURVBND
 10
40.022
 20
97.1
 30
0.0
  0
VERTEX
  8
SURVBND
 10
40.025
 20
97.091
 30
0.0
  0
VERTEX
  8
SURVBND
 10
40.006
 20
97.076
 30
0.0
  0
VERTEX
  8
SURVBND
 10
40.008
 20
97.059
 30
0.0
  0
VERTEX
  8
SURVBND
 10
40.019
 20
97.053
 30
0.0
  0
VERTEX
  8
SURVBND
 10
40.022
 20
97.034
 30
0.0
  0
VERTEX
  8
SURVBND
 10
40.012
 20
97.019
 30
0.0
  0
VERTEX
  8
SURVBND
 10
40.014
 20
97.005
 30
0.0
  0
VERTEX
  8
SURVBND
 10
40.024
 20
96.987
 30
0.0
  0
VERTEX
  8
SURVBND
 10
40.019
 20
96.972
 30
0.0
  0
VERTEX
  8
SURVBND
 10
40.019
 20
96.969
 30
0.0
  0
VERTEX
  8
SURVBND
 10
40.007
 20
96.931
 30
0.0
  0
VERTEX
  8
SURVBND
 10
40.018
 20
96.898
 30
0.0
  0
VERTEX
  8
SURVBND
 10
40.009
 20
96.869
 30
0.0
  0
VERTEX
  8
SURVBND
 10
40.001
 20
96.851
 30
0.0
  0
VERTEX
  8
SURVBND
 10
40.01
 20
96.829
 30
0.0
  0
VERTEX
  8
SURVBND
 10
40.028
 20
96.817
 30
0.0
  0
VERTEX
  8
SURVBND
 10
40.041
 20
96.799
 30
0.0
  0
VERTEX
  8
SURVBND
 10
40.033
 20
96.789
 30
0.0
  0
VERTEX
  8
SURVBND
 10
40.023
 20
96.78
 30
0.0
  0
VERTEX
  8
SURVBND
 10
40.016
 20
96.767
 30
0.0
  0
VERTEX
  8
SURVBND
 10
40.014
 20
96.762
 30
0.0
  0
VERTEX
  8
SURVBND
 10
40.009
 20
96.751
 30
0.0
  0
VERTEX
  8
SURVBND
 10
40.008
 20
96.741
 30
0.0
  0
VERTEX
  8
SURVBND
 10
40.008
 20
96.733
 30
0.0
  0
VERTEX
  8
SURVBND
 10
40.0
 20
96.723
 30
0.0
  0
VERTEX
  8
SURVBND
 10
39.998
 20
96.719
 30
0.0
  0
VERTEX
  8
SURVBND
 10
40.018
 20
96.72
 30
0.0
  0
VERTEX
  8
SURVBND
 10
40.015
 20
96.708
 30
0.0
  0
VERTEX
  8
SURVBND
 10
40.023
 20
96.702
 30
0.0
  0
VERTEX
  8
SURVBND
 10
40.027
 20
96.688
 30
0.0
  0
VERTEX
  8
SURVBND
 10
40.034
 20
96.677
 30
0.0
  0
VERTEX
  8
SURVBND
 10
40.031
 20
96.667
 30
0.0
  0
VERTEX
  8
SURVBND
 10
40.023
 20
96.656
 30
0.0
  0
VERTEX
  8
SURVBND
 10
40.019
 20
96.65
 30
0.0
  0
VERTEX
  8
SURVBND
 10
40.008
 20
96.64
 30
0.0
  0
VERTEX
  8
SURVBND
 10
40.001
 20
96.631
 30
0.0
  0
VERTEX
  8
SURVBND
 10
39.998
 20
96.625
 30
0.0
  0
VERTEX
  8
SURVBND
 10
40.002
 20
96.616
 30
0.0
  0
VERTEX
  8
SURVBND
 10
40.006
 20
96.608
 30
0.0
  0
VERTEX
  8
SURVBND
 10
40.013
 20
96.593
 30
0.0
  0
VERTEX
  8
SURVBND
 10
40.016
 20
96.58
 30
0.0
  0
VERTEX
  8
SURVBND
 10
40.009
 20
96.578
 30
0.0
  0
VERTEX
  8
SURVBND
 10
40.006
 20
96.577
 30
0.0
  0
VERTEX
  8
SURVBND
 10
39.998
 20
96.564
 30
0.0
  0
VERTEX
  8
SURVBND
 10
40.0
 20
96.557
 30
0.0
  0
VERTEX
  8
SURVBND
 10
39.997
 20
96.547
 30
0.0
  0
VERTEX
  8
SURVBND
 10
39.999
 20
96.544
 30
0.0
  0
VERTEX
  8
SURVBND
 10
40.009
 20
96.533
 30
0.0
  0
VERTEX
  8
SURVBND
 10
40.007
 20
96.528
 30
0.0
  0
VERTEX
  8
SURVBND
 10
40.003
 20
96.525
 30
0.0
  0
VERTEX
  8
SURVBND
 10
40.005
 20
96.515
 30
0.0
  0
VERTEX
  8
SURVBND
 10
40.016
 20
96.507
 30
0.0
  0
VERTEX
  8
SURVBND
 10
40.024
 20
96.502
 30
0.0
  0
VERTEX
  8
SURVBND
 10
40.018
 20
96.488
 30
0.0
  0
VERTEX
  8
SURVBND
 10
40.006
 20
96.488
 30
0.0
  0
VERTEX
  8
SURVBND
 10
40.003
 20
96.477
 30
0.0
  0
VERTEX
  8
SURVBND
 10
40.007
 20
96.467
 30
0.0
  0
VERTEX
  8
SURVBND
 10
40.007
 20
96.457
 30
0.0
  0
VERTEX
  8
SURVBND
 10
40.005
 20
96.447
 30
0.0
  0
VERTEX
  8
SURVBND
 10
40.003
 20
96.438
 30
0.0
  0
VERTEX
  8
SURVBND
 10
40.0
 20
96.426
 30
0.0
  0
VERTEX
  8
SURVBND
 10
39.997
 20
96.414
 30
0.0
  0
VERTEX
  8
SURVBND
 10
39.994
 20
96.408
 30
0.0
  0
VERTEX
  8
SURVBND
 10
39.991
 20
96.399
 30
0.0
  0
VERTEX
  8
SURVBND
 10
39.983
 20
96.393
 30
0.0
  0
VERTEX
  8
SURVBND
 10
39.978
 20
96.383
 30
0.0
  0
VERTEX
  8
SURVBND
 10
39.978
 20
96.377
 30
0.0
  0
VERTEX
  8
SURVBND
 10
39.987
 20
96.375
 30
0.0
  0
VERTEX
  8
SURVBND
 10
39.991
 20
96.373
 30
0.0
  0
VERTEX
  8
SURVBND
 10
39.996
 20
96.371
 30
0.0
  0
VERTEX
  8
SURVBND
 10
39.999
 20
96.358
 30
0.0
  0
VERTEX
  8
SURVBND
 10
39.998
 20
96.347
 30
0.0
  0
VERTEX
  8
SURVBND
 10
40.001
 20
96.34
 30
0.0
  0
VERTEX
  8
SURVBND
 10
40.007
 20
96.331
 30
0.0
  0
VERTEX
  8
SURVBND
 10
40.009
 20
96.326
 30
0.0
  0
VERTEX
  8
SURVBND
 10
40.009
 20
96.315
 30
0.0
  0
VERTEX
  8
SURVBND
 10
40.01
 20
96.307
 30
0.0
  0
VERTEX
  8
SURVBND
 10
40.016
 20
96.303
 30
0.0
  0
VERTEX
  8
SURVBND
 10
40.011
 20
96.286
 30
0.0
  0
VERTEX
  8
SURVBND
 10
40.006
 20
96.275
 30
0.0
  0
VERTEX
  8
SURVBND
 10
40.012
 20
96.263
 30
0.0
  0
VERTEX
  8
SURVBND
 10
40.017
 20
96.261
 30
0.0
  0
VERTEX
  8
SURVBND
 10
40.023
 20
96.25
 30
0.0
  0
VERTEX
  8
SURVBND
 10
40.026
 20
96.247
 30
0.0
  0
VERTEX
  8
SURVBND
 10
40.031
 20
96.236
 30
0.0
  0
VERTEX
  8
SURVBND
 10
40.025
 20
96.223
 30
0.0
  0
VERTEX
  8
SURVBND
 10
40.024
 20
96.221
 30
0.0
  0
VERTEX
  8
SURVBND
 10
40.016
 20
96.216
 30
0.0
  0
VERTEX
  8
SURVBND
 10
40.009
 20
96.218
 30
0.0
  0
VERTEX
  8
SURVBND
 10
40.005
 20
96.208
 30
0.0
  0
VERTEX
  8
SURVBND
 10
40.01
 20
96.203
 30
0.0
  0
VERTEX
  8
SURVBND
 10
40.014
 20
96.2
 30
0.0
  0
VERTEX
  8
SURVBND
 10
40.021
 20
96.193
 30
0.0
  0
VERTEX
  8
SURVBND
 10
40.027
 20
96.183
 30
0.0
  0
VERTEX
  8
SURVBND
 10
40.02
 20
96.165
 30
0.0
  0
VERTEX
  8
SURVBND
 10
40.01
 20
96.16
 30
0.0
  0
VERTEX
  8
SURVBND
 10
40.01
 20
96.15
 30
0.0
  0
VERTEX
  8
SURVBND
 10
40.004
 20
96.136
 30
0.0
  0
VERTEX
  8
SURVBND
 10
40.001
 20
96.13
 30
0.0
  0
VERTEX
  8
SURVBND
 10
39.999
 20
96.113
 30
0.0
  0
VERTEX
  8
SURVBND
 10
39.994
 20
96.102
 30
0.0
  0
VERTEX
  8
SURVBND
 10
39.992
 20
96.094
 30
0.0
  0
VERTEX
  8
SURVBND
 10
39.994
 20
96.089
 30
0.0
  0
VERTEX
  8
SURVBND
 10
39.996
 20
96.079
 30
0.0
  0
VERTEX
  8
SURVBND
 10
39.989
 20
96.066
 30
0.0
  0
VERTEX
  8
SURVBND
 10
39.99
 20
96.053
 30
0.0
  0
VERTEX
  8
SURVBND
 10
39.993
 20
96.043
 30
0.0
  0
VERTEX
  8
SURVBND
 10
39.994
 20
96.037
 30
0.0
  0
VERTEX
  8
SURVBND
 10
39.999
 20
96.032
 30
0.0
  0
VERTEX
  8
SURVBND
 10
39.999
 20
96.032
 30
0.0
  0
VERTEX
  8
SURVBND
 10
40.011
 20
96.02
 30
0.0
  0
VERTEX
  8
SURVBND
 10
40.015
 20
96.01
 30
0.0
  0
VERTEX
  8
SURVBND
 10
39.995
 20
95.99
 30
0.0
  0
VERTEX
  8
SURVBND
 10
39.986
 20
95.99
 30
0.0
  0
VERTEX
  8
SURVBND
 10
39.977
 20
95.984
 30
0.0
  0
VERTEX
  8
SURVBND
 10
39.971
 20
95.957
 30
0.0
  0
VERTEX
  8
SURVBND
 10
39.965
 20
95.942
 30
0.0
  0
VERTEX
  8
SURVBND
 10
39.971
 20
95.938
 30
0.0
  0
VERTEX
  8
SURVBND
 10
39.976
 20
95.949
 30
0.0
  0
VERTEX
  8
SURVBND
 10
39.993
 20
95.947
 30
0.0
  0
VERTEX
  8
SURVBND
 10
40.005
 20
95.945
 30
0.0
  0
VERTEX
  8
SURVBND
 10
40.01
 20
95.938
 30
0.0
  0
VERTEX
  8
SURVBND
 10
39.995
 20
95.927
 30
0.0
  0
VERTEX
  8
SURVBND
 10
39.992
 20
95.924
 30
0.0
  0
VERTEX
  8
SURVBND
 10
39.983
 20
95.918
 30
0.0
  0
VERTEX
  8
SURVBND
 10
39.965
 20
95.911
 30
0.0
  0
VERTEX
  8
SURVBND
 10
39.965
 20
95.91
 30
0.0
  0
VERTEX
  8
SURVBND
 10
39.96
 20
95.907
 30
0.0
  0
VERTEX
  8
SURVBND
 10
39.955
 20
95.901
 30
0.0
  0
VERTEX
  8
SURVBND
 10
39.951
 20
95.898
 30
0.0
  0
VERTEX
  8
SURVBND
 10
39.993
 20
95.882
 30
0.0
  0
VERTEX
  8
SURVBND
 10
40.019
 20
95.884
 30
0.0
  0
VERTEX
  8
SURVBND
 10
40.032
 20
95.88
 30
0.0
  0
VERTEX
  8
SURVBND
 10
40.042
 20
95.867
 30
0.0
  0
VERTEX
  8
SURVBND
 10
40.053
 20
95.859
 30
0.0
  0
VERTEX
  8
SURVBND
 10
40.059
 20
95.851
 30
0.0
  0
VERTEX
  8
SURVBND
 10
40.058
 20
95.841
 30
0.0
  0
VERTEX
  8
SURVBND
 10
40.053
 20
95.827
 30
0.0
  0
VERTEX
  8
SURVBND
 10
40.053
 20
95.807
 30
0.0
  0
VERTEX
  8
SURVBND
 10
40.033
 20
95.811
 30
0.0
  0
VERTEX
  8
SURVBND
 10
40.03
 20
95.804
 30
0.0
  0
VERTEX
  8
SURVBND
 10
40.014
 20
95.792
 30
0.0
  0
VERTEX
  8
SURVBND
 10
40.011
 20
95.78
 30
0.0
  0
VERTEX
  8
SURVBND
 10
40.009
 20
95.772
 30
0.0
  0
VERTEX
  8
SURVBND
 10
40.0
 20
95.768
 30
0.0
  0
VERTEX
  8
SURVBND
 10
39.991
 20
95.77
 30
0.0
  0
VERTEX
  8
SURVBND
 10
39.989
 20
95.772
 30
0.0
  0
VERTEX
  8
SURVBND
 10
39.988
 20
95.775
 30
0.0
  0
VERTEX
  8
SURVBND
 10
39.986
 20
95.783
 30
0.0
  0
VERTEX
  8
SURVBND
 10
39.982
 20
95.788
 30
0.0
  0
VERTEX
  8
SURVBND
 10
39.977
 20
95.793
 30
0.0
  0
VERTEX
  8
SURVBND
 10
39.97
 20
95.799
 30
0.0
  0
VERTEX
  8
SURVBND
 10
39.965
 20
95.802
 30
0.0
  0
VERTEX
  8
SURVBND
 10
39.96
 20
95.804
 30
0.0
  0
VERTEX
  8
SURVBND
 10
39.949
 20
95.801
 30
0.0
  0
VERTEX
  8
SURVBND
 10
39.938
 20
95.786
 30
0.0
  0
VERTEX
  8
SURVBND
 10
39.932
 20
95.773
 30
0.0
  0
VERTEX
  8
SURVBND
 10
39.926
 20
95.764
 30
0.0
  0
VERTEX
  8
SURVBND
 10
39.913
 20
95.755
 30
0.0
  0
VERTEX
  8
SURVBND
 10
39.901
 20
95.748
 30
0.0
  0
VERTEX
  8
SURVBND
 10
39.9
 20
95.74
 30
0.0
  0
VERTEX
  8
SURVBND
 10
39.904
 20
95.725
 30
0.0
  0
VERTEX
  8
SURVBND
 10
39.905
 20
95.715
 30
0.0
  0
VERTEX
  8
SURVBND
 10
39.905
 20
95.707
 30
0.0
  0
VERTEX
  8
SURVBND
 10
39.902
 20
95.698
 30
0.0
  0
VERTEX
  8
SURVBND
 10
39.886
 20
95.686
 30
0.0
  0
VERTEX
  8
SURVBND
 10
39.884
 20
95.683
 30
0.0
  0
VERTEX
  8
SURVBND
 10
39.89
 20
95.676
 30
0.0
  0
VERTEX
  8
SURVBND
 10
39.894
 20
95.676
 30
0.0
  0
VERTEX
  8
SURVBND
 10
39.9
 20
95.675
 30
0.0
  0
VERTEX
  8
SURVBND
 10
39.905
 20
95.672
 30
0.0
  0
VERTEX
  8
SURVBND
 10
39.909
 20
95.665
 30
0.0
  0
VERTEX
  8
SURVBND
 10
39.909
 20
95.659
 30
0.0
  0
VERTEX
  8
SURVBND
 10
39.908
 20
95.65
 30
0.0
  0
VERTEX
  8
SURVBND
 10
39.905
 20
95.641
 30
0.0
  0
VERTEX
  8
SURVBND
 10
39.904
 20
95.64
 30
0.0
  0
VERTEX
  8
SURVBND
 10
39.884
 20
95.64
 30
0.0
  0
VERTEX
  8
SURVBND
 10
39.875
 20
95.633
 30
0.0
  0
VERTEX
  8
SURVBND
 10
39.877
 20
95.618
 30
0.0
  0
VERTEX
  8
SURVBND
 10
39.888
 20
95.61
 30
0.0
  0
VERTEX
  8
SURVBND
 10
39.905
 20
95.603
 30
0.0
  0
VERTEX
  8
SURVBND
 10
39.896
 20
95.591
 30
0.0
  0
VERTEX
  8
SURVBND
 10
39.882
 20
95.583
 30
0.0
  0
VERTEX
  8
SURVBND
 10
39.875
 20
95.578
 30
0.0
  0
VERTEX
  8
SURVBND
 10
39.872
 20
95.571
 30
0.0
  0
VERTEX
  8
SURVBND
 10
39.869
 20
95.558
 30
0.0
  0
VERTEX
  8
SURVBND
 10
39.865
 20
95.549
 30
0.0
  0
VERTEX
  8
SURVBND
 10
39.863
 20
95.541
 30
0.0
  0
VERTEX
  8
SURVBND
 10
39.859
 20
95.532
 30
0.0
  0
VERTEX
  8
SURVBND
 10
39.85
 20
95.517
 30
0.0
  0
VERTEX
  8
SURVBND
 10
39.852
 20
95.511
 30
0.0
  0
VERTEX
  8
SURVBND
 10
39.861
 20
95.503
 30
0.0
  0
VERTEX
  8
SURVBND
 10
39.861
 20
95.491
 30
0.0
  0
VERTEX
  8
SURVBND
 10
39.851
 20
95.478
 30
0.0
  0
VERTEX
  8
SURVBND
 10
39.841
 20
95.468
 30
0.0
  0
VERTEX
  8
SURVBND
 10
39.837
 20
95.465
 30
0.0
  0
VERTEX
  8
SURVBND
 10
39.829
 20
95.459
 30
0.0
  0
VERTEX
  8
SURVBND
 10
39.823
 20
95.454
 30
0.0
  0
VERTEX
  8
SURVBND
 10
39.803
 20
95.444
 30
0.0
  0
VERTEX
  8
SURVBND
 10
39.794
 20
95.435
 30
0.0
  0
VERTEX
  8
SURVBND
 10
39.787
 20
95.423
 30
0.0
  0
VERTEX
  8
SURVBND
 10
39.781
 20
95.412
 30
0.0
  0
VERTEX
  8
SURVBND
 10
39.773
 20
95.4
 30
0.0
  0
VERTEX
  8
SURVBND
 10
39.767
 20
95.389
 30
0.0
  0
VERTEX
  8
SURVBND
 10
39.766
 20
95.383
 30
0.0
  0
VERTEX
  8
SURVBND
 10
39.76
 20
95.372
 30
0.0
  0
VERTEX
  8
SURVBND
 10
39.755
 20
95.355
 30
0.0
  0
VERTEX
  8
SURVBND
 10
39.746
 20
95.344
 30
0.0
  0
VERTEX
  8
SURVBND
 10
39.741
 20
95.333
 30
0.0
  0
VERTEX
  8
SURVBND
 10
39.74
 20
95.324
 30
0.0
  0
VERTEX
  8
SURVBND
 10
39.742
 20
95.315
 30
0.0
  0
VERTEX
  8
SURVBND
 10
39.746
 20
95.309
 30
0.0
  0
VERTEX
  8
SURVBND
 10
39.751
 20
95.3
 30
0.0
  0
VERTEX
  8
SURVBND
 10
39.747
 20
95.291
 30
0.0
  0
VERTEX
  8
SURVBND
 10
39.741
 20
95.287
 30
0.0
  0
VERTEX
  8
SURVBND
 10
39.728
 20
95.288
 30
0.0
  0
VERTEX
  8
SURVBND
 10
39.73
 20
95.277
 30
0.0
  0
VERTEX
  8
SURVBND
 10
39.736
 20
95.269
 30
0.0
  0
VERTEX
  8
SURVBND
 10
39.715
 20
95.256
 30
0.0
  0
VERTEX
  8
SURVBND
 10
39.713
 20
95.248
 30
0.0
  0
VERTEX
  8
SURVBND
 10
39.71
 20
95.242
 30
0.0
  0
VERTEX
  8
SURVBND
 10
39.698
 20
95.233
 30
0.0
  0
VERTEX
  8
SURVBND
 10
39.692
 20
95.225
 30
0.0
  0
VERTEX
  8
SURVBND
 10
39.696
 20
95.216
 30
0.0
  0
VERTEX
  8
SURVBND
 10
39.707
 20
95.208
 30
0.0
  0
VERTEX
  8
SURVBND
 10
39.709
 20
95.201
 30
0.0
  0
VERTEX
  8
SURVBND
 10
39.686
 20
95.189
 30
0.0
  0
VERTEX
  8
SURVBND
 10
39.661
 20
95.183
 30
0.0
  0
VERTEX
  8
SURVBND
 10
39.655
 20
95.166
 30
0.0
  0
VERTEX
  8
SURVBND
 10
39.658
 20
95.161
 30
0.0
  0
VERTEX
  8
SURVBND
 10
39.666
 20
95.154
 30
0.0
  0
VERTEX
  8
SURVBND
 10
39.679
 20
95.146
 30
0.0
  0
VERTEX
  8
SURVBND
 10
39.679
 20
95.14
 30
0.0
  0
VERTEX
  8
SURVBND
 10
39.671
 20
95.137
 30
0.0
  0
VERTEX
  8
SURVBND
 10
39.655
 20
95.137
 30
0.0
  0
VERTEX
  8
SURVBND
 10
39.648
 20
95.134
 30
0.0
  0
VERTEX
  8
SURVBND
 10
39.646
 20
95.124
 30
0.0
  0
VERTEX
  8
SURVBND
 10
39.648
 20
95.113
 30
0.0
  0
VERTEX
  8
SURVBND
 10
39.642
 20
95.101
 30
0.0
  0
VERTEX
  8
SURVBND
 10
39.633
 20
95.086
 30
0.0
  0
VERTEX
  8
SURVBND
 10
39.63
 20
95.075
 30
0.0
  0
VERTEX
  8
SURVBND
 10
39.629
 20
95.067
 30
0.0
  0
VERTEX
  8
SURVBND
 10
39.632
 20
95.065
 30
0.0
  0
VERTEX
  8
SURVBND
 10
39.639
 20
95.053
 30
0.0
  0
VERTEX
  8
SURVBND
 10
39.631
 20
95.05
 30
0.0
  0
VERTEX
  8
SURVBND
 10
39.617
 20
95.048
 30
0.0
  0
VERTEX
  8
SURVBND
 10
39.609
 20
95.044
 30
0.0
  0
VERTEX
  8
SURVBND
 10
39.59
 20
95.042
 30
0.0
  0
VERTEX
  8
SURVBND
 10
39.586
 20
95.047
 30
0.0
  0
VERTEX
  8
SURVBND
 10
39.583
 20
95.044
 30
0.0
  0
VERTEX
  8
SURVBND
 10
39.578
 20
95.039
 30
0.0
  0
VERTEX
  8
SURVBND
 10
39.55
 20
95.017
 30
0.0
  0
VERTEX
  8
SURVBND
 10
39.557
 20
95.003
 30
0.0
  0
VERTEX
  8
SURVBND
 10
39.557
 20
94.994
 30
0.0
  0
VERTEX
  8
SURVBND
 10
39.542
 20
94.991
 30
0.0
  0
VERTEX
  8
SURVBND
 10
39.539
 20
94.988
 30
0.0
  0
VERTEX
  8
SURVBND
 10
39.541
 20
94.974
 30
0.0
  0
VERTEX
  8
SURVBND
 10
39.537
 20
94.968
 30
0.0
  0
VERTEX
  8
SURVBND
 10
39.525
 20
94.957
 30
0.0
  0
VERTEX
  8
SURVBND
 10
39.519
 20
94.941
 30
0.0
  0
VERTEX
  8
SURVBND
 10
39.516
 20
94.937
 30
0.0
  0
VERTEX
  8
SURVBND
 10
39.516
 20
94.929
 30
0.0
  0
VERTEX
  8
SURVBND
 10
39.512
 20
94.919
 30
0.0
  0
VERTEX
  8
SURVBND
 10
39.513
 20
94.918
 30
0.0
  0
VERTEX
  8
SURVBND
 10
39.517
 20
94.913
 30
0.0
  0
VERTEX
  8
SURVBND
 10
39.468
 20
94.908
 30
0.0
  0
VERTEX
  8
SURVBND
 10
39.454
 20
94.878
 30
0.0
  0
VERTEX
  8
SURVBND
 10
39.454
 20
94.856
 30
0.0
  0
VERTEX
  8
SURVBND
 10
39.468
 20
94.848
 30
0.0
  0
VERTEX
  8
SURVBND
 10
39.468
 20
94.841
 30
0.0
  0
VERTEX
  8
SURVBND
 10
39.461
 20
94.833
 30
0.0
  0
VERTEX
  8
SURVBND
 10
39.446
 20
94.818
 30
0.0
  0
VERTEX
  8
SURVBND
 10
39.446
 20
94.811
 30
0.0
  0
VERTEX
  8
SURVBND
 10
39.424
 20
94.796
 30
0.0
  0
VERTEX
  8
SURVBND
 10
39.424
 20
94.789
 30
0.0
  0
VERTEX
  8
SURVBND
 10
39.431
 20
94.781
 30
0.0
  0
VERTEX
  8
SURVBND
 10
39.439
 20
94.774
 30
0.0
  0
VERTEX
  8
SURVBND
 10
39.424
 20
94.759
 30
0.0
  0
VERTEX
  8
SURVBND
 10
39.416
 20
94.751
 30
0.0
  0
VERTEX
  8
SURVBND
 10
39.409
 20
94.736
 30
0.0
  0
VERTEX
  8
SURVBND
 10
39.386
 20
94.722
 30
0.0
  0
VERTEX
  8
SURVBND
 10
39.379
 20
94.692
 30
0.0
  0
VERTEX
  8
SURVBND
 10
39.379
 20
94.654
 30
0.0
  0
VERTEX
  8
SURVBND
 10
39.379
 20
94.64
 30
0.0
  0
VERTEX
  8
SURVBND
 10
39.379
 20
94.625
 30
0.0
  0
VERTEX
  8
SURVBND
 10
39.364
 20
94.61
 30
0.0
  0
VERTEX
  8
SURVBND
 10
39.349
 20
94.595
 30
0.0
  0
VERTEX
  8
SURVBND
 10
39.334
 20
94.572
 30
0.0
  0
VERTEX
  8
SURVBND
 10
39.327
 20
94.558
 30
0.0
  0
VERTEX
  8
SURVBND
 10
39.319
 20
94.543
 30
0.0
  0
VERTEX
  8
SURVBND
 10
39.327
 20
94.52
 30
0.0
  0
VERTEX
  8
SURVBND
 10
39.334
 20
94.513
 30
0.0
  0
VERTEX
  8
SURVBND
 10
39.327
 20
94.49
 30
0.0
  0
VERTEX
  8
SURVBND
 10
39.319
 20
94.483
 30
0.0
  0
VERTEX
  8
SURVBND
 10
39.319
 20
94.483
 30
0.0
  0
VERTEX
  8
SURVBND
 10
39.304
 20
94.476
 30
0.0
  0
VERTEX
  8
SURVBND
 10
39.297
 20
94.476
 30
0.0
  0
VERTEX
  8
SURVBND
 10
39.29
 20
94.476
 30
0.0
  0
VERTEX
  8
SURVBND
 10
39.29
 20
94.483
 30
0.0
  0
VERTEX
  8
SURVBND
 10
39.282
 20
94.483
 30
0.0
  0
VERTEX
  8
SURVBND
 10
39.275
 20
94.476
 30
0.0
  0
VERTEX
  8
SURVBND
 10
39.267
 20
94.468
 30
0.0
  0
VERTEX
  8
SURVBND
 10
39.267
 20
94.461
 30
0.0
  0
VERTEX
  8
SURVBND
 10
39.267
 20
94.453
 30
0.0
  0
VERTEX
  8
SURVBND
 10
39.275
 20
94.446
 30
0.0
  0
VERTEX
  8
SURVBND
 10
39.282
 20
94.438
 30
0.0
  0
VERTEX
  8
SURVBND
 10
39.29
 20
94.438
 30
0.0
  0
VERTEX
  8
SURVBND
 10
39.282
 20
94.423
 30
0.0
  0
VERTEX
  8
SURVBND
 10
39.267
 20
94.423
 30
0.0
  0
VERTEX
  8
SURVBND
 10
39.26
 20
94.416
 30
0.0
  0
VERTEX
  8
SURVBND
 10
39.252
 20
94.408
 30
0.0
  0
VERTEX
  8
SURVBND
 10
39.252
 20
94.408
 30
0.0
  0
VERTEX
  8
SURVBND
 10
39.252
 20
94.401
 30
0.0
  0
VERTEX
  8
SURVBND
 10
39.252
 20
94.394
 30
0.0
  0
VERTEX
  8
SURVBND
 10
39.252
 20
94.386
 30
0.0
  0
VERTEX
  8
SURVBND
 10
39.237
 20
94.371
 30
0.0
  0
VERTEX
  8
SURVBND
 10
39.23
 20
94.364
 30
0.0
  0
VERTEX
  8
SURVBND
 10
39.23
 20
94.349
 30
0.0
  0
VERTEX
  8
SURVBND
 10
39.23
 20
94.341
 30
0.0
  0
VERTEX
  8
SURVBND
 10
39.222
 20
94.334
 30
0.0
  0
VERTEX
  8
SURVBND
 10
39.222
 20
94.326
 30
0.0
  0
VERTEX
  8
SURVBND
 10
39.23
 20
94.326
 30
0.0
  0
VERTEX
  8
SURVBND
 10
39.237
 20
94.319
 30
0.0
  0
VERTEX
  8
SURVBND
 10
39.23
 20
94.312
 30
0.0
  0
VERTEX
  8
SURVBND
 10
39.23
 20
94.304
 30
0.0
  0
VERTEX
  8
SURVBND
 10
39.222
 20
94.304
 30
0.0
  0
VERTEX
  8
SURVBND
 10
39.215
 20
94.297
 30
0.0
  0
VERTEX
  8
SURVBND
 10
39.208
 20
94.289
 30
0.0
  0
VERTEX
  8
SURVBND
 10
39.208
 20
94.282
 30
0.0
  0
VERTEX
  8
SURVBND
 10
39.208
 20
94.282
 30
0.0
  0
VERTEX
  8
SURVBND
 10
39.185
 20
94.274
 30
0.0
  0
VERTEX
  8
SURVBND
 10
39.185
 20
94.267
 30
0.0
  0
VERTEX
  8
SURVBND
 10
39.178
 20
94.259
 30
0.0
  0
VERTEX
  8
SURVBND
 10
39.17
 20
94.252
 30
0.0
  0
VERTEX
  8
SURVBND
 10
39.178
 20
94.252
 30
0.0
  0
VERTEX
  8
SURVBND
 10
39.178
 20
94.252
 30
0.0
  0
VERTEX
  8
SURVBND
 10
39.185
 20
94.244
 30
0.0
  0
VERTEX
  8
SURVBND
 10
39.185
 20
94.237
 30
0.0
  0
VERTEX
  8
SURVBND
 10
39.178
 20
94.23
 30
0.0
  0
VERTEX
  8
SURVBND
 10
39.17
 20
94.222
 30
0.0
  0
VERTEX
  8
SURVBND
 10
39.155
 20
94.215
 30
0.0
  0
VERTEX
  8
SURVBND
 10
39.155
 20
94.215
 30
0.0
  0
VERTEX
  8
SURVBND
 10
39.14
 20
94.207
 30
0.0
  0
VERTEX
  8
SURVBND
 10
39.14
 20
94.207
 30
0.0
  0
VERTEX
  8
SURVBND
 10
39.14
 20
94.207
 30
0.0
  0
VERTEX
  8
SURVBND
 10
39.14
 20
94.2
 30
0.0
  0
VERTEX
  8
SURVBND
 10
39.118
 20
94.148
 30
0.0
  0
VERTEX
  8
SURVBND
 10
39.103
 20
94.133
 30
0.0
  0
VERTEX
  8
SURVBND
 10
39.103
 20
94.133
 30
0.0
  0
VERTEX
  8
SURVBND
 10
39.081
 20
94.125
 30
0.0
  0
VERTEX
  8
SURVBND
 10
39.073
 20
94.125
 30
0.0
  0
VERTEX
  8
SURVBND
 10
39.058
 20
94.125
 30
0.0
  0
VERTEX
  8
SURVBND
 10
39.051
 20
94.118
 30
0.0
  0
VERTEX
  8
SURVBND
 10
39.051
 20
94.11
 30
0.0
  0
VERTEX
  8
SURVBND
 10
39.051
 20
94.103
 30
0.0
  0
VERTEX
  8
SURVBND
 10
39.066
 20
94.103
 30
0.0
  0
VERTEX
  8
SURVBND
 10
39.073
 20
94.095
 30
0.0
  0
VERTEX
  8
SURVBND
 10
39.058
 20
94.088
 30
0.0
  0
VERTEX
  8
SURVBND
 10
39.051
 20
94.073
 30
0.0
  0
VERTEX
  8
SURVBND
 10
39.036
 20
94.058
 30
0.0
  0
VERTEX
  8
SURVBND
 10
39.014
 20
94.051
 30
0.0
  0
VERTEX
  8
SURVBND
 10
38.984
 20
94.043
 30
0.0
  0
VERTEX
  8
SURVBND
 10
38.984
 20
94.028
 30
0.0
  0
VERTEX
  8
SURVBND
 10
38.976
 20
93.998
 30
0.0
  0
VERTEX
  8
SURVBND
 10
38.961
 20
93.969
 30
0.0
  0
VERTEX
  8
SURVBND
 10
38.969
 20
93.961
 30
0.0
  0
VERTEX
  8
SURVBND
 10
38.976
 20
93.954
 30
0.0
  0
VERTEX
  8
SURVBND
 10
38.984
 20
93.946
 30
0.0
  0
VERTEX
  8
SURVBND
 10
38.991
 20
93.946
 30
0.0
  0
VERTEX
  8
SURVBND
 10
39.006
 20
93.939
 30
0.0
  0
VERTEX
  8
SURVBND
 10
38.991
 20
93.931
 30
0.0
  0
VERTEX
  8
SURVBND
 10
38.984
 20
93.931
 30
0.0
  0
VERTEX
  8
SURVBND
 10
38.961
 20
93.924
 30
0.0
  0
VERTEX
  8
SURVBND
 10
38.961
 20
93.924
 30
0.0
  0
VERTEX
  8
SURVBND
 10
38.961
 20
93.916
 30
0.0
  0
VERTEX
  8
SURVBND
 10
38.961
 20
93.909
 30
0.0
  0
VERTEX
  8
SURVBND
 10
38.961
 20
93.901
 30
0.0
  0
VERTEX
  8
SURVBND
 10
38.947
 20
93.887
 30
0.0
  0
VERTEX
  8
SURVBND
 10
38.932
 20
93.879
 30
0.0
  0
VERTEX
  8
SURVBND
 10
38.894
 20
93.872
 30
0.0
  0
VERTEX
  8
SURVBND
 10
38.894
 20
93.857
 30
0.0
  0
VERTEX
  8
SURVBND
 10
38.879
 20
93.842
 30
0.0
  0
VERTEX
  8
SURVBND
 10
38.865
 20
93.819
 30
0.0
  0
VERTEX
  8
SURVBND
 10
38.865
 20
93.79
 30
0.0
  0
VERTEX
  8
SURVBND
 10
38.857
 20
93.767
 30
0.0
  0
VERTEX
  8
SURVBND
 10
38.835
 20
93.752
 30
0.0
  0
VERTEX
  8
SURVBND
 10
38.827
 20
93.745
 30
0.0
  0
VERTEX
  8
SURVBND
 10
38.805
 20
93.745
 30
0.0
  0
VERTEX
  8
SURVBND
 10
38.797
 20
93.745
 30
0.0
  0
VERTEX
  8
SURVBND
 10
38.797
 20
93.737
 30
0.0
  0
VERTEX
  8
SURVBND
 10
38.797
 20
93.73
 30
0.0
  0
VERTEX
  8
SURVBND
 10
38.79
 20
93.723
 30
0.0
  0
VERTEX
  8
SURVBND
 10
38.783
 20
93.723
 30
0.0
  0
VERTEX
  8
SURVBND
 10
38.775
 20
93.708
 30
0.0
  0
VERTEX
  8
SURVBND
 10
38.768
 20
93.7
 30
0.0
  0
VERTEX
  8
SURVBND
 10
38.738
 20
93.693
 30
0.0
  0
VERTEX
  8
SURVBND
 10
38.745
 20
93.685
 30
0.0
  0
VERTEX
  8
SURVBND
 10
38.738
 20
93.67
 30
0.0
  0
VERTEX
  8
SURVBND
 10
38.708
 20
93.663
 30
0.0
  0
VERTEX
  8
SURVBND
 10
38.708
 20
93.655
 30
0.0
  0
VERTEX
  8
SURVBND
 10
38.715
 20
93.641
 30
0.0
  0
VERTEX
  8
SURVBND
 10
38.701
 20
93.633
 30
0.0
  0
VERTEX
  8
SURVBND
 10
38.663
 20
93.618
 30
0.0
  0
VERTEX
  8
SURVBND
 10
38.671
 20
93.603
 30
0.0
  0
VERTEX
  8
SURVBND
 10
38.671
 20
93.588
 30
0.0
  0
VERTEX
  8
SURVBND
 10
38.641
 20
93.573
 30
0.0
  0
VERTEX
  8
SURVBND
 10
38.641
 20
93.559
 30
0.0
  0
VERTEX
  8
SURVBND
 10
38.648
 20
93.544
 30
0.0
  0
VERTEX
  8
SURVBND
 10
38.619
 20
93.544
 30
0.0
  0
VERTEX
  8
SURVBND
 10
38.611
 20
93.544
 30
0.0
  0
VERTEX
  8
SURVBND
 10
38.589
 20
93.529
 30
0.0
  0
VERTEX
  8
SURVBND
 10
38.581
 20
93.521
 30
0.0
  0
VERTEX
  8
SURVBND
 10
38.581
 20
93.514
 30
0.0
  0
VERTEX
  8
SURVBND
 10
38.559
 20
93.506
 30
0.0
  0
VERTEX
  8
SURVBND
 10
38.559
 20
93.499
 30
0.0
  0
VERTEX
  8
SURVBND
 10
38.551
 20
93.447
 30
0.0
  0
VERTEX
  8
SURVBND
 10
38.537
 20
93.439
 30
0.0
  0
VERTEX
  8
SURVBND
 10
38.522
 20
93.439
 30
0.0
  0
VERTEX
  8
SURVBND
 10
38.484
 20
93.432
 30
0.0
  0
VERTEX
  8
SURVBND
 10
38.477
 20
93.432
 30
0.0
  0
VERTEX
  8
SURVBND
 10
38.462
 20
93.417
 30
0.0
  0
VERTEX
  8
SURVBND
 10
38.447
 20
93.402
 30
0.0
  0
VERTEX
  8
SURVBND
 10
38.44
 20
93.402
 30
0.0
  0
VERTEX
  8
SURVBND
 10
38.395
 20
93.395
 30
0.0
  0
VERTEX
  8
SURVBND
 10
38.38
 20
93.395
 30
0.0
  0
VERTEX
  8
SURVBND
 10
38.38
 20
93.387
 30
0.0
  0
VERTEX
  8
SURVBND
 10
38.365
 20
93.38
 30
0.0
  0
VERTEX
  8
SURVBND
 10
38.328
 20
93.372
 30
0.0
  0
VERTEX
  8
SURVBND
 10
38.32
 20
93.38
 30
0.0
  0
VERTEX
  8
SURVBND
 10
38.313
 20
93.387
 30
0.0
  0
VERTEX
  8
SURVBND
 10
38.29
 20
93.38
 30
0.0
  0
VERTEX
  8
SURVBND
 10
38.283
 20
93.38
 30
0.0
  0
VERTEX
  8
SURVBND
 10
38.268
 20
93.38
 30
0.0
  0
VERTEX
  8
SURVBND
 10
38.268
 20
93.357
 30
0.0
  0
VERTEX
  8
SURVBND
 10
38.246
 20
93.335
 30
0.0
  0
VERTEX
  8
SURVBND
 10
38.223
 20
93.327
 30
0.0
  0
VERTEX
  8
SURVBND
 10
38.208
 20
93.32
 30
0.0
  0
VERTEX
  8
SURVBND
 10
38.194
 20
93.313
 30
0.0
  0
VERTEX
  8
SURVBND
 10
38.194
 20
93.29
 30
0.0
  0
VERTEX
  8
SURVBND
 10
38.171
 20
93.268
 30
0.0
  0
VERTEX
  8
SURVBND
 10
38.179
 20
93.245
 30
0.0
  0
VERTEX
  8
SURVBND
 10
38.171
 20
93.223
 30
0.0
  0
VERTEX
  8
SURVBND
 10
38.149
 20
93.208
 30
0.0
  0
VERTEX
  8
SURVBND
 10
38.126
 20
93.193
 30
0.0
  0
VERTEX
  8
SURVBND
 10
38.119
 20
93.178
 30
0.0
  0
VERTEX
  8
SURVBND
 10
38.119
 20
93.156
 30
0.0
  0
VERTEX
  8
SURVBND
 10
38.082
 20
93.134
 30
0.0
  0
VERTEX
  8
SURVBND
 10
38.067
 20
93.119
 30
0.0
  0
VERTEX
  8
SURVBND
 10
38.037
 20
93.119
 30
0.0
  0
VERTEX
  8
SURVBND
 10
38.015
 20
93.119
 30
0.0
  0
VERTEX
  8
SURVBND
 10
37.985
 20
93.096
 30
0.0
  0
VERTEX
  8
SURVBND
 10
37.962
 20
93.089
 30
0.0
  0
VERTEX
  8
SURVBND
 10
37.955
 20
93.089
 30
0.0
  0
VERTEX
  8
SURVBND
 10
37.903
 20
93.081
 30
0.0
  0
VERTEX
  8
SURVBND
 10
37.888
 20
93.074
 30
0.0
  0
VERTEX
  8
SURVBND
 10
37.873
 20
93.067
 30
0.0
  0
VERTEX
  8
SURVBND
 10
37.851
 20
93.059
 30
0.0
  0
VERTEX
  8
SURVBND
 10
37.821
 20
93.059
 30
0.0
  0
VERTEX
  8
SURVBND
 10
37.784
 20
93.067
 30
0.0
  0
VERTEX
  8
SURVBND
 10
37.776
 20
93.067
 30
0.0
  0
VERTEX
  8
SURVBND
 10
37.746
 20
93.052
 30
0.0
  0
VERTEX
  8
SURVBND
 10
37.739
 20
93.052
 30
0.0
  0
VERTEX
  8
SURVBND
 10
37.731
 20
93.037
 30
0.0
  0
VERTEX
  8
SURVBND
 10
37.716
 20
93.029
 30
0.0
  0
VERTEX
  8
SURVBND
 10
37.694
 20
93.022
 30
0.0
  0
VERTEX
  8
SURVBND
 10
37.679
 20
93.022
 30
0.0
  0
VERTEX
  8
SURVBND
 10
37.672
 20
93.029
 30
0.0
  0
VERTEX
  8
SURVBND
 10
37.649
 20
93.037
 30
0.0
  0
VERTEX
  8
SURVBND
 10
37.634
 20
93.044
 30
0.0
  0
VERTEX
  8
SURVBND
 10
37.627
 20
93.052
 30
0.0
  0
VERTEX
  8
SURVBND
 10
37.627
 20
93.052
 30
0.0
  0
VERTEX
  8
SURVBND
 10
37.612
 20
93.037
 30
0.0
  0
VERTEX
  8
SURVBND
 10
37.575
 20
93.044
 30
0.0
  0
VERTEX
  8
SURVBND
 10
37.552
 20
93.044
 30
0.0
  0
VERTEX
  8
SURVBND
 10
37.523
 20
93.044
 30
0.0
  0
VERTEX
  8
SURVBND
 10
37.498
 20
93.019
 30
0.0
  0
VERTEX
  8
SURVBND
 10
37.497
 20
93.02
 30
0.0
  0
VERTEX
  8
SURVBND
 10
37.491
 20
93.023
 30
0.0
  0
VERTEX
  8
SURVBND
 10
37.485
 20
93.029
 30
0.0
  0
VERTEX
  8
SURVBND
 10
37.48
 20
93.033
 30
0.0
  0
VERTEX
  8
SURVBND
 10
37.47
 20
93.038
 30
0.0
  0
VERTEX
  8
SURVBND
 10
37.463
 20
93.045
 30
0.0
  0
VERTEX
  8
SURVBND
 10
37.455
 20
93.053
 30
0.0
  0
VERTEX
  8
SURVBND
 10
37.451
 20
93.063
 30
0.0
  0
VERTEX
  8
SURVBND
 10
37.449
 20
93.07
 30
0.0
  0
VERTEX
  8
SURVBND
 10
37.445
 20
93.075
 30
0.0
  0
VERTEX
  8
SURVBND
 10
37.439
 20
93.08
 30
0.0
  0
VERTEX
  8
SURVBND
 10
37.43
 20
93.086
 30
0.0
  0
VERTEX
  8
SURVBND
 10
37.428
 20
93.089
 30
0.0
  0
VERTEX
  8
SURVBND
 10
37.414
 20
93.087
 30
0.0
  0
VERTEX
  8
SURVBND
 10
37.407
 20
93.069
 30
0.0
  0
VERTEX
  8
SURVBND
 10
37.392
 20
93.067
 30
0.0
  0
VERTEX
  8
SURVBND
 10
37.374
 20
93.074
 30
0.0
  0
VERTEX
  8
SURVBND
 10
37.366
 20
93.077
 30
0.0
  0
VERTEX
  8
SURVBND
 10
37.349
 20
93.087
 30
0.0
  0
VERTEX
  8
SURVBND
 10
37.332
 20
93.093
 30
0.0
  0
VERTEX
  8
SURVBND
 10
37.316
 20
93.093
 30
0.0
  0
VERTEX
  8
SURVBND
 10
37.299
 20
93.095
 30
0.0
  0
VERTEX
  8
SURVBND
 10
37.281
 20
93.1
 30
0.0
  0
VERTEX
  8
SURVBND
 10
37.282
 20
93.105
 30
0.0
  0
VERTEX
  8
SURVBND
 10
37.274
 20
93.114
 30
0.0
  0
VERTEX
  8
SURVBND
 10
37.261
 20
93.103
 30
0.0
  0
VERTEX
  8
SURVBND
 10
37.243
 20
93.107
 30
0.0
  0
VERTEX
  8
SURVBND
 10
37.24
 20
93.117
 30
0.0
  0
VERTEX
  8
SURVBND
 10
37.234
 20
93.124
 30
0.0
  0
VERTEX
  8
SURVBND
 10
37.231
 20
93.127
 30
0.0
  0
VERTEX
  8
SURVBND
 10
37.208
 20
93.143
 30
0.0
  0
VERTEX
  8
SURVBND
 10
37.192
 20
93.168
 30
0.0
  0
VERTEX
  8
SURVBND
 10
37.189
 20
93.178
 30
0.0
  0
VERTEX
  8
SURVBND
 10
37.178
 20
93.177
 30
0.0
  0
VERTEX
  8
SURVBND
 10
37.153
 20
93.192
 30
0.0
  0
VERTEX
  8
SURVBND
 10
37.145
 20
93.196
 30
0.0
  0
VERTEX
  8
SURVBND
 10
37.133
 20
93.205
 30
0.0
  0
VERTEX
  8
SURVBND
 10
37.123
 20
93.209
 30
0.0
  0
VERTEX
  8
SURVBND
 10
37.11
 20
93.213
 30
0.0
  0
VERTEX
  8
SURVBND
 10
37.1
 20
93.213
 30
0.0
  0
VERTEX
  8
SURVBND
 10
37.087
 20
93.213
 30
0.0
  0
VERTEX
  8
SURVBND
 10
37.068
 20
93.215
 30
0.0
  0
VERTEX
  8
SURVBND
 10
37.065
 20
93.22
 30
0.0
  0
VERTEX
  8
SURVBND
 10
37.061
 20
93.224
 30
0.0
  0
VERTEX
  8
SURVBND
 10
37.058
 20
93.225
 30
0.0
  0
VERTEX
  8
SURVBND
 10
37.043
 20
93.226
 30
0.0
  0
VERTEX
  8
SURVBND
 10
37.03
 20
93.228
 30
0.0
  0
VERTEX
  8
SURVBND
 10
37.012
 20
93.228
 30
0.0
  0
VERTEX
  8
SURVBND
 10
37.001
 20
93.229
 30
0.0
  0
VERTEX
  8
SURVBND
 10
36.984
 20
93.229
 30
0.0
  0
VERTEX
  8
SURVBND
 10
36.976
 20
93.228
 30
0.0
  0
VERTEX
  8
SURVBND
 10
36.953
 20
93.224
 30
0.0
  0
VERTEX
  8
SURVBND
 10
36.938
 20
93.222
 30
0.0
  0
VERTEX
  8
SURVBND
 10
36.924
 20
93.225
 30
0.0
  0
VERTEX
  8
SURVBND
 10
36.921
 20
93.226
 30
0.0
  0
VERTEX
  8
SURVBND
 10
36.918
 20
93.226
 30
0.0
  0
VERTEX
  8
SURVBND
 10
36.91
 20
93.22
 30
0.0
  0
VERTEX
  8
SURVBND
 10
36.903
 20
93.206
 30
0.0
  0
VERTEX
  8
SURVBND
 10
36.895
 20
93.187
 30
0.0
  0
VERTEX
  8
SURVBND
 10
36.886
 20
93.183
 30
0.0
  0
VERTEX
  8
SURVBND
 10
36.876
 20
93.18
 30
0.0
  0
VERTEX
  8
SURVBND
 10
36.867
 20
93.175
 30
0.0
  0
VERTEX
  8
SURVBND
 10
36.863
 20
93.17
 30
0.0
  0
VERTEX
  8
SURVBND
 10
36.854
 20
93.159
 30
0.0
  0
VERTEX
  8
SURVBND
 10
36.85
 20
93.152
 30
0.0
  0
VERTEX
  8
SURVBND
 10
36.844
 20
93.148
 30
0.0
  0
VERTEX
  8
SURVBND
 10
36.828
 20
93.137
 30
0.0
  0
VERTEX
  8
SURVBND
 10
36.819
 20
93.123
 30
0.0
  0
VERTEX
  8
SURVBND
 10
36.805
 20
93.094
 30
0.0
  0
VERTEX
  8
SURVBND
 10
36.802
 20
93.086
 30
0.0
  0
VERTEX
  8
SURVBND
 10
36.794
 20
93.082
 30
0.0
  0
VERTEX
  8
SURVBND
 10
36.777
 20
93.076
 30
0.0
  0
VERTEX
  8
SURVBND
 10
36.76
 20
93.08
 30
0.0
  0
VERTEX
  8
SURVBND
 10
36.754
 20
93.078
 30
0.0
  0
VERTEX
  8
SURVBND
 10
36.753
 20
93.063
 30
0.0
  0
VERTEX
  8
SURVBND
 10
36.745
 20
93.061
 30
0.0
  0
VERTEX
  8
SURVBND
 10
36.735
 20
93.066
 30
0.0
  0
VERTEX
  8
SURVBND
 10
36.717
 20
93.075
 30
0.0
  0
VERTEX
  8
SURVBND
 10
36.696
 20
93.079
 30
0.0
  0
VERTEX
  8
SURVBND
 10
36.676
 20
93.08
 30
0.0
  0
VERTEX
  8
SURVBND
 10
36.67
 20
93.081
 30
0.0
  0
VERTEX
  8
SURVBND
 10
36.658
 20
93.08
 30
0.0
  0
VERTEX
  8
SURVBND
 10
36.64
 20
93.07
 30
0.0
  0
VERTEX
  8
SURVBND
 10
36.632
 20
93.058
 30
0.0
  0
VERTEX
  8
SURVBND
 10
36.621
 20
93.035
 30
0.0
  0
VERTEX
  8
SURVBND
 10
36.616
 20
93.028
 30
0.0
  0
VERTEX
  8
SURVBND
 10
36.611
 20
93.017
 30
0.0
  0
VERTEX
  8
SURVBND
 10
36.605
 20
93.004
 30
0.0
  0
VERTEX
  8
SURVBND
 10
36.598
 20
92.986
 30
0.0
  0
VERTEX
  8
SURVBND
 10
36.6
 20
92.978
 30
0.0
  0
VERTEX
  8
SURVBND
 10
36.607
 20
92.968
 30
0.0
  0
VERTEX
  8
SURVBND
 10
36.61
 20
92.961
 30
0.0
  0
VERTEX
  8
SURVBND
 10
36.609
 20
92.951
 30
0.0
  0
VERTEX
  8
SURVBND
 10
36.609
 20
92.946
 30
0.0
  0
VERTEX
  8
SURVBND
 10
36.609
 20
92.931
 30
0.0
  0
VERTEX
  8
SURVBND
 10
36.651
 20
92.908
 30
0.0
  0
VERTEX
  8
SURVBND
 10
36.654
 20
92.899
 30
0.0
  0
VERTEX
  8
SURVBND
 10
36.655
 20
92.884
 30
0.0
  0
VERTEX
  8
SURVBND
 10
36.656
 20
92.858
 30
0.0
  0
VERTEX
  8
SURVBND
 10
36.656
 20
92.842
 30
0.0
  0
VERTEX
  8
SURVBND
 10
36.656
 20
92.827
 30
0.0
  0
VERTEX
  8
SURVBND
 10
36.677
 20
92.813
 30
0.0
  0
VERTEX
  8
SURVBND
 10
36.682
 20
92.802
 30
0.0
  0
VERTEX
  8
SURVBND
 10
36.698
 20
92.785
 30
0.0
  0
VERTEX
  8
SURVBND
 10
36.697
 20
92.766
 30
0.0
  0
VERTEX
  8
SURVBND
 10
36.7
 20
92.758
 30
0.0
  0
VERTEX
  8
SURVBND
 10
36.702
 20
92.75
 30
0.0
  0
VERTEX
  8
SURVBND
 10
36.702
 20
92.736
 30
0.0
  0
VERTEX
  8
SURVBND
 10
36.701
 20
92.72
 30
0.0
  0
VERTEX
  8
SURVBND
 10
36.7
 20
92.716
 30
0.0
  0
VERTEX
  8
SURVBND
 10
36.699
 20
92.707
 30
0.0
  0
VERTEX
  8
SURVBND
 10
36.701
 20
92.699
 30
0.0
  0
VERTEX
  8
SURVBND
 10
36.703
 20
92.682
 30
0.0
  0
VERTEX
  8
SURVBND
 10
36.706
 20
92.666
 30
0.0
  0
VERTEX
  8
SURVBND
 10
36.708
 20
92.648
 30
0.0
  0
VERTEX
  8
SURVBND
 10
36.707
 20
92.633
 30
0.0
  0
VERTEX
  8
SURVBND
 10
36.707
 20
92.613
 30
0.0
  0
VERTEX
  8
SURVBND
 10
36.709
 20
92.597
 30
0.0
  0
VERTEX
  8
SURVBND
 10
36.712
 20
92.585
 30
0.0
  0
VERTEX
  8
SURVBND
 10
36.726
 20
92.571
 30
0.0
  0
VERTEX
  8
SURVBND
 10
36.742
 20
92.555
 30
0.0
  0
VERTEX
  8
SURVBND
 10
36.741
 20
92.539
 30
0.0
  0
VERTEX
  8
SURVBND
 10
36.744
 20
92.476
 30
0.0
  0
VERTEX
  8
SURVBND
 10
36.741
 20
92.461
 30
0.0
  0
VERTEX
  8
SURVBND
 10
36.737
 20
92.44
 30
0.0
  0
VERTEX
  8
SURVBND
 10
36.747
 20
92.437
 30
0.0
  0
VERTEX
  8
SURVBND
 10
36.744
 20
92.424
 30
0.0
  0
VERTEX
  8
SURVBND
 10
36.746
 20
92.402
 30
0.0
  0
VERTEX
  8
SURVBND
 10
36.754
 20
92.395
 30
0.0
  0
VERTEX
  8
SURVBND
 10
36.768
 20
92.394
 30
0.0
  0
VERTEX
  8
SURVBND
 10
36.763
 20
92.384
 30
0.0
  0
VERTEX
  8
SURVBND
 10
36.752
 20
92.373
 30
0.0
  0
VERTEX
  8
SURVBND
 10
36.744
 20
92.364
 30
0.0
  0
VERTEX
  8
SURVBND
 10
36.739
 20
92.355
 30
0.0
  0
VERTEX
  8
SURVBND
 10
36.736
 20
92.346
 30
0.0
  0
VERTEX
  8
SURVBND
 10
36.727
 20
92.341
 30
0.0
  0
VERTEX
  8
SURVBND
 10
36.719
 20
92.331
 30
0.0
  0
VERTEX
  8
SURVBND
 10
36.711
 20
92.315
 30
0.0
  0
VERTEX
  8
SURVBND
 10
36.714
 20
92.299
 30
0.0
  0
VERTEX
  8
SURVBND
 10
36.712
 20
92.289
 30
0.0
  0
VERTEX
  8
SURVBND
 10
36.707
 20
92.279
 30
0.0
  0
VERTEX
  8
SURVBND
 10
36.702
 20
92.27
 30
0.0
  0
VERTEX
  8
SURVBND
 10
36.699
 20
92.258
 30
0.0
  0
VERTEX
  8
SURVBND
 10
36.684
 20
92.239
 30
0.0
  0
VERTEX
  8
SURVBND
 10
36.69
 20
92.231
 30
0.0
  0
VERTEX
  8
SURVBND
 10
36.701
 20
92.217
 30
0.0
  0
VERTEX
  8
SURVBND
 10
36.72
 20
92.204
 30
0.0
  0
VERTEX
  8
SURVBND
 10
36.728
 20
92.197
 30
0.0
  0
VERTEX
  8
SURVBND
 10
36.741
 20
92.186
 30
0.0
  0
VERTEX
  8
SURVBND
 10
36.745
 20
92.175
 30
0.0
  0
VERTEX
  8
SURVBND
 10
36.752
 20
92.162
 30
0.0
  0
VERTEX
  8
SURVBND
 10
36.764
 20
92.169
 30
0.0
  0
VERTEX
  8
SURVBND
 10
36.777
 20
92.18
 30
0.0
  0
VERTEX
  8
SURVBND
 10
36.787
 20
92.177
 30
0.0
  0
VERTEX
  8
SURVBND
 10
36.809
 20
92.168
 30
0.0
  0
VERTEX
  8
SURVBND
 10
36.816
 20
92.156
 30
0.0
  0
VERTEX
  8
SURVBND
 10
36.827
 20
92.142
 30
0.0
  0
VERTEX
  8
SURVBND
 10
36.831
 20
92.127
 30
0.0
  0
VERTEX
  8
SURVBND
 10
36.828
 20
92.112
 30
0.0
  0
VERTEX
  8
SURVBND
 10
36.823
 20
92.098
 30
0.0
  0
VERTEX
  8
SURVBND
 10
36.82
 20
92.088
 30
0.0
  0
VERTEX
  8
SURVBND
 10
36.819
 20
92.076
 30
0.0
  0
VERTEX
  8
SURVBND
 10
36.811
 20
92.066
 30
0.0
  0
VERTEX
  8
SURVBND
 10
36.811
 20
92.061
 30
0.0
  0
VERTEX
  8
SURVBND
 10
36.819
 20
92.048
 30
0.0
  0
VERTEX
  8
SURVBND
 10
36.824
 20
92.05
 30
0.0
  0
VERTEX
  8
SURVBND
 10
36.826
 20
92.039
 30
0.0
  0
VERTEX
  8
SURVBND
 10
36.827
 20
92.032
 30
0.0
  0
VERTEX
  8
SURVBND
 10
36.827
 20
92.019
 30
0.0
  0
VERTEX
  8
SURVBND
 10
36.822
 20
92.006
 30
0.0
  0
VERTEX
  8
SURVBND
 10
36.822
 20
92.0
 30
0.0
  0
VERTEX
  8
SURVBND
 10
36.827
 20
91.986
 30
0.0
  0
VERTEX
  8
SURVBND
 10
36.818
 20
91.973
 30
0.0
  0
VERTEX
  8
SURVBND
 10
36.811
 20
91.971
 30
0.0
  0
VERTEX
  8
SURVBND
 10
36.791
 20
91.975
 30
0.0
  0
VERTEX
  8
SURVBND
 10
36.775
 20
91.972
 30
0.0
  0
VERTEX
  8
SURVBND
 10
36.76
 20
91.965
 30
0.0
  0
VERTEX
  8
SURVBND
 10
36.753
 20
91.96
 30
0.0
  0
VERTEX
  8
SURVBND
 10
36.747
 20
91.954
 30
0.0
  0
VERTEX
  8
SURVBND
 10
36.724
 20
91.963
 30
0.0
  0
VERTEX
  8
SURVBND
 10
36.718
 20
91.969
 30
0.0
  0
VERTEX
  8
SURVBND
 10
36.712
 20
91.978
 30
0.0
  0
VERTEX
  8
SURVBND
 10
36.702
 20
91.987
 30
0.0
  0
VERTEX
  8
SURVBND
 10
36.697
 20
91.993
 30
0.0
  0
VERTEX
  8
SURVBND
 10
36.688
 20
92.001
 30
0.0
  0
VERTEX
  8
SURVBND
 10
36.683
 20
92.008
 30
0.0
  0
VERTEX
  8
SURVBND
 10
36.674
 20
92.015
 30
0.0
  0
VERTEX
  8
SURVBND
 10
36.667
 20
92.024
 30
0.0
  0
VERTEX
  8
SURVBND
 10
36.661
 20
92.029
 30
0.0
  0
VERTEX
  8
SURVBND
 10
36.652
 20
92.037
 30
0.0
  0
VERTEX
  8
SURVBND
 10
36.641
 20
92.041
 30
0.0
  0
VERTEX
  8
SURVBND
 10
36.627
 20
92.047
 30
0.0
  0
VERTEX
  8
SURVBND
 10
36.598
 20
92.046
 30
0.0
  0
VERTEX
  8
SURVBND
 10
36.579
 20
92.041
 30
0.0
  0
VERTEX
  8
SURVBND
 10
36.563
 20
92.035
 30
0.0
  0
VERTEX
  8
SURVBND
 10
36.548
 20
92.025
 30
0.0
  0
VERTEX
  8
SURVBND
 10
36.532
 20
92.011
 30
0.0
  0
VERTEX
  8
SURVBND
 10
36.527
 20
92.0
 30
0.0
  0
VERTEX
  8
SURVBND
 10
36.527
 20
91.994
 30
0.0
  0
VERTEX
  8
SURVBND
 10
36.506
 20
91.966
 30
0.0
  0
VERTEX
  8
SURVBND
 10
36.477
 20
91.949
 30
0.0
  0
VERTEX
  8
SURVBND
 10
36.461
 20
91.944
 30
0.0
  0
VERTEX
  8
SURVBND
 10
36.449
 20
91.943
 30
0.0
  0
VERTEX
  8
SURVBND
 10
36.436
 20
91.946
 30
0.0
  0
VERTEX
  8
SURVBND
 10
36.419
 20
91.949
 30
0.0
  0
VERTEX
  8
SURVBND
 10
36.409
 20
91.954
 30
0.0
  0
VERTEX
  8
SURVBND
 10
36.398
 20
91.959
 30
0.0
  0
VERTEX
  8
SURVBND
 10
36.377
 20
91.97
 30
0.0
  0
VERTEX
  8
SURVBND
 10
36.371
 20
91.983
 30
0.0
  0
VERTEX
  8
SURVBND
 10
36.361
 20
91.994
 30
0.0
  0
VERTEX
  8
SURVBND
 10
36.356
 20
91.997
 30
0.0
  0
VERTEX
  8
SURVBND
 10
36.352
 20
92.009
 30
0.0
  0
VERTEX
  8
SURVBND
 10
36.356
 20
92.018
 30
0.0
  0
VERTEX
  8
SURVBND
 10
36.352
 20
92.027
 30
0.0
  0
VERTEX
  8
SURVBND
 10
36.347
 20
92.033
 30
0.0
  0
VERTEX
  8
SURVBND
 10
36.335
 20
92.033
 30
0.0
  0
VERTEX
  8
SURVBND
 10
36.332
 20
92.034
 30
0.0
  0
VERTEX
  8
SURVBND
 10
36.313
 20
92.03
 30
0.0
  0
VERTEX
  8
SURVBND
 10
36.289
 20
92.046
 30
0.0
  0
VERTEX
  8
SURVBND
 10
36.281
 20
92.055
 30
0.0
  0
VERTEX
  8
SURVBND
 10
36.291
 20
92.073
 30
0.0
  0
VERTEX
  8
SURVBND
 10
36.304
 20
92.097
 30
0.0
  0
VERTEX
  8
SURVBND
 10
36.265
 20
92.087
 30
0.0
  0
VERTEX
  8
SURVBND
 10
36.22
 20
92.092
 30
0.0
  0
VERTEX
  8
SURVBND
 10
36.117
 20
91.972
 30
0.0
  0
VERTEX
  8
SURVBND
 10
36.011
 20
91.898
 30
0.0
  0
VERTEX
  8
SURVBND
 10
36.013
 20
91.895
 30
0.0
  0
VERTEX
  8
SURVBND
 10
36.004
 20
91.891
 30
0.0
  0
VERTEX
  8
SURVBND
 10
36.001
 20
91.883
 30
0.0
  0
VERTEX
  8
SURVBND
 10
35.899
 20
91.77
 30
0.0
  0
VERTEX
  8
SURVBND
 10
35.873
 20
91.661
 30
0.0
  0
VERTEX
  8
SURVBND
 10
35.817
 20
91.45
 30
0.0
  0
VERTEX
  8
SURVBND
 10
35.703
 20
91.303
 30
0.0
  0
VERTEX
  8
SURVBND
 10
35.61
 20
91.105
 30
0.0
  0
VERTEX
  8
SURVBND
 10
35.256
 20
91.071
 30
0.0
  0
VERTEX
  8
SURVBND
 10
35.009
 20
91.051
 30
0.0
  0
VERTEX
  8
SURVBND
 10
34.765
 20
91.009
 30
0.0
  0
VERTEX
  8
SURVBND
 10
34.655
 20
90.848
 30
0.0
  0
VERTEX
  8
SURVBND
 10
34.577
 20
90.746
 30
0.0
  0
VERTEX
  8
SURVBND
 10
34.553
 20
90.616
 30
0.0
  0
VERTEX
  8
SURVBND
 10
34.507
 20
90.491
 30
0.0
  0
VERTEX
  8
SURVBND
 10
34.437
 20
90.469
 30
0.0
  0
VERTEX
  8
SURVBND
 10
34.315
 20
90.428
 30
0.0
  0
VERTEX
  8
SURVBND
 10
34.229
 20
90.418
 30
0.0
  0
VERTEX
  8
SURVBND
 10
34.149
 20
90.355
 30
0.0
  0
VERTEX
  8
SURVBND
 10
34.064
 20
90.249
 30
0.0
  0
VERTEX
  8
SURVBND
 10
34.071
 20
90.23
 30
0.0
  0
VERTEX
  8
SURVBND
 10
34.058
 20
90.228
 30
0.0
  0
VERTEX
  8
SURVBND
 10
34.013
 20
90.199
 30
0.0
  0
VERTEX
  8
SURVBND
 10
33.962
 20
90.164
 30
0.0
  0
VERTEX
  8
SURVBND
 10
33.923
 20
90.161
 30
0.0
  0
VERTEX
  8
SURVBND
 10
33.89
 20
90.138
 30
0.0
  0
VERTEX
  8
SURVBND
 10
33.822
 20
90.07
 30
0.0
  0
VERTEX
  8
SURVBND
 10
33.751
 20
89.994
 30
0.0
  0
VERTEX
  8
SURVBND
 10
33.723
 20
89.943
 30
0.0
  0
VERTEX
  8
SURVBND
 10
33.702
 20
89.891
 30
0.0
  0
VERTEX
  8
SURVBND
 10
33.694
 20
89.884
 30
0.0
  0
VERTEX
  8
SURVBND
 10
33.691
 20
89.877
 30
0.0
  0
VERTEX
  8
SURVBND
 10
33.643
 20
89.852
 30
0.0
  0
VERTEX
  8
SURVBND
 10
33.577
 20
89.765
 30
0.0
  0
VERTEX
  8
SURVBND
 10
33.474
 20
89.753
 30
0.0
  0
VERTEX
  8
SURVBND
 10
33.447
 20
89.664
 30
0.0
  0
VERTEX
  8
SURVBND
 10
33.393
 20
89.575
 30
0.0
  0
VERTEX
  8
SURVBND
 10
33.361
 20
89.553
 30
0.0
  0
VERTEX
  8
SURVBND
 10
33.315
 20
89.508
 30
0.0
  0
VERTEX
  8
SURVBND
 10
33.271
 20
89.463
 30
0.0
  0
VERTEX
  8
SURVBND
 10
33.246
 20
89.414
 30
0.0
  0
VERTEX
  8
SURVBND
 10
33.219
 20
89.362
 30
0.0
  0
VERTEX
  8
SURVBND
 10
33.175
 20
89.307
 30
0.0
  0
VERTEX
  8
SURVBND
 10
33.139
 20
89.25
 30
0.0
  0
VERTEX
  8
SURVBND
 10
33.095
 20
89.207
 30
0.0
  0
VERTEX
  8
SURVBND
 10
33.061
 20
89.168
 30
0.0
  0
VERTEX
  8
SURVBND
 10
33.02
 20
89.123
 30
0.0
  0
VERTEX
  8
SURVBND
 10
32.973
 20
89.077
 30
0.0
  0
VERTEX
  8
SURVBND
 10
32.92
 20
89.009
 30
0.0
  0
VERTEX
  8
SURVBND
 10
32.878
 20
88.956
 30
0.0
  0
VERTEX
  8
SURVBND
 10
32.836
 20
88.903
 30
0.0
  0
VERTEX
  8
SURVBND
 10
32.773
 20
88.84
 30
0.0
  0
VERTEX
  8
SURVBND
 10
32.729
 20
88.79
 30
0.0
  0
VERTEX
  8
SURVBND
 10
32.673
 20
88.739
 30
0.0
  0
VERTEX
  8
SURVBND
 10
32.593
 20
88.667
 30
0.0
  0
VERTEX
  8
SURVBND
 10
32.542
 20
88.622
 30
0.0
  0
VERTEX
  8
SURVBND
 10
32.5
 20
88.586
 30
0.0
  0
VERTEX
  8
SURVBND
 10
32.453
 20
88.56
 30
0.0
  0
VERTEX
  8
SURVBND
 10
32.376
 20
88.53
 30
0.0
  0
VERTEX
  8
SURVBND
 10
32.323
 20
88.513
 30
0.0
  0
VERTEX
  8
SURVBND
 10
32.308
 20
88.498
 30
0.0
  0
VERTEX
  8
SURVBND
 10
32.293
 20
88.497
 30
0.0
  0
VERTEX
  8
SURVBND
 10
32.288
 20
88.506
 30
0.0
  0
VERTEX
  8
SURVBND
 10
32.266
 20
88.528
 30
0.0
  0
VERTEX
  8
SURVBND
 10
32.248
 20
88.539
 30
0.0
  0
VERTEX
  8
SURVBND
 10
32.225
 20
88.526
 30
0.0
  0
VERTEX
  8
SURVBND
 10
32.196
 20
88.503
 30
0.0
  0
VERTEX
  8
SURVBND
 10
32.165
 20
88.481
 30
0.0
  0
VERTEX
  8
SURVBND
 10
32.146
 20
88.449
 30
0.0
  0
VERTEX
  8
SURVBND
 10
32.124
 20
88.425
 30
0.0
  0
VERTEX
  8
SURVBND
 10
32.099
 20
88.402
 30
0.0
  0
VERTEX
  8
SURVBND
 10
32.07
 20
88.38
 30
0.0
  0
VERTEX
  8
SURVBND
 10
32.048
 20
88.359
 30
0.0
  0
VERTEX
  8
SURVBND
 10
32.028
 20
88.328
 30
0.0
  0
VERTEX
  8
SURVBND
 10
32.004
 20
88.306
 30
0.0
  0
VERTEX
  8
SURVBND
 10
31.979
 20
88.288
 30
0.0
  0
VERTEX
  8
SURVBND
 10
31.945
 20
88.271
 30
0.0
  0
VERTEX
  8
SURVBND
 10
31.921
 20
88.258
 30
0.0
  0
VERTEX
  8
SURVBND
 10
31.893
 20
88.248
 30
0.0
  0
VERTEX
  8
SURVBND
 10
31.871
 20
88.244
 30
0.0
  0
VERTEX
  8
SURVBND
 10
31.835
 20
88.238
 30
0.0
  0
VERTEX
  8
SURVBND
 10
31.799
 20
88.236
 30
0.0
  0
VERTEX
  8
SURVBND
 10
31.774
 20
88.228
 30
0.0
  0
VERTEX
  8
SURVBND
 10
31.753
 20
88.216
 30
0.0
  0
VERTEX
  8
SURVBND
 10
31.733
 20
88.2
 30
0.0
  0
VERTEX
  8
SURVBND
 10
31.715
 20
88.177
 30
0.0
  0
VERTEX
  8
SURVBND
 10
31.697
 20
88.161
 30
0.0
  0
VERTEX
  8
SURVBND
 10
31.667
 20
88.141
 30
0.0
  0
VERTEX
  8
SURVBND
 10
31.639
 20
88.117
 30
0.0
  0
VERTEX
  8
SURVBND
 10
31.624
 20
88.106
 30
0.0
  0
VERTEX
  8
SURVBND
 10
31.604
 20
88.1
 30
0.0
  0
VERTEX
  8
SURVBND
 10
31.584
 20
88.096
 30
0.0
  0
VERTEX
  8
SURVBND
 10
31.565
 20
88.095
 30
0.0
  0
VERTEX
  8
SURVBND
 10
31.535
 20
88.104
 30
0.0
  0
VERTEX
  8
SURVBND
 10
31.51
 20
88.123
 30
0.0
  0
VERTEX
  8
SURVBND
 10
31.505
 20
88.151
 30
0.0
  0
VERTEX
  8
SURVBND
 10
31.513
 20
88.182
 30
0.0
  0
VERTEX
  8
SURVBND
 10
31.527
 20
88.211
 30
0.0
  0
VERTEX
  8
SURVBND
 10
31.533
 20
88.234
 30
0.0
  0
VERTEX
  8
SURVBND
 10
31.538
 20
88.27
 30
0.0
  0
VERTEX
  8
SURVBND
 10
31.553
 20
88.306
 30
0.0
  0
VERTEX
  8
SURVBND
 10
31.544
 20
88.351
 30
0.0
  0
VERTEX
  8
SURVBND
 10
31.533
 20
88.405
 30
0.0
  0
VERTEX
  8
SURVBND
 10
31.526
 20
88.435
 30
0.0
  0
VERTEX
  8
SURVBND
 10
31.522
 20
88.462
 30
0.0
  0
VERTEX
  8
SURVBND
 10
31.516
 20
88.496
 30
0.0
  0
VERTEX
  8
SURVBND
 10
31.494
 20
88.515
 30
0.0
  0
VERTEX
  8
SURVBND
 10
31.481
 20
88.526
 30
0.0
  0
VERTEX
  8
SURVBND
 10
31.467
 20
88.533
 30
0.0
  0
VERTEX
  8
SURVBND
 10
31.448
 20
88.55
 30
0.0
  0
VERTEX
  8
SURVBND
 10
31.43
 20
88.569
 30
0.0
  0
VERTEX
  8
SURVBND
 10
31.419
 20
88.595
 30
0.0
  0
VERTEX
  8
SURVBND
 10
31.403
 20
88.625
 30
0.0
  0
VERTEX
  8
SURVBND
 10
31.39
 20
88.651
 30
0.0
  0
VERTEX
  8
SURVBND
 10
31.376
 20
88.666
 30
0.0
  0
VERTEX
  8
SURVBND
 10
31.356
 20
88.669
 30
0.0
  0
VERTEX
  8
SURVBND
 10
31.339
 20
88.673
 30
0.0
  0
VERTEX
  8
SURVBND
 10
31.312
 20
88.681
 30
0.0
  0
VERTEX
  8
SURVBND
 10
31.289
 20
88.684
 30
0.0
  0
VERTEX
  8
SURVBND
 10
31.276
 20
88.688
 30
0.0
  0
VERTEX
  8
SURVBND
 10
31.262
 20
88.687
 30
0.0
  0
VERTEX
  8
SURVBND
 10
31.251
 20
88.69
 30
0.0
  0
VERTEX
  8
SURVBND
 10
31.234
 20
88.688
 30
0.0
  0
VERTEX
  8
SURVBND
 10
31.211
 20
88.691
 30
0.0
  0
VERTEX
  8
SURVBND
 10
31.19
 20
88.698
 30
0.0
  0
VERTEX
  8
SURVBND
 10
31.175
 20
88.707
 30
0.0
  0
VERTEX
  8
SURVBND
 10
31.156
 20
88.724
 30
0.0
  0
VERTEX
  8
SURVBND
 10
31.142
 20
88.744
 30
0.0
  0
VERTEX
  8
SURVBND
 10
31.13
 20
88.766
 30
0.0
  0
VERTEX
  8
SURVBND
 10
31.12
 20
88.79
 30
0.0
  0
VERTEX
  8
SURVBND
 10
31.12
 20
88.82
 30
0.0
  0
VERTEX
  8
SURVBND
 10
31.13
 20
88.839
 30
0.0
  0
VERTEX
  8
SURVBND
 10
31.142
 20
88.863
 30
0.0
  0
VERTEX
  8
SURVBND
 10
31.161
 20
88.888
 30
0.0
  0
VERTEX
  8
SURVBND
 10
31.195
 20
88.879
 30
0.0
  0
VERTEX
  8
SURVBND
 10
31.223
 20
88.87
 30
0.0
  0
VERTEX
  8
SURVBND
 10
31.225
 20
88.885
 30
0.0
  0
VERTEX
  8
SURVBND
 10
31.224
 20
88.911
 30
0.0
  0
VERTEX
  8
SURVBND
 10
31.221
 20
88.925
 30
0.0
  0
VERTEX
  8
SURVBND
 10
31.214
 20
88.945
 30
0.0
  0
VERTEX
  8
SURVBND
 10
31.205
 20
88.968
 30
0.0
  0
VERTEX
  8
SURVBND
 10
31.196
 20
88.995
 30
0.0
  0
VERTEX
  8
SURVBND
 10
31.188
 20
89.02
 30
0.0
  0
VERTEX
  8
SURVBND
 10
31.177
 20
89.035
 30
0.0
  0
VERTEX
  8
SURVBND
 10
31.159
 20
89.059
 30
0.0
  0
VERTEX
  8
SURVBND
 10
31.149
 20
89.072
 30
0.0
  0
VERTEX
  8
SURVBND
 10
31.14
 20
89.081
 30
0.0
  0
VERTEX
  8
SURVBND
 10
31.127
 20
89.092
 30
0.0
  0
VERTEX
  8
SURVBND
 10
31.108
 20
89.103
 30
0.0
  0
VERTEX
  8
SURVBND
 10
31.093
 20
89.111
 30
0.0
  0
VERTEX
  8
SURVBND
 10
31.086
 20
89.13
 30
0.0
  0
VERTEX
  8
SURVBND
 10
31.082
 20
89.14
 30
0.0
  0
VERTEX
  8
SURVBND
 10
31.082
 20
89.153
 30
0.0
  0
VERTEX
  8
SURVBND
 10
31.083
 20
89.169
 30
0.0
  0
VERTEX
  8
SURVBND
 10
31.079
 20
89.181
 30
0.0
  0
VERTEX
  8
SURVBND
 10
31.073
 20
89.19
 30
0.0
  0
VERTEX
  8
SURVBND
 10
31.064
 20
89.205
 30
0.0
  0
VERTEX
  8
SURVBND
 10
31.05
 20
89.215
 30
0.0
  0
VERTEX
  8
SURVBND
 10
31.029
 20
89.217
 30
0.0
  0
VERTEX
  8
SURVBND
 10
31.018
 20
89.218
 30
0.0
  0
VERTEX
  8
SURVBND
 10
31.007
 20
89.229
 30
0.0
  0
VERTEX
  8
SURVBND
 10
31.006
 20
89.249
 30
0.0
  0
VERTEX
  8
SURVBND
 10
31.008
 20
89.271
 30
0.0
  0
VERTEX
  8
SURVBND
 10
31.009
 20
89.299
 30
0.0
  0
VERTEX
  8
SURVBND
 10
31.009
 20
89.324
 30
0.0
  0
VERTEX
  8
SURVBND
 10
31.012
 20
89.347
 30
0.0
  0
VERTEX
  8
SURVBND
 10
31.012
 20
89.371
 30
0.0
  0
VERTEX
  8
SURVBND
 10
31.01
 20
89.387
 30
0.0
  0
VERTEX
  8
SURVBND
 10
30.985
 20
89.422
 30
0.0
  0
VERTEX
  8
SURVBND
 10
30.968
 20
89.439
 30
0.0
  0
VERTEX
  8
SURVBND
 10
30.953
 20
89.444
 30
0.0
  0
VERTEX
  8
SURVBND
 10
30.936
 20
89.444
 30
0.0
  0
VERTEX
  8
SURVBND
 10
30.921
 20
89.44
 30
0.0
  0
VERTEX
  8
SURVBND
 10
30.894
 20
89.428
 30
0.0
  0
VERTEX
  8
SURVBND
 10
30.872
 20
89.421
 30
0.0
  0
VERTEX
  8
SURVBND
 10
30.856
 20
89.418
 30
0.0
  0
VERTEX
  8
SURVBND
 10
30.83
 20
89.421
 30
0.0
  0
VERTEX
  8
SURVBND
 10
30.808
 20
89.435
 30
0.0
  0
VERTEX
  8
SURVBND
 10
30.781
 20
89.458
 30
0.0
  0
VERTEX
  8
SURVBND
 10
30.76
 20
89.481
 30
0.0
  0
VERTEX
  8
SURVBND
 10
30.736
 20
89.503
 30
0.0
  0
VERTEX
  8
SURVBND
 10
30.711
 20
89.526
 30
0.0
  0
VERTEX
  8
SURVBND
 10
30.694
 20
89.541
 30
0.0
  0
VERTEX
  8
SURVBND
 10
30.676
 20
89.558
 30
0.0
  0
VERTEX
  8
SURVBND
 10
30.672
 20
89.58
 30
0.0
  0
VERTEX
  8
SURVBND
 10
30.682
 20
89.592
 30
0.0
  0
VERTEX
  8
SURVBND
 10
30.705
 20
89.596
 30
0.0
  0
VERTEX
  8
SURVBND
 10
30.734
 20
89.597
 30
0.0
  0
VERTEX
  8
SURVBND
 10
30.757
 20
89.601
 30
0.0
  0
VERTEX
  8
SURVBND
 10
30.785
 20
89.613
 30
0.0
  0
VERTEX
  8
SURVBND
 10
30.798
 20
89.651
 30
0.0
  0
VERTEX
  8
SURVBND
 10
30.794
 20
89.69
 30
0.0
  0
VERTEX
  8
SURVBND
 10
30.793
 20
89.71
 30
0.0
  0
VERTEX
  8
SURVBND
 10
30.779
 20
89.741
 30
0.0
  0
VERTEX
  8
SURVBND
 10
30.795
 20
89.757
 30
0.0
  0
VERTEX
  8
SURVBND
 10
30.847
 20
89.759
 30
0.0
  0
VERTEX
  8
SURVBND
 10
30.863
 20
89.785
 30
0.0
  0
VERTEX
  8
SURVBND
 10
30.877
 20
89.822
 30
0.0
  0
VERTEX
  8
SURVBND
 10
30.874
 20
89.879
 30
0.0
  0
VERTEX
  8
SURVBND
 10
30.888
 20
89.901
 30
0.0
  0
VERTEX
  8
SURVBND
 10
30.892
 20
89.912
 30
0.0
  0
VERTEX
  8
SURVBND
 10
30.895
 20
89.944
 30
0.0
  0
VERTEX
  8
SURVBND
 10
30.891
 20
89.974
 30
0.0
  0
VERTEX
  8
SURVBND
 10
30.891
 20
89.998
 30
0.0
  0
VERTEX
  8
SURVBND
 10
30.89
 20
90.024
 30
0.0
  0
VERTEX
  8
SURVBND
 10
30.897
 20
90.054
 30
0.0
  0
VERTEX
  8
SURVBND
 10
30.903
 20
90.075
 30
0.0
  0
VERTEX
  8
SURVBND
 10
30.92
 20
90.103
 30
0.0
  0
VERTEX
  8
SURVBND
 10
30.932
 20
90.122
 30
0.0
  0
VERTEX
  8
SURVBND
 10
30.948
 20
90.15
 30
0.0
  0
VERTEX
  8
SURVBND
 10
30.958
 20
90.164
 30
0.0
  0
VERTEX
  8
SURVBND
 10
30.971
 20
90.182
 30
0.0
  0
VERTEX
  8
SURVBND
 10
30.988
 20
90.206
 30
0.0
  0
VERTEX
  8
SURVBND
 10
30.998
 20
90.222
 30
0.0
  0
VERTEX
  8
SURVBND
 10
31.012
 20
90.245
 30
0.0
  0
VERTEX
  8
SURVBND
 10
31.022
 20
90.259
 30
0.0
  0
VERTEX
  8
SURVBND
 10
31.035
 20
90.276
 30
0.0
  0
VERTEX
  8
SURVBND
 10
31.046
 20
90.294
 30
0.0
  0
VERTEX
  8
SURVBND
 10
31.061
 20
90.315
 30
0.0
  0
VERTEX
  8
SURVBND
 10
31.075
 20
90.335
 30
0.0
  0
VERTEX
  8
SURVBND
 10
31.088
 20
90.351
 30
0.0
  0
VERTEX
  8
SURVBND
 10
31.116
 20
90.382
 30
0.0
  0
VERTEX
  8
SURVBND
 10
31.14
 20
90.408
 30
0.0
  0
VERTEX
  8
SURVBND
 10
31.157
 20
90.427
 30
0.0
  0
VERTEX
  8
SURVBND
 10
31.188
 20
90.462
 30
0.0
  0
VERTEX
  8
SURVBND
 10
31.213
 20
90.495
 30
0.0
  0
VERTEX
  8
SURVBND
 10
31.247
 20
90.536
 30
0.0
  0
VERTEX
  8
SURVBND
 10
31.287
 20
90.581
 30
0.0
  0
VERTEX
  8
SURVBND
 10
31.322
 20
90.63
 30
0.0
  0
VERTEX
  8
SURVBND
 10
31.358
 20
90.672
 30
0.0
  0
VERTEX
  8
SURVBND
 10
31.399
 20
90.715
 30
0.0
  0
VERTEX
  8
SURVBND
 10
31.489
 20
90.855
 30
0.0
  0
VERTEX
  8
SURVBND
 10
31.534
 20
90.923
 30
0.0
  0
VERTEX
  8
SURVBND
 10
31.574
 20
90.967
 30
0.0
  0
VERTEX
  8
SURVBND
 10
31.598
 20
90.994
 30
0.0
  0
VERTEX
  8
SURVBND
 10
31.641
 20
91.072
 30
0.0
  0
VERTEX
  8
SURVBND
 10
31.666
 20
91.116
 30
0.0
  0
VERTEX
  8
SURVBND
 10
31.691
 20
91.158
 30
0.0
  0
VERTEX
  8
SURVBND
 10
31.722
 20
91.191
 30
0.0
  0
VERTEX
  8
SURVBND
 10
31.746
 20
91.224
 30
0.0
  0
VERTEX
  8
SURVBND
 10
31.783
 20
91.27
 30
0.0
  0
VERTEX
  8
SURVBND
 10
31.796
 20
91.282
 30
0.0
  0
VERTEX
  8
SURVBND
 10
31.821
 20
91.304
 30
0.0
  0
VERTEX
  8
SURVBND
 10
31.82
 20
91.351
 30
0.0
  0
VERTEX
  8
SURVBND
 10
31.796
 20
91.407
 30
0.0
  0
VERTEX
  8
SURVBND
 10
31.786
 20
91.43
 30
0.0
  0
VERTEX
  8
SURVBND
 10
31.719
 20
91.513
 30
0.0
  0
VERTEX
  8
SURVBND
 10
31.668
 20
91.583
 30
0.0
  0
VERTEX
  8
SURVBND
 10
31.643
 20
91.623
 30
0.0
  0
VERTEX
  8
SURVBND
 10
31.624
 20
91.635
 30
0.0
  0
VERTEX
  8
SURVBND
 10
31.609
 20
91.644
 30
0.0
  0
VERTEX
  8
SURVBND
 10
31.573
 20
91.663
 30
0.0
  0
VERTEX
  8
SURVBND
 10
31.53
 20
91.659
 30
0.0
  0
VERTEX
  8
SURVBND
 10
31.537
 20
91.614
 30
0.0
  0
VERTEX
  8
SURVBND
 10
31.538
 20
91.6
 30
0.0
  0
VERTEX
  8
SURVBND
 10
31.513
 20
91.584
 30
0.0
  0
VERTEX
  8
SURVBND
 10
31.457
 20
91.581
 30
0.0
  0
VERTEX
  8
SURVBND
 10
31.4
 20
91.579
 30
0.0
  0
VERTEX
  8
SURVBND
 10
31.358
 20
91.583
 30
0.0
  0
VERTEX
  8
SURVBND
 10
31.307
 20
91.569
 30
0.0
  0
VERTEX
  8
SURVBND
 10
31.246
 20
91.551
 30
0.0
  0
VERTEX
  8
SURVBND
 10
31.19
 20
91.515
 30
0.0
  0
VERTEX
  8
SURVBND
 10
31.148
 20
91.502
 30
0.0
  0
VERTEX
  8
SURVBND
 10
31.097
 20
91.518
 30
0.0
  0
VERTEX
  8
SURVBND
 10
31.076
 20
91.524
 30
0.0
  0
VERTEX
  8
SURVBND
 10
31.032
 20
91.538
 30
0.0
  0
VERTEX
  8
SURVBND
 10
30.97
 20
91.557
 30
0.0
  0
VERTEX
  8
SURVBND
 10
30.926
 20
91.58
 30
0.0
  0
VERTEX
  8
SURVBND
 10
30.883
 20
91.597
 30
0.0
  0
VERTEX
  8
SURVBND
 10
30.84
 20
91.608
 30
0.0
  0
VERTEX
  8
SURVBND
 10
30.794
 20
91.623
 30
0.0
  0
VERTEX
  8
SURVBND
 10
30.746
 20
91.639
 30
0.0
  0
VERTEX
  8
SURVBND
 10
30.702
 20
91.645
 30
0.0
  0
VERTEX
  8
SURVBND
 10
30.658
 20
91.633
 30
0.0
  0
VERTEX
  8
SURVBND
 10
30.638
 20
91.632
 30
0.0
  0
VERTEX
  8
SURVBND
 10
30.579
 20
91.63
 30
0.0
  0
VERTEX
  8
SURVBND
 10
30.539
 20
91.635
 30
0.0
  0
VERTEX
  8
SURVBND
 10
30.484
 20
91.629
 30
0.0
  0
VERTEX
  8
SURVBND
 10
30.444
 20
91.63
 30
0.0
  0
VERTEX
  8
SURVBND
 10
30.401
 20
91.693
 30
0.0
  0
VERTEX
  8
SURVBND
 10
30.353
 20
91.756
 30
0.0
  0
VERTEX
  8
SURVBND
 10
30.299
 20
91.819
 30
0.0
  0
VERTEX
  8
SURVBND
 10
30.239
 20
91.874
 30
0.0
  0
VERTEX
  8
SURVBND
 10
30.198
 20
91.925
 30
0.0
  0
VERTEX
  8
SURVBND
 10
30.153
 20
91.97
 30
0.0
  0
VERTEX
  8
SURVBND
 10
30.048
 20
92.075
 30
0.0
  0
VERTEX
  8
SURVBND
 10
30.012
 20
92.069
 30
0.0
  0
VERTEX
  8
SURVBND
 10
29.967
 20
92.119
 30
0.0
  0
VERTEX
  8
SURVBND
 10
29.914
 20
92.193
 30
0.0
  0
VERTEX
  8
SURVBND
 10
29.859
 20
92.253
 30
0.0
  0
VERTEX
  8
SURVBND
 10
29.807
 20
92.253
 30
0.0
  0
VERTEX
  8
SURVBND
 10
29.766
 20
92.217
 30
0.0
  0
VERTEX
  8
SURVBND
 10
29.759
 20
92.205
 30
0.0
  0
VERTEX
  8
SURVBND
 10
29.732
 20
92.159
 30
0.0
  0
VERTEX
  8
SURVBND
 10
29.685
 20
92.089
 30
0.0
  0
VERTEX
  8
SURVBND
 10
29.645
 20
92.019
 30
0.0
  0
VERTEX
  8
SURVBND
 10
29.646
 20
91.963
 30
0.0
  0
VERTEX
  8
SURVBND
 10
29.641
 20
91.877
 30
0.0
  0
VERTEX
  8
SURVBND
 10
29.638
 20
91.809
 30
0.0
  0
VERTEX
  8
SURVBND
 10
29.644
 20
91.792
 30
0.0
  0
VERTEX
  8
SURVBND
 10
29.66
 20
91.747
 30
0.0
  0
VERTEX
  8
SURVBND
 10
29.668
 20
91.712
 30
0.0
  0
VERTEX
  8
SURVBND
 10
29.664
 20
91.674
 30
0.0
  0
VERTEX
  8
SURVBND
 10
29.652
 20
91.642
 30
0.0
  0
VERTEX
  8
SURVBND
 10
29.636
 20
91.609
 30
0.0
  0
VERTEX
  8
SURVBND
 10
29.617
 20
91.594
 30
0.0
  0
VERTEX
  8
SURVBND
 10
29.549
 20
91.562
 30
0.0
  0
VERTEX
  8
SURVBND
 10
29.498
 20
91.527
 30
0.0
  0
VERTEX
  8
SURVBND
 10
29.475
 20
91.503
 30
0.0
  0
VERTEX
  8
SURVBND
 10
29.427
 20
91.472
 30
0.0
  0
VERTEX
  8
SURVBND
 10
29.397
 20
91.458
 30
0.0
  0
VERTEX
  8
SURVBND
 10
29.346
 20
91.436
 30
0.0
  0
VERTEX
  8
SURVBND
 10
29.285
 20
91.411
 30
0.0
  0
VERTEX
  8
SURVBND
 10
29.237
 20
91.4
 30
0.0
  0
VERTEX
  8
SURVBND
 10
29.191
 20
91.388
 30
0.0
  0
VERTEX
  8
SURVBND
 10
29.143
 20
91.392
 30
0.0
  0
VERTEX
  8
SURVBND
 10
29.114
 20
91.425
 30
0.0
  0
VERTEX
  8
SURVBND
 10
29.074
 20
91.466
 30
0.0
  0
VERTEX
  8
SURVBND
 10
29.047
 20
91.501
 30
0.0
  0
VERTEX
  8
SURVBND
 10
29.027
 20
91.538
 30
0.0
  0
VERTEX
  8
SURVBND
 10
28.998
 20
91.583
 30
0.0
  0
VERTEX
  8
SURVBND
 10
28.954
 20
91.644
 30
0.0
  0
VERTEX
  8
SURVBND
 10
28.927
 20
91.688
 30
0.0
  0
VERTEX
  8
SURVBND
 10
28.903
 20
91.728
 30
0.0
  0
VERTEX
  8
SURVBND
 10
28.884
 20
91.763
 30
0.0
  0
VERTEX
  8
SURVBND
 10
28.866
 20
91.792
 30
0.0
  0
VERTEX
  8
SURVBND
 10
28.855
 20
91.81
 30
0.0
  0
VERTEX
  8
SURVBND
 10
28.824
 20
91.863
 30
0.0
  0
VERTEX
  8
SURVBND
 10
28.804
 20
91.9
 30
0.0
  0
VERTEX
  8
SURVBND
 10
28.781
 20
91.945
 30
0.0
  0
VERTEX
  8
SURVBND
 10
28.764
 20
91.983
 30
0.0
  0
VERTEX
  8
SURVBND
 10
28.766
 20
92.016
 30
0.0
  0
VERTEX
  8
SURVBND
 10
28.769
 20
92.035
 30
0.0
  0
VERTEX
  8
SURVBND
 10
28.773
 20
92.089
 30
0.0
  0
VERTEX
  8
SURVBND
 10
28.782
 20
92.162
 30
0.0
  0
VERTEX
  8
SURVBND
 10
28.793
 20
92.223
 30
0.0
  0
VERTEX
  8
SURVBND
 10
28.8
 20
92.273
 30
0.0
  0
VERTEX
  8
SURVBND
 10
28.8
 20
92.303
 30
0.0
  0
VERTEX
  8
SURVBND
 10
28.791
 20
92.343
 30
0.0
  0
VERTEX
  8
SURVBND
 10
28.78
 20
92.368
 30
0.0
  0
VERTEX
  8
SURVBND
 10
28.77
 20
92.409
 30
0.0
  0
VERTEX
  8
SURVBND
 10
28.764
 20
92.46
 30
0.0
  0
VERTEX
  8
SURVBND
 10
28.744
 20
92.509
 30
0.0
  0
VERTEX
  8
SURVBND
 10
28.72
 20
92.57
 30
0.0
  0
VERTEX
  8
SURVBND
 10
28.712
 20
92.594
 30
0.0
  0
VERTEX
  8
SURVBND
 10
28.704
 20
92.619
 30
0.0
  0
VERTEX
  8
SURVBND
 10
28.672
 20
92.679
 30
0.0
  0
VERTEX
  8
SURVBND
 10
28.657
 20
92.715
 30
0.0
  0
VERTEX
  8
SURVBND
 10
28.622
 20
92.75
 30
0.0
  0
VERTEX
  8
SURVBND
 10
28.587
 20
92.79
 30
0.0
  0
VERTEX
  8
SURVBND
 10
28.553
 20
92.831
 30
0.0
  0
VERTEX
  8
SURVBND
 10
28.547
 20
92.841
 30
0.0
  0
VERTEX
  8
SURVBND
 10
28.547
 20
92.906
 30
0.0
  0
VERTEX
  8
SURVBND
 10
28.474
 20
92.954
 30
0.0
  0
VERTEX
  8
SURVBND
 10
28.137
 20
93.087
 30
0.0
  0
VERTEX
  8
SURVBND
 10
28.014
 20
93.152
 30
0.0
  0
VERTEX
  8
SURVBND
 10
28.0
 20
93.208
 30
0.0
  0
VERTEX
  8
SURVBND
 10
27.957
 20
93.341
 30
0.0
  0
VERTEX
  8
SURVBND
 10
27.977
 20
93.459
 30
0.0
  0
VERTEX
  8
SURVBND
 10
27.972
 20
93.559
 30
0.0
  0
VERTEX
  8
SURVBND
 10
27.922
 20
93.666
 30
0.0
  0
VERTEX
  8
SURVBND
 10
27.832
 20
93.675
 30
0.0
  0
VERTEX
  8
SURVBND
 10
27.744
 20
93.712
 30
0.0
  0
VERTEX
  8
SURVBND
 10
27.638
 20
93.759
 30
0.0
  0
VERTEX
  8
SURVBND
 10
27.58
 20
93.831
 30
0.0
  0
VERTEX
  8
SURVBND
 10
27.46
 20
93.872
 30
0.0
  0
VERTEX
  8
SURVBND
 10
27.399
 20
93.875
 30
0.0
  0
VERTEX
  8
SURVBND
 10
27.308
 20
93.899
 30
0.0
  0
VERTEX
  8
SURVBND
 10
27.258
 20
93.923
 30
0.0
  0
VERTEX
  8
SURVBND
 10
27.197
 20
93.945
 30
0.0
  0
VERTEX
  8
SURVBND
 10
27.123
 20
93.954
 30
0.0
  0
VERTEX
  8
SURVBND
 10
27.075
 20
93.964
 30
0.0
  0
VERTEX
  8
SURVBND
 10
27.027
 20
93.975
 30
0.0
  0
VERTEX
  8
SURVBND
 10
26.971
 20
93.993
 30
0.0
  0
VERTEX
  8
SURVBND
 10
26.926
 20
94.0
 30
0.0
  0
VERTEX
  8
SURVBND
 10
26.88
 20
94.006
 30
0.0
  0
VERTEX
  8
SURVBND
 10
26.815
 20
94.018
 30
0.0
  0
VERTEX
  8
SURVBND
 10
26.77
 20
94.021
 30
0.0
  0
VERTEX
  8
SURVBND
 10
26.718
 20
94.039
 30
0.0
  0
VERTEX
  8
SURVBND
 10
26.643
 20
94.023
 30
0.0
  0
VERTEX
  8
SURVBND
 10
26.594
 20
94.002
 30
0.0
  0
VERTEX
  8
SURVBND
 10
26.54
 20
93.971
 30
0.0
  0
VERTEX
  8
SURVBND
 10
26.485
 20
93.935
 30
0.0
  0
VERTEX
  8
SURVBND
 10
26.428
 20
93.905
 30
0.0
  0
VERTEX
  8
SURVBND
 10
26.344
 20
93.866
 30
0.0
  0
VERTEX
  8
SURVBND
 10
26.262
 20
93.847
 30
0.0
  0
VERTEX
  8
SURVBND
 10
26.21
 20
93.906
 30
0.0
  0
VERTEX
  8
SURVBND
 10
26.173
 20
93.995
 30
0.0
  0
VERTEX
  8
SURVBND
 10
26.136
 20
94.07
 30
0.0
  0
VERTEX
  8
SURVBND
 10
26.104
 20
94.141
 30
0.0
  0
VERTEX
  8
SURVBND
 10
26.08
 20
94.259
 30
0.0
  0
VERTEX
  8
SURVBND
 10
26.086
 20
94.359
 30
0.0
  0
VERTEX
  8
SURVBND
 10
26.111
 20
94.449
 30
0.0
  0
VERTEX
  8
SURVBND
 10
26.146
 20
94.54
 30
0.0
  0
VERTEX
  8
SURVBND
 10
26.177
 20
94.639
 30
0.0
  0
VERTEX
  8
SURVBND
 10
26.156
 20
94.822
 30
0.0
  0
VERTEX
  8
SURVBND
 10
26.146
 20
94.863
 30
0.0
  0
VERTEX
  8
SURVBND
 10
26.036
 20
94.94
 30
0.0
  0
VERTEX
  8
SURVBND
 10
25.973
 20
94.997
 30
0.0
  0
VERTEX
  8
SURVBND
 10
25.918
 20
95.09
 30
0.0
  0
VERTEX
  8
SURVBND
 10
25.888
 20
95.17
 30
0.0
  0
VERTEX
  8
SURVBND
 10
25.905
 20
95.204
 30
0.0
  0
VERTEX
  8
SURVBND
 10
25.9
 20
95.253
 30
0.0
  0
VERTEX
  8
SURVBND
 10
25.893
 20
95.336
 30
0.0
  0
VERTEX
  8
SURVBND
 10
25.876
 20
95.433
 30
0.0
  0
VERTEX
  8
SURVBND
 10
25.883
 20
95.519
 30
0.0
  0
VERTEX
  8
SURVBND
 10
25.863
 20
95.552
 30
0.0
  0
VERTEX
  8
SURVBND
 10
25.828
 20
95.6
 30
0.0
  0
VERTEX
  8
SURVBND
 10
25.803
 20
95.676
 30
0.0
  0
VERTEX
  8
SURVBND
 10
25.758
 20
95.754
 30
0.0
  0
VERTEX
  8
SURVBND
 10
25.714
 20
95.807
 30
0.0
  0
VERTEX
  8
SURVBND
 10
25.631
 20
95.824
 30
0.0
  0
VERTEX
  8
SURVBND
 10
25.546
 20
95.836
 30
0.0
  0
VERTEX
  8
SURVBND
 10
25.463
 20
95.833
 30
0.0
  0
VERTEX
  8
SURVBND
 10
25.387
 20
95.822
 30
0.0
  0
VERTEX
  8
SURVBND
 10
25.303
 20
95.81
 30
0.0
  0
VERTEX
  8
SURVBND
 10
25.243
 20
95.855
 30
0.0
  0
VERTEX
  8
SURVBND
 10
25.156
 20
95.91
 30
0.0
  0
VERTEX
  8
SURVBND
 10
25.068
 20
95.984
 30
0.0
  0
VERTEX
  8
SURVBND
 10
25.074
 20
95.993
 30
0.0
  0
VERTEX
  8
SURVBND
 10
24.999
 20
96.049
 30
0.0
  0
VERTEX
  8
SURVBND
 10
24.944
 20
96.136
 30
0.0
  0
VERTEX
  8
SURVBND
 10
24.808
 20
96.077
 30
0.0
  0
VERTEX
  8
SURVBND
 10
24.739
 20
96.103
 30
0.0
  0
VERTEX
  8
SURVBND
 10
24.625
 20
96.142
 30
0.0
  0
VERTEX
  8
SURVBND
 10
24.531
 20
96.18
 30
0.0
  0
VERTEX
  8
SURVBND
 10
24.449
 20
96.197
 30
0.0
  0
VERTEX
  8
SURVBND
 10
24.365
 20
96.205
 30
0.0
  0
VERTEX
  8
SURVBND
 10
24.286
 20
96.196
 30
0.0
  0
VERTEX
  8
SURVBND
 10
24.204
 20
96.195
 30
0.0
  0
VERTEX
  8
SURVBND
 10
24.106
 20
96.187
 30
0.0
  0
VERTEX
  8
SURVBND
 10
24.026
 20
96.172
 30
0.0
  0
VERTEX
  8
SURVBND
 10
23.934
 20
96.19
 30
0.0
  0
VERTEX
  8
SURVBND
 10
23.819
 20
96.217
 30
0.0
  0
VERTEX
  8
SURVBND
 10
23.712
 20
96.259
 30
0.0
  0
VERTEX
  8
SURVBND
 10
23.634
 20
96.321
 30
0.0
  0
VERTEX
  8
SURVBND
 10
23.567
 20
96.402
 30
0.0
  0
VERTEX
  8
SURVBND
 10
23.607
 20
96.441
 30
0.0
  0
VERTEX
  8
SURVBND
 10
23.645
 20
96.491
 30
0.0
  0
VERTEX
  8
SURVBND
 10
23.698
 20
96.539
 30
0.0
  0
VERTEX
  8
SURVBND
 10
23.792
 20
96.614
 30
0.0
  0
VERTEX
  8
SURVBND
 10
23.896
 20
96.7
 30
0.0
  0
VERTEX
  8
SURVBND
 10
23.965
 20
96.781
 30
0.0
  0
VERTEX
  8
SURVBND
 10
24.053
 20
96.79
 30
0.0
  0
VERTEX
  8
SURVBND
 10
24.068
 20
96.792
 30
0.0
  0
VERTEX
  8
SURVBND
 10
24.079
 20
96.807
 30
0.0
  0
VERTEX
  8
SURVBND
 10
24.053
 20
96.852
 30
0.0
  0
VERTEX
  8
SURVBND
 10
24.013
 20
96.888
 30
0.0
  0
VERTEX
  8
SURVBND
 10
24.011
 20
96.891
 30
0.0
  0
VERTEX
  8
SURVBND
 10
24.017
 20
96.94
 30
0.0
  0
VERTEX
  8
SURVBND
 10
24.033
 20
96.972
 30
0.0
  0
VERTEX
  8
SURVBND
 10
24.093
 20
97.031
 30
0.0
  0
VERTEX
  8
SURVBND
 10
24.127
 20
97.075
 30
0.0
  0
VERTEX
  8
SURVBND
 10
24.146
 20
97.121
 30
0.0
  0
VERTEX
  8
SURVBND
 10
24.114
 20
97.191
 30
0.0
  0
VERTEX
  8
SURVBND
 10
24.125
 20
97.226
 30
0.0
  0
VERTEX
  8
SURVBND
 10
24.197
 20
97.272
 30
0.0
  0
VERTEX
  8
SURVBND
 10
24.229
 20
97.307
 30
0.0
  0
VERTEX
  8
SURVBND
 10
24.249
 20
97.359
 30
0.0
  0
VERTEX
  8
SURVBND
 10
24.243
 20
97.413
 30
0.0
  0
VERTEX
  8
SURVBND
 10
24.233
 20
97.458
 30
0.0
  0
VERTEX
  8
SURVBND
 10
24.185
 20
97.491
 30
0.0
  0
VERTEX
  8
SURVBND
 10
24.149
 20
97.514
 30
0.0
  0
VERTEX
  8
SURVBND
 10
24.107
 20
97.524
 30
0.0
  0
VERTEX
  8
SURVBND
 10
24.092
 20
97.532
 30
0.0
  0
VERTEX
  8
SURVBND
 10
24.103
 20
97.551
 30
0.0
  0
VERTEX
  8
SURVBND
 10
24.12
 20
97.572
 30
0.0
  0
VERTEX
  8
SURVBND
 10
24.143
 20
97.605
 30
0.0
  0
VERTEX
  8
SURVBND
 10
24.16
 20
97.626
 30
0.0
  0
VERTEX
  8
SURVBND
 10
24.184
 20
97.654
 30
0.0
  0
VERTEX
  8
SURVBND
 10
24.203
 20
97.673
 30
0.0
  0
VERTEX
  8
SURVBND
 10
24.223
 20
97.694
 30
0.0
  0
VERTEX
  8
SURVBND
 10
24.257
 20
97.723
 30
0.0
  0
VERTEX
  8
SURVBND
 10
24.292
 20
97.741
 30
0.0
  0
VERTEX
  8
SURVBND
 10
24.383
 20
97.828
 30
0.0
  0
VERTEX
  8
SURVBND
 10
24.469
 20
97.923
 30
0.0
  0
VERTEX
  8
SURVBND
 10
24.506
 20
97.966
 30
0.0
  0
VERTEX
  8
SURVBND
 10
24.54
 20
98.019
 30
0.0
  0
VERTEX
  8
SURVBND
 10
24.574
 20
98.053
 30
0.0
  0
VERTEX
  8
SURVBND
 10
24.606
 20
98.076
 30
0.0
  0
VERTEX
  8
SURVBND
 10
24.626
 20
98.115
 30
0.0
  0
VERTEX
  8
SURVBND
 10
24.632
 20
98.154
 30
0.0
  0
VERTEX
  8
SURVBND
 10
24.649
 20
98.19
 30
0.0
  0
VERTEX
  8
SURVBND
 10
24.657
 20
98.223
 30
0.0
  0
VERTEX
  8
SURVBND
 10
24.655
 20
98.264
 30
0.0
  0
VERTEX
  8
SURVBND
 10
24.667
 20
98.282
 30
0.0
  0
VERTEX
  8
SURVBND
 10
24.669
 20
98.313
 30
0.0
  0
VERTEX
  8
SURVBND
 10
24.676
 20
98.364
 30
0.0
  0
VERTEX
  8
SURVBND
 10
24.689
 20
98.411
 30
0.0
  0
VERTEX
  8
SURVBND
 10
24.697
 20
98.431
 30
0.0
  0
VERTEX
  8
SURVBND
 10
24.693
 20
98.461
 30
0.0
  0
VERTEX
  8
SURVBND
 10
24.705
 20
98.484
 30
0.0
  0
VERTEX
  8
SURVBND
 10
24.715
 20
98.509
 30
0.0
  0
VERTEX
  8
SURVBND
 10
24.726
 20
98.534
 30
0.0
  0
VERTEX
  8
SURVBND
 10
24.737
 20
98.567
 30
0.0
  0
VERTEX
  8
SURVBND
 10
24.741
 20
98.604
 30
0.0
  0
VERTEX
  8
SURVBND
 10
24.744
 20
98.63
 30
0.0
  0
VERTEX
  8
SURVBND
 10
24.755
 20
98.666
 30
0.0
  0
VERTEX
  8
SURVBND
 10
24.765
 20
98.698
 30
0.0
  0
VERTEX
  8
SURVBND
 10
24.774
 20
98.733
 30
0.0
  0
VERTEX
  8
SURVBND
 10
24.771
 20
98.774
 30
0.0
  0
VERTEX
  8
SURVBND
 10
24.783
 20
98.819
 30
0.0
  0
VERTEX
  8
SURVBND
 10
24.8
 20
98.872
 30
0.0
  0
VERTEX
  8
SURVBND
 10
24.896
 20
98.945
 30
0.0
  0
VERTEX
  8
SURVBND
 10
25.049
 20
99.055
 30
0.0
  0
VERTEX
  8
SURVBND
 10
25.066
 20
99.082
 30
0.0
  0
VERTEX
  8
SURVBND
 10
25.068
 20
99.081
 30
0.0
  0
VERTEX
  8
SURVBND
 10
25.113
 20
99.116
 30
0.0
  0
VERTEX
  8
SURVBND
 10
25.164
 20
99.154
 30
0.0
  0
VERTEX
  8
SURVBND
 10
25.196
 20
99.177
 30
0.0
  0
VERTEX
  8
SURVBND
 10
25.232
 20
99.211
 30
0.0
  0
VERTEX
  8
SURVBND
 10
25.261
 20
99.216
 30
0.0
  0
VERTEX
  8
SURVBND
 10
25.307
 20
99.222
 30
0.0
  0
VERTEX
  8
SURVBND
 10
25.399
 20
99.237
 30
0.0
  0
VERTEX
  8
SURVBND
 10
25.451
 20
99.262
 30
0.0
  0
VERTEX
  8
SURVBND
 10
25.53
 20
99.285
 30
0.0
  0
VERTEX
  8
SURVBND
 10
25.596
 20
99.319
 30
0.0
  0
VERTEX
  8
SURVBND
 10
25.657
 20
99.348
 30
0.0
  0
VERTEX
  8
SURVBND
 10
25.714
 20
99.375
 30
0.0
  0
VERTEX
  8
SURVBND
 10
25.765
 20
99.388
 30
0.0
  0
VERTEX
  8
SURVBND
 10
25.806
 20
99.412
 30
0.0
  0
VERTEX
  8
SURVBND
 10
25.852
 20
99.422
 30
0.0
  0
VERTEX
  8
SURVBND
 10
25.898
 20
99.44
 30
0.0
  0
VERTEX
  8
SURVBND
 10
25.925
 20
99.455
 30
0.0
  0
VERTEX
  8
SURVBND
 10
25.967
 20
99.455
 30
0.0
  0
VERTEX
  8
SURVBND
 10
26.042
 20
99.467
 30
0.0
  0
VERTEX
  8
SURVBND
 10
26.084
 20
99.466
 30
0.0
  0
VERTEX
  8
SURVBND
 10
26.134
 20
99.469
 30
0.0
  0
VERTEX
  8
SURVBND
 10
26.178
 20
99.481
 30
0.0
  0
VERTEX
  8
SURVBND
 10
26.219
 20
99.504
 30
0.0
  0
VERTEX
  8
SURVBND
 10
26.262
 20
99.529
 30
0.0
  0
VERTEX
  8
SURVBND
 10
26.302
 20
99.553
 30
0.0
  0
VERTEX
  8
SURVBND
 10
26.339
 20
99.581
 30
0.0
  0
VERTEX
  8
SURVBND
 10
26.376
 20
99.607
 30
0.0
  0
VERTEX
  8
SURVBND
 10
26.414
 20
99.634
 30
0.0
  0
VERTEX
  8
SURVBND
 10
26.443
 20
99.652
 30
0.0
  0
VERTEX
  8
SURVBND
 10
26.484
 20
99.683
 30
0.0
  0
VERTEX
  8
SURVBND
 10
26.514
 20
99.707
 30
0.0
  0
VERTEX
  8
SURVBND
 10
26.536
 20
99.732
 30
0.0
  0
VERTEX
  8
SURVBND
 10
26.561
 20
99.757
 30
0.0
  0
VERTEX
  8
SURVBND
 10
26.582
 20
99.784
 30
0.0
  0
VERTEX
  8
SURVBND
 10
26.613
 20
99.809
 30
0.0
  0
VERTEX
  8
SURVBND
 10
26.626
 20
99.831
 30
0.0
  0
VERTEX
  8
SURVBND
 10
26.656
 20
99.876
 30
0.0
  0
VERTEX
  8
SURVBND
 10
26.692
 20
99.89
 30
0.0
  0
VERTEX
  8
SURVBND
 10
30.094
 20
102.301
 30
0.0
  0
VERTEX
  8
SURVBND
 10
30.1
 20
102.326
 30
0.0
  0
VERTEX
  8
SURVBND
 10
30.3
 20
102.47
 30
0.0
  0
VERTEX
  8
SURVBND
 10
30.467
 20
102.582
 30
0.0
  0
VERTEX
  8
SURVBND
 10
30.654
 20
102.703
 30
0.0
  0
VERTEX
  8
SURVBND
 10
30.79
 20
102.789
 30
0.0
  0
VERTEX
  8
SURVBND
 10
30.953
 20
102.886
 30
0.0
  0
VERTEX
  8
SURVBND
 10
31.035
 20
102.946
 30
0.0
  0
VERTEX
  8
SURVBND
 10
31.077
 20
102.948
 30
0.0
  0
VERTEX
  8
SURVBND
 10
31.098
 20
102.981
 30
0.0
  0
VERTEX
  8
SURVBND
 10
30.841
 20
103.293
 30
0.0
  0
VERTEX
  8
SURVBND
 10
31.375
 20
103.602
 30
0.0
  0
VERTEX
  8
SURVBND
 10
31.813
 20
103.864
 30
0.0
  0
VERTEX
  8
SURVBND
 10
31.804
 20
103.819
 30
0.0
  0
VERTEX
  8
SURVBND
 10
31.793
 20
103.738
 30
0.0
  0
VERTEX
  8
SURVBND
 10
31.779
 20
103.677
 30
0.0
  0
VERTEX
  8
SURVBND
 10
31.769
 20
103.624
 30
0.0
  0
VERTEX
  8
SURVBND
 10
31.754
 20
103.583
 30
0.0
  0
VERTEX
  8
SURVBND
 10
31.76
 20
103.55
 30
0.0
  0
VERTEX
  8
SURVBND
 10
31.76
 20
103.527
 30
0.0
  0
VERTEX
  8
SURVBND
 10
31.744
 20
103.481
 30
0.0
  0
VERTEX
  8
SURVBND
 10
31.737
 20
103.444
 30
0.0
  0
VERTEX
  8
SURVBND
 10
31.73
 20
103.414
 30
0.0
  0
VERTEX
  8
SURVBND
 10
31.717
 20
103.389
 30
0.0
  0
VERTEX
  8
SURVBND
 10
31.719
 20
103.365
 30
0.0
  0
VERTEX
  8
SURVBND
 10
31.734
 20
103.319
 30
0.0
  0
VERTEX
  8
SURVBND
 10
31.762
 20
103.278
 30
0.0
  0
VERTEX
  8
SURVBND
 10
31.791
 20
103.248
 30
0.0
  0
VERTEX
  8
SURVBND
 10
31.815
 20
103.206
 30
0.0
  0
VERTEX
  8
SURVBND
 10
31.848
 20
103.165
 30
0.0
  0
VERTEX
  8
SURVBND
 10
31.878
 20
103.125
 30
0.0
  0
VERTEX
  8
SURVBND
 10
31.919
 20
103.074
 30
0.0
  0
VERTEX
  8
SURVBND
 10
31.932
 20
103.036
 30
0.0
  0
VERTEX
  8
SURVBND
 10
31.94
 20
102.952
 30
0.0
  0
VERTEX
  8
SURVBND
 10
31.949
 20
102.919
 30
0.0
  0
VERTEX
  8
SURVBND
 10
31.945
 20
102.915
 30
0.0
  0
VERTEX
  8
SURVBND
 10
31.946
 20
102.882
 30
0.0
  0
VERTEX
  8
SURVBND
 10
31.95
 20
102.88
 30
0.0
  0
VERTEX
  8
SURVBND
 10
31.957
 20
102.698
 30
0.0
  0
VERTEX
  8
SURVBND
 10
31.957
 20
102.581
 30
0.0
  0
VERTEX
  8
SURVBND
 10
31.968
 20
102.492
 30
0.0
  0
VERTEX
  8
SURVBND
 10
31.991
 20
102.393
 30
0.0
  0
VERTEX
  8
SURVBND
 10
32.01
 20
102.323
 30
0.0
  0
VERTEX
  8
SURVBND
 10
32.031
 20
102.265
 30
0.0
  0
VERTEX
  8
SURVBND
 10
32.071
 20
102.171
 30
0.0
  0
VERTEX
  8
SURVBND
 10
32.095
 20
102.053
 30
0.0
  0
VERTEX
  8
SURVBND
 10
32.086
 20
102.034
 30
0.0
  0
VERTEX
  8
SURVBND
 10
32.107
 20
101.841
 30
0.0
  0
VERTEX
  8
SURVBND
 10
32.111
 20
101.841
 30
0.0
  0
VERTEX
  8
SURVBND
 10
32.12
 20
101.76
 30
0.0
  0
VERTEX
  8
SURVBND
 10
32.131
 20
101.7
 30
0.0
  0
VERTEX
  8
SURVBND
 10
32.138
 20
101.631
 30
0.0
  0
VERTEX
  8
SURVBND
 10
32.147
 20
101.586
 30
0.0
  0
VERTEX
  8
SURVBND
 10
32.159
 20
101.552
 30
0.0
  0
VERTEX
  8
SURVBND
 10
32.178
 20
101.519
 30
0.0
  0
VERTEX
  8
SURVBND
 10
32.193
 20
101.483
 30
0.0
  0
VERTEX
  8
SURVBND
 10
32.199
 20
101.452
 30
0.0
  0
VERTEX
  8
SURVBND
 10
32.205
 20
101.409
 30
0.0
  0
VERTEX
  8
SURVBND
 10
32.211
 20
101.38
 30
0.0
  0
VERTEX
  8
SURVBND
 10
32.211
 20
101.339
 30
0.0
  0
VERTEX
  8
SURVBND
 10
32.217
 20
101.314
 30
0.0
  0
VERTEX
  8
SURVBND
 10
32.224
 20
101.277
 30
0.0
  0
VERTEX
  8
SURVBND
 10
32.225
 20
101.235
 30
0.0
  0
VERTEX
  8
SURVBND
 10
32.231
 20
101.195
 30
0.0
  0
VERTEX
  8
SURVBND
 10
32.23
 20
101.155
 30
0.0
  0
VERTEX
  8
SURVBND
 10
32.229
 20
101.118
 30
0.0
  0
VERTEX
  8
SURVBND
 10
32.235
 20
101.086
 30
0.0
  0
VERTEX
  8
SURVBND
 10
32.239
 20
101.04
 30
0.0
  0
VERTEX
  8
SURVBND
 10
32.246
 20
101.01
 30
0.0
  0
VERTEX
  8
SURVBND
 10
32.25
 20
100.986
 30
0.0
  0
VERTEX
  8
SURVBND
 10
32.257
 20
100.957
 30
0.0
  0
VERTEX
  8
SURVBND
 10
32.267
 20
100.925
 30
0.0
  0
VERTEX
  8
SURVBND
 10
32.269
 20
100.901
 30
0.0
  0
VERTEX
  8
SURVBND
 10
32.275
 20
100.882
 30
0.0
  0
VERTEX
  8
SURVBND
 10
32.283
 20
100.86
 30
0.0
  0
VERTEX
  8
SURVBND
 10
32.29
 20
100.814
 30
0.0
  0
VERTEX
  8
SURVBND
 10
32.306
 20
100.772
 30
0.0
  0
VERTEX
  8
SURVBND
 10
32.323
 20
100.737
 30
0.0
  0
VERTEX
  8
SURVBND
 10
32.336
 20
100.699
 30
0.0
  0
VERTEX
  8
SURVBND
 10
32.345
 20
100.674
 30
0.0
  0
VERTEX
  8
SURVBND
 10
32.355
 20
100.651
 30
0.0
  0
VERTEX
  8
SURVBND
 10
32.363
 20
100.631
 30
0.0
  0
VERTEX
  8
SURVBND
 10
32.361
 20
100.595
 30
0.0
  0
VERTEX
  8
SURVBND
 10
32.364
 20
100.557
 30
0.0
  0
VERTEX
  8
SURVBND
 10
32.372
 20
100.531
 30
0.0
  0
VERTEX
  8
SURVBND
 10
32.38
 20
100.501
 30
0.0
  0
VERTEX
  8
SURVBND
 10
32.389
 20
100.472
 30
0.0
  0
VERTEX
  8
SURVBND
 10
32.408
 20
100.443
 30
0.0
  0
VERTEX
  8
SURVBND
 10
32.431
 20
100.405
 30
0.0
  0
VERTEX
  8
SURVBND
 10
32.445
 20
100.354
 30
0.0
  0
VERTEX
  8
SURVBND
 10
32.462
 20
100.325
 30
0.0
  0
VERTEX
  8
SURVBND
 10
32.485
 20
100.291
 30
0.0
  0
VERTEX
  8
SURVBND
 10
32.499
 20
100.261
 30
0.0
  0
VERTEX
  8
SURVBND
 10
32.52
 20
100.226
 30
0.0
  0
VERTEX
  8
SURVBND
 10
32.545
 20
100.181
 30
0.0
  0
VERTEX
  8
SURVBND
 10
32.564
 20
100.156
 30
0.0
  0
VERTEX
  8
SURVBND
 10
32.573
 20
100.126
 30
0.0
  0
VERTEX
  8
SURVBND
 10
32.583
 20
100.104
 30
0.0
  0
VERTEX
  8
SURVBND
 10
32.596
 20
100.087
 30
0.0
  0
VERTEX
  8
SURVBND
 10
32.615
 20
100.076
 30
0.0
  0
VERTEX
  8
SURVBND
 10
32.632
 20
100.063
 30
0.0
  0
VERTEX
  8
SURVBND
 10
32.647
 20
100.043
 30
0.0
  0
VERTEX
  8
SURVBND
 10
32.666
 20
100.016
 30
0.0
  0
VERTEX
  8
SURVBND
 10
32.679
 20
99.993
 30
0.0
  0
VERTEX
  8
SURVBND
 10
32.689
 20
99.964
 30
0.0
  0
VERTEX
  8
SURVBND
 10
32.699
 20
99.946
 30
0.0
  0
VERTEX
  8
SURVBND
 10
32.706
 20
99.924
 30
0.0
  0
VERTEX
  8
SURVBND
 10
32.705
 20
99.905
 30
0.0
  0
VERTEX
  8
SURVBND
 10
32.708
 20
99.886
 30
0.0
  0
VERTEX
  8
SURVBND
 10
32.697
 20
99.882
 30
0.0
  0
VERTEX
  8
SURVBND
 10
32.702
 20
99.786
 30
0.0
  0
VERTEX
  8
SURVBND
 10
32.702
 20
99.786
 30
0.0
  0
SEQEND
  8
SURVBND
  0
ENDSEC
  0
EOF
