  0
SECTION
  2
HEADER
  9
$ACADVER
  1
AC1009
  9
$INSBASE
 10
0.0
 20
0.0
 30
0.0
  9
$EXTMIN
 10
625594.012842521071434
 20
596253.4755478192819282
 30
0.0
  9
$EXTMAX
 10
643099.0775057907449082
 20
612264.9281674082158133
 30
0.0
  9
$LIMMIN
 10
23.0
 20
88.0
  9
$LIMMAX
 10
40.0
 20
104.0
  9
$ORTHOMODE
 70
     0
  9
$REGENMODE
 70
     1
  9
$FILLMODE
 70
     1
  9
$QTEXTMODE
 70
     0
  9
$MIRRTEXT
 70
     1
  9
$DRAGMODE
 70
     2
  9
$LTSCALE
 40
1.0
  9
$OSMODE
 70
    37
  9
$ATTMODE
 70
     1
  9
$TEXTSIZE
 40
0.25
  9
$TRACEWID
 40
0.05
  9
$TEXTSTYLE
  7
STANDARD
  9
$CLAYER
  8
0
  9
$CELTYPE
  6
BYLAYER
  9
$CECOLOR
 62
   256
  9
$DIMSCALE
 40
1.0
  9
$DIMASZ
 40
0.18
  9
$DIMEXO
 40
0.063
  9
$DIMDLI
 40
0.38
  9
$DIMRND
 40
0.0
  9
$DIMDLE
 40
0.0
  9
$DIMEXE
 40
0.18
  9
$DIMTP
 40
0.0
  9
$DIMTM
 40
0.0
  9
$DIMTXT
 40
0.18
  9
$DIMCEN
 40
0.09
  9
$DIMTSZ
 40
0.0
  9
$DIMTOL
 70
     0
  9
$DIMLIM
 70
     0
  9
$DIMTIH
 70
     1
  9
$DIMTOH
 70
     1
  9
$DIMSE1
 70
     0
  9
$DIMSE2
 70
     0
  9
$DIMTAD
 70
     0
  9
$DIMZIN
 70
     0
  9
$DIMBLK
  1

  9
$DIMASO
 70
     1
  9
$DIMSHO
 70
     0
  9
$DIMPOST
  1

  9
$DIMAPOST
  1

  9
$DIMALT
 70
     0
  9
$DIMALTD
 70
     2
  9
$DIMALTF
 40
25.3999999999999986
  9
$DIMLFAC
 40
1.0
  9
$DIMTOFL
 70
     0
  9
$DIMTVP
 40
0.0
  9
$DIMTIX
 70
     0
  9
$DIMSOXD
 70
     0
  9
$DIMSAH
 70
     0
  9
$DIMBLK1
  1

  9
$DIMBLK2
  1

  9
$DIMSTYLE
  2
STANDARD
  9
$DIMCLRD
 70
     0
  9
$DIMCLRE
 70
     0
  9
$DIMCLRT
 70
     0
  9
$DIMTFAC
 40
1.0
  9
$DIMGAP
 40
0.09
  9
$LUNITS
 70
     2
  9
$LUPREC
 70
     4
  9
$SKETCHINC
 40
0.1
  9
$FILLETRAD
 40
0.0
  9
$AUNITS
 70
     0
  9
$AUPREC
 70
     0
  9
$MENU
  1
ACAD
  9
$ELEVATION
 40
0.0
  9
$PELEVATION
 40
0.0
  9
$THICKNESS
 40
0.0
  9
$LIMCHECK
 70
     0
  9
$BLIPMODE
 70
     0
  9
$CHAMFERA
 40
0.0
  9
$CHAMFERB
 40
0.0
  9
$SKPOLY
 70
     0
  9
$TDCREATE
 40
2450151.4604398151859641
  9
$TDUPDATE
 40
2460833.4750462961383164
  9
$TDINDWG
 40
0.003275463
  9
$TDUSRTIMER
 40
0.003275463
  9
$USRTIMER
 70
     1
  9
$ANGBASE
 50
0.0
  9
$ANGDIR
 70
     0
  9
$PDMODE
 70
     0
  9
$PDSIZE
 40
0.0
  9
$PLINEWID
 40
0.0
  9
$COORDS
 70
     1
  9
$SPLFRAME
 70
     0
  9
$SPLINETYPE
 70
     6
  9
$SPLINESEGS
 70
     8
  9
$ATTDIA
 70
     1
  9
$ATTREQ
 70
     1
  9
$HANDLING
 70
     1
  9
$HANDSEED
  5
166C
  9
$SURFTAB1
 70
     6
  9
$SURFTAB2
 70
     6
  9
$SURFTYPE
 70
     6
  9
$SURFU
 70
     6
  9
$SURFV
 70
     6
  9
$UCSNAME
  2

  9
$UCSORG
 10
0.0
 20
0.0
 30
0.0
  9
$UCSXDIR
 10
1.0
 20
0.0
 30
0.0
  9
$UCSYDIR
 10
0.0
 20
1.0
 30
0.0
  9
$PUCSNAME
  2

  9
$PUCSORG
 10
0.0
 20
0.0
 30
0.0
  9
$PUCSXDIR
 10
1.0
 20
0.0
 30
0.0
  9
$PUCSYDIR
 10
0.0
 20
1.0
 30
0.0
  9
$USERI1
 70
     0
  9
$USERI2
 70
     0
  9
$USERI3
 70
     0
  9
$USERI4
 70
     0
  9
$USERI5
 70
     0
  9
$USERR1
 40
0.0
  9
$USERR2
 40
0.0
  9
$USERR3
 40
0.0
  9
$USERR4
 40
0.0
  9
$USERR5
 40
0.0
  9
$WORLDVIEW
 70
     1
  9
$SHADEDGE
 70
     3
  9
$SHADEDIF
 70
    70
  9
$TILEMODE
 70
     1
  9
$MAXACTVP
 70
    16
  9
$PLIMCHECK
 70
     0
  9
$PEXTMIN
 10
1.0000000000000000E+20
 20
1.0000000000000000E+20
 30
1.0000000000000000E+20
  9
$PEXTMAX
 10
-1.0000000000000000E+20
 20
-1.0000000000000000E+20
 30
-1.0000000000000000E+20
  9
$PLIMMIN
 10
0.0
 20
0.0
  9
$PLIMMAX
 10
12.0
 20
9.0
  9
$UNITMODE
 70
     0
  9
$VISRETAIN
 70
     0
  9
$PLINEGEN
 70
     0
  9
$PSLTSCALE
 70
     0
  0
ENDSEC
  0
SECTION
  2
TABLES
  0
TABLE
  2
VPORT
 70
     1
  0
VPORT
  2
*ACTIVE
 70
     0
 10
0.0
 20
0.0
 11
1.0
 21
1.0
 12
637137.7905138725182042
 22
603205.3292635593097657
 13
0.0
 23
0.0
 14
1.0
 24
1.0
 15
0.0
 25
0.0
 16
0.0
 26
0.0
 36
1.0
 17
0.0
 27
0.0
 37
0.0
 40
14869.9793206569702306
 41
2.0097560975609752
 42
50.0
 43
0.0
 44
0.0
 50
0.0
 51
0.0
 71
     0
 72
   100
 73
     1
 74
     0
 75
     0
 76
     0
 77
     0
 78
     0
  0
ENDTAB
  0
TABLE
  2
LTYPE
 70
     2
  0
LTYPE
  2
CONTINUOUS
 70
     0
  3
Solid line
 72
    65
 73
     0
 40
0.0
  0
ENDTAB
  0
TABLE
  2
LAYER
 70
     4
  0
LAYER
  2
0
 70
     0
 62
     7
  6
CONTINUOUS
  0
LAYER
  2
AREAS
 70
     0
 62
     2
  6
CONTINUOUS
  0
LAYER
  2
SURVBND
 70
     0
 62
     1
  6
CONTINUOUS
  0
LAYER
  2
FRAME
 70
     0
 62
     7
  6
CONTINUOUS
  0
ENDTAB
  0
TABLE
  2
STYLE
 70
     3
  0
STYLE
  2
STANDARD
 70
     0
 40
0.25
 41
1.0
 50
0.0
 71
     0
 42
0.25
  3
complex
  4

  0
STYLE
  2
ANNOTATIVE
 70
     0
 40
0.0
 41
1.0
 50
0.0
 71
     0
 42
0.2
  3
txt
  4

  0
STYLE
  2
LEGEND
 70
     0
 40
0.0
 41
1.0
 50
0.0
 71
     0
 42
0.25
  3
txt
  4

  0
ENDTAB
  0
TABLE
  2
VIEW
 70
     0
  0
ENDTAB
  0
TABLE
  2
UCS
 70
     0
  0
ENDTAB
  0
TABLE
  2
APPID
 70
    11
  0
APPID
  2
ACAD
 70
     0
  0
APPID
  2
ACADANNOTATIVE
 70
     0
  0
APPID
  2
ACMAPDMDISPLAYSTYLEREGAPP
 70
     0
  0
APPID
  2
ACAD_NAV_VCDISPLAY
 70
     0
  0
APPID
  2
ACAD_EXEMPT_FROM_CAD_STANDARDS
 70
     0
  0
APPID
  2
ADE
 70
     0
  0
APPID
  2
DCO15
 70
     0
  0
APPID
  2
MAPGWS
 70
     0
  0
APPID
  2
ADE_PROJECTION
 70
     0
  0
APPID
  2
ACAD_MLEADERVER
 70
     0
  0
APPID
  2
MapManagementAppName
 70
     0
  0
ENDTAB
  0
TABLE
  2
DIMSTYLE
 70
     3
  0
DIMSTYLE
  2
STANDARD
 70
     0
  3

  4

  5

  6

  7

 40
1.0
 41
0.18
 42
0.0625
 43
0.38
 44
0.18
 45
0.0
 46
0.0
 47
0.0
 48
0.0
140
0.18
141
0.09
142
0.0
143
25.3999999999999986
144
1.0
145
0.0
146
1.0
147
0.09
 71
     0
 72
     0
 73
     1
 74
     1
 75
     0
 76
     0
 77
     0
 78
     0
170
     0
171
     2
172
     0
173
     0
174
     0
175
     0
176
     0
177
     0
178
     0
  0
DIMSTYLE
  2
ANNOTATIVE
 70
     0
  3

  4

  5

  6

  7

 40
1.0
 41
0.18
 42
0.0625
 43
0.38
 44
0.18
 45
0.0
 46
0.0
 47
0.0
 48
0.0
140
0.18
141
0.09
142
0.0
143
25.3999999999999986
144
1.0
145
0.0
146
1.0
147
0.09
 71
     0
 72
     0
 73
     1
 74
     1
 75
     0
 76
     0
 77
     0
 78
     0
170
     0
171
     2
172
     0
173
     0
174
     0
175
     0
176
     0
177
     0
178
     0
  0
ENDTAB
  0
ENDSEC
  0
SECTION
  2
BLOCKS
  0
BLOCK
  8
0
  2
$MODEL_SPACE
 70
     0
 10
0.0
 20
0.0
 30
0.0
  3
$MODEL_SPACE
  1

  0
ENDBLK
  5
71
  8
0
  0
BLOCK
 67
     1
  8
0
  2
$PAPER_SPACE
 70
     0
 10
0.0
 20
0.0
 30
0.0
  3
$PAPER_SPACE
  1

  0
ENDBLK
  5
6D
 67
     1
  8
0
  0
ENDSEC
  0
SECTION
  2
ENTITIES
  0
POLYLINE
  5
79
  8
AREAS
 66
     1
 10
0.0
 20
0.0
 30
0.0
 70
     1
  0
VERTEX
  5
BCF
  8
AREAS
 10
636743.1658136376645416
 20
602635.5399555646581575
 30
0.0
  0
VERTEX
  5
BD0
  8
AREAS
 10
636721.1145770953735337
 20
602596.6656530572799966
 30
0.0
  0
VERTEX
  5
BD1
  8
AREAS
 10
636764.0407445684541017
 20
602599.5578433292685077
 30
0.0
  0
VERTEX
  5
BD2
  8
AREAS
 10
636771.0251891779480502
 20
602598.5430952038150281
 30
0.0
  0
VERTEX
  5
BD3
  8
AREAS
 10
636802.9364296841667965
 20
602586.4896616574842483
 30
0.0
  0
VERTEX
  5
BD4
  8
AREAS
 10
636842.8040977085474879
 20
602562.439814854064025
 30
0.0
  0
VERTEX
  5
BD5
  8
AREAS
 10
636853.8285280568525195
 20
602581.3779075038619339
 30
0.0
  0
VERTEX
  5
BD6
  8
AREAS
 10
636849.8740727517288178
 20
602597.3572862107539549
 30
0.0
  0
VERTEX
  5
BD7
  8
AREAS
 10
636840.9076487988932058
 20
602604.3654892741469666
 30
0.0
  0
VERTEX
  5
BD8
  8
AREAS
 10
636840.9456623250152916
 20
602620.335364599362947
 30
0.0
  0
VERTEX
  5
BD9
  8
AREAS
 10
636782.0900088979396969
 20
602634.4491803867276758
 30
0.0
  0
VERTEX
  5
BDA
  8
AREAS
 10
636751.1507513003889471
 20
602635.520948801538907
 30
0.0
  0
SEQEND
  5
BDB
  8
AREAS
  0
POLYLINE
  5
87
  8
AREAS
 66
     1
 10
0.0
 20
0.0
 30
0.0
 70
     1
  0
VERTEX
  5
BDC
  8
AREAS
 10
636436.0949628951493651
 20
602782.9949454944580793
 30
0.0
  0
VERTEX
  5
BDD
  8
AREAS
 10
636501.9968329116236418
 20
602793.8174289853777736
 30
0.0
  0
VERTEX
  5
BDE
  8
AREAS
 10
636506.9066402077442035
 20
602759.8695646920241416
 30
0.0
  0
VERTEX
  5
BDF
  8
AREAS
 10
636520.8517709729494527
 20
602747.8588963625952601
 30
0.0
  0
VERTEX
  5
BE0
  8
AREAS
 10
636536.7028540292521939
 20
602697.9150224446784705
 30
0.0
  0
VERTEX
  5
BE1
  8
AREAS
 10
636594.4962424230761826
 20
602656.8544178911251947
 30
0.0
  0
VERTEX
  5
BE2
  8
AREAS
 10
636531.6006032570730895
 20
602651.0153929033549502
 30
0.0
  0
VERTEX
  5
BE3
  8
AREAS
 10
636565.3916617551585659
 20
602590.049464482231997
 30
0.0
  0
VERTEX
  5
BE4
  8
AREAS
 10
636549.4170347389299423
 20
602588.091243592556566
 30
0.0
  0
VERTEX
  5
BE5
  8
AREAS
 10
636534.4262698583770543
 20
602580.1419436106225476
 30
0.0
  0
VERTEX
  5
BE6
  8
AREAS
 10
636496.5096951874438673
 20
602585.2228117743507028
 30
0.0
  0
VERTEX
  5
BE7
  8
AREAS
 10
636492.4982195930788293
 20
602577.2473774931859225
 30
0.0
  0
VERTEX
  5
BE8
  8
AREAS
 10
636479.5417026542127132
 20
602585.2632011460373178
 30
0.0
  0
VERTEX
  5
BE9
  8
AREAS
 10
636482.7403769807424396
 20
602671.0941534837475047
 30
0.0
  0
VERTEX
  5
BEA
  8
AREAS
 10
636441.9173569654813036
 20
602713.1124858735129237
 30
0.0
  0
VERTEX
  5
BEB
  8
AREAS
 10
636454.9475251111434773
 20
602736.0382956637768075
 30
0.0
  0
SEQEND
  5
BEC
  8
AREAS
  0
POLYLINE
  5
99
  8
AREAS
 66
     1
 10
0.0
 20
0.0
 30
0.0
 70
     1
  0
VERTEX
  5
BED
  8
AREAS
 10
635885.405372690060176
 20
602478.8801707023521885
 30
0.0
  0
VERTEX
  5
BEE
  8
AREAS
 10
635876.3652975303120911
 20
602454.9467403227463365
 30
0.0
  0
VERTEX
  5
BEF
  8
AREAS
 10
635861.3436466597486287
 20
602434.0219166388269514
 30
0.0
  0
VERTEX
  5
BF0
  8
AREAS
 10
635901.2825900454772636
 20
602439.9155860706232488
 30
0.0
  0
VERTEX
  5
BF1
  8
AREAS
 10
635872.1494992329971865
 20
602361.1332261676434427
 30
0.0
  0
VERTEX
  5
BF2
  8
AREAS
 10
635886.106509224860929
 20
602354.1131438773591071
 30
0.0
  0
VERTEX
  5
BF3
  8
AREAS
 10
635919.0515046197688207
 20
602357.0290926032466814
 30
0.0
  0
VERTEX
  5
BF4
  8
AREAS
 10
635932.0436592393089086
 20
602363.9850270680617541
 30
0.0
  0
VERTEX
  5
BF5
  8
AREAS
 10
635941.0552242544945329
 20
602375.9410509536974132
 30
0.0
  0
VERTEX
  5
BF6
  8
AREAS
 10
635947.065310109872371
 20
602384.9098507519811392
 30
0.0
  0
VERTEX
  5
BF7
  8
AREAS
 10
635949.0995580516755581
 20
602400.8749743866501376
 30
0.0
  0
VERTEX
  5
BF8
  8
AREAS
 10
635949.1209406602429226
 20
602409.8580292570404708
 30
0.0
  0
VERTEX
  5
BF9
  8
AREAS
 10
635948.1370785245671868
 20
602415.8491083496483043
 30
0.0
  0
VERTEX
  5
BFA
  8
AREAS
 10
635956.181412321748212
 20
602440.783031782368198
 30
0.0
  0
VERTEX
  5
BFB
  8
AREAS
 10
635910.3274168960051611
 20
602465.8452508660266176
 30
0.0
  0
SEQEND
  5
BFC
  8
AREAS
  0
POLYLINE
  5
AA
  8
AREAS
 66
     1
 10
0.0
 20
0.0
 30
0.0
 70
     1
  0
VERTEX
  5
BFD
  8
AREAS
 10
635622.7413653882686049
 20
602412.6311651129508391
 30
0.0
  0
VERTEX
  5
BFE
  8
AREAS
 10
635644.7735951675567776
 20
602443.5205299574881792
 30
0.0
  0
VERTEX
  5
BFF
  8
AREAS
 10
635691.7373725343495607
 20
602465.3674437969457358
 30
0.0
  0
VERTEX
  5
C00
  8
AREAS
 10
635705.7062617534538731
 20
602463.337947545805946
 30
0.0
  0
VERTEX
  5
C01
  8
AREAS
 10
635707.6953686327906325
 20
602460.3388442314462736
 30
0.0
  0
VERTEX
  5
C02
  8
AREAS
 10
635705.6444897733163089
 20
602437.3869001420680434
 30
0.0
  0
VERTEX
  5
C03
  8
AREAS
 10
635701.6282624881714582
 20
602427.4152314452221617
 30
0.0
  0
VERTEX
  5
C04
  8
AREAS
 10
635694.6081801978871226
 20
602413.4582214532420039
 30
0.0
  0
VERTEX
  5
C05
  8
AREAS
 10
635693.5910562269855291
 20
602405.4756596359657124
 30
0.0
  0
VERTEX
  5
C06
  8
AREAS
 10
635685.5823601104784757
 20
602395.513494320679456
 30
0.0
  0
VERTEX
  5
C07
  8
AREAS
 10
635626.6696863943943754
 20
602385.6724971198709682
 30
0.0
  0
SEQEND
  5
C08
  8
AREAS
  0
POLYLINE
  5
B7
  8
AREAS
 66
     1
 10
0.0
 20
0.0
 30
0.0
 70
     1
  0
VERTEX
  5
C09
  8
AREAS
 10
635802.4378383326111361
 20
602846.3868741984479129
 30
0.0
  0
VERTEX
  5
C0A
  8
AREAS
 10
635826.39740301144775
 20
602848.3260883247712627
 30
0.0
  0
VERTEX
  5
C0B
  8
AREAS
 10
635837.3814439884154126
 20
602850.2961884413380176
 30
0.0
  0
VERTEX
  5
C0C
  8
AREAS
 10
635846.3621230135904625
 20
602849.2766886252211407
 30
0.0
  0
VERTEX
  5
C0D
  8
AREAS
 10
635859.3233916431199759
 20
602843.2570993880508468
 30
0.0
  0
VERTEX
  5
C0E
  8
AREAS
 10
635863.2992295568110421
 20
602836.2607755516655743
 30
0.0
  0
VERTEX
  5
C0F
  8
AREAS
 10
635866.274574417155236
 20
602828.2687103528296575
 30
0.0
  0
VERTEX
  5
C10
  8
AREAS
 10
635857.2392509483033791
 20
602806.3315143889049068
 30
0.0
  0
VERTEX
  5
C11
  8
AREAS
 10
635847.236696261446923
 20
602797.3722179721808061
 30
0.0
  0
VERTEX
  5
C12
  8
AREAS
 10
635790.3677738686092198
 20
602807.4888132374035195
 30
0.0
  0
SEQEND
  5
C13
  8
AREAS
  0
POLYLINE
  5
C3
  8
AREAS
 66
     1
 10
0.0
 20
0.0
 30
0.0
 70
     1
  0
VERTEX
  5
C14
  8
AREAS
 10
635676.1568737047491595
 20
603048.3082825450692326
 30
0.0
  0
VERTEX
  5
C15
  8
AREAS
 10
635687.1314113001571968
 20
603046.2859138301573694
 30
0.0
  0
VERTEX
  5
C16
  8
AREAS
 10
635704.0994038333883509
 20
603046.245524458703585
 30
0.0
  0
VERTEX
  5
C17
  8
AREAS
 10
635731.0271858365740627
 20
603037.1983217628439888
 30
0.0
  0
VERTEX
  5
C18
  8
AREAS
 10
635748.974288814351894
 20
603029.1706188832176849
 30
0.0
  0
VERTEX
  5
C19
  8
AREAS
 10
635726.8470252200495452
 20
602958.3565657254075631
 30
0.0
  0
VERTEX
  5
C1A
  8
AREAS
 10
635705.8984430822310969
 20
602963.3970445174491033
 30
0.0
  0
VERTEX
  5
C1B
  8
AREAS
 10
635684.9379817177541554
 20
602963.446937270462513
 30
0.0
  0
VERTEX
  5
C1C
  8
AREAS
 10
635677.1478633764199913
 20
603045.3115550761576742
 30
0.0
  0
SEQEND
  5
C1D
  8
AREAS
  0
POLYLINE
  5
CE
  8
AREAS
 66
     1
 10
0.0
 20
0.0
 30
0.0
 70
     1
  0
VERTEX
  5
C1E
  8
AREAS
 10
635637.6254793738480657
 20
601956.4535876053851098
 30
0.0
  0
VERTEX
  5
C1F
  8
AREAS
 10
635664.5960265937028453
 20
601965.3724946506554261
 30
0.0
  0
VERTEX
  5
C20
  8
AREAS
 10
635675.5182955906493589
 20
601941.391547363367863
 30
0.0
  0
VERTEX
  5
C21
  8
AREAS
 10
635669.4725720545975491
 20
601917.4509894476504996
 30
0.0
  0
VERTEX
  5
C22
  8
AREAS
 10
635657.4809104880550876
 20
601911.490796345169656
 30
0.0
  0
VERTEX
  5
C23
  8
AREAS
 10
635643.500142042292282
 20
601908.5297065569320694
 30
0.0
  0
VERTEX
  5
C24
  8
AREAS
 10
635629.5169977510813624
 20
601904.5704995611449704
 30
0.0
  0
VERTEX
  5
C25
  8
AREAS
 10
635624.5240358664887026
 20
601903.5842615800211206
 30
0.0
  0
VERTEX
  5
C26
  8
AREAS
 10
635613.5566258071921766
 20
601908.6009819183964282
 30
0.0
  0
VERTEX
  5
C27
  8
AREAS
 10
635609.5926671205088496
 20
601920.5878917940426618
 30
0.0
  0
VERTEX
  5
C28
  8
AREAS
 10
635632.6206382622476667
 20
601950.4767635853495449
 30
0.0
  0
SEQEND
  5
C29
  8
AREAS
  0
POLYLINE
  5
DB
  8
AREAS
 66
     1
 10
0.0
 20
0.0
 30
0.0
 70
     1
  0
VERTEX
  5
C2A
  8
AREAS
 10
635781.5399353890679777
 20
601614.7530049447668716
 30
0.0
  0
VERTEX
  5
C2B
  8
AREAS
 10
635818.4631445427658036
 20
601611.6707470420515165
 30
0.0
  0
VERTEX
  5
C2C
  8
AREAS
 10
635819.4018656162079424
 20
601586.7154410007642582
 30
0.0
  0
VERTEX
  5
C2D
  8
AREAS
 10
635813.3680213068146259
 20
601567.7654691241914406
 30
0.0
  0
VERTEX
  5
C2E
  8
AREAS
 10
635807.3436803792137653
 20
601552.8079660788644105
 30
0.0
  0
VERTEX
  5
C2F
  8
AREAS
 10
635800.3473565427120775
 20
601548.8321281652897596
 30
0.0
  0
VERTEX
  5
C30
  8
AREAS
 10
635795.3591463488992304
 20
601549.8421245999634266
 30
0.0
  0
VERTEX
  5
C31
  8
AREAS
 10
635786.3879707052838057
 20
601554.8540932475589216
 30
0.0
  0
VERTEX
  5
C32
  8
AREAS
 10
635786.402225777739659
 20
601560.8427964946022257
 30
0.0
  0
VERTEX
  5
C33
  8
AREAS
 10
635780.4444085205905139
 20
601573.8325752688106149
 30
0.0
  0
VERTEX
  5
C34
  8
AREAS
 10
635783.4720219793962315
 20
601587.7990886424668133
 30
0.0
  0
SEQEND
  5
C35
  8
AREAS
  0
POLYLINE
  5
E8
  8
AREAS
 66
     1
 10
0.0
 20
0.0
 30
0.0
 70
     1
  0
VERTEX
  5
C36
  8
AREAS
 10
635555.2619340376695618
 20
601739.0588556184666231
 30
0.0
  0
VERTEX
  5
C37
  8
AREAS
 10
635569.2498300196602941
 20
601745.0142970300512388
 30
0.0
  0
VERTEX
  5
C38
  8
AREAS
 10
635578.22813319938723
 20
601742.9966800059191883
 30
0.0
  0
VERTEX
  5
C39
  8
AREAS
 10
635594.1742500710533932
 20
601732.9774944015080109
 30
0.0
  0
VERTEX
  5
C3A
  8
AREAS
 10
635610.1132394063752145
 20
601719.9639571735169739
 30
0.0
  0
VERTEX
  5
C3B
  8
AREAS
 10
635623.0555012729018927
 20
601705.959430273855105
 30
0.0
  0
VERTEX
  5
C3C
  8
AREAS
 10
635636.9935045019956306
 20
601690.9544103208463639
 30
0.0
  0
VERTEX
  5
C3D
  8
AREAS
 10
635657.9325832580216229
 20
601681.9214626973262057
 30
0.0
  0
VERTEX
  5
C3E
  8
AREAS
 10
635664.9122761767357588
 20
601678.9104801560752094
 30
0.0
  0
VERTEX
  5
C3F
  8
AREAS
 10
635688.869465010240674
 20
601679.8515770748490468
 30
0.0
  0
VERTEX
  5
C40
  8
AREAS
 10
635725.7689157101558521
 20
601666.7881470938446
 30
0.0
  0
VERTEX
  5
C41
  8
AREAS
 10
635657.6664885750506073
 20
601570.1323354195337743
 30
0.0
  0
VERTEX
  5
C42
  8
AREAS
 10
635661.5876820449484512
 20
601540.1793158028740436
 30
0.0
  0
VERTEX
  5
C43
  8
AREAS
 10
635708.4659289779374376
 20
601526.0940101601881906
 30
0.0
  0
VERTEX
  5
C44
  8
AREAS
 10
635732.4373728836653754
 20
601533.0238103258889169
 30
0.0
  0
VERTEX
  5
C45
  8
AREAS
 10
635746.3563693496398628
 20
601510.0338527102721855
 30
0.0
  0
VERTEX
  5
C46
  8
AREAS
 10
635750.3345831086626276
 20
601504.0356460816692561
 30
0.0
  0
VERTEX
  5
C47
  8
AREAS
 10
635755.2681488586822525
 20
601480.0689538667211309
 30
0.0
  0
VERTEX
  5
C48
  8
AREAS
 10
635760.2373522893758491
 20
601471.0740197693230584
 30
0.0
  0
VERTEX
  5
C49
  8
AREAS
 10
635814.1214264403097332
 20
601464.9570208715740591
 30
0.0
  0
VERTEX
  5
C4A
  8
AREAS
 10
635821.0583541421219707
 20
601443.9799285893095657
 30
0.0
  0
VERTEX
  5
C4B
  8
AREAS
 10
635819.054992190329358
 20
601440.9903286566259339
 30
0.0
  0
VERTEX
  5
C4C
  8
AREAS
 10
635808.0614478318020701
 20
601435.0277597088133916
 30
0.0
  0
VERTEX
  5
C4D
  8
AREAS
 10
635795.0740449029253796
 20
601430.068059659563005
 30
0.0
  0
VERTEX
  5
C4E
  8
AREAS
 10
635774.1278386106714606
 20
601436.1066556596197188
 30
0.0
  0
VERTEX
  5
C4F
  8
AREAS
 10
635756.1831114781089127
 20
601445.1324757470283657
 30
0.0
  0
VERTEX
  5
C50
  8
AREAS
 10
635749.1796601054957137
 20
601438.1622862098738551
 30
0.0
  0
VERTEX
  5
C51
  8
AREAS
 10
635733.197905553271994
 20
601433.2097136968513951
 30
0.0
  0
VERTEX
  5
C52
  8
AREAS
 10
635715.2222924306988716
 20
601429.2600100823910907
 30
0.0
  0
VERTEX
  5
C53
  8
AREAS
 10
635705.2363686616299674
 20
601427.2875341204926372
 30
0.0
  0
VERTEX
  5
C54
  8
AREAS
 10
635681.2554213743424043
 20
601416.3652651235461235
 30
0.0
  0
VERTEX
  5
C55
  8
AREAS
 10
635635.325398896005936
 20
601409.4877335563069209
 30
0.0
  0
VERTEX
  5
C56
  8
AREAS
 10
635621.347006295574829
 20
601407.5247609759680927
 30
0.0
  0
VERTEX
  5
C57
  8
AREAS
 10
635592.5489096820820123
 20
601469.4769273780984804
 30
0.0
  0
VERTEX
  5
C58
  8
AREAS
 10
635546.6735316476551816
 20
601485.5560915910173208
 30
0.0
  0
VERTEX
  5
C59
  8
AREAS
 10
635494.821329593192786
 20
601506.6400969154201448
 30
0.0
  0
VERTEX
  5
C5A
  8
AREAS
 10
635478.8633334947517142
 20
601511.6686964808031917
 30
0.0
  0
VERTEX
  5
C5B
  8
AREAS
 10
635472.8865094745997339
 20
601516.67353759217076
 30
0.0
  0
VERTEX
  5
C5C
  8
AREAS
 10
635472.9031403922708705
 20
601523.6603580471128225
 30
0.0
  0
VERTEX
  5
C5D
  8
AREAS
 10
635474.9587709425250068
 20
601548.6085365521721542
 30
0.0
  0
VERTEX
  5
C5E
  8
AREAS
 10
635471.0114431735128164
 20
601567.5822668826440349
 30
0.0
  0
VERTEX
  5
C5F
  8
AREAS
 10
635468.0313466221559793
 20
601573.5780976657988504
 30
0.0
  0
VERTEX
  5
C60
  8
AREAS
 10
635469.0817324286326766
 20
601595.5343003928428516
 30
0.0
  0
VERTEX
  5
C61
  8
AREAS
 10
635473.0908321775496006
 20
601602.5116174662252888
 30
0.0
  0
VERTEX
  5
C62
  8
AREAS
 10
635495.0850484307156876
 20
601617.4311069853138179
 30
0.0
  0
VERTEX
  5
C63
  8
AREAS
 10
635510.1257060645148158
 20
601646.3408683319576085
 30
0.0
  0
VERTEX
  5
C64
  8
AREAS
 10
635532.195949369808659
 20
601693.200108501710929
 30
0.0
  0
VERTEX
  5
C65
  8
AREAS
 10
635536.2288075727410614
 20
601710.1585976533824578
 30
0.0
  0
VERTEX
  5
C66
  8
AREAS
 10
635547.2437345397192985
 20
601725.104221471818164
 30
0.0
  0
SEQEND
  5
C67
  8
AREAS
  0
POLYLINE
  5
11B
  8
AREAS
 66
     1
 10
0.0
 20
0.0
 30
0.0
 70
     1
  0
VERTEX
  5
C68
  8
AREAS
 10
634845.3785805348306894
 20
599550.8670484649483114
 30
0.0
  0
VERTEX
  5
C69
  8
AREAS
 10
634858.3754868451505899
 20
599559.8192173454444855
 30
0.0
  0
VERTEX
  5
C6A
  8
AREAS
 10
634870.3576450299005955
 20
599561.7869416164467111
 30
0.0
  0
VERTEX
  5
C6B
  8
AREAS
 10
634874.340610479703173
 20
599557.7849694036412984
 30
0.0
  0
VERTEX
  5
C6C
  8
AREAS
 10
634876.3107105962699279
 20
599546.8009284266736358
 30
0.0
  0
VERTEX
  5
C6D
  8
AREAS
 10
634876.2869521423708647
 20
599536.8197563481517136
 30
0.0
  0
VERTEX
  5
C6E
  8
AREAS
 10
634874.2740868090186268
 20
599529.8376875842222944
 30
0.0
  0
VERTEX
  5
C6F
  8
AREAS
 10
634868.2640009535243735
 20
599520.8688877859385684
 30
0.0
  0
VERTEX
  5
C70
  8
AREAS
 10
634857.2728324404451996
 20
599515.9044360461411998
 30
0.0
  0
VERTEX
  5
C71
  8
AREAS
 10
634845.2978017919231206
 20
599516.931063398369588
 30
0.0
  0
VERTEX
  5
C72
  8
AREAS
 10
634836.321874457411468
 20
599519.9467976302839816
 30
0.0
  0
VERTEX
  5
C73
  8
AREAS
 10
634843.3704668922582641
 20
599545.881214116467163
 30
0.0
  0
SEQEND
  5
C74
  8
AREAS
  0
POLYLINE
  5
129
  8
AREAS
 66
     1
 10
0.0
 20
0.0
 30
0.0
 70
     1
  0
VERTEX
  5
C75
  8
AREAS
 10
635730.2048646648181602
 20
599337.1588255488313735
 30
0.0
  0
VERTEX
  5
C76
  8
AREAS
 10
635735.2144574670819566
 20
599345.1318839846644551
 30
0.0
  0
VERTEX
  5
C77
  8
AREAS
 10
635797.2616576843429357
 20
599413.8546689116628841
 30
0.0
  0
VERTEX
  5
C78
  8
AREAS
 10
635808.2219402075279504
 20
599405.8435969497077167
 30
0.0
  0
VERTEX
  5
C79
  8
AREAS
 10
635810.1967920147581026
 20
599396.8557903884211555
 30
0.0
  0
VERTEX
  5
C7A
  8
AREAS
 10
635805.1729441401548684
 20
599382.8940287055447698
 30
0.0
  0
VERTEX
  5
C7B
  8
AREAS
 10
635803.1743338791420683
 20
599381.9006631885422394
 30
0.0
  0
VERTEX
  5
C7C
  8
AREAS
 10
635792.1665344483917579
 20
599369.9493909936863929
 30
0.0
  0
VERTEX
  5
C7D
  8
AREAS
 10
635782.1592280707554892
 20
599358.9938601613976061
 30
0.0
  0
VERTEX
  5
C7E
  8
AREAS
 10
635765.1389669391792268
 20
599337.0756709604756907
 30
0.0
  0
VERTEX
  5
C7F
  8
AREAS
 10
635749.1239505514968187
 20
599318.1494575376855209
 30
0.0
  0
VERTEX
  5
C80
  8
AREAS
 10
635737.1726783567573875
 20
599329.1572569685522467
 30
0.0
  0
SEQEND
  5
C81
  8
AREAS
  0
POLYLINE
  5
137
  8
AREAS
 66
     1
 10
0.0
 20
0.0
 30
0.0
 70
     1
  0
VERTEX
  5
C82
  8
AREAS
 10
635918.4068475577514619
 20
599570.2715932506835088
 30
0.0
  0
VERTEX
  5
C83
  8
AREAS
 10
635912.4537819916149601
 20
599585.2576064405729994
 30
0.0
  0
VERTEX
  5
C84
  8
AREAS
 10
635909.4831888218177482
 20
599595.2459060549736023
 30
0.0
  0
VERTEX
  5
C85
  8
AREAS
 10
635909.4926922033773735
 20
599599.2383748864522204
 30
0.0
  0
VERTEX
  5
C86
  8
AREAS
 10
635913.5184228700818494
 20
599613.2025124145438895
 30
0.0
  0
VERTEX
  5
C87
  8
AREAS
 10
635919.5095019624568522
 20
599614.1863745501032099
 30
0.0
  0
VERTEX
  5
C88
  8
AREAS
 10
635936.4561118873534724
 20
599605.1629303081426769
 30
0.0
  0
VERTEX
  5
C89
  8
AREAS
 10
635948.3693705558544025
 20
599578.1852555518271402
 30
0.0
  0
VERTEX
  5
C8A
  8
AREAS
 10
635950.3465982085326687
 20
599570.1955661985557526
 30
0.0
  0
VERTEX
  5
C8B
  8
AREAS
 10
635949.2914607115089893
 20
599546.2431290557142347
 30
0.0
  0
VERTEX
  5
C8C
  8
AREAS
 10
635948.2553299777209759
 20
599530.2756295757135376
 30
0.0
  0
VERTEX
  5
C8D
  8
AREAS
 10
635942.2096064413199201
 20
599506.3350716597633436
 30
0.0
  0
VERTEX
  5
C8E
  8
AREAS
 10
635919.2148971349233761
 20
599490.4198407784570009
 30
0.0
  0
VERTEX
  5
C8F
  8
AREAS
 10
635901.201270486228168
 20
599470.5002618385478854
 30
0.0
  0
VERTEX
  5
C90
  8
AREAS
 10
635890.2005985915893689
 20
599461.5433412671554834
 30
0.0
  0
VERTEX
  5
C91
  8
AREAS
 10
635874.2330991115886718
 20
599462.5794720011763275
 30
0.0
  0
VERTEX
  5
C92
  8
AREAS
 10
635869.2567681446671486
 20
599468.5800544751109555
 30
0.0
  0
VERTEX
  5
C93
  8
AREAS
 10
635878.2778365414123982
 20
599484.5285471919924021
 30
0.0
  0
VERTEX
  5
C94
  8
AREAS
 10
635889.2927635082742199
 20
599499.4741710104281083
 30
0.0
  0
VERTEX
  5
C95
  8
AREAS
 10
635907.3349003016483039
 20
599531.3711564443074167
 30
0.0
  0
VERTEX
  5
C96
  8
AREAS
 10
635915.3911133258370683
 20
599561.2956659162882715
 30
0.0
  0
SEQEND
  5
C97
  8
AREAS
  0
POLYLINE
  5
14E
  8
AREAS
 66
     1
 10
0.0
 20
0.0
 30
0.0
 70
     1
  0
VERTEX
  5
C98
  8
AREAS
 10
635810.2934152345405892
 20
600695.4134053202578798
 30
0.0
  0
VERTEX
  5
C99
  8
AREAS
 10
635841.2611829765373841
 20
600706.3190433996496722
 30
0.0
  0
VERTEX
  5
C9A
  8
AREAS
 10
635846.2422656343551353
 20
600702.3146953412797302
 30
0.0
  0
VERTEX
  5
C9B
  8
AREAS
 10
635850.2228552385931835
 20
600697.3146059204591438
 30
0.0
  0
VERTEX
  5
C9C
  8
AREAS
 10
635855.206313741626218
 20
600694.3083750702207908
 30
0.0
  0
VERTEX
  5
C9D
  8
AREAS
 10
635861.1902652978897095
 20
600692.2978855822002515
 30
0.0
  0
VERTEX
  5
C9E
  8
AREAS
 10
635870.1590650961734354
 20
600686.2877997267059982
 30
0.0
  0
VERTEX
  5
C9F
  8
AREAS
 10
635858.1175107768503949
 20
600659.367145259748213
 30
0.0
  0
VERTEX
  5
CA0
  8
AREAS
 10
635838.1646700015990064
 20
600663.4071309989085421
 30
0.0
  0
VERTEX
  5
CA1
  8
AREAS
 10
635827.202011633082293
 20
600670.4200857527321205
 30
0.0
  0
VERTEX
  5
CA2
  8
AREAS
 10
635819.2360807333607227
 20
600678.4240301786921918
 30
0.0
  0
SEQEND
  5
CA3
  8
AREAS
  0
POLYLINE
  5
15B
  8
AREAS
 66
     1
 10
0.0
 20
0.0
 30
0.0
 70
     1
  0
VERTEX
  5
CA4
  8
AREAS
 10
633434.8362160406541079
 20
596953.1164192961296067
 30
0.0
  0
VERTEX
  5
CA5
  8
AREAS
 10
633455.8536976944888011
 20
596977.0213395310565829
 30
0.0
  0
VERTEX
  5
CA6
  8
AREAS
 10
633473.8150557448389009
 20
596974.9823398983571678
 30
0.0
  0
VERTEX
  5
CA7
  8
AREAS
 10
633485.7758313212543726
 20
596967.9670092989690602
 30
0.0
  0
VERTEX
  5
CA8
  8
AREAS
 10
633493.7393863754114136
 20
596958.9649476653430611
 30
0.0
  0
VERTEX
  5
CA9
  8
AREAS
 10
633494.7256243563024327
 20
596953.9719857808668166
 30
0.0
  0
VERTEX
  5
CAA
  8
AREAS
 10
633490.721276298048906
 20
596948.9909031230490655
 30
0.0
  0
VERTEX
  5
CAB
  8
AREAS
 10
633484.7230696694459766
 20
596945.0126893641427159
 30
0.0
  0
VERTEX
  5
CAC
  8
AREAS
 10
633473.7414045378100127
 20
596944.0407064554747194
 30
0.0
  0
VERTEX
  5
CAD
  8
AREAS
 10
633468.7555701894452795
 20
596946.0488200980471447
 30
0.0
  0
VERTEX
  5
CAE
  8
AREAS
 10
633459.770139473490417
 20
596945.0720854987157509
 30
0.0
  0
SEQEND
  5
CAF
  8
AREAS
  0
POLYLINE
  5
168
  8
AREAS
 66
     1
 10
0.0
 20
0.0
 30
0.0
 70
     1
  0
VERTEX
  5
CB0
  8
AREAS
 10
633278.0388942933641374
 20
597333.7744590522488579
 30
0.0
  0
VERTEX
  5
CB1
  8
AREAS
 10
633348.978867256664671
 20
597364.5474074729718268
 30
0.0
  0
VERTEX
  5
CB2
  8
AREAS
 10
633343.01392246352043
 20
597374.5428346237167716
 30
0.0
  0
VERTEX
  5
CB3
  8
AREAS
 10
633341.0414465016219765
 20
597384.5287583927856758
 30
0.0
  0
VERTEX
  5
CB4
  8
AREAS
 10
633332.0655191672267392
 20
597387.5444926249329001
 30
0.0
  0
VERTEX
  5
CB5
  8
AREAS
 10
633327.0725572827504948
 20
597386.5582546438090503
 30
0.0
  0
VERTEX
  5
CB6
  8
AREAS
 10
633301.1072548065567389
 20
597380.6313233767868951
 30
0.0
  0
VERTEX
  5
CB7
  8
AREAS
 10
633285.1088693366618827
 20
597368.6919304089387879
 30
0.0
  0
VERTEX
  5
CB8
  8
AREAS
 10
633281.0641319069545716
 20
597346.7428552180062979
 30
0.0
  0
SEQEND
  5
CB9
  8
AREAS
  0
POLYLINE
  5
173
  8
AREAS
 66
     1
 10
0.0
 20
0.0
 30
0.0
 70
     1
  0
VERTEX
  5
CBA
  8
AREAS
 10
633693.2387596886837855
 20
597745.0108900549821556
 30
0.0
  0
VERTEX
  5
CBB
  8
AREAS
 10
633688.1650190611835569
 20
597710.0886670076288283
 30
0.0
  0
VERTEX
  5
CBC
  8
AREAS
 10
633734.033269559382461
 20
597691.0151511710137129
 30
0.0
  0
VERTEX
  5
CBD
  8
AREAS
 10
633733.077917568385601
 20
597708.983636757475324
 30
0.0
  0
VERTEX
  5
CBE
  8
AREAS
 10
633733.1088035583961755
 20
597721.9591604593442753
 30
0.0
  0
VERTEX
  5
CBF
  8
AREAS
 10
633726.1457415573531762
 20
597731.9569634555373341
 30
0.0
  0
VERTEX
  5
CC0
  8
AREAS
 10
633721.1694105905480683
 20
597737.9575459293555468
 30
0.0
  0
VERTEX
  5
CC1
  8
AREAS
 10
633712.1982349469326437
 20
597742.9695145769510418
 30
0.0
  0
VERTEX
  5
CC2
  8
AREAS
 10
633699.2274629357270896
 20
597744.9966349826427177
 30
0.0
  0
SEQEND
  5
CC3
  8
AREAS
  0
POLYLINE
  5
17E
  8
AREAS
 66
     1
 10
0.0
 20
0.0
 30
0.0
 70
     1
  0
VERTEX
  5
CC4
  8
AREAS
 10
633844.3374934727326035
 20
597066.9258015902014449
 30
0.0
  0
VERTEX
  5
CC5
  8
AREAS
 10
633890.2984019408468157
 20
597086.7788568593095988
 30
0.0
  0
VERTEX
  5
CC6
  8
AREAS
 10
633897.2709673234494403
 20
597080.7735226945951581
 30
0.0
  0
VERTEX
  5
CC7
  8
AREAS
 10
633900.2534397202543914
 20
597075.7758091194555163
 30
0.0
  0
VERTEX
  5
CC8
  8
AREAS
 10
633900.2273054209072143
 20
597064.7965198331512511
 30
0.0
  0
VERTEX
  5
CC9
  8
AREAS
 10
633891.2299954780610278
 20
597058.8291991944424808
 30
0.0
  0
VERTEX
  5
CCA
  8
AREAS
 10
633889.2242576808203012
 20
597054.841482053976506
 30
0.0
  0
VERTEX
  5
CCB
  8
AREAS
 10
633885.2246613133465871
 20
597051.8566338119562715
 30
0.0
  0
VERTEX
  5
CCC
  8
AREAS
 10
633881.2250649458728731
 20
597048.8717855699360371
 30
0.0
  0
VERTEX
  5
CCD
  8
AREAS
 10
633877.2302202690625563
 20
597047.8831717437133193
 30
0.0
  0
VERTEX
  5
CCE
  8
AREAS
 10
633869.2452826064545661
 20
597047.9021785067161545
 30
0.0
  0
VERTEX
  5
CCF
  8
AREAS
 10
633859.2759897550567985
 20
597052.9165229996433482
 30
0.0
  0
SEQEND
  5
CD0
  8
AREAS
  0
POLYLINE
  5
18C
  8
AREAS
 66
     1
 10
0.0
 20
0.0
 30
0.0
 70
     1
  0
VERTEX
  5
CD1
  8
AREAS
 10
634335.6078471234068274
 20
601760.9263656252296641
 30
0.0
  0
VERTEX
  5
CD2
  8
AREAS
 10
634356.5801877148915082
 20
601765.8670589112443849
 30
0.0
  0
VERTEX
  5
CD3
  8
AREAS
 10
634369.4250399208394811
 20
601710.9397264902945608
 30
0.0
  0
VERTEX
  5
CD4
  8
AREAS
 10
634346.4540890682255849
 20
601705.0056676871608943
 30
0.0
  0
VERTEX
  5
CD5
  8
AREAS
 10
634337.4686583521543071
 20
601704.0289330878295004
 30
0.0
  0
VERTEX
  5
CD6
  8
AREAS
 10
634326.5677719636587426
 20
601736.9929352456238121
 30
0.0
  0
VERTEX
  5
CD7
  8
AREAS
 10
634327.5967751614516601
 20
601749.9660831020446494
 30
0.0
  0
SEQEND
  5
CD8
  8
AREAS
  0
POLYLINE
  5
195
  8
AREAS
 66
     1
 10
0.0
 20
0.0
 30
0.0
 70
     1
  0
VERTEX
  5
CD9
  8
AREAS
 10
634496.2025562336202711
 20
601717.6248145814752206
 30
0.0
  0
VERTEX
  5
CDA
  8
AREAS
 10
634503.2155109875602648
 20
601728.5874729502247646
 30
0.0
  0
VERTEX
  5
CDB
  8
AREAS
 10
634506.2122384565882385
 20
601729.5784626217791811
 30
0.0
  0
VERTEX
  5
CDC
  8
AREAS
 10
634529.1784376183059067
 20
601733.5162870093481615
 30
0.0
  0
VERTEX
  5
CDD
  8
AREAS
 10
634539.1596096967114136
 20
601733.4925285554490983
 30
0.0
  0
VERTEX
  5
CDE
  8
AREAS
 10
634547.1279164416482672
 20
601726.4867013377370313
 30
0.0
  0
VERTEX
  5
CDF
  8
AREAS
 10
634557.0853300662711263
 20
601716.4817708053160459
 30
0.0
  0
VERTEX
  5
CE0
  8
AREAS
 10
634557.0425648493692279
 20
601698.5156610643025488
 30
0.0
  0
VERTEX
  5
CE1
  8
AREAS
 10
634551.0372306846547872
 20
601691.5430956818163395
 30
0.0
  0
VERTEX
  5
CE2
  8
AREAS
 10
634513.0660115700447932
 20
601673.6672680652700365
 30
0.0
  0
VERTEX
  5
CE3
  8
AREAS
 10
634498.1916631131898612
 20
601714.6257112673483789
 30
0.0
  0
SEQEND
  5
CE4
  8
AREAS
  0
POLYLINE
  5
1A2
  8
AREAS
 66
     1
 10
0.0
 20
0.0
 30
0.0
 70
     1
  0
VERTEX
  5
CE5
  8
AREAS
 10
634480.0975033462746069
 20
597467.6559986850479618
 30
0.0
  0
VERTEX
  5
CE6
  8
AREAS
 10
634495.0835165361640975
 20
597473.6090642511844635
 30
0.0
  0
VERTEX
  5
CE7
  8
AREAS
 10
634507.0894331748131663
 20
597485.557960600592196
 30
0.0
  0
VERTEX
  5
CE8
  8
AREAS
 10
634519.0715913594467565
 20
597487.5256848718272522
 30
0.0
  0
VERTEX
  5
CE9
  8
AREAS
 10
634560.930742108845152
 20
597461.4748519618296996
 30
0.0
  0
VERTEX
  5
CEA
  8
AREAS
 10
634528.9387228596024215
 20
597439.5923004418145865
 30
0.0
  0
VERTEX
  5
CEB
  8
AREAS
 10
634513.9360787520417944
 20
597426.652414420619607
 30
0.0
  0
SEQEND
  5
CEC
  8
AREAS
  0
POLYLINE
  5
1AB
  8
AREAS
 66
     1
 10
0.0
 20
0.0
 30
0.0
 70
     1
  0
VERTEX
  5
CED
  8
AREAS
 10
634342.8156046767253429
 20
598079.8320895972428843
 30
0.0
  0
VERTEX
  5
CEE
  8
AREAS
 10
634387.776020091609098
 20
598098.6894035036675632
 30
0.0
  0
VERTEX
  5
CEF
  8
AREAS
 10
634399.7890642663696781
 20
598113.6326514766551554
 30
0.0
  0
VERTEX
  5
CF0
  8
AREAS
 10
634401.8090571359498426
 20
598123.6090718642808497
 30
0.0
  0
VERTEX
  5
CF1
  8
AREAS
 10
634397.8450984491501004
 20
598135.5959817398106679
 30
0.0
  0
VERTEX
  5
CF2
  8
AREAS
 10
634378.9046299541369081
 20
598145.6222948804497719
 30
0.0
  0
VERTEX
  5
CF3
  8
AREAS
 10
634354.9569445023080334
 20
598148.6736667931545526
 30
0.0
  0
VERTEX
  5
CF4
  8
AREAS
 10
634342.9652829357655719
 20
598142.7134736906737089
 30
0.0
  0
VERTEX
  5
CF5
  8
AREAS
 10
634336.9599487710511312
 20
598135.7409083081874996
 30
0.0
  0
VERTEX
  5
CF6
  8
AREAS
 10
634330.9427353794453666
 20
598123.7777568864403293
 30
0.0
  0
VERTEX
  5
CF7
  8
AREAS
 10
634325.9188875049585477
 20
598109.8159952035639435
 30
0.0
  0
VERTEX
  5
CF8
  8
AREAS
 10
634328.8776014477480203
 20
598094.8371095500187948
 30
0.0
  0
VERTEX
  5
CF9
  8
AREAS
 10
634334.8472979316720739
 20
598086.8379168149549514
 30
0.0
  0
SEQEND
  5
CFA
  8
AREAS
  0
POLYLINE
  5
1BA
  8
AREAS
 66
     1
 10
0.0
 20
0.0
 30
0.0
 70
     1
  0
VERTEX
  5
CFB
  8
AREAS
 10
633838.5430852532153949
 20
597987.2088739789323881
 30
0.0
  0
VERTEX
  5
CFC
  8
AREAS
 10
633913.4256342947483063
 20
597997.0118576535023749
 30
0.0
  0
VERTEX
  5
CFD
  8
AREAS
 10
633890.5520931028295308
 20
598032.0006043715402484
 30
0.0
  0
VERTEX
  5
CFE
  8
AREAS
 10
633868.591138685005717
 20
598031.0547557621030137
 30
0.0
  0
VERTEX
  5
CFF
  8
AREAS
 10
633855.5989840654656291
 20
598024.098821297287941
 30
0.0
  0
VERTEX
  5
D00
  8
AREAS
 10
633848.597908538300544
 20
598018.1267489680321887
 30
0.0
  0
VERTEX
  5
D01
  8
AREAS
 10
633841.5944571658037603
 20
598011.1565594306448475
 30
0.0
  0
VERTEX
  5
D02
  8
AREAS
 10
633836.5801126727601513
 20
598001.1872665792470798
 30
0.0
  0
SEQEND
  5
D03
  8
AREAS
  0
POLYLINE
  5
1C4
  8
AREAS
 66
     1
 10
0.0
 20
0.0
 30
0.0
 70
     1
  0
VERTEX
  5
D04
  8
AREAS
 10
635247.99836115015205
 20
598450.975409411243163
 30
0.0
  0
VERTEX
  5
D05
  8
AREAS
 10
635253.9918160877423361
 20
598452.9573887544684112
 30
0.0
  0
VERTEX
  5
D06
  8
AREAS
 10
635292.9468973380280659
 20
598464.8421372787561268
 30
0.0
  0
VERTEX
  5
D07
  8
AREAS
 10
635306.8326319685438648
 20
598427.8785387532552704
 30
0.0
  0
VERTEX
  5
D08
  8
AREAS
 10
635298.8476943059358746
 20
598427.897545516374521
 30
0.0
  0
VERTEX
  5
D09
  8
AREAS
 10
635289.8408809815300629
 20
598417.9377560464199632
 30
0.0
  0
VERTEX
  5
D0A
  8
AREAS
 10
635282.8303020729217678
 20
598407.9732148856855929
 30
0.0
  0
VERTEX
  5
D0B
  8
AREAS
 10
635279.8193195316707715
 20
598400.993521966971457
 30
0.0
  0
VERTEX
  5
D0C
  8
AREAS
 10
635274.8168542656349018
 20
598396.0148151547182351
 30
0.0
  0
VERTEX
  5
D0D
  8
AREAS
 10
635263.8256857524393126
 20
598391.0503634149208665
 30
0.0
  0
VERTEX
  5
D0E
  8
AREAS
 10
635253.851641210145317
 20
598394.0684734920505434
 30
0.0
  0
VERTEX
  5
D0F
  8
AREAS
 10
635247.8748171901097521
 20
598399.0733146036509424
 30
0.0
  0
VERTEX
  5
D10
  8
AREAS
 10
635245.8857103106565773
 20
598402.0724179178941995
 30
0.0
  0
VERTEX
  5
D11
  8
AREAS
 10
635242.9198688316391781
 20
598414.0569519482087344
 30
0.0
  0
SEQEND
  5
D12
  8
AREAS
  0
POLYLINE
  5
1D4
  8
AREAS
 66
     1
 10
0.0
 20
0.0
 30
0.0
 70
     1
  0
VERTEX
  5
D13
  8
AREAS
 10
634018.8382712339516729
 20
598672.4901194390840828
 30
0.0
  0
VERTEX
  5
D14
  8
AREAS
 10
634062.7886902141617611
 20
598686.3592231519287452
 30
0.0
  0
VERTEX
  5
D15
  8
AREAS
 10
634082.7011416178429499
 20
598665.3512448797700927
 30
0.0
  0
VERTEX
  5
D16
  8
AREAS
 10
634085.6598555607488379
 20
598650.3723592259921134
 30
0.0
  0
VERTEX
  5
D17
  8
AREAS
 10
634085.6313454159535468
 20
598638.3949527320219204
 30
0.0
  0
VERTEX
  5
D18
  8
AREAS
 10
634079.6141320243477821
 20
598626.43180131027475
 30
0.0
  0
VERTEX
  5
D19
  8
AREAS
 10
634054.6469467561691999
 20
598620.5024941978044808
 30
0.0
  0
VERTEX
  5
D1A
  8
AREAS
 10
634038.6770714308368042
 20
598620.5405077239265665
 30
0.0
  0
VERTEX
  5
D1B
  8
AREAS
 10
634020.7157133804867044
 20
598622.5795073565095663
 30
0.0
  0
VERTEX
  5
D1C
  8
AREAS
 10
634008.7644411856308579
 20
598633.5873067871434614
 30
0.0
  0
VERTEX
  5
D1D
  8
AREAS
 10
634002.8089997740462422
 20
598647.575202769250609
 30
0.0
  0
VERTEX
  5
D1E
  8
AREAS
 10
634006.8323545953026041
 20
598660.5412230896763504
 30
0.0
  0
SEQEND
  5
D1F
  8
AREAS
  0
POLYLINE
  5
1E2
  8
AREAS
 66
     1
 10
0.0
 20
0.0
 30
0.0
 70
     1
  0
VERTEX
  5
D20
  8
AREAS
 10
633770.4947782678063959
 20
598751.9329643585951999
 30
0.0
  0
VERTEX
  5
D21
  8
AREAS
 10
633827.4349760222248733
 20
598771.7598853284725919
 30
0.0
  0
VERTEX
  5
D22
  8
AREAS
 10
633812.5154865030199289
 20
598793.7541015817550942
 30
0.0
  0
VERTEX
  5
D23
  8
AREAS
 10
633812.5558758745901287
 20
598810.722094114869833
 30
0.0
  0
VERTEX
  5
D24
  8
AREAS
 10
633807.5842965984484181
 20
598818.7189110044855624
 30
0.0
  0
VERTEX
  5
D25
  8
AREAS
 10
633804.6184551195474342
 20
598830.7034450345672667
 30
0.0
  0
VERTEX
  5
D26
  8
AREAS
 10
633791.6453072630101815
 20
598831.7324482323601842
 30
0.0
  0
VERTEX
  5
D27
  8
AREAS
 10
633770.6563357538543642
 20
598819.8049344914034009
 30
0.0
  0
VERTEX
  5
D28
  8
AREAS
 10
633757.6451743711950257
 20
598804.8640623637475073
 30
0.0
  0
VERTEX
  5
D29
  8
AREAS
 10
633750.6227162356954068
 20
598789.9089351639850065
 30
0.0
  0
VERTEX
  5
D2A
  8
AREAS
 10
633753.5956852508243173
 20
598780.9187527573667467
 30
0.0
  0
VERTEX
  5
D2B
  8
AREAS
 10
633765.5564608271233737
 20
598773.9034221578622237
 30
0.0
  0
SEQEND
  5
D2C
  8
AREAS
  0
POLYLINE
  5
1F0
  8
AREAS
 66
     1
 10
0.0
 20
0.0
 30
0.0
 70
     1
  0
VERTEX
  5
D2D
  8
AREAS
 10
631517.6856470089405775
 20
601248.6100532205309719
 30
0.0
  0
VERTEX
  5
D2E
  8
AREAS
 10
631527.6929533864604309
 20
601259.5655840530525893
 30
0.0
  0
VERTEX
  5
D2F
  8
AREAS
 10
631556.6383524138946086
 20
601259.4966845369199291
 30
0.0
  0
VERTEX
  5
D30
  8
AREAS
 10
631571.5578419328667223
 20
601237.5024682837538421
 30
0.0
  0
VERTEX
  5
D31
  8
AREAS
 10
631572.5084422330837697
 20
601217.5377482816111296
 30
0.0
  0
VERTEX
  5
D32
  8
AREAS
 10
631567.503601121599786
 20
601211.5609242614591494
 30
0.0
  0
VERTEX
  5
D33
  8
AREAS
 10
631561.5077703384449705
 20
601208.5808277102187276
 30
0.0
  0
VERTEX
  5
D34
  8
AREAS
 10
631545.5355191676644608
 20
601207.6207240285584703
 30
0.0
  0
VERTEX
  5
D35
  8
AREAS
 10
631535.5495953984791413
 20
601205.6482480666600168
 30
0.0
  0
VERTEX
  5
D36
  8
AREAS
 10
631523.5721889045089483
 20
601205.6767582113388926
 30
0.0
  0
VERTEX
  5
D37
  8
AREAS
 10
631514.5938857246655971
 20
601207.6943752353545278
 30
0.0
  0
VERTEX
  5
D38
  8
AREAS
 10
631510.6370545740937814
 20
601222.6756367345806211
 30
0.0
  0
VERTEX
  5
D39
  8
AREAS
 10
631514.6604093953501433
 20
601235.6416570548899472
 30
0.0
  0
SEQEND
  5
D3A
  8
AREAS
  0
POLYLINE
  5
1FF
  8
AREAS
 66
     1
 10
0.0
 20
0.0
 30
0.0
 70
     1
  0
VERTEX
  5
D3B
  8
AREAS
 10
631252.6764181671896949
 20
600616.4309666331391782
 30
0.0
  0
VERTEX
  5
D3C
  8
AREAS
 10
631298.5945614186348394
 20
600618.3179121613502502
 30
0.0
  0
VERTEX
  5
D3D
  8
AREAS
 10
631317.5017680781893432
 20
600594.3179581109434366
 30
0.0
  0
VERTEX
  5
D3E
  8
AREAS
 10
631306.4559551214333624
 20
600566.3968105906387791
 30
0.0
  0
VERTEX
  5
D3F
  8
AREAS
 10
631259.5349429714260623
 20
600562.5160064923111349
 30
0.0
  0
SEQEND
  5
D40
  8
AREAS
  0
POLYLINE
  5
206
  8
AREAS
 66
     1
 10
0.0
 20
0.0
 30
0.0
 70
     1
  0
VERTEX
  5
D41
  8
AREAS
 10
630398.9755105378571898
 20
603423.1882993745384738
 30
0.0
  0
VERTEX
  5
D42
  8
AREAS
 10
630404.9832205479033291
 20
603431.1589819649234414
 30
0.0
  0
VERTEX
  5
D43
  8
AREAS
 10
630416.9820096504408866
 20
603440.1135266908677295
 30
0.0
  0
VERTEX
  5
D44
  8
AREAS
 10
630444.9459223875310272
 20
603447.0338234751252457
 30
0.0
  0
VERTEX
  5
D45
  8
AREAS
 10
630457.9119427078403533
 20
603443.0104686537524685
 30
0.0
  0
VERTEX
  5
D46
  8
AREAS
 10
630462.8882736746454611
 20
603437.0098861797014251
 30
0.0
  0
VERTEX
  5
D47
  8
AREAS
 10
630467.8384703424526379
 20
603420.0300144194625318
 30
0.0
  0
VERTEX
  5
D48
  8
AREAS
 10
630485.7950767019065097
 20
603415.994780371314846
 30
0.0
  0
VERTEX
  5
D49
  8
AREAS
 10
630487.7651768184732646
 20
603405.0107393943471834
 30
0.0
  0
VERTEX
  5
D4A
  8
AREAS
 10
630486.7385494660120457
 20
603393.0357087458251044
 30
0.0
  0
VERTEX
  5
D4B
  8
AREAS
 10
630480.7260877651860937
 20
603383.0687917396426201
 30
0.0
  0
VERTEX
  5
D4C
  8
AREAS
 10
630459.7228611836908385
 20
603365.1525747516425326
 30
0.0
  0
VERTEX
  5
D4D
  8
AREAS
 10
630458.7223681304603815
 20
603364.1568333891918883
 30
0.0
  0
VERTEX
  5
D4E
  8
AREAS
 10
630451.7284201394068077
 20
603361.1791126833995804
 30
0.0
  0
VERTEX
  5
D4F
  8
AREAS
 10
630445.7349652017001063
 20
603359.1971333400579169
 30
0.0
  0
VERTEX
  5
D50
  8
AREAS
 10
630440.7420033172238618
 20
603358.2108953590504825
 30
0.0
  0
VERTEX
  5
D51
  8
AREAS
 10
630426.7826174796791747
 20
603364.2328604415524751
 30
0.0
  0
VERTEX
  5
D52
  8
AREAS
 10
630416.8180763189448044
 20
603371.2434393501607701
 30
0.0
  0
VERTEX
  5
D53
  8
AREAS
 10
630436.8303132287692279
 20
603392.1563838069560006
 30
0.0
  0
SEQEND
  5
D54
  8
AREAS
  0
POLYLINE
  5
21B
  8
AREAS
 66
     1
 10
0.0
 20
0.0
 30
0.0
 70
     1
  0
VERTEX
  5
D55
  8
AREAS
 10
630629.2771288576768711
 20
602892.636865884414874
 30
0.0
  0
VERTEX
  5
D56
  8
AREAS
 10
630681.1887270467123017
 20
602896.5057907558511943
 30
0.0
  0
VERTEX
  5
D57
  8
AREAS
 10
630730.1154769938439131
 20
602904.3743119947612286
 30
0.0
  0
VERTEX
  5
D58
  8
AREAS
 10
630703.0356408861698583
 20
602849.5420133889419958
 30
0.0
  0
VERTEX
  5
D59
  8
AREAS
 10
630633.150805419893004
 20
602842.7215021109441295
 30
0.0
  0
SEQEND
  5
D5A
  8
AREAS
  0
POLYLINE
  5
222
  8
AREAS
 66
     1
 10
0.0
 20
0.0
 30
0.0
 70
     1
  0
VERTEX
  5
D5B
  8
AREAS
 10
630628.6422538463957608
 20
603464.5627776654437184
 30
0.0
  0
VERTEX
  5
D5C
  8
AREAS
 10
630647.6302392490906641
 20
603474.4988086817320436
 30
0.0
  0
VERTEX
  5
D5D
  8
AREAS
 10
630662.613876593648456
 20
603479.4537570402026176
 30
0.0
  0
VERTEX
  5
D5E
  8
AREAS
 10
630680.5799863346619532
 20
603479.4109918234171346
 30
0.0
  0
VERTEX
  5
D5F
  8
AREAS
 10
630689.5511619781609625
 20
603474.399023175588809
 30
0.0
  0
VERTEX
  5
D60
  8
AREAS
 10
630689.5179001429351047
 20
603460.4253822660539299
 30
0.0
  0
VERTEX
  5
D61
  8
AREAS
 10
630648.5119400330586359
 20
603425.5886896522715688
 30
0.0
  0
VERTEX
  5
D62
  8
AREAS
 10
630622.541885866317898
 20
603417.6655239695683122
 30
0.0
  0
VERTEX
  5
D63
  8
AREAS
 10
630607.5725035942159593
 20
603418.6992788582574576
 30
0.0
  0
VERTEX
  5
D64
  8
AREAS
 10
630606.5981448402162641
 20
603428.6828267818782479
 30
0.0
  0
SEQEND
  5
D65
  8
AREAS
  0
POLYLINE
  5
22E
  8
AREAS
 66
     1
 10
0.0
 20
0.0
 30
0.0
 70
     1
  0
VERTEX
  5
D66
  8
AREAS
 10
630757.2021784905809909
 20
603381.4125653607770801
 30
0.0
  0
VERTEX
  5
D67
  8
AREAS
 10
630799.1848731996724382
 20
603407.2638272584881634
 30
0.0
  0
VERTEX
  5
D68
  8
AREAS
 10
630807.1508040992775932
 20
603399.2598828326445073
 30
0.0
  0
VERTEX
  5
D69
  8
AREAS
 10
630806.1408076644875109
 20
603394.2716726389480755
 30
0.0
  0
VERTEX
  5
D6A
  8
AREAS
 10
630807.1199181091506034
 20
603386.2843591306591406
 30
0.0
  0
VERTEX
  5
D6B
  8
AREAS
 10
630804.1113114134641364
 20
603380.3027834198437631
 30
0.0
  0
VERTEX
  5
D6C
  8
AREAS
 10
630801.1074564085574821
 20
603376.317442124709487
 30
0.0
  0
VERTEX
  5
D6D
  8
AREAS
 10
630791.1167809485923499
 20
603372.3487317472463474
 30
0.0
  0
VERTEX
  5
D6E
  8
AREAS
 10
630782.1265985418576747
 20
603369.3757627322338521
 30
0.0
  0
VERTEX
  5
D6F
  8
AREAS
 10
630777.1336366572650149
 20
603368.389524751342833
 30
0.0
  0
VERTEX
  5
D70
  8
AREAS
 10
630770.1420645115431398
 20
603366.4099212533328682
 30
0.0
  0
VERTEX
  5
D71
  8
AREAS
 10
630762.1476234674919397
 20
603362.4364591849735007
 30
0.0
  0
SEQEND
  5
D72
  8
AREAS
  0
POLYLINE
  5
23C
  8
AREAS
 66
     1
 10
0.0
 20
0.0
 30
0.0
 70
     1
  0
VERTEX
  5
D73
  8
AREAS
 10
634360.0869355000322685
 20
603239.0880576784256846
 30
0.0
  0
VERTEX
  5
D74
  8
AREAS
 10
634376.0544349801493809
 20
603238.0519269445212558
 30
0.0
  0
VERTEX
  5
D75
  8
AREAS
 10
634415.9292305405251682
 20
603216.9964317644480616
 30
0.0
  0
VERTEX
  5
D76
  8
AREAS
 10
634414.8622138164937496
 20
603188.0534085826948285
 30
0.0
  0
VERTEX
  5
D77
  8
AREAS
 10
634405.8340178836369887
 20
603169.1105642423499376
 30
0.0
  0
VERTEX
  5
D78
  8
AREAS
 10
634388.8660253504058346
 20
603169.150953613803722
 30
0.0
  0
VERTEX
  5
D79
  8
AREAS
 10
634376.9100014648865908
 20
603178.162518628872931
 30
0.0
  0
VERTEX
  5
D7A
  8
AREAS
 10
634361.9548742650076747
 20
603185.1849767644889653
 30
0.0
  0
VERTEX
  5
D7B
  8
AREAS
 10
634351.0207260410534218
 20
603204.1753380127483979
 30
0.0
  0
VERTEX
  5
D7C
  8
AREAS
 10
634352.0592326204059646
 20
603221.1409547004150227
 30
0.0
  0
VERTEX
  5
D7D
  8
AREAS
 10
634353.0644773644162342
 20
603224.1329304785467684
 30
0.0
  0
VERTEX
  5
D7E
  8
AREAS
 10
634356.0778357509989291
 20
603232.1107406050432473
 30
0.0
  0
SEQEND
  5
D7F
  8
AREAS
  0
POLYLINE
  5
24A
  8
AREAS
 66
     1
 10
0.0
 20
0.0
 30
0.0
 70
     1
  0
VERTEX
  5
D80
  8
AREAS
 10
633523.046733386348933
 20
603400.7801452085841447
 30
0.0
  0
VERTEX
  5
D81
  8
AREAS
 10
633560.9823148201685399
 20
603403.6842147074639797
 30
0.0
  0
VERTEX
  5
D82
  8
AREAS
 10
633559.9343048592563719
 20
603382.7261291883187369
 30
0.0
  0
VERTEX
  5
D83
  8
AREAS
 10
633555.908574192551896
 20
603368.7619916602270678
 30
0.0
  0
VERTEX
  5
D84
  8
AREAS
 10
633556.8663020288804546
 20
603351.7916232815477997
 30
0.0
  0
VERTEX
  5
D85
  8
AREAS
 10
633556.804530048975721
 20
603325.8405758778098971
 30
0.0
  0
VERTEX
  5
D86
  8
AREAS
 10
633551.7901855560485274
 20
603315.8712830262957141
 30
0.0
  0
VERTEX
  5
D87
  8
AREAS
 10
633539.8080273710656911
 20
603313.9035587552934885
 30
0.0
  0
VERTEX
  5
D88
  8
AREAS
 10
633530.8392275728983805
 20
603319.9136446106713265
 30
0.0
  0
VERTEX
  5
D89
  8
AREAS
 10
633519.8813208950450644
 20
603328.9228337804088369
 30
0.0
  0
VERTEX
  5
D8A
  8
AREAS
 10
633522.0153543429914862
 20
603386.808880144264549
 30
0.0
  0
SEQEND
  5
D8B
  8
AREAS
  0
POLYLINE
  5
257
  8
AREAS
 66
     1
 10
0.0
 20
0.0
 30
0.0
 70
     1
  0
VERTEX
  5
D8C
  8
AREAS
 10
634522.4492735750973225
 20
603938.3857092653634027
 30
0.0
  0
VERTEX
  5
D8D
  8
AREAS
 10
634532.4732108704047278
 20
603956.3280605525942519
 30
0.0
  0
VERTEX
  5
D8E
  8
AREAS
 10
634573.4459091447060928
 20
603977.1911122564924881
 30
0.0
  0
VERTEX
  5
D8F
  8
AREAS
 10
634591.4025155041599646
 20
603973.1558782083448023
 30
0.0
  0
VERTEX
  5
D90
  8
AREAS
 10
634599.3660705585498363
 20
603964.1538165746023878
 30
0.0
  0
VERTEX
  5
D91
  8
AREAS
 10
634630.2649387846468017
 20
603946.1140556266764179
 30
0.0
  0
VERTEX
  5
D92
  8
AREAS
 10
634582.2341446939390153
 20
603895.3241186054656282
 30
0.0
  0
VERTEX
  5
D93
  8
AREAS
 10
634570.2638657359639183
 20
603898.3469803734915331
 30
0.0
  0
VERTEX
  5
D94
  8
AREAS
 10
634555.3134902268648148
 20
603907.3656729247886688
 30
0.0
  0
VERTEX
  5
D95
  8
AREAS
 10
634531.3776840018108487
 20
603915.4076308767544106
 30
0.0
  0
SEQEND
  5
D96
  8
AREAS
  0
POLYLINE
  5
263
  8
AREAS
 66
     1
 10
0.0
 20
0.0
 30
0.0
 70
     1
  0
VERTEX
  5
D97
  8
AREAS
 10
634758.3037668487522751
 20
604902.0109842161182314
 30
0.0
  0
VERTEX
  5
D98
  8
AREAS
 10
634767.3105801731580868
 20
604911.9707736859563738
 30
0.0
  0
VERTEX
  5
D99
  8
AREAS
 10
634799.2574583600508049
 20
604914.889098257292062
 30
0.0
  0
VERTEX
  5
D9A
  8
AREAS
 10
634812.2020960721420124
 20
604901.8826885654125363
 30
0.0
  0
VERTEX
  5
D9B
  8
AREAS
 10
634816.1636789133772254
 20
604888.8976614819839597
 30
0.0
  0
VERTEX
  5
D9C
  8
AREAS
 10
634811.1303276573307812
 20
604870.9434309677453712
 30
0.0
  0
VERTEX
  5
D9D
  8
AREAS
 10
634795.1366938780993223
 20
604861.0002724155783653
 30
0.0
  0
VERTEX
  5
D9E
  8
AREAS
 10
634786.1441356260329485
 20
604857.0291861926671118
 30
0.0
  0
VERTEX
  5
D9F
  8
AREAS
 10
634775.1719738759566098
 20
604860.0496721154777333
 30
0.0
  0
VERTEX
  5
DA0
  8
AREAS
 10
634763.1993190726498142
 20
604862.0744166758377105
 30
0.0
  0
VERTEX
  5
DA1
  8
AREAS
 10
634752.2390365494647995
 20
604870.0854886375600472
 30
0.0
  0
VERTEX
  5
DA2
  8
AREAS
 10
634756.2861498246202245
 20
604893.0326810363912955
 30
0.0
  0
SEQEND
  5
DA3
  8
AREAS
  0
POLYLINE
  5
271
  8
AREAS
 66
     1
 10
0.0
 20
0.0
 30
0.0
 70
     1
  0
VERTEX
  5
DA4
  8
AREAS
 10
632694.5410756595665589
 20
602535.3834915753686801
 30
0.0
  0
VERTEX
  5
DA5
  8
AREAS
 10
632721.5353813334368169
 20
602554.2835706989280879
 30
0.0
  0
VERTEX
  5
DA6
  8
AREAS
 10
632766.4577832223149016
 20
602557.1710092802532017
 30
0.0
  0
VERTEX
  5
DA7
  8
AREAS
 10
632771.3272011469816789
 20
602506.2551524536684155
 30
0.0
  0
VERTEX
  5
DA8
  8
AREAS
 10
632752.3534708165097982
 20
602502.3078246846562251
 30
0.0
  0
VERTEX
  5
DA9
  8
AREAS
 10
632720.3828341757180169
 20
602489.40832803491503
 30
0.0
  0
VERTEX
  5
DAA
  8
AREAS
 10
632708.405427681747824
 20
602489.4368381795939058
 30
0.0
  0
VERTEX
  5
DAB
  8
AREAS
 10
632702.4309795070439577
 20
602495.4397964988602325
 30
0.0
  0
VERTEX
  5
DAC
  8
AREAS
 10
632700.484637844376266
 20
602516.4050095543498173
 30
0.0
  0
VERTEX
  5
DAD
  8
AREAS
 10
632695.532065331353806
 20
602532.386764106573537
 30
0.0
  0
SEQEND
  5
DAE
  8
AREAS
  0
POLYLINE
  5
27D
  8
AREAS
 66
     1
 10
0.0
 20
0.0
 30
0.0
 70
     1
  0
VERTEX
  5
DAF
  8
AREAS
 10
632428.0802218111930415
 20
605067.2573364390991628
 30
0.0
  0
VERTEX
  5
DB0
  8
AREAS
 10
632437.1060418986016884
 20
605085.2020635716617107
 30
0.0
  0
VERTEX
  5
DB1
  8
AREAS
 10
632491.0305054209893569
 20
605096.0530572071438655
 30
0.0
  0
VERTEX
  5
DB2
  8
AREAS
 10
632507.9676119642099366
 20
605083.0371441337047145
 30
0.0
  0
VERTEX
  5
DB3
  8
AREAS
 10
632516.9079016180476174
 20
605065.0496517842402682
 30
0.0
  0
VERTEX
  5
DB4
  8
AREAS
 10
632503.8991160806035623
 20
605051.1068968645995483
 30
0.0
  0
VERTEX
  5
DB5
  8
AREAS
 10
632476.9238171698525548
 20
605040.1917554036481306
 30
0.0
  0
VERTEX
  5
DB6
  8
AREAS
 10
632445.9750561907421798
 20
605037.2710549869807437
 30
0.0
  0
VERTEX
  5
DB7
  8
AREAS
 10
632429.0331979568582028
 20
605048.2907336448552087
 30
0.0
  0
SEQEND
  5
DB8
  8
AREAS
  0
POLYLINE
  5
288
  8
AREAS
 66
     1
 10
0.0
 20
0.0
 30
0.0
 70
     1
  0
VERTEX
  5
DB9
  8
AREAS
 10
630279.0750014981022105
 20
604208.9963950787205249
 30
0.0
  0
VERTEX
  5
DBA
  8
AREAS
 10
630314.0281105354661122
 20
604216.8981781530892476
 30
0.0
  0
VERTEX
  5
DBB
  8
AREAS
 10
630331.9847168950363994
 20
604212.8629441048251465
 30
0.0
  0
VERTEX
  5
DBC
  8
AREAS
 10
630343.9621233891230077
 20
604212.8344339601462707
 30
0.0
  0
VERTEX
  5
DBD
  8
AREAS
 10
630355.9252748107537627
 20
604206.8172205686569214
 30
0.0
  0
VERTEX
  5
DBE
  8
AREAS
 10
630361.8949712946778163
 20
604198.8180278337094933
 30
0.0
  0
VERTEX
  5
DBF
  8
AREAS
 10
630366.8665505708195269
 20
604190.8212109440937638
 30
0.0
  0
VERTEX
  5
DC0
  8
AREAS
 10
630368.8366506872698665
 20
604179.8371699670096859
 30
0.0
  0
VERTEX
  5
DC1
  8
AREAS
 10
630369.7801234512589872
 20
604156.878098341403529
 30
0.0
  0
VERTEX
  5
DC2
  8
AREAS
 10
630357.733817441156134
 20
604127.9612094586482272
 30
0.0
  0
VERTEX
  5
DC3
  8
AREAS
 10
630320.7820981427794322
 20
604119.0660608673933893
 30
0.0
  0
VERTEX
  5
DC4
  8
AREAS
 10
630300.8150022954214364
 20
604117.117343359393999
 30
0.0
  0
VERTEX
  5
DC5
  8
AREAS
 10
630284.0156947842333466
 20
604188.0240544872358441
 30
0.0
  0
SEQEND
  5
DC6
  8
AREAS
  0
POLYLINE
  5
297
  8
AREAS
 66
     1
 10
0.0
 20
0.0
 30
0.0
 70
     1
  0
VERTEX
  5
DC7
  8
AREAS
 10
627959.7032530592987314
 20
606836.5860198080772534
 30
0.0
  0
VERTEX
  5
DC8
  8
AREAS
 10
628005.7140542805427685
 20
606877.3995364417787641
 30
0.0
  0
VERTEX
  5
DC9
  8
AREAS
 10
628031.6959876741748303
 20
606890.3132881637429819
 30
0.0
  0
VERTEX
  5
DCA
  8
AREAS
 10
628041.6795355979120359
 20
606891.287646917742677
 30
0.0
  0
VERTEX
  5
DCB
  8
AREAS
 10
628053.6189285657601431
 20
606875.2892614478478208
 30
0.0
  0
VERTEX
  5
DCC
  8
AREAS
 10
628056.5776425085496157
 20
606860.3103757940698415
 30
0.0
  0
VERTEX
  5
DCD
  8
AREAS
 10
628045.5437087785685435
 20
606837.3798143131425604
 30
0.0
  0
VERTEX
  5
DCE
  8
AREAS
 10
628026.5367166127543896
 20
606819.458845634246245
 30
0.0
  0
VERTEX
  5
DCF
  8
AREAS
 10
627992.5579663295065984
 20
606801.573514636256732
 30
0.0
  0
SEQEND
  5
DD0
  8
AREAS
  0
POLYLINE
  5
2A2
  8
AREAS
 66
     1
 10
0.0
 20
0.0
 30
0.0
 70
     1
  0
VERTEX
  5
DD1
  8
AREAS
 10
628528.6847059699939564
 20
606858.1884837199468166
 30
0.0
  0
VERTEX
  5
DD2
  8
AREAS
 10
628564.6763215868268162
 20
606883.0558834822149947
 30
0.0
  0
VERTEX
  5
DD3
  8
AREAS
 10
628567.815599778550677
 20
606943.9339056240860373
 30
0.0
  0
VERTEX
  5
DD4
  8
AREAS
 10
628565.8526271983282641
 20
606957.9122982247499749
 30
0.0
  0
VERTEX
  5
DD5
  8
AREAS
 10
628564.8925235165515915
 20
606973.8845493954140693
 30
0.0
  0
VERTEX
  5
DD6
  8
AREAS
 10
628564.9234095065621659
 20
606986.8600730972830206
 30
0.0
  0
VERTEX
  5
DD7
  8
AREAS
 10
628584.949901488609612
 20
607013.7617208012379706
 30
0.0
  0
VERTEX
  5
DD8
  8
AREAS
 10
628608.9498555391328409
 20
607032.6689274609088898
 30
0.0
  0
VERTEX
  5
DD9
  8
AREAS
 10
628621.9515135399997234
 20
607043.6173307570861652
 30
0.0
  0
VERTEX
  5
DDA
  8
AREAS
 10
628643.9243471847148612
 20
607049.5537654057843611
 30
0.0
  0
VERTEX
  5
DDB
  8
AREAS
 10
628653.9078951084520668
 20
607050.5281241596676409
 30
0.0
  0
VERTEX
  5
DDC
  8
AREAS
 10
628666.8786671196576208
 20
607048.5010037540923804
 30
0.0
  0
VERTEX
  5
DDD
  8
AREAS
 10
628673.8227223575813696
 20
607030.5182630952913314
 30
0.0
  0
VERTEX
  5
DDE
  8
AREAS
 10
628704.7548524190206081
 20
607026.4521430572494864
 30
0.0
  0
VERTEX
  5
DDF
  8
AREAS
 10
628680.6028442641254514
 20
606943.6654350958997384
 30
0.0
  0
VERTEX
  5
DE0
  8
AREAS
 10
628785.4075269325403497
 20
606944.4140885384986177
 30
0.0
  0
VERTEX
  5
DE1
  8
AREAS
 10
628804.1555519513785839
 20
606853.5402815630659461
 30
0.0
  0
VERTEX
  5
DE2
  8
AREAS
 10
628808.8847949984483421
 20
606743.7355094740632921
 30
0.0
  0
VERTEX
  5
DE3
  8
AREAS
 10
628800.9141124080633745
 20
606749.7432194842258468
 30
0.0
  0
VERTEX
  5
DE4
  8
AREAS
 10
628761.9899171479046345
 20
606750.8339946620399132
 30
0.0
  0
VERTEX
  5
DE5
  8
AREAS
 10
628724.0638390954118222
 20
606751.9223939944058657
 30
0.0
  0
VERTEX
  5
DE6
  8
AREAS
 10
628716.0789014326874167
 20
606751.9414007574087009
 30
0.0
  0
VERTEX
  5
DE7
  8
AREAS
 10
628695.2182255742372945
 20
606793.9122162396088243
 30
0.0
  0
VERTEX
  5
DE8
  8
AREAS
 10
628680.3177428181516007
 20
606823.8913701556157321
 30
0.0
  0
VERTEX
  5
DE9
  8
AREAS
 10
628645.3765130079118535
 20
606820.9801731202751398
 30
0.0
  0
VERTEX
  5
DEA
  8
AREAS
 10
628614.4301278740167618
 20
606819.0575899116229266
 30
0.0
  0
VERTEX
  5
DEB
  8
AREAS
 10
628603.4508385879453272
 20
606819.0837242108536884
 30
0.0
  0
VERTEX
  5
DEC
  8
AREAS
 10
628589.4082981620449573
 20
606790.1715870187617838
 30
0.0
  0
VERTEX
  5
DED
  8
AREAS
 10
628578.386243658955209
 20
606772.2316115768626332
 30
0.0
  0
VERTEX
  5
DEE
  8
AREAS
 10
628554.436182361561805
 20
606774.2848662819014862
 30
0.0
  0
VERTEX
  5
DEF
  8
AREAS
 10
628529.4927555471658707
 20
606778.3367312479531392
 30
0.0
  0
VERTEX
  5
DF0
  8
AREAS
 10
628527.5986824829597026
 20
606821.260522875469178
 30
0.0
  0
VERTEX
  5
DF1
  8
AREAS
 10
628527.641447699861601
 20
606839.2266326165990904
 30
0.0
  0
SEQEND
  5
DF2
  8
AREAS
  0
POLYLINE
  5
2C5
  8
AREAS
 66
     1
 10
0.0
 20
0.0
 30
0.0
 70
     1
  0
VERTEX
  5
DF3
  8
AREAS
 10
628682.6183475898578763
 20
606532.4340179309947416
 30
0.0
  0
VERTEX
  5
DF4
  8
AREAS
 10
628720.6560903752688318
 20
606578.2571273669600487
 30
0.0
  0
VERTEX
  5
DF5
  8
AREAS
 10
628692.777708071982488
 20
606607.269050064845942
 30
0.0
  0
VERTEX
  5
DF6
  8
AREAS
 10
628685.8193977618357167
 20
606619.2630874766036868
 30
0.0
  0
VERTEX
  5
DF7
  8
AREAS
 10
628667.8675430930452421
 20
606625.2945559405488893
 30
0.0
  0
VERTEX
  5
DF8
  8
AREAS
 10
628648.8938127625733614
 20
606621.3472281714202836
 30
0.0
  0
VERTEX
  5
DF9
  8
AREAS
 10
628636.880768587696366
 20
606606.4039801985491067
 30
0.0
  0
VERTEX
  5
DFA
  8
AREAS
 10
628638.8271102503640577
 20
606585.4387671431759372
 30
0.0
  0
VERTEX
  5
DFB
  8
AREAS
 10
628671.6818235205719247
 20
606550.4262619713554159
 30
0.0
  0
SEQEND
  5
DFC
  8
AREAS
  0
POLYLINE
  5
2D0
  8
AREAS
 66
     1
 10
0.0
 20
0.0
 30
0.0
 70
     1
  0
VERTEX
  5
DFD
  8
AREAS
 10
629872.3838248598622158
 20
606114.382875929120928
 30
0.0
  0
VERTEX
  5
DFE
  8
AREAS
 10
629896.3457653841469437
 20
606117.3202072634594515
 30
0.0
  0
VERTEX
  5
DFF
  8
AREAS
 10
629908.2899100427748635
 20
606103.3180562091292813
 30
0.0
  0
VERTEX
  5
E00
  8
AREAS
 10
629908.2518965166527778
 20
606087.3481808836804703
 30
0.0
  0
VERTEX
  5
E01
  8
AREAS
 10
629907.225269164191559
 20
606075.373150235041976
 30
0.0
  0
VERTEX
  5
E02
  8
AREAS
 10
629900.2075627193553373
 20
606062.4142574508441612
 30
0.0
  0
VERTEX
  5
E03
  8
AREAS
 10
629889.2116425154963508
 20
606055.4535712952492759
 30
0.0
  0
VERTEX
  5
E04
  8
AREAS
 10
629877.2271084852982312
 20
606052.4877298163482919
 30
0.0
  0
VERTEX
  5
E05
  8
AREAS
 10
629860.2709951789584011
 20
606057.5187052269466221
 30
0.0
  0
VERTEX
  5
E06
  8
AREAS
 10
629863.3247429371112958
 20
606082.4645078867906705
 30
0.0
  0
VERTEX
  5
E07
  8
AREAS
 10
629871.3667008889606223
 20
606106.4003141117282212
 30
0.0
  0
VERTEX
  5
E08
  8
AREAS
 10
629872.3766973237507045
 20
606111.3885243056574836
 30
0.0
  0
SEQEND
  5
E09
  8
AREAS
  0
POLYLINE
  5
2DE
  8
AREAS
 66
     1
 10
0.0
 20
0.0
 30
0.0
 70
     1
  0
VERTEX
  5
E0A
  8
AREAS
 10
629158.6281220521777868
 20
605653.9509623040212318
 30
0.0
  0
VERTEX
  5
E0B
  8
AREAS
 10
629173.6450212319614366
 20
605672.8795515722595155
 30
0.0
  0
VERTEX
  5
E0C
  8
AREAS
 10
629194.6078584420029074
 20
605673.8277760270284489
 30
0.0
  0
VERTEX
  5
E0D
  8
AREAS
 10
629213.5815887723583728
 20
605677.7751037961570546
 30
0.0
  0
VERTEX
  5
E0E
  8
AREAS
 10
629244.5469806692562997
 20
605687.6826246675336733
 30
0.0
  0
VERTEX
  5
E0F
  8
AREAS
 10
629252.2468168858904392
 20
605567.8895529641304165
 30
0.0
  0
VERTEX
  5
E10
  8
AREAS
 10
629184.3415849176235497
 20
605554.0774695405270904
 30
0.0
  0
VERTEX
  5
E11
  8
AREAS
 10
629175.4369329446926713
 20
605587.0367200075415894
 30
0.0
  0
VERTEX
  5
E12
  8
AREAS
 10
629168.4857501706574112
 20
605602.0251090426463634
 30
0.0
  0
VERTEX
  5
E13
  8
AREAS
 10
629161.5511983141768724
 20
605624.0003185329260305
 30
0.0
  0
SEQEND
  5
E14
  8
AREAS
  0
POLYLINE
  5
2EA
  8
AREAS
 66
     1
 10
0.0
 20
0.0
 30
0.0
 70
     1
  0
VERTEX
  5
E15
  8
AREAS
 10
630015.3260358197148889
 20
606202.8755615367554128
 30
0.0
  0
VERTEX
  5
E16
  8
AREAS
 10
630027.3367041491437703
 20
606216.8206923018442467
 30
0.0
  0
VERTEX
  5
E17
  8
AREAS
 10
630049.3142894845223054
 20
606224.7533613662235439
 30
0.0
  0
VERTEX
  5
E18
  8
AREAS
 10
630073.2002029564464465
 20
606195.7509420497808605
 30
0.0
  0
VERTEX
  5
E19
  8
AREAS
 10
630076.173171971575357
 20
606186.7607596430461854
 30
0.0
  0
VERTEX
  5
E1A
  8
AREAS
 10
630078.1456479333573952
 20
606176.7748358738608658
 30
0.0
  0
VERTEX
  5
E1B
  8
AREAS
 10
630076.1137758370023221
 20
606161.8078294470906258
 30
0.0
  0
VERTEX
  5
E1C
  8
AREAS
 10
630071.1018071892904118
 20
606152.8366538034752011
 30
0.0
  0
VERTEX
  5
E1D
  8
AREAS
 10
630062.1116247826721519
 20
606149.8636847883462906
 30
0.0
  0
VERTEX
  5
E1E
  8
AREAS
 10
630036.1582015334861353
 20
606148.9273395605850965
 30
0.0
  0
VERTEX
  5
E1F
  8
AREAS
 10
630015.2571363034658134
 20
606173.9301625095540658
 30
0.0
  0
SEQEND
  5
E20
  8
AREAS
  0
POLYLINE
  5
2F7
  8
AREAS
 66
     1
 10
0.0
 20
0.0
 30
0.0
 70
     1
  0
VERTEX
  5
E21
  8
AREAS
 10
626426.8692304820287973
 20
605697.3839878069702536
 30
0.0
  0
VERTEX
  5
E22
  8
AREAS
 10
626546.8547456617234275
 20
605785.931317858514376
 30
0.0
  0
VERTEX
  5
E23
  8
AREAS
 10
626529.9794110982911661
 20
605824.8982783355750144
 30
0.0
  0
VERTEX
  5
E24
  8
AREAS
 10
626485.2328217678004876
 20
605895.8715131343342364
 30
0.0
  0
VERTEX
  5
E25
  8
AREAS
 10
626471.3660939002875239
 20
605940.8200493223266676
 30
0.0
  0
VERTEX
  5
E26
  8
AREAS
 10
626422.4393439532723278
 20
605932.951528083300218
 30
0.0
  0
VERTEX
  5
E27
  8
AREAS
 10
626384.4800040654372424
 20
605920.0662865060148761
 30
0.0
  0
VERTEX
  5
E28
  8
AREAS
 10
626356.492332874564454
 20
605903.1648176434682682
 30
0.0
  0
VERTEX
  5
E29
  8
AREAS
 10
626352.4238369909580797
 20
605871.2345703742466867
 30
0.0
  0
VERTEX
  5
E2A
  8
AREAS
 10
626369.2516546465922147
 20
605812.3052657402586192
 30
0.0
  0
VERTEX
  5
E2B
  8
AREAS
 10
626368.2440340572502464
 20
605808.3151727544609457
 30
0.0
  0
VERTEX
  5
E2C
  8
AREAS
 10
626393.0805478293914348
 20
605759.3480334358755499
 30
0.0
  0
VERTEX
  5
E2D
  8
AREAS
 10
626414.9773544217459857
 20
605733.3447174336761236
 30
0.0
  0
SEQEND
  5
E2E
  8
AREAS
  0
POLYLINE
  5
306
  8
AREAS
 66
     1
 10
0.0
 20
0.0
 30
0.0
 70
     1
  0
VERTEX
  5
E2F
  8
AREAS
 10
626321.3591838821303099
 20
604980.982920499984175
 30
0.0
  0
VERTEX
  5
E30
  8
AREAS
 10
626417.2116976698162034
 20
604994.7284802529029548
 30
0.0
  0
VERTEX
  5
E31
  8
AREAS
 10
626404.1577710702549666
 20
604961.8214983843499795
 30
0.0
  0
VERTEX
  5
E32
  8
AREAS
 10
626391.1133478523697704
 20
604932.9069853470427915
 30
0.0
  0
VERTEX
  5
E33
  8
AREAS
 10
626368.1162627005251125
 20
604915.9936372576048598
 30
0.0
  0
VERTEX
  5
E34
  8
AREAS
 10
626342.1628394514555112
 20
604915.0572920297272503
 30
0.0
  0
VERTEX
  5
E35
  8
AREAS
 10
626321.195250550750643
 20
604912.1128331592772156
 30
0.0
  0
SEQEND
  5
E36
  8
AREAS
  0
POLYLINE
  5
30F
  8
AREAS
 66
     1
 10
0.0
 20
0.0
 30
0.0
 70
     1
  0
VERTEX
  5
E37
  8
AREAS
 10
632780.6384013495407999
 20
605998.66488682909403
 30
0.0
  0
VERTEX
  5
E38
  8
AREAS
 10
632879.5232802868122235
 20
606028.3731943713501096
 30
0.0
  0
VERTEX
  5
E39
  8
AREAS
 10
632884.4829803360626101
 20
606015.3857914425898343
 30
0.0
  0
VERTEX
  5
E3A
  8
AREAS
 10
632886.460207988624461
 20
606007.3961020890856162
 30
0.0
  0
VERTEX
  5
E3B
  8
AREAS
 10
632898.3853458842495456
 20
605985.4090133721474558
 30
0.0
  0
VERTEX
  5
E3C
  8
AREAS
 10
632899.3644563290290534
 20
605977.4216998639749363
 30
0.0
  0
VERTEX
  5
E3D
  8
AREAS
 10
632896.3344670247752219
 20
605962.4570692826528102
 30
0.0
  0
VERTEX
  5
E3E
  8
AREAS
 10
632865.3334374473197386
 20
605937.5777902936097234
 30
0.0
  0
VERTEX
  5
E3F
  8
AREAS
 10
632846.3502037352882326
 20
605929.637993693118915
 30
0.0
  0
VERTEX
  5
E40
  8
AREAS
 10
632824.3797459361376241
 20
605924.6996762524358928
 30
0.0
  0
VERTEX
  5
E41
  8
AREAS
 10
632806.4231395764509216
 20
605928.7349103005835786
 30
0.0
  0
VERTEX
  5
E42
  8
AREAS
 10
632792.5041431107092649
 20
605951.7248679163167253
 30
0.0
  0
VERTEX
  5
E43
  8
AREAS
 10
632781.6341427119914442
 20
605997.6643937759799883
 30
0.0
  0
SEQEND
  5
E44
  8
AREAS
  0
POLYLINE
  5
31E
  8
AREAS
 66
     1
 10
0.0
 20
0.0
 30
0.0
 70
     1
  0
VERTEX
  5
E45
  8
AREAS
 10
633259.3682731502922252
 20
610456.1401827514637262
 30
0.0
  0
VERTEX
  5
E46
  8
AREAS
 10
633278.3087416453054175
 20
610446.1138696109410375
 30
0.0
  0
VERTEX
  5
E47
  8
AREAS
 10
633273.2706386984791607
 20
610426.1634046810213476
 30
0.0
  0
VERTEX
  5
E48
  8
AREAS
 10
633264.2495703018503264
 20
610410.2149119640234858
 30
0.0
  0
VERTEX
  5
E49
  8
AREAS
 10
633259.2185948911355808
 20
610393.2587986576836556
 30
0.0
  0
VERTEX
  5
E4A
  8
AREAS
 10
633252.1890092195244506
 20
610375.3093198344577104
 30
0.0
  0
VERTEX
  5
E4B
  8
AREAS
 10
633229.2014274493558332
 20
610362.3884405762655661
 30
0.0
  0
VERTEX
  5
E4C
  8
AREAS
 10
633220.268265331746079
 20
610383.3702845493098721
 30
0.0
  0
VERTEX
  5
E4D
  8
AREAS
 10
633224.3201302976813167
 20
610408.3137113637058064
 30
0.0
  0
VERTEX
  5
E4E
  8
AREAS
 10
633247.3504772847518325
 20
610439.2007003627950326
 30
0.0
  0
SEQEND
  5
E4F
  8
AREAS
  0
POLYLINE
  5
32A
  8
AREAS
 66
     1
 10
0.0
 20
0.0
 30
0.0
 70
     1
  0
VERTEX
  5
E50
  8
AREAS
 10
641159.5161115562077612
 20
606265.181679334375076
 30
0.0
  0
VERTEX
  5
E51
  8
AREAS
 10
641218.5737118407851085
 20
606335.9078262131661177
 30
0.0
  0
VERTEX
  5
E52
  8
AREAS
 10
641218.4667987985303625
 20
606290.9925518606323749
 30
0.0
  0
VERTEX
  5
E53
  8
AREAS
 10
641218.3693891378352419
 20
606250.0697463392280042
 30
0.0
  0
VERTEX
  5
E54
  8
AREAS
 10
641219.2772242211503908
 20
606212.1389165960717946
 30
0.0
  0
VERTEX
  5
E55
  8
AREAS
 10
641192.2734151658369228
 20
606189.246368641150184
 30
0.0
  0
VERTEX
  5
E56
  8
AREAS
 10
641177.3871874819742516
 20
606225.21422580385115
 30
0.0
  0
VERTEX
  5
E57
  8
AREAS
 10
641166.4649184849113226
 20
606249.1951730912551284
 30
0.0
  0
SEQEND
  5
E58
  8
AREAS
  0
POLYLINE
  5
334
  8
FRAME
 66
     1
 10
0.0
 20
0.0
 30
0.0
 70
     1
  0
VERTEX
  5
E59
  8
FRAME
 10
625594.012842521071434
 20
596295.0528420198243111
 30
0.0
  0
VERTEX
  5
E5A
  8
FRAME
 10
625632.0263686472317204
 20
612264.9281674082158133
 30
0.0
  0
VERTEX
  5
E5B
  8
FRAME
 10
643099.0775057907449082
 20
612223.3508732076734304
 30
0.0
  0
VERTEX
  5
E5C
  8
FRAME
 10
643061.0639796645846218
 20
596253.4755478192819282
 30
0.0
  0
SEQEND
  5
E5D
  8
FRAME
  0
POLYLINE
  5
33A
  8
SURVBND
 66
     1
 10
0.0
 20
0.0
 30
0.0
 70
     1
  0
VERTEX
  5
E5E
  8
SURVBND
 10
634806.6891027176752687
 20
608036.9997243706602603
 30
0.0
  0
VERTEX
  5
E5F
  8
SURVBND
 10
634811.6583061484852806
 20
608028.0047902731457725
 30
0.0
  0
VERTEX
  5
E60
  8
SURVBND
 10
634837.5285748091991991
 20
607994.0070332267787308
 30
0.0
  0
VERTEX
  5
E61
  8
SURVBND
 10
634861.4358708895742893
 20
607973.9876687809592113
 30
0.0
  0
VERTEX
  5
E62
  8
SURVBND
 10
634898.2854288365924731
 20
607939.9637774352449924
 30
0.0
  0
VERTEX
  5
E63
  8
SURVBND
 10
634946.130906987353228
 20
607912.9005722452420741
 30
0.0
  0
VERTEX
  5
E64
  8
SURVBND
 10
634984.002340596052818
 20
607888.8554771328344941
 30
0.0
  0
VERTEX
  5
E65
  8
SURVBND
 10
635024.8348639927571639
 20
607850.8296135741984472
 30
0.0
  0
VERTEX
  5
E66
  8
SURVBND
 10
635058.7328355330973864
 20
607834.778959505725652
 30
0.0
  0
VERTEX
  5
E67
  8
SURVBND
 10
635090.6108142038574442
 20
607808.7518850497435778
 30
0.0
  0
VERTEX
  5
E68
  8
SURVBND
 10
635119.4635552611434832
 20
607769.7564144280040637
 30
0.0
  0
VERTEX
  5
E69
  8
SURVBND
 10
635135.3692827612394467
 20
607742.7692362903617322
 30
0.0
  0
VERTEX
  5
E6A
  8
SURVBND
 10
635171.2326027273666114
 20
607713.7383068293565884
 30
0.0
  0
VERTEX
  5
E6B
  8
SURVBND
 10
635202.1195917264558375
 20
607690.7079598421696573
 30
0.0
  0
VERTEX
  5
E6C
  8
SURVBND
 10
635232.9947014986537397
 20
607662.6870268158381805
 30
0.0
  0
VERTEX
  5
E6D
  8
SURVBND
 10
635270.859007571125403
 20
607635.6475800797343254
 30
0.0
  0
VERTEX
  5
E6E
  8
SURVBND
 10
635311.7081618856173009
 20
607604.608536976040341
 30
0.0
  0
VERTEX
  5
E6F
  8
SURVBND
 10
635349.5415819680783898
 20
607564.5935665380675346
 30
0.0
  0
VERTEX
  5
E70
  8
SURVBND
 10
635382.3867918567266315
 20
607525.5885925347683951
 30
0.0
  0
VERTEX
  5
E71
  8
SURVBND
 10
635435.1705874482868239
 20
607476.5549295454984531
 30
0.0
  0
VERTEX
  5
E72
  8
SURVBND
 10
635479.9979555219179019
 20
607439.5176798134343699
 30
0.0
  0
VERTEX
  5
E73
  8
SURVBND
 10
635525.8068098855437711
 20
607395.4912337808636948
 30
0.0
  0
VERTEX
  5
E74
  8
SURVBND
 10
635598.5054327262332663
 20
607326.4477097272174433
 30
0.0
  0
VERTEX
  5
E75
  8
SURVBND
 10
635658.2926796902902424
 20
607284.3842362751020119
 30
0.0
  0
VERTEX
  5
E76
  8
SURVBND
 10
635706.0597549434751272
 20
607224.3831632264191285
 30
0.0
  0
VERTEX
  5
E77
  8
SURVBND
 10
635763.8270090379519388
 20
607172.3432693867944181
 30
0.0
  0
VERTEX
  5
E78
  8
SURVBND
 10
635797.7012221245095134
 20
607146.3114432400325313
 30
0.0
  0
VERTEX
  5
E79
  8
SURVBND
 10
635794.6854878925951198
 20
607137.3355159057537094
 30
0.0
  0
VERTEX
  5
E7A
  8
SURVBND
 10
635807.6443806767929345
 20
607130.3178094608010724
 30
0.0
  0
VERTEX
  5
E7B
  8
SURVBND
 10
635821.5918872874462977
 20
607119.305258339154534
 30
0.0
  0
VERTEX
  5
E7C
  8
SURVBND
 10
635830.560687085497193
 20
607113.295172483776696
 30
0.0
  0
VERTEX
  5
E7D
  8
SURVBND
 10
635841.5138420725706965
 20
607102.2897488983580843
 30
0.0
  0
VERTEX
  5
E7E
  8
SURVBND
 10
635852.459869523299858
 20
607088.2899736892431974
 30
0.0
  0
VERTEX
  5
E7F
  8
SURVBND
 10
635859.4229315243428573
 20
607078.2921706932829693
 30
0.0
  0
VERTEX
  5
E80
  8
SURVBND
 10
635869.3755934581859037
 20
607066.2910057455301285
 30
0.0
  0
VERTEX
  5
E81
  8
SURVBND
 10
635877.3462760485708714
 20
607060.2832957353675738
 30
0.0
  0
VERTEX
  5
E82
  8
SURVBND
 10
635884.3117138949455693
 20
607051.2836099471896887
 30
0.0
  0
VERTEX
  5
E83
  8
SURVBND
 10
635907.2398995306575671
 20
607039.2515590093098581
 30
0.0
  0
VERTEX
  5
E84
  8
SURVBND
 10
635927.1761093881214038
 20
607028.2247528155567124
 30
0.0
  0
VERTEX
  5
E85
  8
SURVBND
 10
635936.1401574957417324
 20
607020.2184325443813577
 30
0.0
  0
VERTEX
  5
E86
  8
SURVBND
 10
635942.1169815155444667
 20
607015.213591432897374
 30
0.0
  0
VERTEX
  5
E87
  8
SURVBND
 10
635954.0682537105167285
 20
607004.2057920020306483
 30
0.0
  0
VERTEX
  5
E88
  8
SURVBND
 10
635966.0171500601572916
 20
606992.1998753633815795
 30
0.0
  0
VERTEX
  5
E89
  8
SURVBND
 10
635974.9811981675447896
 20
606984.1935550922062248
 30
0.0
  0
VERTEX
  5
E8A
  8
SURVBND
 10
635982.9471290671499446
 20
606976.1896106664789841
 30
0.0
  0
VERTEX
  5
E8B
  8
SURVBND
 10
635998.8813667118083686
 20
606961.1798390228068456
 30
0.0
  0
VERTEX
  5
E8C
  8
SURVBND
 10
636008.829276954755187
 20
606947.1824396592564881
 30
0.0
  0
VERTEX
  5
E8D
  8
SURVBND
 10
636015.8042181826895103
 20
606942.1752227025572211
 30
0.0
  0
VERTEX
  5
E8E
  8
SURVBND
 10
636044.8280201075831428
 20
606975.0441910449881107
 30
0.0
  0
VERTEX
  5
E8F
  8
SURVBND
 10
636058.7850300996797159
 20
606968.024108754703775
 30
0.0
  0
VERTEX
  5
E90
  8
SURVBND
 10
636070.7600607483182102
 20
606966.9974814023589715
 30
0.0
  0
VERTEX
  5
E91
  8
SURVBND
 10
636085.727067174972035
 20
606964.9656093058874831
 30
0.0
  0
VERTEX
  5
E92
  8
SURVBND
 10
636088.7285463347798213
 20
606967.9528333932394162
 30
0.0
  0
VERTEX
  5
E93
  8
SURVBND
 10
636090.7319082864560187
 20
606970.9424333261558786
 30
0.0
  0
VERTEX
  5
E94
  8
SURVBND
 10
636105.7321765486849472
 20
606982.8842021393356845
 30
0.0
  0
VERTEX
  5
E95
  8
SURVBND
 10
636113.7432485107565299
 20
606993.8444846624042839
 30
0.0
  0
VERTEX
  5
E96
  8
SURVBND
 10
636128.7102549375267699
 20
606991.8126125660492107
 30
0.0
  0
VERTEX
  5
E97
  8
SURVBND
 10
636120.68492790334858
 20
606974.8636267958208919
 30
0.0
  0
VERTEX
  5
E98
  8
SURVBND
 10
636120.6682969854446128
 20
606967.8768063409952447
 30
0.0
  0
VERTEX
  5
E99
  8
SURVBND
 10
636120.632659304770641
 20
606952.905048223445192
 30
0.0
  0
VERTEX
  5
E9A
  8
SURVBND
 10
636120.6041491602081805
 20
606940.9276417292421684
 30
0.0
  0
VERTEX
  5
E9B
  8
SURVBND
 10
636127.5790903881425038
 20
606935.9204247725429013
 30
0.0
  0
VERTEX
  5
E9C
  8
SURVBND
 10
636138.5607555196620524
 20
606936.8924076812108979
 30
0.0
  0
VERTEX
  5
E9D
  8
SURVBND
 10
636144.5637138390447944
 20
606942.8668558559147641
 30
0.0
  0
VERTEX
  5
E9E
  8
SURVBND
 10
636147.5675688440678641
 20
606946.8521971510490403
 30
0.0
  0
VERTEX
  5
E9F
  8
SURVBND
 10
636156.5506237145746127
 20
606946.8308145427145064
 30
0.0
  0
VERTEX
  5
EA0
  8
SURVBND
 10
636164.5165546141797677
 20
606938.826870116754435
 30
0.0
  0
VERTEX
  5
EA1
  8
SURVBND
 10
636173.4782268763519824
 20
606929.8224326379131526
 30
0.0
  0
VERTEX
  5
EA2
  8
SURVBND
 10
636182.4375232929596677
 20
606919.8198779510566965
 30
0.0
  0
VERTEX
  5
EA3
  8
SURVBND
 10
636192.3925610721344128
 20
606908.8168302110861987
 30
0.0
  0
VERTEX
  5
EA4
  8
SURVBND
 10
636219.2371884868480265
 20
606864.835525240865536
 30
0.0
  0
VERTEX
  5
EA5
  8
SURVBND
 10
636231.1813331455923617
 20
606850.8333741865353659
 30
0.0
  0
VERTEX
  5
EA6
  8
SURVBND
 10
636240.1525087893242016
 20
606845.8214055389398709
 30
0.0
  0
VERTEX
  5
EA7
  8
SURVBND
 10
636251.122294693836011
 20
606841.8028024083469063
 30
0.0
  0
VERTEX
  5
EA8
  8
SURVBND
 10
636260.1124771005706862
 20
606844.7757714234758168
 30
0.0
  0
VERTEX
  5
EA9
  8
SURVBND
 10
636272.104138666880317
 20
606850.7359645259566605
 30
0.0
  0
VERTEX
  5
EAA
  8
SURVBND
 10
636278.0928419139236212
 20
606850.7217094537336379
 30
0.0
  0
VERTEX
  5
EAB
  8
SURVBND
 10
636286.039766050525941
 20
606834.7328273651655763
 30
0.0
  0
VERTEX
  5
EAC
  8
SURVBND
 10
636283.026407663943246
 20
606826.7550172385526821
 30
0.0
  0
VERTEX
  5
EAD
  8
SURVBND
 10
636281.0064147943630815
 20
606816.7785968510434031
 30
0.0
  0
VERTEX
  5
EAE
  8
SURVBND
 10
636288.9794732303125784
 20
606811.7690040486631915
 30
0.0
  0
VERTEX
  5
EAF
  8
SURVBND
 10
636300.9331212705001235
 20
606801.7593218258116394
 30
0.0
  0
VERTEX
  5
EB0
  8
SURVBND
 10
636319.9234825185267255
 20
606812.693470049649477
 30
0.0
  0
VERTEX
  5
EB1
  8
SURVBND
 10
636324.9164444031193852
 20
606813.6797080306569114
 30
0.0
  0
VERTEX
  5
EB2
  8
SURVBND
 10
636332.872871921164915
 20
606801.6832947735674679
 30
0.0
  0
VERTEX
  5
EB3
  8
SURVBND
 10
636338.8330650236457586
 20
606789.6916332072578371
 30
0.0
  0
VERTEX
  5
EB4
  8
SURVBND
 10
636353.7668096150737256
 20
606773.6861202011350542
 30
0.0
  0
VERTEX
  5
EB5
  8
SURVBND
 10
636366.730454090051353
 20
606768.6646481717471033
 30
0.0
  0
VERTEX
  5
EB6
  8
SURVBND
 10
636374.7153917525429279
 20
606768.6456414088606834
 30
0.0
  0
VERTEX
  5
EB7
  8
SURVBND
 10
636379.701226101256907
 20
606766.6375277664046735
 30
0.0
  0
VERTEX
  5
EB8
  8
SURVBND
 10
636391.666753368335776
 20
606761.6184315823484212
 30
0.0
  0
VERTEX
  5
EB9
  8
SURVBND
 10
636401.6241669927258044
 20
606751.6135010502766818
 30
0.0
  0
VERTEX
  5
EBA
  8
SURVBND
 10
636409.5948495832271874
 20
606745.6057910402305424
 30
0.0
  0
VERTEX
  5
EBB
  8
SURVBND
 10
636419.578397506964393
 20
606746.5801497943466529
 30
0.0
  0
VERTEX
  5
EBC
  8
SURVBND
 10
636423.5684904928784817
 20
606745.5725292048882693
 30
0.0
  0
VERTEX
  5
EBD
  8
SURVBND
 10
636428.5400697690201923
 20
606737.5757123152725399
 30
0.0
  0
VERTEX
  5
EBE
  8
SURVBND
 10
636427.5253216434502974
 20
606730.5912677057785913
 30
0.0
  0
VERTEX
  5
EBF
  8
SURVBND
 10
636430.4911631224676967
 20
606718.6067336755804718
 30
0.0
  0
VERTEX
  5
EC0
  8
SURVBND
 10
636449.422128236037679
 20
606704.587951703579165
 30
0.0
  0
VERTEX
  5
EC1
  8
SURVBND
 10
636450.4226212891517207
 20
606705.5836930660298094
 30
0.0
  0
VERTEX
  5
EC2
  8
SURVBND
 10
636458.4099347972078249
 20
606706.5628035108093172
 30
0.0
  0
VERTEX
  5
EC3
  8
SURVBND
 10
636464.3891346626915038
 20
606702.5560796071076766
 30
0.0
  0
VERTEX
  5
EC4
  8
SURVBND
 10
636480.3400032251374796
 20
606694.5331284182611853
 30
0.0
  0
VERTEX
  5
EC5
  8
SURVBND
 10
636494.3160199802368879
 20
606695.4979837909340858
 30
0.0
  0
VERTEX
  5
EC6
  8
SURVBND
 10
636510.2740160786779597
 20
606690.469384225551039
 30
0.0
  0
VERTEX
  5
EC7
  8
SURVBND
 10
636516.2579676348250359
 20
606688.458894737646915
 30
0.0
  0
VERTEX
  5
EC8
  8
SURVBND
 10
636529.2239879552507773
 20
606684.4355399161577225
 30
0.0
  0
VERTEX
  5
EC9
  8
SURVBND
 10
636533.1974500234937295
 20
606676.441098871990107
 30
0.0
  0
VERTEX
  5
ECA
  8
SURVBND
 10
636538.1737809904152527
 20
606670.4405163980554789
 30
0.0
  0
VERTEX
  5
ECB
  8
SURVBND
 10
636549.1198084412608296
 20
606656.4407411890570074
 30
0.0
  0
VERTEX
  5
ECC
  8
SURVBND
 10
636557.0857393408659846
 20
606648.436796763446182
 30
0.0
  0
VERTEX
  5
ECD
  8
SURVBND
 10
636568.0626527818385512
 20
606647.4125452564330772
 30
0.0
  0
VERTEX
  5
ECE
  8
SURVBND
 10
636569.0702733710641041
 20
606651.4026382423471659
 30
0.0
  0
VERTEX
  5
ECF
  8
SURVBND
 10
636565.0896837665932253
 20
606656.402727663051337
 30
0.0
  0
VERTEX
  5
ED0
  8
SURVBND
 10
636563.1077044232515618
 20
606662.3961826007580385
 30
0.0
  0
VERTEX
  5
ED1
  8
SURVBND
 10
636562.1309698238037527
 20
606671.381613316712901
 30
0.0
  0
VERTEX
  5
ED2
  8
SURVBND
 10
636565.1348248289432377
 20
606675.3669546118471771
 30
0.0
  0
VERTEX
  5
ED3
  8
SURVBND
 10
636578.0960934584727511
 20
606669.3473653749097139
 30
0.0
  0
VERTEX
  5
ED4
  8
SURVBND
 10
636583.0724244253942743
 20
606663.3467829009750858
 30
0.0
  0
VERTEX
  5
ED5
  8
SURVBND
 10
636594.035082794027403
 20
606656.3338281469186768
 30
0.0
  0
VERTEX
  5
ED6
  8
SURVBND
 10
636603.0038825920782983
 20
606650.3237422914244235
 30
0.0
  0
VERTEX
  5
ED7
  8
SURVBND
 10
636622.9495958312181756
 20
606643.2894049289170653
 30
0.0
  0
VERTEX
  5
ED8
  8
SURVBND
 10
636634.9246264798566699
 20
606642.2627775764558464
 30
0.0
  0
VERTEX
  5
ED9
  8
SURVBND
 10
636645.8967882300494239
 20
606639.2422916537616402
 30
0.0
  0
VERTEX
  5
EDA
  8
SURVBND
 10
636651.8712364046368748
 20
606633.2393333342624828
 30
0.0
  0
VERTEX
  5
EDB
  8
SURVBND
 10
636663.8652738162782043
 20
606640.1976436446420848
 30
0.0
  0
VERTEX
  5
EDC
  8
SURVBND
 10
636665.863884077523835
 20
606641.1910091617610306
 30
0.0
  0
VERTEX
  5
EDD
  8
SURVBND
 10
636682.8128698475193232
 20
606633.1656821275828406
 30
0.0
  0
VERTEX
  5
EDE
  8
SURVBND
 10
636696.7698798396158963
 20
606626.1455998374149203
 30
0.0
  0
VERTEX
  5
EDF
  8
SURVBND
 10
636724.6934032052522525
 20
606616.0979040883248672
 30
0.0
  0
VERTEX
  5
EE0
  8
SURVBND
 10
636733.6574513126397505
 20
606608.0915838171495125
 30
0.0
  0
VERTEX
  5
EE1
  8
SURVBND
 10
636738.6266547434497625
 20
606599.09664971975144
 30
0.0
  0
VERTEX
  5
EE2
  8
SURVBND
 10
636748.5911959040677175
 20
606592.0860708109103143
 30
0.0
  0
VERTEX
  5
EE3
  8
SURVBND
 10
636762.5505817413795739
 20
606586.0641057287575677
 30
0.0
  0
VERTEX
  5
EE4
  8
SURVBND
 10
636768.5083989986451343
 20
606573.0743269544327632
 30
0.0
  0
VERTEX
  5
EE5
  8
SURVBND
 10
636773.4799782746704295
 20
606565.077510064933449
 30
0.0
  0
VERTEX
  5
EE6
  8
SURVBND
 10
636779.4544264493742958
 20
606559.074551745550707
 30
0.0
  0
VERTEX
  5
EE7
  8
SURVBND
 10
636787.4227331944275647
 20
606552.0687245276058093
 30
0.0
  0
VERTEX
  5
EE8
  8
SURVBND
 10
636802.4016188480891287
 20
606555.0274384705116972
 30
0.0
  0
VERTEX
  5
EE9
  8
SURVBND
 10
636810.3913082015933469
 20
606557.0046661229571328
 30
0.0
  0
VERTEX
  5
EEA
  8
SURVBND
 10
636816.3752597578568384
 20
606554.9941766350530088
 30
0.0
  0
VERTEX
  5
EEB
  8
SURVBND
 10
636825.3416837106924504
 20
606547.9859735716599971
 30
0.0
  0
VERTEX
  5
EEC
  8
SURVBND
 10
636831.311380194616504
 20
606539.986780836712569
 30
0.0
  0
VERTEX
  5
EED
  8
SURVBND
 10
636838.2910731134470552
 20
606536.9757982954615727
 30
0.0
  0
VERTEX
  5
EEE
  8
SURVBND
 10
636847.2622487569460645
 20
606531.9638296478660777
 30
0.0
  0
VERTEX
  5
EEF
  8
SURVBND
 10
636854.2348141395486891
 20
606525.958495483151637
 30
0.0
  0
VERTEX
  5
EF0
  8
SURVBND
 10
636862.2054967300500721
 20
606519.950785473221913
 30
0.0
  0
VERTEX
  5
EF1
  8
SURVBND
 10
636856.200162565219216
 20
606512.9782200905028731
 30
0.0
  0
VERTEX
  5
EF2
  8
SURVBND
 10
636870.1666759387589991
 20
606509.9506066316971555
 30
0.0
  0
VERTEX
  5
EF3
  8
SURVBND
 10
636882.1298273605061695
 20
606503.9333932400913909
 30
0.0
  0
VERTEX
  5
EF4
  8
SURVBND
 10
636891.1247614580206573
 20
606508.9025966707849875
 30
0.0
  0
VERTEX
  5
EF5
  8
SURVBND
 10
636897.1039613235043362
 20
606504.8958727670833468
 30
0.0
  0
VERTEX
  5
EF6
  8
SURVBND
 10
636908.0642438465729356
 20
606496.8848008052445948
 30
0.0
  0
VERTEX
  5
EF7
  8
SURVBND
 10
636916.0515573547454551
 20
606497.8639112500241026
 30
0.0
  0
VERTEX
  5
EF8
  8
SURVBND
 10
636918.062046842649579
 20
606503.8478628062875941
 30
0.0
  0
VERTEX
  5
EF9
  8
SURVBND
 10
636921.0611501568928361
 20
606505.8369696857407689
 30
0.0
  0
VERTEX
  5
EFA
  8
SURVBND
 10
636925.0607465244829655
 20
606508.8218179277610034
 30
0.0
  0
VERTEX
  5
EFB
  8
SURVBND
 10
636932.0475669793086126
 20
606508.8051870102062821
 30
0.0
  0
VERTEX
  5
EFC
  8
SURVBND
 10
636949.0060561309801415
 20
606504.7723288072738796
 30
0.0
  0
VERTEX
  5
EFD
  8
SURVBND
 10
636965.9621694373199716
 20
606499.7413533965591341
 30
0.0
  0
VERTEX
  5
EFE
  8
SURVBND
 10
636979.9215552747482434
 20
606493.7193883141735569
 30
0.0
  0
VERTEX
  5
EFF
  8
SURVBND
 10
636987.901741246576421
 20
606491.7041471352567896
 30
0.0
  0
VERTEX
  5
F00
  8
SURVBND
 10
636993.8856928029563278
 20
606489.693657647469081
 30
0.0
  0
VERTEX
  5
F01
  8
SURVBND
 10
637005.8607234515948221
 20
606488.6670302950078622
 30
0.0
  0
VERTEX
  5
F02
  8
SURVBND
 10
637016.8376368924509734
 20
606487.6427787879947573
 30
0.0
  0
VERTEX
  5
F03
  8
SURVBND
 10
637018.8338713081320748
 20
606487.6380270972149447
 30
0.0
  0
VERTEX
  5
F04
  8
SURVBND
 10
637024.8273262459551916
 20
606489.6200064405566081
 30
0.0
  0
VERTEX
  5
F05
  8
SURVBND
 10
637031.8236500822240487
 20
606493.5958443542476743
 30
0.0
  0
VERTEX
  5
F06
  8
SURVBND
 10
637036.8261153482599184
 20
606498.5745511665008962
 30
0.0
  0
VERTEX
  5
F07
  8
SURVBND
 10
637040.8185841796221212
 20
606498.5650477850576863
 30
0.0
  0
VERTEX
  5
F08
  8
SURVBND
 10
637111.566113666864112
 20
606448.4905023709870875
 30
0.0
  0
VERTEX
  5
F09
  8
SURVBND
 10
637233.383929930627346
 20
606468.1629933909280226
 30
0.0
  0
VERTEX
  5
F0A
  8
SURVBND
 10
637233.3815540852956474
 20
606467.1648761831456795
 30
0.0
  0
VERTEX
  5
F0B
  8
SURVBND
 10
637239.3631297962274402
 20
606464.1562694873427972
 30
0.0
  0
VERTEX
  5
F0C
  8
SURVBND
 10
637248.3343054398428649
 20
606459.1443008397473022
 30
0.0
  0
VERTEX
  5
F0D
  8
SURVBND
 10
637258.3083499820204452
 20
606456.1261907622683793
 30
0.0
  0
VERTEX
  5
F0E
  8
SURVBND
 10
637265.2856670552864671
 20
606452.1170910133514553
 30
0.0
  0
VERTEX
  5
F0F
  8
SURVBND
 10
637272.2724875103449449
 20
606452.1004600956803188
 30
0.0
  0
VERTEX
  5
F10
  8
SURVBND
 10
637280.2598010182846338
 20
606453.0795705404598266
 30
0.0
  0
VERTEX
  5
F11
  8
SURVBND
 10
637286.2294975022086874
 20
606445.0803778053959832
 30
0.0
  0
VERTEX
  5
F12
  8
SURVBND
 10
637290.2124629520112649
 20
606441.0784055925905704
 30
0.0
  0
VERTEX
  5
F13
  8
SURVBND
 10
637302.1779902192065492
 20
606436.0593094087671489
 30
0.0
  0
VERTEX
  5
F14
  8
SURVBND
 10
637306.168083205120638
 20
606435.0516888194251806
 30
0.0
  0
VERTEX
  5
F15
  8
SURVBND
 10
637318.1454896992072463
 20
606435.0231786748627201
 30
0.0
  0
VERTEX
  5
F16
  8
SURVBND
 10
637320.146475805551745
 20
606437.0146613997640088
 30
0.0
  0
VERTEX
  5
F17
  8
SURVBND
 10
637322.1498377573443577
 20
606440.0042613324476406
 30
0.0
  0
VERTEX
  5
F18
  8
SURVBND
 10
637319.1649895154405385
 20
606444.00385770003777
 30
0.0
  0
VERTEX
  5
F19
  8
SURVBND
 10
637317.1758826358709484
 20
606447.002961014281027
 30
0.0
  0
VERTEX
  5
F1A
  8
SURVBND
 10
637315.1915274473140016
 20
606451.9982987442053854
 30
0.0
  0
VERTEX
  5
F1B
  8
SURVBND
 10
637315.1939032926457003
 20
606452.9964159519877285
 30
0.0
  0
VERTEX
  5
F1C
  8
SURVBND
 10
637321.1897340756841004
 20
606455.9765125032281503
 30
0.0
  0
VERTEX
  5
F1D
  8
SURVBND
 10
637324.1793340084841475
 20
606453.973150551551953
 30
0.0
  0
VERTEX
  5
F1E
  8
SURVBND
 10
637336.1496129663428292
 20
606450.9502887832932174
 30
0.0
  0
VERTEX
  5
F1F
  8
SURVBND
 10
637340.139705952256918
 20
606449.9426681939512491
 30
0.0
  0
VERTEX
  5
F20
  8
SURVBND
 10
637353.1152296542422846
 20
606449.9117822039406747
 30
0.0
  0
VERTEX
  5
F21
  8
SURVBND
 10
637357.107698485488072
 20
606449.9022788223810494
 30
0.0
  0
VERTEX
  5
F22
  8
SURVBND
 10
637357.110074330936186
 20
606450.9003960302798077
 30
0.0
  0
VERTEX
  5
F23
  8
SURVBND
 10
637364.1016464766580611
 20
606452.8799995282897726
 30
0.0
  0
VERTEX
  5
F24
  8
SURVBND
 10
637369.089856670354493
 20
606451.8700030934996903
 30
0.0
  0
VERTEX
  5
F25
  8
SURVBND
 10
637379.0639012125320733
 20
606448.8518930161371827
 30
0.0
  0
VERTEX
  5
F26
  8
SURVBND
 10
637391.0365560159552842
 20
606446.8271484558936208
 30
0.0
  0
VERTEX
  5
F27
  8
SURVBND
 10
637408.0045485491864383
 20
606446.7867590844398364
 30
0.0
  0
VERTEX
  5
F28
  8
SURVBND
 10
637410.9965243272017688
 20
606445.7815143405459821
 30
0.0
  0
VERTEX
  5
F29
  8
SURVBND
 10
637428.9697616044431925
 20
606448.7331007469911128
 30
0.0
  0
VERTEX
  5
F2A
  8
SURVBND
 10
637436.964202648610808
 20
606452.7065628153504804
 30
0.0
  0
VERTEX
  5
F2B
  8
SURVBND
 10
637440.9590473253047094
 20
606453.6951766416896135
 30
0.0
  0
VERTEX
  5
F2C
  8
SURVBND
 10
637455.942684669746086
 20
606458.6501250000437722
 30
0.0
  0
VERTEX
  5
F2D
  8
SURVBND
 10
637458.9394121386576444
 20
606459.6411146717146039
 30
0.0
  0
VERTEX
  5
F2E
  8
SURVBND
 10
637470.9049394058529288
 20
606454.6220184880075976
 30
0.0
  0
VERTEX
  5
F2F
  8
SURVBND
 10
637473.8826601116452366
 20
606447.6280704969540238
 30
0.0
  0
VERTEX
  5
F30
  8
SURVBND
 10
637494.8336180946789682
 20
606443.5857089125784114
 30
0.0
  0
VERTEX
  5
F31
  8
SURVBND
 10
637502.8233074481831864
 20
606445.5629365651402622
 30
0.0
  0
VERTEX
  5
F32
  8
SURVBND
 10
637511.8206173911457881
 20
606451.5302572037326172
 30
0.0
  0
VERTEX
  5
F33
  8
SURVBND
 10
637514.8268482413841411
 20
606456.5137157066492364
 30
0.0
  0
VERTEX
  5
F34
  8
SURVBND
 10
637514.8268482413841411
 20
606456.5137157066492364
 30
0.0
  0
VERTEX
  5
F35
  8
SURVBND
 10
637521.806541160098277
 20
606453.5027331657474861
 30
0.0
  0
VERTEX
  5
F36
  8
SURVBND
 10
637535.787309605977498
 20
606456.463822953752242
 30
0.0
  0
VERTEX
  5
F37
  8
SURVBND
 10
637542.7717542154714465
 20
606455.4490748282987624
 30
0.0
  0
VERTEX
  5
F38
  8
SURVBND
 10
637549.7609505157452077
 20
606456.4305611185263842
 30
0.0
  0
VERTEX
  5
F39
  8
SURVBND
 10
637557.7506398691330105
 20
606458.4077887709718198
 30
0.0
  0
VERTEX
  5
F3A
  8
SURVBND
 10
637572.7247738321311772
 20
606459.370268298080191
 30
0.0
  0
VERTEX
  5
F3B
  8
SURVBND
 10
637583.718318190658465
 20
606465.3328372458927333
 30
0.0
  0
VERTEX
  5
F3C
  8
SURVBND
 10
637589.7189006645930931
 20
606470.3091682129306719
 30
0.0
  0
VERTEX
  5
F3D
  8
SURVBND
 10
637593.7256245680619031
 20
606476.2883680782979354
 30
0.0
  0
VERTEX
  5
F3E
  8
SURVBND
 10
637595.7384899016469717
 20
606483.27043684234377
 30
0.0
  0
VERTEX
  5
F3F
  8
SURVBND
 10
637596.7389829547610134
 20
606484.2661782047944143
 30
0.0
  0
VERTEX
  5
F40
  8
SURVBND
 10
637602.7300620472524315
 20
606485.2500403403537348
 30
0.0
  0
VERTEX
  5
F41
  8
SURVBND
 10
637605.7172861344879493
 20
606482.2485611806623638
 30
0.0
  0
VERTEX
  5
F42
  8
SURVBND
 10
637611.6798550823004916
 20
606471.2550168222514912
 30
0.0
  0
VERTEX
  5
F43
  8
SURVBND
 10
637619.6719202812528238
 20
606474.2303616825956851
 30
0.0
  0
VERTEX
  5
F44
  8
SURVBND
 10
637626.6753716537496075
 20
606481.2005512198666111
 30
0.0
  0
VERTEX
  5
F45
  8
SURVBND
 10
637631.6802127653500065
 20
606487.1773752400185913
 30
0.0
  0
VERTEX
  5
F46
  8
SURVBND
 10
637642.6713812783127651
 20
606492.1418269800487906
 30
0.0
  0
VERTEX
  5
F47
  8
SURVBND
 10
637647.6738465444650501
 20
606497.1205337921855971
 30
0.0
  0
VERTEX
  5
F48
  8
SURVBND
 10
637652.6810635012807325
 20
606504.0954750202363357
 30
0.0
  0
VERTEX
  5
F49
  8
SURVBND
 10
637657.6835287675494328
 20
606509.0741818322567269
 30
0.0
  0
VERTEX
  5
F4A
  8
SURVBND
 10
637671.6809281307505444
 20
606519.022092075436376
 30
0.0
  0
VERTEX
  5
F4B
  8
SURVBND
 10
637681.6882345085032284
 20
606529.9776229077251628
 30
0.0
  0
VERTEX
  5
F4C
  8
SURVBND
 10
637687.6911928276531398
 20
606535.9520710825454444
 30
0.0
  0
VERTEX
  5
F4D
  8
SURVBND
 10
637693.6822719202609733
 20
606536.9359332181047648
 30
0.0
  0
VERTEX
  5
F4E
  8
SURVBND
 10
637691.664654896245338
 20
606527.9576300382614136
 30
0.0
  0
VERTEX
  5
F4F
  8
SURVBND
 10
637696.6409858630504459
 20
606521.9570475644432008
 30
0.0
  0
VERTEX
  5
F50
  8
SURVBND
 10
637707.6012683861190453
 20
606513.9459756024880335
 30
0.0
  0
VERTEX
  5
F51
  8
SURVBND
 10
637716.5866991019574925
 20
606514.9227102018194273
 30
0.0
  0
VERTEX
  5
F52
  8
SURVBND
 10
637733.5641950167482719
 20
606518.8747896617278457
 30
0.0
  0
VERTEX
  5
F53
  8
SURVBND
 10
637737.5614155388902873
 20
606520.8615206958493218
 30
0.0
  0
VERTEX
  5
F54
  8
SURVBND
 10
637747.5497151534073055
 20
606523.8321138656465337
 30
0.0
  0
VERTEX
  5
F55
  8
SURVBND
 10
637752.5450528834480792
 20
606525.8164690543198958
 30
0.0
  0
VERTEX
  5
F56
  8
SURVBND
 10
637759.5508801012765616
 20
606533.7847757992567495
 30
0.0
  0
VERTEX
  5
F57
  8
SURVBND
 10
637762.5571109517477453
 20
606538.768234302289784
 30
0.0
  0
VERTEX
  5
F58
  8
SURVBND
 10
637767.5548245271202177
 20
606541.7507066988619044
 30
0.0
  0
VERTEX
  5
F59
  8
SURVBND
 10
637770.5372969236923382
 20
606536.7529931236058474
 30
0.0
  0
VERTEX
  5
F5A
  8
SURVBND
 10
637775.5065003543859348
 20
606527.7580590262077749
 30
0.0
  0
VERTEX
  5
F5B
  8
SURVBND
 10
637785.494799968902953
 20
606530.7286521956557408
 30
0.0
  0
VERTEX
  5
F5C
  8
SURVBND
 10
637787.495786075363867
 20
606532.7201349206734449
 30
0.0
  0
VERTEX
  5
F5D
  8
SURVBND
 10
637798.4917062793392688
 20
606539.6808210762683302
 30
0.0
  0
VERTEX
  5
F5E
  8
SURVBND
 10
637804.4875370623776689
 20
606542.6609176276251674
 30
0.0
  0
VERTEX
  5
F5F
  8
SURVBND
 10
637812.4819781066616997
 20
606546.6343796958681196
 30
0.0
  0
VERTEX
  5
F60
  8
SURVBND
 10
637814.4829642130061984
 20
606548.6258624207694083
 30
0.0
  0
VERTEX
  5
F61
  8
SURVBND
 10
637824.4688879821915179
 20
606550.5983383825514466
 30
0.0
  0
VERTEX
  5
F62
  8
SURVBND
 10
637829.4523464852245525
 20
606547.5921075320802629
 30
0.0
  0
VERTEX
  5
F63
  8
SURVBND
 10
637834.4405566791538149
 20
606546.5821110974065959
 30
0.0
  0
VERTEX
  5
F64
  8
SURVBND
 10
637835.4386738870525733
 20
606546.5797352520748973
 30
0.0
  0
VERTEX
  5
F65
  8
SURVBND
 10
637840.4316357714124024
 20
606547.5659732329659164
 30
0.0
  0
VERTEX
  5
F66
  8
SURVBND
 10
637841.4321288246428594
 20
606548.5617145954165608
 30
0.0
  0
VERTEX
  5
F67
  8
SURVBND
 10
637849.4336974051548168
 20
606555.5295282873557881
 30
0.0
  0
VERTEX
  5
F68
  8
SURVBND
 10
637852.4423041008412838
 20
606561.5111039980547503
 30
0.0
  0
VERTEX
  5
F69
  8
SURVBND
 10
637864.4315898219356313
 20
606566.4731798927532509
 30
0.0
  0
VERTEX
  5
F6A
  8
SURVBND
 10
637882.4000754081644118
 20
606567.4285318837501109
 30
0.0
  0
VERTEX
  5
F6B
  8
SURVBND
 10
637882.4000754081644118
 20
606567.4285318837501109
 30
0.0
  0
VERTEX
  5
F6C
  8
SURVBND
 10
637896.3855955448234454
 20
606572.3858560875523835
 30
0.0
  0
VERTEX
  5
F6D
  8
SURVBND
 10
637908.3796329565811902
 20
606579.3441663976991549
 30
0.0
  0
VERTEX
  5
F6E
  8
SURVBND
 10
637924.3637633542530239
 20
606585.2948561186203733
 30
0.0
  0
VERTEX
  5
F6F
  8
SURVBND
 10
637933.353945760987699
 20
606588.2678251337492839
 30
0.0
  0
VERTEX
  5
F70
  8
SURVBND
 10
637948.3423347963253036
 20
606595.2190079077845439
 30
0.0
  0
VERTEX
  5
F71
  8
SURVBND
 10
637967.3231926627922803
 20
606602.1606873003765941
 30
0.0
  0
VERTEX
  5
F72
  8
SURVBND
 10
637971.3299165663775057
 20
606608.1398871658602729
 30
0.0
  0
VERTEX
  5
F73
  8
SURVBND
 10
637975.3461438516387716
 20
606618.1115558627061546
 30
0.0
  0
VERTEX
  5
F74
  8
SURVBND
 10
637970.3769404208287597
 20
606627.1064899601042271
 30
0.0
  0
VERTEX
  5
F75
  8
SURVBND
 10
637970.3911954931681976
 20
606633.0951932071475312
 30
0.0
  0
VERTEX
  5
F76
  8
SURVBND
 10
637980.388998489244841
 20
606640.0582552081905305
 30
0.0
  0
VERTEX
  5
F77
  8
SURVBND
 10
637984.3767156298272312
 20
606638.0525174109498039
 30
0.0
  0
VERTEX
  5
F78
  8
SURVBND
 10
637988.3478018527384847
 20
606629.0599591588834301
 30
0.0
  0
VERTEX
  5
F79
  8
SURVBND
 10
637993.3241328195435926
 20
606623.059376684948802
 30
0.0
  0
VERTEX
  5
F7A
  8
SURVBND
 10
638005.3039151589618996
 20
606624.0289837481686845
 30
0.0
  0
VERTEX
  5
F7B
  8
SURVBND
 10
638011.2997459422331303
 20
606627.0090802994091064
 30
0.0
  0
VERTEX
  5
F7C
  8
SURVBND
 10
638011.3163768597878516
 20
606633.9959007542347535
 30
0.0
  0
VERTEX
  5
F7D
  8
SURVBND
 10
638008.3386561539955437
 20
606640.9898487452883273
 30
0.0
  0
VERTEX
  5
F7E
  8
SURVBND
 10
638009.3605318156769499
 20
606650.9686449782457203
 30
0.0
  0
VERTEX
  5
F7F
  8
SURVBND
 10
638018.360217603854835
 20
606657.9340828248532489
 30
0.0
  0
VERTEX
  5
F80
  8
SURVBND
 10
638028.3485172183718532
 20
606660.9046759944176301
 30
0.0
  0
VERTEX
  5
F81
  8
SURVBND
 10
638036.3382065718760714
 20
606662.881903646979481
 30
0.0
  0
VERTEX
  5
F82
  8
SURVBND
 10
638049.3184819645248353
 20
606664.8472520726500079
 30
0.0
  0
VERTEX
  5
F83
  8
SURVBND
 10
638049.3184819645248353
 20
606664.8472520726500079
 30
0.0
  0
VERTEX
  5
F84
  8
SURVBND
 10
638048.3013579937396571
 20
606656.864690255257301
 30
0.0
  0
VERTEX
  5
F85
  8
SURVBND
 10
638047.2842340227216482
 20
606648.8821284380974248
 30
0.0
  0
VERTEX
  5
F86
  8
SURVBND
 10
638055.2525407676585019
 20
606641.8763012201525271
 30
0.0
  0
VERTEX
  5
F87
  8
SURVBND
 10
638061.2388681693701074
 20
606640.8639289400307462
 30
0.0
  0
VERTEX
  5
F88
  8
SURVBND
 10
638079.2121054466115311
 20
606643.8155153465922922
 30
0.0
  0
VERTEX
  5
F89
  8
SURVBND
 10
638086.2060534375486895
 20
606646.7932360525010154
 30
0.0
  0
VERTEX
  5
F8A
  8
SURVBND
 10
638094.1981186363846064
 20
606649.7685809128452092
 30
0.0
  0
VERTEX
  5
F8B
  8
SURVBND
 10
638099.1958322117570788
 20
606652.7510533095337451
 30
0.0
  0
VERTEX
  5
F8C
  8
SURVBND
 10
638107.1997766374843195
 20
606660.7169842091389
 30
0.0
  0
VERTEX
  5
F8D
  8
SURVBND
 10
638114.2079797007609159
 20
606669.683408161974512
 30
0.0
  0
VERTEX
  5
F8E
  8
SURVBND
 10
638119.2199483484728262
 20
606678.6545838055899367
 30
0.0
  0
VERTEX
  5
F8F
  8
SURVBND
 10
638154.0518892712425441
 20
606635.6523892802651972
 30
0.0
  0
VERTEX
  5
F90
  8
SURVBND
 10
638215.9660421471344307
 20
606648.4806105684256181
 30
0.0
  0
VERTEX
  5
F91
  8
SURVBND
 10
638241.9598547676578164
 20
606666.3849483294179663
 30
0.0
  0
VERTEX
  5
F92
  8
SURVBND
 10
638282.9919491766486317
 20
606712.2009302292717621
 30
0.0
  0
VERTEX
  5
F93
  8
SURVBND
 10
638285.9839249546639621
 20
606711.1956854851450771
 30
0.0
  0
VERTEX
  5
F94
  8
SURVBND
 10
638293.9688626176211983
 20
606711.1766787222586572
 30
0.0
  0
VERTEX
  5
F95
  8
SURVBND
 10
638306.9491380101535469
 20
606713.1420271479291841
 30
0.0
  0
VERTEX
  5
F96
  8
SURVBND
 10
638308.9501241166144609
 20
606715.1335098728304729
 30
0.0
  0
VERTEX
  5
F97
  8
SURVBND
 10
638315.9488237984478474
 20
606720.1074649943038821
 30
0.0
  0
VERTEX
  5
F98
  8
SURVBND
 10
638327.9452370555372909
 20
606728.0638925123494118
 30
0.0
  0
VERTEX
  5
F99
  8
SURVBND
 10
638332.9477023215731606
 20
606733.042599324719049
 30
0.0
  0
VERTEX
  5
F9A
  8
SURVBND
 10
638335.9610607081558555
 20
606741.020409451215528
 30
0.0
  0
VERTEX
  5
F9B
  8
SURVBND
 10
638340.9706535104196519
 20
606748.9934678870486096
 30
0.0
  0
VERTEX
  5
F9C
  8
SURVBND
 10
638349.9774668347090483
 20
606758.9532573570031673
 30
0.0
  0
VERTEX
  5
F9D
  8
SURVBND
 10
638356.9785423618741333
 20
606764.9253296862589195
 30
0.0
  0
VERTEX
  5
F9E
  8
SURVBND
 10
638366.9787212032824755
 20
606772.8865088950842619
 30
0.0
  0
VERTEX
  5
F9F
  8
SURVBND
 10
638369.9754486721940339
 20
606773.877498566871509
 30
0.0
  0
VERTEX
  5
FA0
  8
SURVBND
 10
638385.9429481521947309
 20
606772.8413678328506649
 30
0.0
  0
VERTEX
  5
FA1
  8
SURVBND
 10
638388.9372997756581753
 20
606772.8342402967391536
 30
0.0
  0
VERTEX
  5
FA2
  8
SURVBND
 10
638394.9283788681495935
 20
606773.8181024321820587
 30
0.0
  0
VERTEX
  5
FA3
  8
SURVBND
 10
638398.9422303079627454
 20
606782.7916539212455973
 30
0.0
  0
VERTEX
  5
FA4
  8
SURVBND
 10
638401.9484611584339291
 20
606787.7751124241622165
 30
0.0
  0
VERTEX
  5
FA5
  8
SURVBND
 10
638407.9466677869204432
 20
606791.753326183417812
 30
0.0
  0
VERTEX
  5
FA6
  8
SURVBND
 10
638413.9567536425311118
 20
606800.7221259815851226
 30
0.0
  0
VERTEX
  5
FA7
  8
SURVBND
 10
638418.9782256715698168
 20
606813.68577045656275
 30
0.0
  0
VERTEX
  5
FA8
  8
SURVBND
 10
638421.9892082128208131
 20
606820.6654633752768859
 30
0.0
  0
VERTEX
  5
FA9
  8
SURVBND
 10
638423.0039563382742926
 20
606827.6499079847708344
 30
0.0
  0
VERTEX
  5
FAA
  8
SURVBND
 10
638422.0248458934947848
 20
606835.6372214928269386
 30
0.0
  0
VERTEX
  5
FAB
  8
SURVBND
 10
638422.0295975842745975
 20
606837.6334559083916247
 30
0.0
  0
VERTEX
  5
FAC
  8
SURVBND
 10
638451.0225135191576555
 20
606857.5269005490699783
 30
0.0
  0
VERTEX
  5
FAD
  8
SURVBND
 10
638460.0174476166721433
 20
606862.4961039798799902
 30
0.0
  0
VERTEX
  5
FAE
  8
SURVBND
 10
638458.059226727229543
 20
606878.4707309959921986
 30
0.0
  0
VERTEX
  5
FAF
  8
SURVBND
 10
638466.072674534516409
 20
606890.429130726843141
 30
0.0
  0
VERTEX
  5
FB0
  8
SURVBND
 10
638474.0623638879042119
 20
606892.4063583796378225
 30
0.0
  0
VERTEX
  5
FB1
  8
SURVBND
 10
638476.046719076577574
 20
606887.4110206495970488
 30
0.0
  0
VERTEX
  5
FB2
  8
SURVBND
 10
638483.0311636860715225
 20
606886.3962725241435692
 30
0.0
  0
VERTEX
  5
FB3
  8
SURVBND
 10
638495.0204494070494547
 20
606891.3583484188420698
 30
0.0
  0
VERTEX
  5
FB4
  8
SURVBND
 10
638505.0182524030096829
 20
606898.3214104197686538
 30
0.0
  0
VERTEX
  5
FB5
  8
SURVBND
 10
638514.0155623458558694
 20
606904.2887310582445934
 30
0.0
  0
VERTEX
  5
FB6
  8
SURVBND
 10
638519.0156517665600404
 20
606908.2693206627154723
 30
0.0
  0
VERTEX
  5
FB7
  8
SURVBND
 10
638527.0124686561757699
 20
606913.2408999388571829
 30
0.0
  0
VERTEX
  5
FB8
  8
SURVBND
 10
638536.0050269082421437
 20
606917.2119861617684364
 30
0.0
  0
VERTEX
  5
FB9
  8
SURVBND
 10
638549.9976745810126886
 20
606925.1636619891505688
 30
0.0
  0
VERTEX
  5
FBA
  8
SURVBND
 10
638553.0039054314838722
 20
606930.147120492067188
 30
0.0
  0
VERTEX
  5
FBB
  8
SURVBND
 10
638554.0115260209422559
 20
606934.1372134780976921
 30
0.0
  0
VERTEX
  5
FBC
  8
SURVBND
 10
638549.0518259714590386
 20
606947.1246164068579674
 30
0.0
  0
VERTEX
  5
FBD
  8
SURVBND
 10
638554.0495395469479263
 20
606950.1070888034300879
 30
0.0
  0
VERTEX
  5
FBE
  8
SURVBND
 10
638575.0290076745441183
 20
606958.042133713257499
 30
0.0
  0
VERTEX
  5
FBF
  8
SURVBND
 10
638586.0178003422915936
 20
606962.0084682452725247
 30
0.0
  0
VERTEX
  5
FC0
  8
SURVBND
 10
638590.0150208644336089
 20
606963.9951992793940008
 30
0.0
  0
VERTEX
  5
FC1
  8
SURVBND
 10
638599.0099549619480968
 20
606968.9644027100875974
 30
0.0
  0
VERTEX
  5
FC2
  8
SURVBND
 10
638603.0190547108650208
 20
606975.9417197834700346
 30
0.0
  0
VERTEX
  5
FC3
  8
SURVBND
 10
638614.0197266056202352
 20
606984.8986403547460213
 30
0.0
  0
VERTEX
  5
FC4
  8
SURVBND
 10
638625.013270964147523
 20
606990.8612093025585636
 30
0.0
  0
VERTEX
  5
FC5
  8
SURVBND
 10
638628.0099984329426661
 20
606991.8521989742293954
 30
0.0
  0
VERTEX
  5
FC6
  8
SURVBND
 10
638633.982070762431249
 20
606984.8511234470643103
 30
0.0
  0
VERTEX
  5
FC7
  8
SURVBND
 10
638637.9674120574491099
 20
606981.847268442157656
 30
0.0
  0
VERTEX
  5
FC8
  8
SURVBND
 10
638643.9466119229327887
 20
606977.8405445384560153
 30
0.0
  0
VERTEX
  5
FC9
  8
SURVBND
 10
638649.9258117885328829
 20
606973.8338206347543746
 30
0.0
  0
VERTEX
  5
FCA
  8
SURVBND
 10
638653.9135289291152731
 20
606971.8280828376300633
 30
0.0
  0
VERTEX
  5
FCB
  8
SURVBND
 10
638659.8974804852623492
 20
606969.817593349609524
 30
0.0
  0
VERTEX
  5
FCC
  8
SURVBND
 10
638666.8843009402044117
 20
606969.8009624319383875
 30
0.0
  0
VERTEX
  5
FCD
  8
SURVBND
 10
638673.8830006219213828
 20
606974.7749175534117967
 30
0.0
  0
VERTEX
  5
FCE
  8
SURVBND
 10
638674.8953729020431638
 20
606980.7612449551234022
 30
0.0
  0
VERTEX
  5
FCF
  8
SURVBND
 10
638675.9077451821649447
 20
606986.7475723567185923
 30
0.0
  0
VERTEX
  5
FD0
  8
SURVBND
 10
638674.9238830468384549
 20
606992.7386514490935951
 30
0.0
  0
VERTEX
  5
FD1
  8
SURVBND
 10
638688.930785791715607
 20
607006.6790305234026164
 30
0.0
  0
VERTEX
  5
FD2
  8
SURVBND
 10
638702.9068025468150154
 20
607007.6438858959591016
 30
0.0
  0
VERTEX
  5
FD3
  8
SURVBND
 10
638708.8836265669669956
 20
607002.6390447844751179
 30
0.0
  0
VERTEX
  5
FD4
  8
SURVBND
 10
638712.8642161715542898
 20
606997.6389553636545315
 30
0.0
  0
VERTEX
  5
FD5
  8
SURVBND
 10
638715.8466885680099949
 20
606992.6412417885148898
 30
0.0
  0
VERTEX
  5
FD6
  8
SURVBND
 10
638723.8268745399545878
 20
606990.6260006098309532
 30
0.0
  0
VERTEX
  5
FD7
  8
SURVBND
 10
638732.8028018743498251
 20
606987.6102663775673136
 30
0.0
  0
VERTEX
  5
FD8
  8
SURVBND
 10
638746.7764427840011194
 20
606987.5770045424578711
 30
0.0
  0
VERTEX
  5
FD9
  8
SURVBND
 10
638747.7769358373479918
 20
606988.5727459047921002
 30
0.0
  0
VERTEX
  5
FDA
  8
SURVBND
 10
638754.7708838281687349
 20
606991.550466610584408
 30
0.0
  0
VERTEX
  5
FDB
  8
SURVBND
 10
638757.7628596065333113
 20
606990.5452218666905537
 30
0.0
  0
VERTEX
  5
FDC
  8
SURVBND
 10
638789.6907310301903635
 20
606985.4786087751854211
 30
0.0
  0
VERTEX
  5
FDD
  8
SURVBND
 10
638795.6699308956740424
 20
606981.4718848716001958
 30
0.0
  0
VERTEX
  5
FDE
  8
SURVBND
 10
638804.6363548485096544
 20
606974.4636818083235994
 30
0.0
  0
VERTEX
  5
FDF
  8
SURVBND
 10
638808.6121927622007206
 20
606967.4673579720547423
 30
0.0
  0
VERTEX
  5
FE0
  8
SURVBND
 10
638808.5955618445295841
 20
606960.4805375169962645
 30
0.0
  0
VERTEX
  5
FE1
  8
SURVBND
 10
638807.5784378736279905
 20
606952.4979756997199729
 30
0.0
  0
VERTEX
  5
FE2
  8
SURVBND
 10
638810.558534424751997
 20
606946.5021449165651575
 30
0.0
  0
VERTEX
  5
FE3
  8
SURVBND
 10
638812.5476413044380024
 20
606943.5030416023219004
 30
0.0
  0
VERTEX
  5
FE4
  8
SURVBND
 10
638815.5277378554455936
 20
606937.507210819167085
 30
0.0
  0
VERTEX
  5
FE5
  8
SURVBND
 10
638817.514468889683485
 20
606933.5099902970250696
 30
0.0
  0
VERTEX
  5
FE6
  8
SURVBND
 10
638815.4992277109995484
 20
606925.5298043250804767
 30
0.0
  0
VERTEX
  5
FE7
  8
SURVBND
 10
638814.4844795855460688
 20
606918.5453597157029435
 30
0.0
  0
VERTEX
  5
FE8
  8
SURVBND
 10
638822.4622897120425478
 20
606915.5320013290038332
 30
0.0
  0
VERTEX
  5
FE9
  8
SURVBND
 10
638833.439203152898699
 20
606914.5077498219907284
 30
0.0
  0
VERTEX
  5
FEA
  8
SURVBND
 10
638843.4156235405243933
 20
606912.4877569525269791
 30
0.0
  0
VERTEX
  5
FEB
  8
SURVBND
 10
638847.4009648356586695
 20
606909.4839019473874941
 30
0.0
  0
VERTEX
  5
FEC
  8
SURVBND
 10
638858.3731265857350081
 20
606906.4634160246932879
 30
0.0
  0
VERTEX
  5
FED
  8
SURVBND
 10
638867.356181456358172
 20
606906.4420334162423387
 30
0.0
  0
VERTEX
  5
FEE
  8
SURVBND
 10
638875.3411191188497469
 20
606906.4230266532395035
 30
0.0
  0
VERTEX
  5
FEF
  8
SURVBND
 10
638878.3402224333258346
 20
606908.4121335326926783
 30
0.0
  0
VERTEX
  5
FF0
  8
SURVBND
 10
638889.3242634101770818
 20
606910.3822336491430178
 30
0.0
  0
VERTEX
  5
FF1
  8
SURVBND
 10
638893.3238597776507959
 20
606913.3670818911632523
 30
0.0
  0
VERTEX
  5
FF2
  8
SURVBND
 10
638903.3216627737274393
 20
606920.3301438922062516
 30
0.0
  0
VERTEX
  5
FF3
  8
SURVBND
 10
638916.3114415479358286
 20
606926.2879611493553966
 30
0.0
  0
VERTEX
  5
FF4
  8
SURVBND
 10
638920.3062862247461453
 20
606927.2765749755781144
 30
0.0
  0
VERTEX
  5
FF5
  8
SURVBND
 10
638932.2765651824884117
 20
606924.2537132074357942
 30
0.0
  0
VERTEX
  5
FF6
  8
SURVBND
 10
638933.2604273180477321
 20
606918.2626341150607914
 30
0.0
  0
VERTEX
  5
FF7
  8
SURVBND
 10
638927.2550931533332914
 20
606911.2900687324581668
 30
0.0
  0
VERTEX
  5
FF8
  8
SURVBND
 10
638924.2512381483102217
 20
606907.3047274374403059
 30
0.0
  0
VERTEX
  5
FF9
  8
SURVBND
 10
638917.245410930365324
 20
606899.3364206922706217
 30
0.0
  0
VERTEX
  5
FFA
  8
SURVBND
 10
638909.2367148138582706
 20
606889.3742553769843653
 30
0.0
  0
VERTEX
  5
FFB
  8
SURVBND
 10
638907.2238494805060327
 20
606882.3921866129385307
 30
0.0
  0
VERTEX
  5
FFC
  8
SURVBND
 10
638905.2133599926019087
 20
606876.4082350565586239
 30
0.0
  0
VERTEX
  5
FFD
  8
SURVBND
 10
638903.2004946592496708
 20
606869.4261662925127894
 30
0.0
  0
VERTEX
  5
FFE
  8
SURVBND
 10
638903.1981188138015568
 20
606868.4280490847304463
 30
0.0
  0
VERTEX
  5
FFF
  8
SURVBND
 10
638899.1842673739884049
 20
606859.4544975956669077
 30
0.0
  0
VERTEX
  5
1000
  8
SURVBND
 10
638888.1764679433545098
 20
606847.5032254008110613
 30
0.0
  0
VERTEX
  5
1001
  8
SURVBND
 10
638888.1645887163467705
 20
606842.5126393615501001
 30
0.0
  0
VERTEX
  5
1002
  8
SURVBND
 10
638884.1174754411913455
 20
606819.5654469629516825
 30
0.0
  0
VERTEX
  5
1003
  8
SURVBND
 10
638883.1074790064012632
 20
606814.5772367691388354
 30
0.0
  0
VERTEX
  5
1004
  8
SURVBND
 10
638883.081344707054086
 20
606803.5979474829509854
 30
0.0
  0
VERTEX
  5
1005
  8
SURVBND
 10
638882.0737241179449484
 20
606799.607854497153312
 30
0.0
  0
VERTEX
  5
1006
  8
SURVBND
 10
638885.0443172875093296
 20
606789.6195548826362938
 30
0.0
  0
VERTEX
  5
1007
  8
SURVBND
 10
638891.0092620806535706
 20
606779.6241277317749336
 30
0.0
  0
VERTEX
  5
1008
  8
SURVBND
 10
638893.0031206510029733
 20
606778.621258833212778
 30
0.0
  0
VERTEX
  5
1009
  8
SURVBND
 10
638899.9851894150488079
 20
606776.60839349986054
 30
0.0
  0
VERTEX
  5
100A
  8
SURVBND
 10
638911.9530925275757909
 20
606772.5874145240522921
 30
0.0
  0
VERTEX
  5
100B
  8
SURVBND
 10
638918.9351612918544561
 20
606770.5745491905836388
 30
0.0
  0
VERTEX
  5
100C
  8
SURVBND
 10
638929.8978196602547541
 20
606763.5615944365272298
 30
0.0
  0
VERTEX
  5
100D
  8
SURVBND
 10
638931.8726714674849063
 20
606754.5737878752406687
 30
0.0
  0
VERTEX
  5
100E
  8
SURVBND
 10
638930.8602991872467101
 20
606748.5874604735290632
 30
0.0
  0
VERTEX
  5
100F
  8
SURVBND
 10
638927.8445649553323165
 20
606739.6115331392502412
 30
0.0
  0
VERTEX
  5
1010
  8
SURVBND
 10
638927.8231823468813673
 20
606730.6284782686270773
 30
0.0
  0
VERTEX
  5
1011
  8
SURVBND
 10
638921.7845863469410688
 20
606709.6822719763731584
 30
0.0
  0
VERTEX
  5
1012
  8
SURVBND
 10
638922.7660726369358599
 20
606702.6930756760993972
 30
0.0
  0
VERTEX
  5
1013
  8
SURVBND
 10
638923.7285521640442312
 20
606687.7189417132176459
 30
0.0
  0
VERTEX
  5
1014
  8
SURVBND
 10
638925.7010281259426847
 20
606677.7330179441487417
 30
0.0
  0
VERTEX
  5
1015
  8
SURVBND
 10
638930.6559764844132587
 20
606662.7493805995909497
 30
0.0
  0
VERTEX
  5
1016
  8
SURVBND
 10
638933.6384488809853792
 20
606657.7516670243348926
 30
0.0
  0
VERTEX
  5
1017
  8
SURVBND
 10
638938.6171556933550164
 20
606652.7492017581826076
 30
0.0
  0
VERTEX
  5
1018
  8
SURVBND
 10
638941.5972522444790229
 20
606646.7533709751442075
 30
0.0
  0
VERTEX
  5
1019
  8
SURVBND
 10
638945.5564592403825372
 20
606632.7702266837004572
 30
0.0
  0
VERTEX
  5
101A
  8
SURVBND
 10
638947.5336868929443881
 20
606624.7805373303126544
 30
0.0
  0
VERTEX
  5
101B
  8
SURVBND
 10
638946.5213146130554378
 20
606618.7942099286010489
 30
0.0
  0
VERTEX
  5
101C
  8
SURVBND
 10
638943.5055803809082136
 20
606609.8182825943222269
 30
0.0
  0
VERTEX
  5
101D
  8
SURVBND
 10
638939.4917289412114769
 20
606600.8447311052586883
 30
0.0
  0
VERTEX
  5
101E
  8
SURVBND
 10
638938.4651015887502581
 20
606588.8697004567366093
 30
0.0
  0
VERTEX
  5
101F
  8
SURVBND
 10
638938.4508465164108202
 20
606582.8809972095768899
 30
0.0
  0
VERTEX
  5
1020
  8
SURVBND
 10
638947.4220221600262448
 20
606577.8690285619813949
 30
0.0
  0
VERTEX
  5
1021
  8
SURVBND
 10
638960.3880424804519862
 20
606573.8456737406086177
 30
0.0
  0
VERTEX
  5
1022
  8
SURVBND
 10
638970.3454561049584299
 20
606563.8407432085368782
 30
0.0
  0
VERTEX
  5
1023
  8
SURVBND
 10
638974.3094147917581722
 20
606551.8538333327742293
 30
0.0
  0
VERTEX
  5
1024
  8
SURVBND
 10
638977.2847596521023661
 20
606543.8617681340547279
 30
0.0
  0
VERTEX
  5
1025
  8
SURVBND
 10
638979.2572356140008196
 20
606533.875844364752993
 30
0.0
  0
VERTEX
  5
1026
  8
SURVBND
 10
638980.2363460588967428
 20
606525.8885308568133041
 30
0.0
  0
VERTEX
  5
1027
  8
SURVBND
 10
638974.2167568218428642
 20
606512.9272622271673754
 30
0.0
  0
VERTEX
  5
1028
  8
SURVBND
 10
638974.2072534402832389
 20
606508.9347933959215879
 30
0.0
  0
VERTEX
  5
1029
  8
SURVBND
 10
638976.1892327836249024
 20
606502.9413384580984712
 30
0.0
  0
VERTEX
  5
102A
  8
SURVBND
 10
638970.1601401651278138
 20
606485.987600997206755
 30
0.0
  0
VERTEX
  5
102B
  8
SURVBND
 10
638970.1553884743480012
 20
606483.9913665815256536
 30
0.0
  0
VERTEX
  5
102C
  8
SURVBND
 10
638976.1250849582720548
 20
606475.9921738465782255
 30
0.0
  0
VERTEX
  5
102D
  8
SURVBND
 10
638995.0726809895131737
 20
606468.960212329402566
 30
0.0
  0
VERTEX
  5
102E
  8
SURVBND
 10
638999.0627739755436778
 20
606467.9525917399441823
 30
0.0
  0
VERTEX
  5
102F
  8
SURVBND
 10
639012.0287942958530039
 20
606463.9292369186878204
 30
0.0
  0
VERTEX
  5
1030
  8
SURVBND
 10
639023.0223386541474611
 20
606469.8918058665003628
 30
0.0
  0
VERTEX
  5
1031
  8
SURVBND
 10
639022.0361006733728573
 20
606474.8847677510930225
 30
0.0
  0
VERTEX
  5
1032
  8
SURVBND
 10
639017.064521397347562
 20
606482.8815846405923367
 30
0.0
  0
VERTEX
  5
1033
  8
SURVBND
 10
639013.0886834835400805
 20
606489.8779084770940244
 30
0.0
  0
VERTEX
  5
1034
  8
SURVBND
 10
639015.1134280439000577
 20
606501.8505632802844048
 30
0.0
  0
VERTEX
  5
1035
  8
SURVBND
 10
639012.1428348742192611
 20
606511.838862894801423
 30
0.0
  0
VERTEX
  5
1036
  8
SURVBND
 10
639013.1575829996727407
 20
606518.8233075042953715
 30
0.0
  0
VERTEX
  5
1037
  8
SURVBND
 10
639012.1808484003413469
 20
606527.808738220250234
 30
0.0
  0
VERTEX
  5
1038
  8
SURVBND
 10
639008.2192655589897186
 20
606540.7937653036788106
 30
0.0
  0
VERTEX
  5
1039
  8
SURVBND
 10
639006.2372862155316398
 20
606546.7872202415019274
 30
0.0
  0
VERTEX
  5
103A
  8
SURVBND
 10
639010.2558893461246043
 20
606557.7570061462465674
 30
0.0
  0
VERTEX
  5
103B
  8
SURVBND
 10
639014.2934992397204041
 20
606576.7117297133663669
 30
0.0
  0
VERTEX
  5
103C
  8
SURVBND
 10
639014.317257693503052
 20
606586.6929017917718738
 30
0.0
  0
VERTEX
  5
103D
  8
SURVBND
 10
639017.3282402347540483
 20
606593.6725947104860097
 30
0.0
  0
VERTEX
  5
103E
  8
SURVBND
 10
639020.3677329205675051
 20
606612.6296941232867539
 30
0.0
  0
VERTEX
  5
103F
  8
SURVBND
 10
639019.3838707850081846
 20
606618.6207732156617567
 30
0.0
  0
VERTEX
  5
1040
  8
SURVBND
 10
639017.4042672869982198
 20
606625.6123453613836318
 30
0.0
  0
VERTEX
  5
1041
  8
SURVBND
 10
639016.4489152961177751
 20
606643.5808309478452429
 30
0.0
  0
VERTEX
  5
1042
  8
SURVBND
 10
639015.4674290058901533
 20
606650.5700272480025887
 30
0.0
  0
VERTEX
  5
1043
  8
SURVBND
 10
639016.4821771314600483
 20
606657.5544718574965373
 30
0.0
  0
VERTEX
  5
1044
  8
SURVBND
 10
639007.5442633231868967
 20
606676.5400814148597419
 30
0.0
  0
VERTEX
  5
1045
  8
SURVBND
 10
639006.550897806067951
 20
606678.538691675872542
 30
0.0
  0
VERTEX
  5
1046
  8
SURVBND
 10
638999.6139701042557135
 20
606699.5157839581370354
 30
0.0
  0
VERTEX
  5
1047
  8
SURVBND
 10
639004.6496972057502717
 20
606718.4681316801579669
 30
0.0
  0
VERTEX
  5
1048
  8
SURVBND
 10
638999.6852454657200724
 20
606729.4593001932371408
 30
0.0
  0
VERTEX
  5
1049
  8
SURVBND
 10
639004.697214113548398
 20
606738.4304758368525654
 30
0.0
  0
VERTEX
  5
104A
  8
SURVBND
 10
639018.6565999508602545
 20
606732.4085107544669881
 30
0.0
  0
VERTEX
  5
104B
  8
SURVBND
 10
639029.6335133915999904
 20
606731.3842592474538833
 30
0.0
  0
VERTEX
  5
104C
  8
SURVBND
 10
639034.6264752761926502
 20
606732.3704972283449024
 30
0.0
  0
VERTEX
  5
104D
  8
SURVBND
 10
639040.6056751416763291
 20
606728.3637733247596771
 30
0.0
  0
VERTEX
  5
104E
  8
SURVBND
 10
639043.6000267651397735
 20
606728.3566457885317504
 30
0.0
  0
VERTEX
  5
104F
  8
SURVBND
 10
639046.5991300794994459
 20
606730.3457526681013405
 30
0.0
  0
VERTEX
  5
1050
  8
SURVBND
 10
639048.6096195674035698
 20
606736.329704224364832
 30
0.0
  0
VERTEX
  5
1051
  8
SURVBND
 10
639050.6153573646442965
 20
606740.3174213649472222
 30
0.0
  0
VERTEX
  5
1052
  8
SURVBND
 10
639060.610784515272826
 20
606746.2823661580914631
 30
0.0
  0
VERTEX
  5
1053
  8
SURVBND
 10
639064.6080050374148414
 20
606748.2690971922129393
 30
0.0
  0
VERTEX
  5
1054
  8
SURVBND
 10
639068.6028497142251581
 20
606749.2577110185520723
 30
0.0
  0
VERTEX
  5
1055
  8
SURVBND
 10
639076.5782839951571077
 20
606745.2462354243034497
 30
0.0
  0
VERTEX
  5
1056
  8
SURVBND
 10
639079.5607563918456435
 20
606740.248521848814562
 30
0.0
  0
VERTEX
  5
1057
  8
SURVBND
 10
639084.5157047504326329
 20
606725.2648845043731853
 30
0.0
  0
VERTEX
  5
1058
  8
SURVBND
 10
639087.4791703838855028
 20
606712.2822332662763074
 30
0.0
  0
VERTEX
  5
1059
  8
SURVBND
 10
639089.4373912734445184
 20
606696.307606250164099
 30
0.0
  0
VERTEX
  5
105A
  8
SURVBND
 10
639091.4027396991150454
 20
606683.3273308575153351
 30
0.0
  0
VERTEX
  5
105B
  8
SURVBND
 10
639093.3657122794538736
 20
606669.3489382570842281
 30
0.0
  0
VERTEX
  5
105C
  8
SURVBND
 10
639093.3205712173366919
 20
606650.3847113081719726
 30
0.0
  0
VERTEX
  5
105D
  8
SURVBND
 10
639093.2991886087693274
 20
606641.4016564375488088
 30
0.0
  0
VERTEX
  5
105E
  8
SURVBND
 10
639092.2678095655282959
 20
606627.4303913733456284
 30
0.0
  0
VERTEX
  5
105F
  8
SURVBND
 10
639093.2469200103078038
 20
606619.4430778651731089
 30
0.0
  0
VERTEX
  5
1060
  8
SURVBND
 10
639096.2008822623174638
 20
606602.4679577958304435
 30
0.0
  0
VERTEX
  5
1061
  8
SURVBND
 10
639096.1699962723068893
 20
606589.4924340938450769
 30
0.0
  0
VERTEX
  5
1062
  8
SURVBND
 10
639097.1491067170863971
 20
606581.505120585905388
 30
0.0
  0
VERTEX
  5
1063
  8
SURVBND
 10
639105.1007825444685295
 20
606567.5124729132512584
 30
0.0
  0
VERTEX
  5
1064
  8
SURVBND
 10
639115.051068632863462
 20
606554.5131907572504133
 30
0.0
  0
VERTEX
  5
1065
  8
SURVBND
 10
639117.0092895224224776
 20
606538.5385637412546203
 30
0.0
  0
VERTEX
  5
1066
  8
SURVBND
 10
639115.9826621699612588
 20
606526.5635330926161259
 30
0.0
  0
VERTEX
  5
1067
  8
SURVBND
 10
639114.9512831267202273
 20
606512.5922680284129456
 30
0.0
  0
VERTEX
  5
1068
  8
SURVBND
 10
639117.9195004510693252
 20
606501.6058512058807537
 30
0.0
  0
VERTEX
  5
1069
  8
SURVBND
 10
639122.8768246547551826
 20
606487.6203310692217201
 30
0.0
  0
VERTEX
  5
106A
  8
SURVBND
 10
639122.8411869740812108
 20
606472.6485729516716674
 30
0.0
  0
VERTEX
  5
106B
  8
SURVBND
 10
639123.8084181919693947
 20
606459.6706734044710174
 30
0.0
  0
VERTEX
  5
106C
  8
SURVBND
 10
639131.7695974009111524
 20
606449.6704945630626753
 30
0.0
  0
VERTEX
  5
106D
  8
SURVBND
 10
639133.7183149089105427
 20
606429.7033987155882642
 30
0.0
  0
VERTEX
  5
106E
  8
SURVBND
 10
639129.6878325515426695
 20
606413.7430267716990784
 30
0.0
  0
VERTEX
  5
106F
  8
SURVBND
 10
639130.6621913055423647
 20
606403.7594788479618728
 30
0.0
  0
VERTEX
  5
1070
  8
SURVBND
 10
639134.6237741467775777
 20
606390.7744517646497115
 30
0.0
  0
VERTEX
  5
1071
  8
SURVBND
 10
639134.5905123114353046
 20
606376.8008108547655866
 30
0.0
  0
VERTEX
  5
1072
  8
SURVBND
 10
639134.5572504760930315
 20
606362.8271699451142922
 30
0.0
  0
VERTEX
  5
1073
  8
SURVBND
 10
639135.5339850754244253
 20
606353.8417392290430143
 30
0.0
  0
VERTEX
  5
1074
  8
SURVBND
 10
639136.5083438294241205
 20
606343.8581913054222241
 30
0.0
  0
VERTEX
  5
1075
  8
SURVBND
 10
639138.47844394587446
 20
606332.8741503284545615
 30
0.0
  0
VERTEX
  5
1076
  8
SURVBND
 10
639139.4551785453222692
 20
606323.888719612499699
 30
0.0
  0
VERTEX
  5
1077
  8
SURVBND
 10
639142.4305234057828784
 20
606315.8966544135473669
 30
0.0
  0
VERTEX
  5
1078
  8
SURVBND
 10
639149.4007129430538043
 20
606308.8932030411669984
 30
0.0
  0
VERTEX
  5
1079
  8
SURVBND
 10
639153.3694233204005286
 20
606298.9025275812018663
 30
0.0
  0
VERTEX
  5
107A
  8
SURVBND
 10
639155.3466509730787948
 20
606290.9128382278140634
 30
0.0
  0
VERTEX
  5
107B
  8
SURVBND
 10
639155.306261601508595
 20
606273.9448456945829093
 30
0.0
  0
VERTEX
  5
107C
  8
SURVBND
 10
639159.2583410615334287
 20
606256.96734977979213
 30
0.0
  0
VERTEX
  5
107D
  8
SURVBND
 10
639164.2132894196547568
 20
606241.9837124353507534
 30
0.0
  0
VERTEX
  5
107E
  8
SURVBND
 10
639170.1711066769203171
 20
606228.9939336611423641
 30
0.0
  0
VERTEX
  5
107F
  8
SURVBND
 10
639175.1426859529456124
 20
606220.99711677164305
 30
0.0
  0
VERTEX
  5
1080
  8
SURVBND
 10
639178.1109032772947103
 20
606210.0106999492272735
 30
0.0
  0
VERTEX
  5
1081
  8
SURVBND
 10
639183.0753550173249096
 20
606199.0195314360316843
 30
0.0
  0
VERTEX
  5
1082
  8
SURVBND
 10
639185.0240725253242999
 20
606179.0524355885572731
 30
0.0
  0
VERTEX
  5
1083
  8
SURVBND
 10
639189.9861484199063852
 20
606167.0631498674629256
 30
0.0
  0
VERTEX
  5
1084
  8
SURVBND
 10
639193.9382278796983883
 20
606150.0856539529049769
 30
0.0
  0
VERTEX
  5
1085
  8
SURVBND
 10
639193.9120935804676265
 20
606139.106364666717127
 30
0.0
  0
VERTEX
  5
1086
  8
SURVBND
 10
639192.8854662280064076
 20
606127.1313340179622173
 30
0.0
  0
VERTEX
  5
1087
  8
SURVBND
 10
639193.8669525182340294
 20
606120.1421377178048715
 30
0.0
  0
VERTEX
  5
1088
  8
SURVBND
 10
639194.8389354269020259
 20
606109.1604725861689076
 30
0.0
  0
VERTEX
  5
1089
  8
SURVBND
 10
639192.823694248101674
 20
606101.18028661434073
 30
0.0
  0
VERTEX
  5
108A
  8
SURVBND
 10
639190.8060772239696234
 20
606092.2019834344973788
 30
0.0
  0
VERTEX
  5
108B
  8
SURVBND
 10
639187.7998463734984398
 20
606087.2185249314643443
 30
0.0
  0
VERTEX
  5
108C
  8
SURVBND
 10
639181.7897605181206018
 20
606078.2497251331806183
 30
0.0
  0
VERTEX
  5
108D
  8
SURVBND
 10
639179.7745193393202499
 20
606070.2695391613524407
 30
0.0
  0
VERTEX
  5
108E
  8
SURVBND
 10
639174.7530473101651296
 20
606057.305894686258398
 30
0.0
  0
VERTEX
  5
108F
  8
SURVBND
 10
639173.7335474939318374
 20
606048.3252156611997634
 30
0.0
  0
VERTEX
  5
1090
  8
SURVBND
 10
639171.7064270882401615
 20
606035.3544436499942094
 30
0.0
  0
VERTEX
  5
1091
  8
SURVBND
 10
639174.6651410310296342
 20
606020.3755579963326454
 30
0.0
  0
VERTEX
  5
1092
  8
SURVBND
 10
639180.6300858241738752
 20
606010.3801308457041159
 30
0.0
  0
VERTEX
  5
1093
  8
SURVBND
 10
639178.595837882370688
 20
605994.4150072110351175
 30
0.0
  0
VERTEX
  5
1094
  8
SURVBND
 10
639177.5739622206892818
 20
605984.4362109780777246
 30
0.0
  0
VERTEX
  5
1095
  8
SURVBND
 10
639177.53832454001531
 20
605969.4644528605276719
 30
0.0
  0
VERTEX
  5
1096
  8
SURVBND
 10
639169.5177491967333481
 20
605954.5117015060968697
 30
0.0
  0
VERTEX
  5
1097
  8
SURVBND
 10
639169.4868632066063583
 20
605941.5361778043443337
 30
0.0
  0
VERTEX
  5
1098
  8
SURVBND
 10
639171.4593391683883965
 20
605931.5502540350425988
 30
0.0
  0
VERTEX
  5
1099
  8
SURVBND
 10
639175.4209220098564401
 20
605918.5652269516140223
 30
0.0
  0
VERTEX
  5
109A
  8
SURVBND
 10
639182.3673530931118876
 20
605901.5806035008281469
 30
0.0
  0
VERTEX
  5
109B
  8
SURVBND
 10
639189.320911712711677
 20
605887.5903316731564701
 30
0.0
  0
VERTEX
  5
109C
  8
SURVBND
 10
639194.2853634526254609
 20
605876.5991631601937115
 30
0.0
  0
VERTEX
  5
109D
  8
SURVBND
 10
639198.2612013663165271
 20
605869.6028393239248544
 30
0.0
  0
VERTEX
  5
109E
  8
SURVBND
 10
639199.2545668833190575
 20
605867.604229062795639
 30
0.0
  0
VERTEX
  5
109F
  8
SURVBND
 10
639202.2417909706709906
 20
605864.602749903104268
 30
0.0
  0
VERTEX
  5
10A0
  8
SURVBND
 10
639207.2086185560328886
 20
605854.6096985978074372
 30
0.0
  0
VERTEX
  5
10A1
  8
SURVBND
 10
639217.1850389436585829
 20
605852.589705728343688
 30
0.0
  0
VERTEX
  5
10A2
  8
SURVBND
 10
639226.1728455049451441
 20
605854.5645575355738401
 30
0.0
  0
VERTEX
  5
10A3
  8
SURVBND
 10
639235.1796588293509558
 20
605864.5243470055283979
 30
0.0
  0
VERTEX
  5
10A4
  8
SURVBND
 10
639245.1845893615391105
 20
605874.4817606300348416
 30
0.0
  0
VERTEX
  5
10A5
  8
SURVBND
 10
639251.1875476809218526
 20
605880.4562088048551232
 30
0.0
  0
VERTEX
  5
10A6
  8
SURVBND
 10
639260.1824817783199251
 20
605885.4254122355487198
 30
0.0
  0
VERTEX
  5
10A7
  8
SURVBND
 10
639302.1770557144191116
 20
605916.2672601722879335
 30
0.0
  0
VERTEX
  5
10A8
  8
SURVBND
 10
639311.183869038708508
 20
605926.2270496422424912
 30
0.0
  0
VERTEX
  5
10A9
  8
SURVBND
 10
639321.1745444985572249
 20
605930.1957600198220462
 30
0.0
  0
VERTEX
  5
10AA
  8
SURVBND
 10
639325.157509948243387
 20
605926.1937878069002181
 30
0.0
  0
VERTEX
  5
10AB
  8
SURVBND
 10
639327.1394892917014658
 20
605920.2003328690771013
 30
0.0
  0
VERTEX
  5
10AC
  8
SURVBND
 10
639323.1208861612249166
 20
605909.2305469644488767
 30
0.0
  0
VERTEX
  5
10AD
  8
SURVBND
 10
639323.1113827796652913
 20
605905.2380781330866739
 30
0.0
  0
VERTEX
  5
10AE
  8
SURVBND
 10
639322.0871312726521865
 20
605894.261164692346938
 30
0.0
  0
VERTEX
  5
10AF
  8
SURVBND
 10
639304.1020147685194388
 20
605886.3189922464080155
 30
0.0
  0
VERTEX
  5
10B0
  8
SURVBND
 10
639303.0967700245091692
 20
605883.3270164683926851
 30
0.0
  0
VERTEX
  5
10B1
  8
SURVBND
 10
639300.0762841019313782
 20
605872.3548547184327617
 30
0.0
  0
VERTEX
  5
10B2
  8
SURVBND
 10
639301.0577703919261694
 20
605865.3656584180425853
 30
0.0
  0
VERTEX
  5
10B3
  8
SURVBND
 10
639304.0402427884982899
 20
605860.3679448426701128
 30
0.0
  0
VERTEX
  5
10B4
  8
SURVBND
 10
639303.0017362091457471
 20
605843.4023281548870727
 30
0.0
  0
VERTEX
  5
10B5
  8
SURVBND
 10
639680.3137992253759876
 20
605852.4854306784691289
 30
0.0
  0
VERTEX
  5
10B6
  8
SURVBND
 10
640418.6874380300287157
 20
606172.123421864118427
 30
0.0
  0
VERTEX
  5
10B7
  8
SURVBND
 10
640406.1606869585812092
 20
606780.0100632719695568
 30
0.0
  0
VERTEX
  5
10B8
  8
SURVBND
 10
640862.2218480423325673
 20
606745.9864340733038262
 30
0.0
  0
VERTEX
  5
10B9
  8
SURVBND
 10
640848.0771462649572641
 20
606674.1552569444756955
 30
0.0
  0
VERTEX
  5
10BA
  8
SURVBND
 10
641310.4334946499438956
 20
606768.8744924844941124
 30
0.0
  0
VERTEX
  5
10BB
  8
SURVBND
 10
641420.1361053875880316
 20
606730.6846955945948139
 30
0.0
  0
VERTEX
  5
10BC
  8
SURVBND
 10
641452.8791539248777553
 20
606648.760681654443033
 30
0.0
  0
VERTEX
  5
10BD
  8
SURVBND
 10
641689.6039930498227477
 20
606720.0620452628936619
 30
0.0
  0
VERTEX
  5
10BE
  8
SURVBND
 10
641681.4910218834411353
 20
606246.9711196658900008
 30
0.0
  0
VERTEX
  5
10BF
  8
SURVBND
 10
641626.5256759362528101
 20
606218.1563921347260475
 30
0.0
  0
VERTEX
  5
10C0
  8
SURVBND
 10
641730.0922810131451115
 20
606118.0975834311684594
 30
0.0
  0
VERTEX
  5
10C1
  8
SURVBND
 10
641553.8273152427282184
 20
605867.9883130515227094
 30
0.0
  0
VERTEX
  5
10C2
  8
SURVBND
 10
641568.5876231211004779
 20
605779.1202438734471798
 30
0.0
  0
VERTEX
  5
10C3
  8
SURVBND
 10
641524.5231635626405478
 20
605717.3415141842560843
 30
0.0
  0
VERTEX
  5
10C4
  8
SURVBND
 10
641528.5227599299978465
 20
605720.3263624262763187
 30
0.0
  0
VERTEX
  5
10C5
  8
SURVBND
 10
641529.5208771380130202
 20
605720.3239865809446201
 30
0.0
  0
VERTEX
  5
10C6
  8
SURVBND
 10
641531.5171115535777062
 20
605720.3192348901648074
 30
0.0
  0
VERTEX
  5
10C7
  8
SURVBND
 10
641557.4705348026473075
 20
605721.2555801180424169
 30
0.0
  0
VERTEX
  5
10C8
  8
SURVBND
 10
641562.408852243446745
 20
605699.2851223186589777
 30
0.0
  0
VERTEX
  5
10C9
  8
SURVBND
 10
641575.3843759453156963
 20
605699.2542363286484033
 30
0.0
  0
VERTEX
  5
10CA
  8
SURVBND
 10
641590.3442548358580098
 20
605694.2280126088298857
 30
0.0
  0
VERTEX
  5
10CB
  8
SURVBND
 10
641600.3135476873721927
 20
605689.2136681157862768
 30
0.0
  0
VERTEX
  5
10CC
  8
SURVBND
 10
641603.2793891662731767
 20
605677.2291340854717419
 30
0.0
  0
VERTEX
  5
10CD
  8
SURVBND
 10
641625.2474711203249171
 20
605681.1693343184888363
 30
0.0
  0
VERTEX
  5
10CE
  8
SURVBND
 10
641627.2460813813377172
 20
605682.162699835607782
 30
0.0
  0
VERTEX
  5
10CF
  8
SURVBND
 10
641630.2546880771405995
 20
605688.1442755464231595
 30
0.0
  0
VERTEX
  5
10D0
  8
SURVBND
 10
641645.2597080301493406
 20
605702.0822787754004821
 30
0.0
  0
VERTEX
  5
10D1
  8
SURVBND
 10
641650.2693008322967216
 20
605710.0553372112335637
 30
0.0
  0
VERTEX
  5
10D2
  8
SURVBND
 10
641665.2149246506160125
 20
605699.0404102442553267
 30
0.0
  0
VERTEX
  5
10D3
  8
SURVBND
 10
641662.2134454910410568
 20
605696.0531861570198089
 30
0.0
  0
VERTEX
  5
10D4
  8
SURVBND
 10
641661.2082007469143718
 20
605693.0612103787716478
 30
0.0
  0
VERTEX
  5
10D5
  8
SURVBND
 10
641667.1755213855067268
 20
605684.0639004359254614
 30
0.0
  0
VERTEX
  5
10D6
  8
SURVBND
 10
641674.1575901496689767
 20
605682.0510351025732234
 30
0.0
  0
VERTEX
  5
10D7
  8
SURVBND
 10
641676.1466970291221514
 20
605679.0519317884463817
 30
0.0
  0
VERTEX
  5
10D8
  8
SURVBND
 10
641680.1082798705901951
 20
605666.0669047049013898
 30
0.0
  0
VERTEX
  5
10D9
  8
SURVBND
 10
641680.1059040251420811
 20
605665.0687874970026314
 30
0.0
  0
VERTEX
  5
10DA
  8
SURVBND
 10
641685.0941142189549282
 20
605664.0587910623289645
 30
0.0
  0
VERTEX
  5
10DB
  8
SURVBND
 10
641686.0922314268536866
 20
605664.0564152168808505
 30
0.0
  0
VERTEX
  5
10DC
  8
SURVBND
 10
641695.0634070704691112
 20
605659.0444465692853555
 30
0.0
  0
VERTEX
  5
10DD
  8
SURVBND
 10
641700.0349863466108218
 20
605651.0476296795532107
 30
0.0
  0
VERTEX
  5
10DE
  8
SURVBND
 10
641705.0303240765351802
 20
605653.0319848684594035
 30
0.0
  0
VERTEX
  5
10DF
  8
SURVBND
 10
641726.000288822571747
 20
605656.9745609468081966
 30
0.0
  0
VERTEX
  5
10E0
  8
SURVBND
 10
641728.9780095283640549
 20
605649.9806129557546228
 30
0.0
  0
VERTEX
  5
10E1
  8
SURVBND
 10
641725.952771914890036
 20
605637.0122167899971828
 30
0.0
  0
VERTEX
  5
10E2
  8
SURVBND
 10
641724.9332720986567438
 20
605628.0315377648221329
 30
0.0
  0
VERTEX
  5
10E3
  8
SURVBND
 10
641745.8961093085817993
 20
605628.9797622198238969
 30
0.0
  0
VERTEX
  5
10E4
  8
SURVBND
 10
641759.8958845174638554
 20
605639.9257896705530584
 30
0.0
  0
VERTEX
  5
10E5
  8
SURVBND
 10
641778.838728858041577
 20
605630.8975937376962975
 30
0.0
  0
VERTEX
  5
10E6
  8
SURVBND
 10
641787.8146561924368143
 20
605627.8818595057819039
 30
0.0
  0
VERTEX
  5
10E7
  8
SURVBND
 10
641789.770501236547716
 20
605610.9091152817709371
 30
0.0
  0
VERTEX
  5
10E8
  8
SURVBND
 10
641794.7539597395807505
 20
605607.9028844312997535
 30
0.0
  0
VERTEX
  5
10E9
  8
SURVBND
 10
641811.7124488912522793
 20
605603.8700262284837663
 30
0.0
  0
VERTEX
  5
10EA
  8
SURVBND
 10
641814.6972971331560984
 20
605599.8704298610100523
 30
0.0
  0
VERTEX
  5
10EB
  8
SURVBND
 10
641820.6669936171965674
 20
605591.8712371259462088
 30
0.0
  0
VERTEX
  5
10EC
  8
SURVBND
 10
641830.6362864687107503
 20
605586.8568926331354305
 30
0.0
  0
VERTEX
  5
10ED
  8
SURVBND
 10
641844.6146790691418573
 20
605588.8198652133578435
 30
0.0
  0
VERTEX
  5
10EE
  8
SURVBND
 10
641856.587333872448653
 20
605586.7951206529978663
 30
0.0
  0
VERTEX
  5
10EF
  8
SURVBND
 10
641875.5420574398012832
 20
605582.7575107595184818
 30
0.0
  0
VERTEX
  5
10F0
  8
SURVBND
 10
641870.5229612559778616
 20
605570.7919834923231974
 30
0.0
  0
VERTEX
  5
10F1
  8
SURVBND
 10
641857.5260549456579611
 20
605561.839814611710608
 30
0.0
  0
VERTEX
  5
10F2
  8
SURVBND
 10
641863.4886238934705034
 20
605550.8462702531833202
 30
0.0
  0
VERTEX
  5
10F3
  8
SURVBND
 10
641874.4631614888785407
 20
605548.823901538271457
 30
0.0
  0
VERTEX
  5
10F4
  8
SURVBND
 10
641887.4505644177552313
 20
605553.7836015876382589
 30
0.0
  0
VERTEX
  5
10F5
  8
SURVBND
 10
641894.4445124086923897
 20
605556.7613222934305668
 30
0.0
  0
VERTEX
  5
10F6
  8
SURVBND
 10
641906.4385498204501346
 20
605563.7196326038101688
 30
0.0
  0
VERTEX
  5
10F7
  8
SURVBND
 10
641928.3971283928258345
 20
605563.6673640052322298
 30
0.0
  0
VERTEX
  5
10F8
  8
SURVBND
 10
641931.3748490987345576
 20
605556.673416014178656
 30
0.0
  0
VERTEX
  5
10F9
  8
SURVBND
 10
641933.3520767512964085
 20
605548.6837266609072685
 30
0.0
  0
VERTEX
  5
10FA
  8
SURVBND
 10
641938.3379110995447263
 20
605546.6756130181020126
 30
0.0
  0
VERTEX
  5
10FB
  8
SURVBND
 10
641952.30442447331734
 20
605543.647999559296295
 30
0.0
  0
VERTEX
  5
10FC
  8
SURVBND
 10
641966.2566827745176852
 20
605534.6316828534472734
 30
0.0
  0
VERTEX
  5
10FD
  8
SURVBND
 10
641970.2396482243202627
 20
605530.6297106405254453
 30
0.0
  0
VERTEX
  5
10FE
  8
SURVBND
 10
641982.1766653469530866
 20
605513.6332079627318308
 30
0.0
  0
VERTEX
  5
10FF
  8
SURVBND
 10
641994.1469443049281836
 20
605510.6103461945895106
 30
0.0
  0
VERTEX
  5
1100
  8
SURVBND
 10
642003.1086165668675676
 20
605501.6059087156318128
 30
0.0
  0
VERTEX
  5
1101
  8
SURVBND
 10
642000.0762514171656221
 20
605485.6431609264109284
 30
0.0
  0
VERTEX
  5
1102
  8
SURVBND
 10
642012.0370269935810938
 20
605478.6278303269064054
 30
0.0
  0
VERTEX
  5
1103
  8
SURVBND
 10
642029.9983850438147783
 20
605476.5888306944398209
 30
0.0
  0
VERTEX
  5
1104
  8
SURVBND
 10
642030.003136734594591
 20
605478.585065110004507
 30
0.0
  0
VERTEX
  5
1105
  8
SURVBND
 10
642037.9952019334305078
 20
605481.5604099703487009
 30
0.0
  0
VERTEX
  5
1106
  8
SURVBND
 10
642043.9696501082507893
 20
605475.5574516511987895
 30
0.0
  0
VERTEX
  5
1107
  8
SURVBND
 10
642047.9431121766101569
 20
605467.563010607031174
 30
0.0
  0
VERTEX
  5
1108
  8
SURVBND
 10
642050.9137053460581228
 20
605457.5747109923977405
 30
0.0
  0
VERTEX
  5
1109
  8
SURVBND
 10
642048.8984641674906015
 20
605449.5945250204531476
 30
0.0
  0
VERTEX
  5
110A
  8
SURVBND
 10
642039.8868991523049772
 20
605437.6385011350503191
 30
0.0
  0
VERTEX
  5
110B
  8
SURVBND
 10
642043.8627370661124587
 20
605430.6421772985486314
 30
0.0
  0
VERTEX
  5
110C
  8
SURVBND
 10
642040.8446269887499511
 20
605420.6681327562546358
 30
0.0
  0
VERTEX
  5
110D
  8
SURVBND
 10
642036.807017095037736
 20
605401.7134091889020056
 30
0.0
  0
VERTEX
  5
110E
  8
SURVBND
 10
642037.805134302820079
 20
605401.7110333435703069
 30
0.0
  0
VERTEX
  5
110F
  8
SURVBND
 10
642052.7673890389269218
 20
605397.682926831417717
 30
0.0
  0
VERTEX
  5
1110
  8
SURVBND
 10
642059.7399544215295464
 20
605391.6775926667032763
 30
0.0
  0
VERTEX
  5
1111
  8
SURVBND
 10
642064.7115336975548416
 20
605383.6807757772039622
 30
0.0
  0
VERTEX
  5
1112
  8
SURVBND
 10
642066.6840096593368798
 20
605373.6948520080186427
 30
0.0
  0
VERTEX
  5
1113
  8
SURVBND
 10
642075.6528094577370211
 20
605367.6847661526408046
 30
0.0
  0
VERTEX
  5
1114
  8
SURVBND
 10
642092.5851643100613728
 20
605352.6726186635205522
 30
0.0
  0
VERTEX
  5
1115
  8
SURVBND
 10
642105.5345537128159776
 20
605341.6624433873221278
 30
0.0
  0
VERTEX
  5
1116
  8
SURVBND
 10
642106.5255433844868094
 20
605338.6657159184105694
 30
0.0
  0
VERTEX
  5
1117
  8
SURVBND
 10
642109.4985123996157199
 20
605329.6755335116758943
 30
0.0
  0
VERTEX
  5
1118
  8
SURVBND
 10
642090.4986477700294927
 20
605314.7489164564758539
 30
0.0
  0
VERTEX
  5
1119
  8
SURVBND
 10
642092.4544928141403943
 20
605297.7761722323484719
 30
0.0
  0
VERTEX
  5
111A
  8
SURVBND
 10
642103.4195270279888064
 20
605291.7613346861908212
 30
0.0
  0
VERTEX
  5
111B
  8
SURVBND
 10
642106.3687375893350691
 20
605272.7899802011670545
 30
0.0
  0
VERTEX
  5
111C
  8
SURVBND
 10
642096.3519278301391751
 20
605257.8419805373996496
 30
0.0
  0
VERTEX
  5
111D
  8
SURVBND
 10
642098.314900410361588
 20
605243.8635879369685426
 30
0.0
  0
VERTEX
  5
111E
  8
SURVBND
 10
642108.2533072718651965
 20
605225.8737197420559824
 30
0.0
  0
VERTEX
  5
111F
  8
SURVBND
 10
642103.2270835519302636
 20
605210.9138408515136689
 30
0.0
  0
VERTEX
  5
1120
  8
SURVBND
 10
642103.2199560158187523
 20
605207.9194892280502245
 30
0.0
  0
VERTEX
  5
1121
  8
SURVBND
 10
642091.1522673971485347
 20
605170.019545474788174
 30
0.0
  0
VERTEX
  5
1122
  8
SURVBND
 10
642102.0531537856440991
 20
605137.0555433169938624
 30
0.0
  0
VERTEX
  5
1123
  8
SURVBND
 10
642093.0011993991211057
 20
605108.1315268981270492
 30
0.0
  0
VERTEX
  5
1124
  8
SURVBND
 10
642084.9734965193783864
 20
605090.1844239201163873
 30
0.0
  0
VERTEX
  5
1125
  8
SURVBND
 10
642093.904282791656442
 20
605068.2044627391733229
 30
0.0
  0
VERTEX
  5
1126
  8
SURVBND
 10
642111.8418823882238939
 20
605056.1842910283012316
 30
0.0
  0
VERTEX
  5
1127
  8
SURVBND
 10
642124.7746408730745316
 20
605038.18729529727716
 30
0.0
  0
VERTEX
  5
1128
  8
SURVBND
 10
642116.7659447565674782
 20
605028.2251299819909036
 30
0.0
  0
VERTEX
  5
1129
  8
SURVBND
 10
642106.7633900698274374
 20
605019.2658335652668029
 30
0.0
  0
VERTEX
  5
112A
  8
SURVBND
 10
642099.7456836249912158
 20
605006.3069407810689881
 30
0.0
  0
VERTEX
  5
112B
  8
SURVBND
 10
642097.7375699824187905
 20
605001.321106432704255
 30
0.0
  0
VERTEX
  5
112C
  8
SURVBND
 10
642092.7208496440434828
 20
604990.3536963732913136
 30
0.0
  0
VERTEX
  5
112D
  8
SURVBND
 10
642091.6989739822456613
 20
604980.3749001403339207
 30
0.0
  0
VERTEX
  5
112E
  8
SURVBND
 10
642091.6799672192428261
 20
604972.3899624776095152
 30
0.0
  0
VERTEX
  5
112F
  8
SURVBND
 10
642083.6712711028521881
 20
604962.4277971624396741
 30
0.0
  0
VERTEX
  5
1130
  8
SURVBND
 10
642081.6655333054950461
 20
604958.440080021857284
 30
0.0
  0
VERTEX
  5
1131
  8
SURVBND
 10
642101.6302533077541739
 20
604959.390680321957916
 30
0.0
  0
VERTEX
  5
1132
  8
SURVBND
 10
642098.6073915394954383
 20
604947.4204013640992343
 30
0.0
  0
VERTEX
  5
1133
  8
SURVBND
 10
642106.5780741297639906
 20
604941.412691354053095
 30
0.0
  0
VERTEX
  5
1134
  8
SURVBND
 10
642110.5372811259003356
 20
604927.4295470628421754
 30
0.0
  0
VERTEX
  5
1135
  8
SURVBND
 10
642117.4979672816116363
 20
604916.4336268588667735
 30
0.0
  0
VERTEX
  5
1136
  8
SURVBND
 10
642114.4798572042491287
 20
604906.4595823168056086
 30
0.0
  0
VERTEX
  5
1137
  8
SURVBND
 10
642106.4687852422939613
 20
604895.4992997935041785
 30
0.0
  0
VERTEX
  5
1138
  8
SURVBND
 10
642102.462061338708736
 20
604889.520099928136915
 30
0.0
  0
VERTEX
  5
1139
  8
SURVBND
 10
642091.4590135986218229
 20
604879.5650621488457546
 30
0.0
  0
VERTEX
  5
113A
  8
SURVBND
 10
642084.4508105353452265
 20
604870.5986381960101426
 30
0.0
  0
VERTEX
  5
113B
  8
SURVBND
 10
642081.4422038395423442
 20
604864.6170624850783497
 30
0.0
  0
VERTEX
  5
113C
  8
SURVBND
 10
642085.4132900624535978
 20
604855.6245042330119759
 30
0.0
  0
VERTEX
  5
113D
  8
SURVBND
 10
642089.38675213069655
 20
604847.6300631888443604
 30
0.0
  0
VERTEX
  5
113E
  8
SURVBND
 10
642096.3379349048482254
 20
604832.6416741536231712
 30
0.0
  0
VERTEX
  5
113F
  8
SURVBND
 10
642099.30140053818468
 20
604819.6590229156427085
 30
0.0
  0
VERTEX
  5
1140
  8
SURVBND
 10
642092.3098283926956356
 20
604817.6794194176327437
 30
0.0
  0
VERTEX
  5
1141
  8
SURVBND
 10
642089.3131009237840772
 20
604816.688429745961912
 30
0.0
  0
VERTEX
  5
1142
  8
SURVBND
 10
642081.2972772711655125
 20
604803.7319128070957959
 30
0.0
  0
VERTEX
  5
1143
  8
SURVBND
 10
642083.2768807691754773
 20
604796.7403406614903361
 30
0.0
  0
VERTEX
  5
1144
  8
SURVBND
 10
642080.2587706919293851
 20
604786.7662961191963404
 30
0.0
  0
VERTEX
  5
1145
  8
SURVBND
 10
642082.2478775714989752
 20
604783.7671928049530834
 30
0.0
  0
VERTEX
  5
1146
  8
SURVBND
 10
642092.2029153505573049
 20
604772.7641450648661703
 30
0.0
  0
VERTEX
  5
1147
  8
SURVBND
 10
642090.1948017078684643
 20
604767.7783107165014371
 30
0.0
  0
VERTEX
  5
1148
  8
SURVBND
 10
642086.1952053403947502
 20
604764.793462474597618
 30
0.0
  0
VERTEX
  5
1149
  8
SURVBND
 10
642088.1676813022932038
 20
604754.8075387054122984
 30
0.0
  0
VERTEX
  5
114A
  8
SURVBND
 10
642099.1279638253618032
 20
604746.7964667434571311
 30
0.0
  0
VERTEX
  5
114B
  8
SURVBND
 10
642107.1010222610784695
 20
604741.7868739414261654
 30
0.0
  0
VERTEX
  5
114C
  8
SURVBND
 10
642101.0790571789257228
 20
604727.8274881038814783
 30
0.0
  0
VERTEX
  5
114D
  8
SURVBND
 10
642089.1016506847226992
 20
604727.8559982484439388
 30
0.0
  0
VERTEX
  5
114E
  8
SURVBND
 10
642086.081164762028493
 20
604716.8838364983676001
 30
0.0
  0
VERTEX
  5
114F
  8
SURVBND
 10
642090.0498751394916326
 20
604706.8931610386352986
 30
0.0
  0
VERTEX
  5
1150
  8
SURVBND
 10
642090.0261166858254001
 20
604696.9119889602297917
 30
0.0
  0
VERTEX
  5
1151
  8
SURVBND
 10
642088.0061238162452355
 20
604686.9355685724876821
 30
0.0
  0
VERTEX
  5
1152
  8
SURVBND
 10
642085.9885067921131849
 20
604677.9572653927607462
 30
0.0
  0
VERTEX
  5
1153
  8
SURVBND
 10
642082.96564502408728
 20
604665.9869864347856492
 30
0.0
  0
VERTEX
  5
1154
  8
SURVBND
 10
642079.9427832559449598
 20
604654.0167074770433828
 30
0.0
  0
VERTEX
  5
1155
  8
SURVBND
 10
642076.9341765600256622
 20
604648.03513176611159
 30
0.0
  0
VERTEX
  5
1156
  8
SURVBND
 10
642073.9184423282276839
 20
604639.059204431832768
 30
0.0
  0
VERTEX
  5
1157
  8
SURVBND
 10
642065.9192495931638405
 20
604633.0895079476758838
 30
0.0
  0
VERTEX
  5
1158
  8
SURVBND
 10
642060.9049051002366468
 20
604623.1202150962781161
 30
0.0
  0
VERTEX
  5
1159
  8
SURVBND
 10
642060.8906500277807936
 20
604617.131511849234812
 30
0.0
  0
VERTEX
  5
115A
  8
SURVBND
 10
642069.8689532077405602
 20
604615.1138948251027614
 30
0.0
  0
VERTEX
  5
115B
  8
SURVBND
 10
642073.8566703483229503
 20
604613.1081570279784501
 30
0.0
  0
VERTEX
  5
115C
  8
SURVBND
 10
642078.8425046965712681
 20
604611.1000433854060248
 30
0.0
  0
VERTEX
  5
115D
  8
SURVBND
 10
642081.8059703302569687
 20
604598.1173921473091468
 30
0.0
  0
VERTEX
  5
115E
  8
SURVBND
 10
642080.7817188232438639
 20
604587.1404787064529955
 30
0.0
  0
VERTEX
  5
115F
  8
SURVBND
 10
642083.7594395290361717
 20
604580.1465307155158371
 30
0.0
  0
VERTEX
  5
1160
  8
SURVBND
 10
642089.7267601676285267
 20
604571.1492207725532353
 30
0.0
  0
VERTEX
  5
1161
  8
SURVBND
 10
642091.7111153563018888
 20
604566.1538830427452922
 30
0.0
  0
VERTEX
  5
1162
  8
SURVBND
 10
642091.684981057071127
 20
604555.1745937565574422
 30
0.0
  0
VERTEX
  5
1163
  8
SURVBND
 10
642092.6640915018506348
 20
604547.1872802483849227
 30
0.0
  0
VERTEX
  5
1164
  8
SURVBND
 10
642098.6432913673343137
 20
604543.1805563447996974
 30
0.0
  0
VERTEX
  5
1165
  8
SURVBND
 10
642093.6123159567359835
 20
604526.2244430384598672
 30
0.0
  0
VERTEX
  5
1166
  8
SURVBND
 10
642088.5955956182442605
 20
604515.2570329791633412
 30
0.0
  0
VERTEX
  5
1167
  8
SURVBND
 10
642094.5557887207251042
 20
604503.2653714128537104
 30
0.0
  0
VERTEX
  5
1168
  8
SURVBND
 10
642099.5416230692062527
 20
604501.257257770281285
 30
0.0
  0
VERTEX
  5
1169
  8
SURVBND
 10
642105.5041920169023797
 20
604490.2637134117539972
 30
0.0
  0
VERTEX
  5
116A
  8
SURVBND
 10
642108.4914161042543128
 20
604487.2622342521790415
 30
0.0
  0
VERTEX
  5
116B
  8
SURVBND
 10
642113.4558678441680968
 20
604476.2710657390998676
 30
0.0
  0
VERTEX
  5
116C
  8
SURVBND
 10
642107.4362786072306335
 20
604463.3097971094539389
 30
0.0
  0
VERTEX
  5
116D
  8
SURVBND
 10
642106.4334097085520625
 20
604461.3159385392209515
 30
0.0
  0
VERTEX
  5
116E
  8
SURVBND
 10
642098.4365928190527484
 20
604456.3443592629628256
 30
0.0
  0
VERTEX
  5
116F
  8
SURVBND
 10
642091.4545240548904985
 20
604458.3572245963150635
 30
0.0
  0
VERTEX
  5
1170
  8
SURVBND
 10
642087.4382967697456479
 20
604448.3855558993527666
 30
0.0
  0
VERTEX
  5
1171
  8
SURVBND
 10
642092.4170035821152851
 20
604443.3830906335497275
 30
0.0
  0
VERTEX
  5
1172
  8
SURVBND
 10
642096.4023448772495613
 20
604440.3792356284102425
 30
0.0
  0
VERTEX
  5
1173
  8
SURVBND
 10
642103.3725344144040719
 20
604433.3757842557970434
 30
0.0
  0
VERTEX
  5
1174
  8
SURVBND
 10
642109.3374792075483128
 20
604423.380357105168514
 30
0.0
  0
VERTEX
  5
1175
  8
SURVBND
 10
642102.3078935359371826
 20
604405.4308782818261534
 30
0.0
  0
VERTEX
  5
1176
  8
SURVBND
 10
642092.3148422305239365
 20
604400.4640506964642555
 30
0.0
  0
VERTEX
  5
1177
  8
SURVBND
 10
642092.2910837767412886
 20
604390.4828786180587485
 30
0.0
  0
VERTEX
  5
1178
  8
SURVBND
 10
642086.2691186943557113
 20
604376.5234927807468921
 30
0.0
  0
VERTEX
  5
1179
  8
SURVBND
 10
642083.260511998552829
 20
604370.5419170699315146
 30
0.0
  0
VERTEX
  5
117A
  8
SURVBND
 10
642081.2238882113015279
 20
604353.5786762273637578
 30
0.0
  0
VERTEX
  5
117B
  8
SURVBND
 10
642076.2071678729262203
 20
604342.6112661680672318
 30
0.0
  0
VERTEX
  5
117C
  8
SURVBND
 10
642074.1919266942422837
 20
604334.6310801961226389
 30
0.0
  0
VERTEX
  5
117D
  8
SURVBND
 10
642076.1762818829156458
 20
604329.6357424661982805
 30
0.0
  0
VERTEX
  5
117E
  8
SURVBND
 10
642078.1487578448140994
 20
604319.6498186970129609
 30
0.0
  0
VERTEX
  5
117F
  8
SURVBND
 10
642071.1310513999778777
 20
604306.6909259128151461
 30
0.0
  0
VERTEX
  5
1180
  8
SURVBND
 10
642072.0982826177496463
 20
604293.7130263656144962
 30
0.0
  0
VERTEX
  5
1181
  8
SURVBND
 10
642075.0688757875468582
 20
604283.7247267509810627
 30
0.0
  0
VERTEX
  5
1182
  8
SURVBND
 10
642076.052737922873348
 20
604277.7336476586060598
 30
0.0
  0
VERTEX
  5
1183
  8
SURVBND
 10
642081.0314447353594005
 20
604272.7311823925701901
 30
0.0
  0
VERTEX
  5
1184
  8
SURVBND
 10
642081.0314447353594005
 20
604272.7311823925701901
 30
0.0
  0
VERTEX
  5
1185
  8
SURVBND
 10
642092.9803410848835483
 20
604260.7252657539211214
 30
0.0
  0
VERTEX
  5
1186
  8
SURVBND
 10
642096.9490514622302726
 20
604250.7345902939559892
 30
0.0
  0
VERTEX
  5
1187
  8
SURVBND
 10
642076.9391903978539631
 20
604230.8197630449431017
 30
0.0
  0
VERTEX
  5
1188
  8
SURVBND
 10
642067.9561355273472145
 20
604230.8411456533940509
 30
0.0
  0
VERTEX
  5
1189
  8
SURVBND
 10
642058.9588255845010281
 20
604224.8738250146852806
 30
0.0
  0
VERTEX
  5
118A
  8
SURVBND
 10
642052.9059745121048763
 20
604197.9389154755044729
 30
0.0
  0
VERTEX
  5
118B
  8
SURVBND
 10
642046.8816335843876004
 20
604182.9814124302938581
 30
0.0
  0
VERTEX
  5
118C
  8
SURVBND
 10
642052.8608334498712793
 20
604178.9746885267086327
 30
0.0
  0
VERTEX
  5
118D
  8
SURVBND
 10
642057.8775537882465869
 20
604189.9420985858887434
 30
0.0
  0
VERTEX
  5
118E
  8
SURVBND
 10
642074.8407946306979284
 20
604187.9054747987538576
 30
0.0
  0
VERTEX
  5
118F
  8
SURVBND
 10
642086.813449434004724
 20
604185.8807302383938804
 30
0.0
  0
VERTEX
  5
1190
  8
SURVBND
 10
642091.7874045555945486
 20
604178.882030556560494
 30
0.0
  0
VERTEX
  5
1191
  8
SURVBND
 10
642076.7895121388137341
 20
604167.9383789512794465
 30
0.0
  0
VERTEX
  5
1192
  8
SURVBND
 10
642073.7880329792387784
 20
604164.951154863811098
 30
0.0
  0
VERTEX
  5
1193
  8
SURVBND
 10
642064.7907230363925919
 20
604158.9838342252187431
 30
0.0
  0
VERTEX
  5
1194
  8
SURVBND
 10
642046.8079823773587123
 20
604152.0397789874114096
 30
0.0
  0
VERTEX
  5
1195
  8
SURVBND
 10
642046.8056065321434289
 20
604151.0416617795126513
 30
0.0
  0
VERTEX
  5
1196
  8
SURVBND
 10
642041.8078929567709565
 20
604148.0591893829405308
 30
0.0
  0
VERTEX
  5
1197
  8
SURVBND
 10
642036.8030518452869728
 20
604142.0823653627885506
 30
0.0
  0
VERTEX
  5
1198
  8
SURVBND
 10
642032.8034554778132588
 20
604139.0975171207683161
 30
0.0
  0
VERTEX
  5
1199
  8
SURVBND
 10
642074.6863646808778867
 20
604123.0278562892926857
 30
0.0
  0
VERTEX
  5
119A
  8
SURVBND
 10
642100.6421637755120173
 20
604124.9623187250690535
 30
0.0
  0
VERTEX
  5
119B
  8
SURVBND
 10
642113.608184095704928
 20
604120.9389639036962762
 30
0.0
  0
VERTEX
  5
119C
  8
SURVBND
 10
642123.5584701840998605
 20
604107.9396817480446771
 30
0.0
  0
VERTEX
  5
119D
  8
SURVBND
 10
642134.5187527072848752
 20
604099.9286097860895097
 30
0.0
  0
VERTEX
  5
119E
  8
SURVBND
 10
642140.4884491912089288
 20
604091.9294170511420816
 30
0.0
  0
VERTEX
  5
119F
  8
SURVBND
 10
642139.4665735295275226
 20
604081.9506208181846887
 30
0.0
  0
VERTEX
  5
11A0
  8
SURVBND
 10
642134.442725655157119
 20
604067.9888591353083029
 30
0.0
  0
VERTEX
  5
11A1
  8
SURVBND
 10
642134.3952087473589927
 20
604048.0265149787301198
 30
0.0
  0
VERTEX
  5
11A2
  8
SURVBND
 10
642114.4423679722240195
 20
604052.0665007175412029
 30
0.0
  0
VERTEX
  5
11A3
  8
SURVBND
 10
642111.4313854308566079
 20
604045.086807798827067
 30
0.0
  0
VERTEX
  5
11A4
  8
SURVBND
 10
642095.4329999608453363
 20
604033.1474148309789598
 30
0.0
  0
VERTEX
  5
11A5
  8
SURVBND
 10
642092.4101381928194314
 20
604021.1771358731202781
 30
0.0
  0
VERTEX
  5
11A6
  8
SURVBND
 10
642090.3948970141354948
 20
604013.1969499011756852
 30
0.0
  0
VERTEX
  5
11A7
  8
SURVBND
 10
642081.4023387619527057
 20
604009.2258636781480163
 30
0.0
  0
VERTEX
  5
11A8
  8
SURVBND
 10
642072.4240355823421851
 20
604011.2434807023964822
 30
0.0
  0
VERTEX
  5
11A9
  8
SURVBND
 10
642070.4325528574408963
 20
604013.2444668088573962
 30
0.0
  0
VERTEX
  5
11AA
  8
SURVBND
 10
642069.4415631856536493
 20
604016.2411942776525393
 30
0.0
  0
VERTEX
  5
11AB
  8
SURVBND
 10
642067.4643355329753831
 20
604024.2308836311567575
 30
0.0
  0
VERTEX
  5
11AC
  8
SURVBND
 10
642063.4837459286209196
 20
604029.2309730518609285
 30
0.0
  0
VERTEX
  5
11AD
  8
SURVBND
 10
642058.5050391163676977
 20
604034.2334383180132136
 30
0.0
  0
VERTEX
  5
11AE
  8
SURVBND
 10
642051.5324737336486578
 20
604040.238772482611239
 30
0.0
  0
VERTEX
  5
11AF
  8
SURVBND
 10
642046.5490152307320386
 20
604043.2450033330824226
 30
0.0
  0
VERTEX
  5
11B0
  8
SURVBND
 10
642041.5631808823673055
 20
604045.2531169756548479
 30
0.0
  0
VERTEX
  5
11B1
  8
SURVBND
 10
642030.5767640599515289
 20
604042.2848996514221653
 30
0.0
  0
VERTEX
  5
11B2
  8
SURVBND
 10
642019.5618370930897072
 20
604027.3392758328700438
 30
0.0
  0
VERTEX
  5
11B3
  8
SURVBND
 10
642013.5422478560358286
 20
604014.3780072034569457
 30
0.0
  0
VERTEX
  5
11B4
  8
SURVBND
 10
642007.5321620006579906
 20
604005.4092074052896351
 30
0.0
  0
VERTEX
  5
11B5
  8
SURVBND
 10
641994.5352556904545054
 20
603996.4570385246770456
 30
0.0
  0
VERTEX
  5
11B6
  8
SURVBND
 10
641982.5412182785803452
 20
603989.4987282145302743
 30
0.0
  0
VERTEX
  5
11B7
  8
SURVBND
 10
641981.5240943076787516
 20
603981.5161663971375674
 30
0.0
  0
VERTEX
  5
11B8
  8
SURVBND
 10
641985.4809254583669826
 20
603966.5349048981443048
 30
0.0
  0
VERTEX
  5
11B9
  8
SURVBND
 10
641986.4552842122502625
 20
603956.5513569742906839
 30
0.0
  0
VERTEX
  5
11BA
  8
SURVBND
 10
641986.4362774492474273
 20
603948.566419311449863
 30
0.0
  0
VERTEX
  5
11BB
  8
SURVBND
 10
641983.4205432173330337
 20
603939.5904919770546257
 30
0.0
  0
VERTEX
  5
11BC
  8
SURVBND
 10
641967.4221577472053468
 20
603927.6510990093229339
 30
0.0
  0
VERTEX
  5
11BD
  8
SURVBND
 10
641965.4187957954127342
 20
603924.6614990766393021
 30
0.0
  0
VERTEX
  5
11BE
  8
SURVBND
 10
641971.3908681249013171
 20
603917.6604235493578017
 30
0.0
  0
VERTEX
  5
11BF
  8
SURVBND
 10
641975.3833369561471045
 20
603917.6509201677981764
 30
0.0
  0
VERTEX
  5
11C0
  8
SURVBND
 10
641981.3696643577422947
 20
603916.6385478876763955
 30
0.0
  0
VERTEX
  5
11C1
  8
SURVBND
 10
641986.3531228607753292
 20
603913.6323170374380425
 30
0.0
  0
VERTEX
  5
11C2
  8
SURVBND
 10
641990.3289607744663954
 20
603906.63599320105277
 30
0.0
  0
VERTEX
  5
11C3
  8
SURVBND
 10
641990.3147057022433728
 20
603900.6472899538930506
 30
0.0
  0
VERTEX
  5
11C4
  8
SURVBND
 10
641989.2952058858936653
 20
603891.6666109287180007
 30
0.0
  0
VERTEX
  5
11C5
  8
SURVBND
 10
641986.2794716539792717
 20
603882.6906835943227634
 30
0.0
  0
VERTEX
  5
11C6
  8
SURVBND
 10
641985.2789786007488146
 20
603881.694942231872119
 30
0.0
  0
VERTEX
  5
11C7
  8
SURVBND
 10
641965.3166344440542161
 20
603881.74245913955383
 30
0.0
  0
VERTEX
  5
11C8
  8
SURVBND
 10
641956.3169486557599157
 20
603874.777021293179132
 30
0.0
  0
VERTEX
  5
11C9
  8
SURVBND
 10
641958.27754539065063
 20
603859.8005114848492667
 30
0.0
  0
VERTEX
  5
11CA
  8
SURVBND
 10
641969.23782791395206
 20
603851.7894395228940994
 30
0.0
  0
VERTEX
  5
11CB
  8
SURVBND
 10
641986.1891895293956622
 20
603844.7622296964982525
 30
0.0
  0
VERTEX
  5
11CC
  8
SURVBND
 10
641977.1776245140936226
 20
603832.8062058109790087
 30
0.0
  0
VERTEX
  5
11CD
  8
SURVBND
 10
641963.184976841439493
 20
603824.8545299835968763
 30
0.0
  0
VERTEX
  5
11CE
  8
SURVBND
 10
641956.1862771598389372
 20
603819.8805748622398823
 30
0.0
  0
VERTEX
  5
11CF
  8
SURVBND
 10
641953.1752946183551103
 20
603812.9008819434093311
 30
0.0
  0
VERTEX
  5
11D0
  8
SURVBND
 10
641950.1500570048810914
 20
603799.9324857776518911
 30
0.0
  0
VERTEX
  5
11D1
  8
SURVBND
 10
641946.1362055653007701
 20
603790.9589342888211831
 30
0.0
  0
VERTEX
  5
11D2
  8
SURVBND
 10
641944.1209643865004182
 20
603782.9787483167601749
 30
0.0
  0
VERTEX
  5
11D3
  8
SURVBND
 10
641940.1071129466872662
 20
603774.0051968278130516
 30
0.0
  0
VERTEX
  5
11D4
  8
SURVBND
 10
641931.0884203952737153
 20
603759.0548213188303635
 30
0.0
  0
VERTEX
  5
11D5
  8
SURVBND
 10
641933.0703997388482094
 20
603753.0613663808908314
 30
0.0
  0
VERTEX
  5
11D6
  8
SURVBND
 10
641942.0344478462357074
 20
603745.0550461097154766
 30
0.0
  0
VERTEX
  5
11D7
  8
SURVBND
 10
641942.0059377016732469
 20
603733.0776396157452837
 30
0.0
  0
VERTEX
  5
11D8
  8
SURVBND
 10
641931.9938796333735809
 20
603720.1258743676589802
 30
0.0
  0
VERTEX
  5
11D9
  8
SURVBND
 10
641921.9889491011854261
 20
603710.1684607431525365
 30
0.0
  0
VERTEX
  5
11DA
  8
SURVBND
 10
641917.9893527337117121
 20
603707.183612501132302
 30
0.0
  0
VERTEX
  5
11DB
  8
SURVBND
 10
641909.9901599986478686
 20
603701.2139160172082484
 30
0.0
  0
VERTEX
  5
11DC
  8
SURVBND
 10
641903.9895775248296559
 20
603696.2375850502867252
 30
0.0
  0
VERTEX
  5
11DD
  8
SURVBND
 10
641884.0034749141195789
 20
603686.3039298795629293
 30
0.0
  0
VERTEX
  5
11DE
  8
SURVBND
 10
641874.9990374350454658
 20
603677.3422576175071299
 30
0.0
  0
VERTEX
  5
11DF
  8
SURVBND
 10
641867.9837068356573582
 20
603665.3814820410916582
 30
0.0
  0
VERTEX
  5
11E0
  8
SURVBND
 10
641861.9688692896161228
 20
603654.4164478272432461
 30
0.0
  0
VERTEX
  5
11E1
  8
SURVBND
 10
641853.9554214823292568
 20
603642.4580480962758884
 30
0.0
  0
VERTEX
  5
11E2
  8
SURVBND
 10
641847.9405839359387755
 20
603631.493013882311061
 30
0.0
  0
VERTEX
  5
11E3
  8
SURVBND
 10
641846.9282116558169946
 20
603625.5066864807158709
 30
0.0
  0
VERTEX
  5
11E4
  8
SURVBND
 10
641840.913374109659344
 20
603614.5416522667510435
 30
0.0
  0
VERTEX
  5
11E5
  8
SURVBND
 10
641835.8823986989445984
 20
603597.5855389605276287
 30
0.0
  0
VERTEX
  5
11E6
  8
SURVBND
 10
641826.8732095292070881
 20
603586.6276322826743126
 30
0.0
  0
VERTEX
  5
11E7
  8
SURVBND
 10
641821.8564891908317804
 20
603575.6602222233777866
 30
0.0
  0
VERTEX
  5
11E8
  8
SURVBND
 10
641820.8369893743656576
 20
603566.679543198319152
 30
0.0
  0
VERTEX
  5
11E9
  8
SURVBND
 10
641822.8118411817122251
 20
603557.6917366370325908
 30
0.0
  0
VERTEX
  5
11EA
  8
SURVBND
 10
641826.7900549408514053
 20
603551.6935300084296614
 30
0.0
  0
VERTEX
  5
11EB
  8
SURVBND
 10
641831.7592583715450019
 20
603542.6985959110315889
 30
0.0
  0
VERTEX
  5
11EC
  8
SURVBND
 10
641827.7454069317318499
 20
603533.7250444219680503
 30
0.0
  0
VERTEX
  5
11ED
  8
SURVBND
 10
641821.7472003032453358
 20
603529.7468306629452854
 30
0.0
  0
VERTEX
  5
11EE
  8
SURVBND
 10
641808.7740524467080832
 20
603530.7758338607382029
 30
0.0
  0
VERTEX
  5
11EF
  8
SURVBND
 10
641810.7441525631584227
 20
603519.791792883654125
 30
0.0
  0
VERTEX
  5
11F0
  8
SURVBND
 10
641816.7138490470824763
 20
603511.7926001489395276
 30
0.0
  0
VERTEX
  5
11F1
  8
SURVBND
 10
641795.7225016925949603
 20
603498.8669691999675706
 30
0.0
  0
VERTEX
  5
11F2
  8
SURVBND
 10
641793.7072605139110237
 20
603490.886783228139393
 30
0.0
  0
VERTEX
  5
11F3
  8
SURVBND
 10
641790.6986538181081414
 20
603484.9052075170911849
 30
0.0
  0
VERTEX
  5
11F4
  8
SURVBND
 10
641778.6998647155705839
 20
603475.9506627911468968
 30
0.0
  0
VERTEX
  5
11F5
  8
SURVBND
 10
641772.6921547054080293
 20
603467.9799802007619292
 30
0.0
  0
VERTEX
  5
11F6
  8
SURVBND
 10
641776.6632409284356982
 20
603458.9874219486955553
 30
0.0
  0
VERTEX
  5
11F7
  8
SURVBND
 10
641787.6235234516207129
 20
603450.9763499868568033
 30
0.0
  0
VERTEX
  5
11F8
  8
SURVBND
 10
641789.6031269496306777
 20
603443.9847778412513435
 30
0.0
  0
VERTEX
  5
11F9
  8
SURVBND
 10
641766.6179210246773437
 20
603432.0620157909579575
 30
0.0
  0
VERTEX
  5
11FA
  8
SURVBND
 10
641741.6507357563823462
 20
603426.1327086784876883
 30
0.0
  0
VERTEX
  5
11FB
  8
SURVBND
 10
641735.6216431378852576
 20
603409.1789712175959721
 30
0.0
  0
VERTEX
  5
11FC
  8
SURVBND
 10
641738.6041155344573781
 20
603404.1812576422234997
 30
0.0
  0
VERTEX
  5
11FD
  8
SURVBND
 10
641746.5724222795106471
 20
603397.1754304243950173
 30
0.0
  0
VERTEX
  5
11FE
  8
SURVBND
 10
641759.5289392182603478
 20
603389.1596067716600373
 30
0.0
  0
VERTEX
  5
11FF
  8
SURVBND
 10
641759.5146841461537406
 20
603383.1709035246167332
 30
0.0
  0
VERTEX
  5
1200
  8
SURVBND
 10
641751.5226189472014084
 20
603380.195558664156124
 30
0.0
  0
VERTEX
  5
1201
  8
SURVBND
 10
641735.5527436217525974
 20
603380.2335721905110404
 30
0.0
  0
VERTEX
  5
1202
  8
SURVBND
 10
641728.5587956309318542
 20
603377.2558514844859019
 30
0.0
  0
VERTEX
  5
1203
  8
SURVBND
 10
641726.5388027613516897
 20
603367.2794310968602076
 30
0.0
  0
VERTEX
  5
1204
  8
SURVBND
 10
641728.5089028776856139
 20
603356.295390119892545
 30
0.0
  0
VERTEX
  5
1205
  8
SURVBND
 10
641722.4916894860798493
 20
603344.3322386981453747
 30
0.0
  0
VERTEX
  5
1206
  8
SURVBND
 10
641713.4729969346662983
 20
603329.3818631890462711
 30
0.0
  0
VERTEX
  5
1207
  8
SURVBND
 10
641710.4525110119720921
 20
603318.4097014390863478
 30
0.0
  0
VERTEX
  5
1208
  8
SURVBND
 10
641709.4353870411869138
 20
603310.4271396216936409
 30
0.0
  0
VERTEX
  5
1209
  8
SURVBND
 10
641712.4249869739869609
 20
603308.4237776699010283
 30
0.0
  0
VERTEX
  5
120A
  8
SURVBND
 10
641719.3832972842501476
 20
603296.4297402581432834
 30
0.0
  0
VERTEX
  5
120B
  8
SURVBND
 10
641711.3912320854142308
 20
603293.4543953976826742
 30
0.0
  0
VERTEX
  5
120C
  8
SURVBND
 10
641697.4128394847502932
 20
603291.491422817343846
 30
0.0
  0
VERTEX
  5
120D
  8
SURVBND
 10
641689.418398440699093
 20
603287.5179607491008937
 30
0.0
  0
VERTEX
  5
120E
  8
SURVBND
 10
641670.4494198011234403
 20
603285.5668673957698047
 30
0.0
  0
VERTEX
  5
120F
  8
SURVBND
 10
641666.4688301965361461
 20
603290.5669568164739758
 30
0.0
  0
VERTEX
  5
1210
  8
SURVBND
 10
641663.4673510369611904
 20
603287.5797327291220427
 30
0.0
  0
VERTEX
  5
1211
  8
SURVBND
 10
641658.4648857709253207
 20
603282.6010259168688208
 30
0.0
  0
VERTEX
  5
1212
  8
SURVBND
 10
641630.4653353529283777
 20
603260.7089710151776671
 30
0.0
  0
VERTEX
  5
1213
  8
SURVBND
 10
641637.4188939724117517
 20
603246.7186991877388209
 30
0.0
  0
VERTEX
  5
1214
  8
SURVBND
 10
641637.3975113639608026
 20
603237.7356443173484877
 30
0.0
  0
VERTEX
  5
1215
  8
SURVBND
 10
641622.4186257102992386
 20
603234.7769303744425997
 30
0.0
  0
VERTEX
  5
1216
  8
SURVBND
 10
641619.4171465504914522
 20
603231.7897062870906666
 30
0.0
  0
VERTEX
  5
1217
  8
SURVBND
 10
641621.3801191309466958
 20
603217.8113136865431443
 30
0.0
  0
VERTEX
  5
1218
  8
SURVBND
 10
641617.3733952273614705
 20
603211.8321138209430501
 30
0.0
  0
VERTEX
  5
1219
  8
SURVBND
 10
641605.3698544341605157
 20
603200.8813346795504913
 30
0.0
  0
VERTEX
  5
121A
  8
SURVBND
 10
641599.3431376608787104
 20
603184.9257144265575334
 30
0.0
  0
VERTEX
  5
121B
  8
SURVBND
 10
641596.3392826558556408
 20
603180.9403731311904266
 30
0.0
  0
VERTEX
  5
121C
  8
SURVBND
 10
641596.3202758928528056
 20
603172.9554354684660211
 30
0.0
  0
VERTEX
  5
121D
  8
SURVBND
 10
641592.3040486075915396
 20
603162.9837667717365548
 30
0.0
  0
VERTEX
  5
121E
  8
SURVBND
 10
641593.299789970042184
 20
603161.9832737185060978
 30
0.0
  0
VERTEX
  5
121F
  8
SURVBND
 10
641597.2803795745130628
 20
603156.9831842978019267
 30
0.0
  0
VERTEX
  5
1220
  8
SURVBND
 10
641548.360757163609378
 20
603152.1090146823553368
 30
0.0
  0
VERTEX
  5
1221
  8
SURVBND
 10
641534.3158408924937248
 20
603122.1987602825975046
 30
0.0
  0
VERTEX
  5
1222
  8
SURVBND
 10
641534.2635722940322012
 20
603100.24018171033822
 30
0.0
  0
VERTEX
  5
1223
  8
SURVBND
 10
641548.2182064406806603
 20
603092.221982212155126
 30
0.0
  0
VERTEX
  5
1224
  8
SURVBND
 10
641548.2015755230095237
 20
603085.2351617572130635
 30
0.0
  0
VERTEX
  5
1225
  8
SURVBND
 10
641541.1957483049482107
 20
603077.2668550122762099
 30
0.0
  0
VERTEX
  5
1226
  8
SURVBND
 10
641526.1883525068406016
 20
603062.330734575400129
 30
0.0
  0
VERTEX
  5
1227
  8
SURVBND
 10
641526.1717215890530497
 20
603055.3439141205744818
 30
0.0
  0
VERTEX
  5
1228
  8
SURVBND
 10
641504.1775053358869627
 20
603040.4244246014859527
 30
0.0
  0
VERTEX
  5
1229
  8
SURVBND
 10
641504.1608744182158262
 20
603033.4376041465438902
 30
0.0
  0
VERTEX
  5
122A
  8
SURVBND
 10
641511.1286881101550534
 20
603025.4360355661483482
 30
0.0
  0
VERTEX
  5
122B
  8
SURVBND
 10
641519.0969948550919071
 20
603018.4302083483198658
 30
0.0
  0
VERTEX
  5
122C
  8
SURVBND
 10
641504.0895990567514673
 20
603003.4940879114437848
 30
0.0
  0
VERTEX
  5
122D
  8
SURVBND
 10
641496.0856546311406419
 20
602995.5281570118386298
 30
0.0
  0
VERTEX
  5
122E
  8
SURVBND
 10
641489.0631964954081923
 20
602980.5730298119597137
 30
0.0
  0
VERTEX
  5
122F
  8
SURVBND
 10
641466.0732388797914609
 20
602966.654033346218057
 30
0.0
  0
VERTEX
  5
1230
  8
SURVBND
 10
641459.0151430633850396
 20
602936.7271480285562575
 30
0.0
  0
VERTEX
  5
1231
  8
SURVBND
 10
641458.9248609390342608
 20
602898.7986941308481619
 30
0.0
  0
VERTEX
  5
1232
  8
SURVBND
 10
641458.8915991035755724
 20
602884.8250532209640369
 30
0.0
  0
VERTEX
  5
1233
  8
SURVBND
 10
641458.8559614227851853
 20
602869.8532951036468148
 30
0.0
  0
VERTEX
  5
1234
  8
SURVBND
 10
641443.8485656244447455
 20
602854.9171746667707339
 30
0.0
  0
VERTEX
  5
1235
  8
SURVBND
 10
641428.8411698263371363
 20
602839.9810542300110683
 30
0.0
  0
VERTEX
  5
1236
  8
SURVBND
 10
641413.814767264877446
 20
602817.0599961305269971
 30
0.0
  0
VERTEX
  5
1237
  8
SURVBND
 10
641406.7946849747095257
 20
602803.102986138430424
 30
0.0
  0
VERTEX
  5
1238
  8
SURVBND
 10
641398.7741096311947331
 20
602788.1502347838832065
 30
0.0
  0
VERTEX
  5
1239
  8
SURVBND
 10
641406.7044028501259163
 20
602765.1745322406059131
 30
0.0
  0
VERTEX
  5
123A
  8
SURVBND
 10
641413.6745923872804269
 20
602758.1710808681091294
 30
0.0
  0
VERTEX
  5
123B
  8
SURVBND
 10
641406.6331274885451421
 20
602735.2310160055058077
 30
0.0
  0
VERTEX
  5
123C
  8
SURVBND
 10
641398.6315589081496
 20
602728.2632023136829957
 30
0.0
  0
VERTEX
  5
123D
  8
SURVBND
 10
641398.6315589081496
 20
602728.2632023136829957
 30
0.0
  0
VERTEX
  5
123E
  8
SURVBND
 10
641383.6431698729284108
 20
602721.3120195396477357
 30
0.0
  0
VERTEX
  5
123F
  8
SURVBND
 10
641376.6563494181027636
 20
602721.3286504573188722
 30
0.0
  0
VERTEX
  5
1240
  8
SURVBND
 10
641369.6695289632771164
 20
602721.3452813749900088
 30
0.0
  0
VERTEX
  5
1241
  8
SURVBND
 10
641369.686159880948253
 20
602728.3321018298156559
 30
0.0
  0
VERTEX
  5
1242
  8
SURVBND
 10
641361.7012222182238474
 20
602728.3511085929349065
 30
0.0
  0
VERTEX
  5
1243
  8
SURVBND
 10
641354.697770845843479
 20
602721.3809190557803959
 30
0.0
  0
VERTEX
  5
1244
  8
SURVBND
 10
641346.693826419999823
 20
602713.4149881560588256
 30
0.0
  0
VERTEX
  5
1245
  8
SURVBND
 10
641346.6771955022122711
 20
602706.4281677013495937
 30
0.0
  0
VERTEX
  5
1246
  8
SURVBND
 10
641346.6581887393258512
 20
602698.4432300385087729
 30
0.0
  0
VERTEX
  5
1247
  8
SURVBND
 10
641354.6264954842627048
 20
602691.4374028206802905
 30
0.0
  0
VERTEX
  5
1248
  8
SURVBND
 10
641361.5943091759691015
 20
602683.4358342402847484
 30
0.0
  0
VERTEX
  5
1249
  8
SURVBND
 10
641369.579246838693507
 20
602683.4168274770490825
 30
0.0
  0
VERTEX
  5
124A
  8
SURVBND
 10
641361.5586714952951297
 20
602668.464076122851111
 30
0.0
  0
VERTEX
  5
124B
  8
SURVBND
 10
641346.586913377745077
 20
602668.4997138034086674
 30
0.0
  0
VERTEX
  5
124C
  8
SURVBND
 10
641339.583462005131878
 20
602661.5295242662541568
 30
0.0
  0
VERTEX
  5
124D
  8
SURVBND
 10
641331.5795175794046372
 20
602653.5635933666490018
 30
0.0
  0
VERTEX
  5
124E
  8
SURVBND
 10
641331.5795175794046372
 20
602653.5635933666490018
 30
0.0
  0
VERTEX
  5
124F
  8
SURVBND
 10
641331.5628866617335007
 20
602646.5767729118233547
 30
0.0
  0
VERTEX
  5
1250
  8
SURVBND
 10
641331.5462557440623641
 20
602639.5899524568812922
 30
0.0
  0
VERTEX
  5
1251
  8
SURVBND
 10
641331.5272489809431136
 20
602631.6050147943897173
 30
0.0
  0
VERTEX
  5
1252
  8
SURVBND
 10
641316.5198531827190891
 20
602616.668894357397221
 30
0.0
  0
VERTEX
  5
1253
  8
SURVBND
 10
641309.51640181010589
 20
602609.6987048202427104
 30
0.0
  0
VERTEX
  5
1254
  8
SURVBND
 10
641309.4807641295483336
 20
602594.7269467026926577
 30
0.0
  0
VERTEX
  5
1255
  8
SURVBND
 10
641309.461757366429083
 20
602586.7420090398518369
 30
0.0
  0
VERTEX
  5
1256
  8
SURVBND
 10
641301.460188786033541
 20
602579.7741953481454402
 30
0.0
  0
VERTEX
  5
1257
  8
SURVBND
 10
641301.4411820229142904
 20
602571.7892576856538653
 30
0.0
  0
VERTEX
  5
1258
  8
SURVBND
 10
641309.4261196857551113
 20
602571.7702509225346148
 30
0.0
  0
VERTEX
  5
1259
  8
SURVBND
 10
641316.3963092227932066
 20
602564.7667995500378311
 30
0.0
  0
VERTEX
  5
125A
  8
SURVBND
 10
641309.3928578502964228
 20
602557.7966100127669051
 30
0.0
  0
VERTEX
  5
125B
  8
SURVBND
 10
641309.3738510871771723
 20
602549.8116723500424996
 30
0.0
  0
VERTEX
  5
125C
  8
SURVBND
 10
641301.3889134244527668
 20
602549.8306791130453348
 30
0.0
  0
VERTEX
  5
125D
  8
SURVBND
 10
641294.385462051955983
 20
602542.8604895758908242
 30
0.0
  0
VERTEX
  5
125E
  8
SURVBND
 10
641287.3796348340110853
 20
602534.8921828309539706
 30
0.0
  0
VERTEX
  5
125F
  8
SURVBND
 10
641287.3630039164563641
 20
602527.9053623760119081
 30
0.0
  0
VERTEX
  5
1260
  8
SURVBND
 10
641287.3630039164563641
 20
602527.9053623760119081
 30
0.0
  0
VERTEX
  5
1261
  8
SURVBND
 10
641264.3873013730626553
 20
602519.9750691571971402
 30
0.0
  0
VERTEX
  5
1262
  8
SURVBND
 10
641264.3706704553915188
 20
602512.988248702371493
 30
0.0
  0
VERTEX
  5
1263
  8
SURVBND
 10
641257.3648432374466211
 20
602505.0199419574346393
 30
0.0
  0
VERTEX
  5
1264
  8
SURVBND
 10
641249.363274657051079
 20
602498.0521282654954121
 30
0.0
  0
VERTEX
  5
1265
  8
SURVBND
 10
641257.3482123198918998
 20
602498.0331215024925768
 30
0.0
  0
VERTEX
  5
1266
  8
SURVBND
 10
641257.3482123198918998
 20
602498.0331215024925768
 30
0.0
  0
VERTEX
  5
1267
  8
SURVBND
 10
641264.3160260115982965
 20
602490.0315529222134501
 30
0.0
  0
VERTEX
  5
1268
  8
SURVBND
 10
641264.2993950939271599
 20
602483.0447324672713876
 30
0.0
  0
VERTEX
  5
1269
  8
SURVBND
 10
641257.2959437213139609
 20
602476.074542930116877
 30
0.0
  0
VERTEX
  5
126A
  8
SURVBND
 10
641249.2919992955867201
 20
602468.1086120303953066
 30
0.0
  0
VERTEX
  5
126B
  8
SURVBND
 10
641234.3036102603655308
 20
602461.1574292562436312
 30
0.0
  0
VERTEX
  5
126C
  8
SURVBND
 10
641234.3036102603655308
 20
602461.1574292562436312
 30
0.0
  0
VERTEX
  5
126D
  8
SURVBND
 10
641219.3128453798126429
 20
602453.2081292743096128
 30
0.0
  0
VERTEX
  5
126E
  8
SURVBND
 10
641219.3128453798126429
 20
602453.2081292743096128
 30
0.0
  0
VERTEX
  5
126F
  8
SURVBND
 10
641219.3128453798126429
 20
602453.2081292743096128
 30
0.0
  0
VERTEX
  5
1270
  8
SURVBND
 10
641219.2962144620250911
 20
602446.2213088194839656
 30
0.0
  0
VERTEX
  5
1271
  8
SURVBND
 10
641197.214091929839924
 20
602394.3714826103532687
 30
0.0
  0
VERTEX
  5
1272
  8
SURVBND
 10
641182.2066961314994842
 20
602379.4353621735936031
 30
0.0
  0
VERTEX
  5
1273
  8
SURVBND
 10
641182.2066961314994842
 20
602379.4353621735936031
 30
0.0
  0
VERTEX
  5
1274
  8
SURVBND
 10
641160.2291107960045338
 20
602371.5026931093307212
 30
0.0
  0
VERTEX
  5
1275
  8
SURVBND
 10
641152.2441731332801282
 20
602371.5216998724499717
 30
0.0
  0
VERTEX
  5
1276
  8
SURVBND
 10
641137.2724150158464909
 20
602371.5573375532403588
 30
0.0
  0
VERTEX
  5
1277
  8
SURVBND
 10
641130.2689636433497071
 20
602364.5871480159694329
 30
0.0
  0
VERTEX
  5
1278
  8
SURVBND
 10
641130.2499568801140413
 20
602356.6022103532450274
 30
0.0
  0
VERTEX
  5
1279
  8
SURVBND
 10
641130.2333259624429047
 20
602349.6153898984193802
 30
0.0
  0
VERTEX
  5
127A
  8
SURVBND
 10
641145.2050840799929574
 20
602349.5797522176289931
 30
0.0
  0
VERTEX
  5
127B
  8
SURVBND
 10
641152.1728977716993541
 20
602341.5781836373498663
 30
0.0
  0
VERTEX
  5
127C
  8
SURVBND
 10
641137.1845087365945801
 20
602334.6270008631981909
 30
0.0
  0
VERTEX
  5
127D
  8
SURVBND
 10
641130.1620506009785458
 20
602319.6718736634356901
 30
0.0
  0
VERTEX
  5
127E
  8
SURVBND
 10
641115.154654802638106
 20
602304.7357532264431939
 30
0.0
  0
VERTEX
  5
127F
  8
SURVBND
 10
641093.1794453125912696
 20
602297.8012013700790703
 30
0.0
  0
VERTEX
  5
1280
  8
SURVBND
 10
641063.216922314488329
 20
602289.8875390688190237
 30
0.0
  0
VERTEX
  5
1281
  8
SURVBND
 10
641063.1812846336979419
 20
602274.9157809513853863
 30
0.0
  0
VERTEX
  5
1282
  8
SURVBND
 10
641055.1250716095091775
 20
602244.9912714792881161
 30
0.0
  0
VERTEX
  5
1283
  8
SURVBND
 10
641040.0844139758264646
 20
602216.0815101327607408
 30
0.0
  0
VERTEX
  5
1284
  8
SURVBND
 10
641048.0503448754316196
 20
602208.0775657070335001
 30
0.0
  0
VERTEX
  5
1285
  8
SURVBND
 10
641055.0205344127025455
 20
602201.074114334420301
 30
0.0
  0
VERTEX
  5
1286
  8
SURVBND
 10
641062.9864653123077005
 20
602193.0701699086930603
 30
0.0
  0
VERTEX
  5
1287
  8
SURVBND
 10
641069.9732857671333477
 20
602193.0535389910219237
 30
0.0
  0
VERTEX
  5
1288
  8
SURVBND
 10
641084.9284129671286792
 20
602186.0310808555223048
 30
0.0
  0
VERTEX
  5
1289
  8
SURVBND
 10
641069.9376480863429606
 20
602178.081780873471871
 30
0.0
  0
VERTEX
  5
128A
  8
SURVBND
 10
641062.9508276315173134
 20
602178.0984117911430076
 30
0.0
  0
VERTEX
  5
128B
  8
SURVBND
 10
641039.9775009334553033
 20
602171.166235780226998
 30
0.0
  0
VERTEX
  5
128C
  8
SURVBND
 10
641039.9775009334553033
 20
602171.166235780226998
 30
0.0
  0
VERTEX
  5
128D
  8
SURVBND
 10
641039.9584941705688834
 20
602163.1812981173861772
 30
0.0
  0
VERTEX
  5
128E
  8
SURVBND
 10
641039.9418632528977469
 20
602156.1944776624441147
 30
0.0
  0
VERTEX
  5
128F
  8
SURVBND
 10
641039.9228564897784963
 20
602148.2095399999525398
 30
0.0
  0
VERTEX
  5
1290
  8
SURVBND
 10
641025.9159537445520982
 20
602134.2691609254106879
 30
0.0
  0
VERTEX
  5
1291
  8
SURVBND
 10
641010.9251888641156256
 20
602126.3198609434766695
 30
0.0
  0
VERTEX
  5
1292
  8
SURVBND
 10
640972.9801040487363935
 20
602119.423322613351047
 30
0.0
  0
VERTEX
  5
1293
  8
SURVBND
 10
640972.9444663679460064
 20
602104.451564495684579
 30
0.0
  0
VERTEX
  5
1294
  8
SURVBND
 10
640957.9370705697219819
 20
602089.5154440588084981
 30
0.0
  0
VERTEX
  5
1295
  8
SURVBND
 10
640943.9087852160446346
 20
602066.5920101141091436
 30
0.0
  0
VERTEX
  5
1296
  8
SURVBND
 10
640943.8398857000283897
 20
602037.6466110866749659
 30
0.0
  0
VERTEX
  5
1297
  8
SURVBND
 10
640935.8003035935107619
 20
602014.7089220696361735
 30
0.0
  0
VERTEX
  5
1298
  8
SURVBND
 10
640913.8060873403446749
 20
601999.7894325505476445
 30
0.0
  0
VERTEX
  5
1299
  8
SURVBND
 10
640905.8045187599491328
 20
601992.8216188586084172
 30
0.0
  0
VERTEX
  5
129A
  8
SURVBND
 10
640883.8459401875734329
 20
601992.8738874569535255
 30
0.0
  0
VERTEX
  5
129B
  8
SURVBND
 10
640875.8610025248490274
 20
601992.8928942200727761
 30
0.0
  0
VERTEX
  5
129C
  8
SURVBND
 10
640875.8419957617297769
 20
601984.9079565573483706
 30
0.0
  0
VERTEX
  5
129D
  8
SURVBND
 10
640875.825364843942225
 20
601977.9211361026391387
 30
0.0
  0
VERTEX
  5
129E
  8
SURVBND
 10
640868.8219134715618566
 20
601970.9509465653682128
 30
0.0
  0
VERTEX
  5
129F
  8
SURVBND
 10
640861.8350930168526247
 20
601970.9675774830393493
 30
0.0
  0
VERTEX
  5
12A0
  8
SURVBND
 10
640853.8145176732214168
 20
601956.0148261284921318
 30
0.0
  0
VERTEX
  5
12A1
  8
SURVBND
 10
640846.8086904553929344
 20
601948.0465193835552782
 30
0.0
  0
VERTEX
  5
12A2
  8
SURVBND
 10
640816.8485433026216924
 20
601941.1309742903104052
 30
0.0
  0
VERTEX
  5
12A3
  8
SURVBND
 10
640823.8163569944445044
 20
601933.1294057097984478
 30
0.0
  0
VERTEX
  5
12A4
  8
SURVBND
 10
640816.7938988587120548
 20
601918.1742785099195316
 30
0.0
  0
VERTEX
  5
12A5
  8
SURVBND
 10
640786.8337517060572281
 20
601911.2587334165582433
 30
0.0
  0
VERTEX
  5
12A6
  8
SURVBND
 10
640786.8147449430543929
 20
601903.2737957538338378
 30
0.0
  0
VERTEX
  5
12A7
  8
SURVBND
 10
640793.7683035624213517
 20
601889.2835239265114069
 30
0.0
  0
VERTEX
  5
12A8
  8
SURVBND
 10
640779.7756558896508068
 20
601881.3318480991292745
 30
0.0
  0
VERTEX
  5
12A9
  8
SURVBND
 10
640741.8115643111523241
 20
601866.4503721061628312
 30
0.0
  0
VERTEX
  5
12AA
  8
SURVBND
 10
640749.7608642930863425
 20
601851.4596072254935279
 30
0.0
  0
VERTEX
  5
12AB
  8
SURVBND
 10
640749.7252266121795401
 20
601836.4878491079434752
 30
0.0
  0
VERTEX
  5
12AC
  8
SURVBND
 10
640719.7460726964054629
 20
601821.5873663518577814
 30
0.0
  0
VERTEX
  5
12AD
  8
SURVBND
 10
640719.7128108609467745
 20
601807.6137254422064871
 30
0.0
  0
VERTEX
  5
12AE
  8
SURVBND
 10
640726.6639936352148652
 20
601792.6253364069852978
 30
0.0
  0
VERTEX
  5
12AF
  8
SURVBND
 10
640697.7185946078971028
 20
601792.6942359230015427
 30
0.0
  0
VERTEX
  5
12B0
  8
SURVBND
 10
640689.7336569452891126
 20
601792.7132426861207932
 30
0.0
  0
VERTEX
  5
12B1
  8
SURVBND
 10
640667.7394406921230257
 20
601777.7937531669158489
 30
0.0
  0
VERTEX
  5
12B2
  8
SURVBND
 10
640659.7354962662793696
 20
601769.8278222674271092
 30
0.0
  0
VERTEX
  5
12B3
  8
SURVBND
 10
640659.7188653487246484
 20
601762.8410018124850467
 30
0.0
  0
VERTEX
  5
12B4
  8
SURVBND
 10
640637.7412800132296979
 20
601754.9083327483385801
 30
0.0
  0
VERTEX
  5
12B5
  8
SURVBND
 10
640637.7246490954421461
 20
601747.9215122933965176
 30
0.0
  0
VERTEX
  5
12B6
  8
SURVBND
 10
640629.616167472791858
 20
601696.0384242490399629
 30
0.0
  0
VERTEX
  5
12B7
  8
SURVBND
 10
640615.6235198001377285
 20
601688.0867484215414152
 30
0.0
  0
VERTEX
  5
12B8
  8
SURVBND
 10
640600.6517616827040911
 20
601688.1223861023318022
 30
0.0
  0
VERTEX
  5
12B9
  8
SURVBND
 10
640562.7066768672084436
 20
601681.2258477719733492
 30
0.0
  0
VERTEX
  5
12BA
  8
SURVBND
 10
640555.7198564123827964
 20
601681.2424786896444857
 30
0.0
  0
VERTEX
  5
12BB
  8
SURVBND
 10
640540.7124606139259413
 20
601666.3063582528848201
 30
0.0
  0
VERTEX
  5
12BC
  8
SURVBND
 10
640525.7050648157019168
 20
601651.3702378162415698
 30
0.0
  0
VERTEX
  5
12BD
  8
SURVBND
 10
640518.7182443607598543
 20
601651.3868687335634604
 30
0.0
  0
VERTEX
  5
12BE
  8
SURVBND
 10
640473.786339090554975
 20
601644.5069613212253898
 30
0.0
  0
VERTEX
  5
12BF
  8
SURVBND
 10
640458.8145809730049223
 20
601644.5425990018993616
 30
0.0
  0
VERTEX
  5
12C0
  8
SURVBND
 10
640458.7955742098856717
 20
601636.5576613391749561
 30
0.0
  0
VERTEX
  5
12C1
  8
SURVBND
 10
640443.8071851746644825
 20
601629.606478565139696
 30
0.0
  0
VERTEX
  5
12C2
  8
SURVBND
 10
640406.8578417216194794
 20
601621.7094471815507859
 30
0.0
  0
VERTEX
  5
12C3
  8
SURVBND
 10
640398.891910821897909
 20
601629.7133916072780266
 30
0.0
  0
VERTEX
  5
12C4
  8
SURVBND
 10
640391.9217212847433984
 20
601636.7168429797748104
 30
0.0
  0
VERTEX
  5
12C5
  8
SURVBND
 10
640368.9483945867978036
 20
601629.7846669687423855
 30
0.0
  0
VERTEX
  5
12C6
  8
SURVBND
 10
640361.9615741319721565
 20
601629.8012978865299374
 30
0.0
  0
VERTEX
  5
12C7
  8
SURVBND
 10
640346.9898160145385191
 20
601629.8369355673203245
 30
0.0
  0
VERTEX
  5
12C8
  8
SURVBND
 10
640346.9351715706288815
 20
601606.8802397869294509
 30
0.0
  0
VERTEX
  5
12C9
  8
SURVBND
 10
640324.9243243997916579
 20
601584.9739298128988594
 30
0.0
  0
VERTEX
  5
12CA
  8
SURVBND
 10
640301.9486218565143645
 20
601577.0436365940840915
 30
0.0
  0
VERTEX
  5
12CB
  8
SURVBND
 10
640286.9602328212931752
 20
601570.0924538200488314
 30
0.0
  0
VERTEX
  5
12CC
  8
SURVBND
 10
640272.969960993854329
 20
601563.138895200449042
 30
0.0
  0
VERTEX
  5
12CD
  8
SURVBND
 10
640272.9153165500611067
 20
601540.1821994201745838
 30
0.0
  0
VERTEX
  5
12CE
  8
SURVBND
 10
640249.9063521715579554
 20
601518.2782652915921062
 30
0.0
  0
VERTEX
  5
12CF
  8
SURVBND
 10
640257.836645390256308
 20
601495.3025627484312281
 30
0.0
  0
VERTEX
  5
12D0
  8
SURVBND
 10
640249.7994391293032095
 20
601473.3629909389419481
 30
0.0
  0
VERTEX
  5
12D1
  8
SURVBND
 10
640227.8052228760207072
 20
601458.4435014198534191
 30
0.0
  0
VERTEX
  5
12D2
  8
SURVBND
 10
640204.8128894150722772
 20
601443.5263877460965887
 30
0.0
  0
VERTEX
  5
12D3
  8
SURVBND
 10
640197.7904312794562429
 20
601428.5712605462176725
 30
0.0
  0
VERTEX
  5
12D4
  8
SURVBND
 10
640197.7381626809947193
 20
601406.6126819738419726
 30
0.0
  0
VERTEX
  5
12D5
  8
SURVBND
 10
640160.755557392607443
 20
601384.7420096806017682
 30
0.0
  0
VERTEX
  5
12D6
  8
SURVBND
 10
640145.7481615941505879
 20
601369.8058892437256873
 30
0.0
  0
VERTEX
  5
12D7
  8
SURVBND
 10
640115.8046453591668978
 20
601369.8771646053064615
 30
0.0
  0
VERTEX
  5
12D8
  8
SURVBND
 10
640093.846066786791198
 20
601369.9294332036515698
 30
0.0
  0
VERTEX
  5
12D9
  8
SURVBND
 10
640063.8479061078978702
 20
601347.0440127849578857
 30
0.0
  0
VERTEX
  5
12DA
  8
SURVBND
 10
640040.8745794099522755
 20
601340.1118367738090456
 30
0.0
  0
VERTEX
  5
12DB
  8
SURVBND
 10
640033.8877589551266283
 20
601340.1284676914801821
 30
0.0
  0
VERTEX
  5
12DC
  8
SURVBND
 10
639981.9666573845315725
 20
601332.2670739889144897
 30
0.0
  0
VERTEX
  5
12DD
  8
SURVBND
 10
639966.9782683493103832
 20
601325.315891214646399
 30
0.0
  0
VERTEX
  5
12DE
  8
SURVBND
 10
639951.9898793139727786
 20
601318.3647084404947236
 30
0.0
  0
VERTEX
  5
12DF
  8
SURVBND
 10
639930.0122939785942435
 20
601310.4320393763482571
 30
0.0
  0
VERTEX
  5
12E0
  8
SURVBND
 10
639900.0687777434941381
 20
601310.5033147376962006
 30
0.0
  0
VERTEX
  5
12E1
  8
SURVBND
 10
639863.1574478165712208
 20
601318.5761586795561016
 30
0.0
  0
VERTEX
  5
12E2
  8
SURVBND
 10
639855.1725101538468152
 20
601318.5951654426753521
 30
0.0
  0
VERTEX
  5
12E3
  8
SURVBND
 10
639825.1933562380727381
 20
601303.6946826865896583
 30
0.0
  0
VERTEX
  5
12E4
  8
SURVBND
 10
639818.2065357832470909
 20
601303.7113136042607948
 30
0.0
  0
VERTEX
  5
12E5
  8
SURVBND
 10
639810.1859604397322983
 20
601288.758562249946408
 30
0.0
  0
VERTEX
  5
12E6
  8
SURVBND
 10
639795.1951955591794103
 20
601280.8092622677795589
 30
0.0
  0
VERTEX
  5
12E7
  8
SURVBND
 10
639773.2199860691325739
 20
601273.8747104115318507
 30
0.0
  0
VERTEX
  5
12E8
  8
SURVBND
 10
639758.2482279513496906
 20
601273.9103480922058225
 30
0.0
  0
VERTEX
  5
12E9
  8
SURVBND
 10
639751.2780384143115953
 20
601280.9137994647026062
 30
0.0
  0
VERTEX
  5
12EA
  8
SURVBND
 10
639728.3403493971563876
 20
601288.953381571220234
 30
0.0
  0
VERTEX
  5
12EB
  8
SURVBND
 10
639713.3852221972774714
 20
601295.9758397069526836
 30
0.0
  0
VERTEX
  5
12EC
  8
SURVBND
 10
639706.4174085054546595
 20
601303.9774082871153951
 30
0.0
  0
VERTEX
  5
12ED
  8
SURVBND
 10
639706.4174085054546595
 20
601303.9774082871153951
 30
0.0
  0
VERTEX
  5
12EE
  8
SURVBND
 10
639691.4100127073470503
 20
601289.0412878503557295
 30
0.0
  0
VERTEX
  5
12EF
  8
SURVBND
 10
639654.4963069348596036
 20
601296.1160145844332874
 30
0.0
  0
VERTEX
  5
12F0
  8
SURVBND
 10
639631.5396111547015607
 20
601296.1706590282265097
 30
0.0
  0
VERTEX
  5
12F1
  8
SURVBND
 10
639602.5942121273837984
 20
601296.2395585442427546
 30
0.0
  0
VERTEX
  5
12F2
  8
SURVBND
 10
639577.5818857968552038
 20
601271.3460244829766452
 30
0.0
  0
VERTEX
  5
12F3
  8
SURVBND
 10
639576.5861444345209748
 20
601272.3465175360906869
 30
0.0
  0
VERTEX
  5
12F4
  8
SURVBND
 10
639570.6045687235891819
 20
601275.3551242318935692
 30
0.0
  0
VERTEX
  5
12F5
  8
SURVBND
 10
639564.6301205488853157
 20
601281.3580825512763113
 30
0.0
  0
VERTEX
  5
12F6
  8
SURVBND
 10
639559.6490378911839798
 20
601285.3624306096462533
 30
0.0
  0
VERTEX
  5
12F7
  8
SURVBND
 10
639549.6797450397862121
 20
601290.3767751025734469
 30
0.0
  0
VERTEX
  5
12F8
  8
SURVBND
 10
639542.7095555025152862
 20
601297.3802264750702307
 30
0.0
  0
VERTEX
  5
12F9
  8
SURVBND
 10
639534.7436246029101312
 20
601305.3841709007974714
 30
0.0
  0
VERTEX
  5
12FA
  8
SURVBND
 10
639530.7749142254469916
 20
601315.3748463607626036
 30
0.0
  0
VERTEX
  5
12FB
  8
SURVBND
 10
639528.7953107274370268
 20
601322.3664185063680634
 30
0.0
  0
VERTEX
  5
12FC
  8
SURVBND
 10
639524.814721122966148
 20
601327.3665079270722345
 30
0.0
  0
VERTEX
  5
12FD
  8
SURVBND
 10
639518.8378971029305831
 20
601332.3713490385562181
 30
0.0
  0
VERTEX
  5
12FE
  8
SURVBND
 10
639509.8690973046468571
 20
601338.3814348940504715
 30
0.0
  0
VERTEX
  5
12FF
  8
SURVBND
 10
639507.8799904251936823
 20
601341.3805382082937285
 30
0.0
  0
VERTEX
  5
1300
  8
SURVBND
 10
639493.90159782464616
 20
601339.4175656279549003
 30
0.0
  0
VERTEX
  5
1301
  8
SURVBND
 10
639486.8720121529186144
 20
601321.4680868046125397
 30
0.0
  0
VERTEX
  5
1302
  8
SURVBND
 10
639471.8955023445887491
 20
601319.5074900697218254
 30
0.0
  0
VERTEX
  5
1303
  8
SURVBND
 10
639453.9460235212463886
 20
601326.537075741449371
 30
0.0
  0
VERTEX
  5
1304
  8
SURVBND
 10
639445.9682133946334943
 20
601329.5504341281484812
 30
0.0
  0
VERTEX
  5
1305
  8
SURVBND
 10
639429.0239793154178187
 20
601339.5719955778913572
 30
0.0
  0
VERTEX
  5
1306
  8
SURVBND
 10
639412.0702418542932719
 20
601345.6010881963884458
 30
0.0
  0
VERTEX
  5
1307
  8
SURVBND
 10
639396.1003665289608762
 20
601345.6391017225105315
 30
0.0
  0
VERTEX
  5
1308
  8
SURVBND
 10
639379.1371256865095347
 20
601347.6757255097618327
 30
0.0
  0
VERTEX
  5
1309
  8
SURVBND
 10
639361.1828951723873615
 20
601352.7090767659246922
 30
0.0
  0
VERTEX
  5
130A
  8
SURVBND
 10
639362.1928916070610285
 20
601357.697286959621124
 30
0.0
  0
VERTEX
  5
130B
  8
SURVBND
 10
639354.2293365527875721
 20
601366.6993485931307077
 30
0.0
  0
VERTEX
  5
130C
  8
SURVBND
 10
639341.2276785518042743
 20
601355.7509452969534323
 30
0.0
  0
VERTEX
  5
130D
  8
SURVBND
 10
639323.2710721923504025
 20
601359.7861793453339487
 30
0.0
  0
VERTEX
  5
130E
  8
SURVBND
 10
639320.3004790225531906
 20
601369.7744789598509669
 30
0.0
  0
VERTEX
  5
130F
  8
SURVBND
 10
639314.328406693181023
 20
601376.7755544867832214
 30
0.0
  0
VERTEX
  5
1310
  8
SURVBND
 10
639311.3411826059455052
 20
601379.7770336465910077
 30
0.0
  0
VERTEX
  5
1311
  8
SURVBND
 10
639288.4225003515603021
 20
601395.8015534157166258
 30
0.0
  0
VERTEX
  5
1312
  8
SURVBND
 10
639272.5120211609173566
 20
601420.7924971377942711
 30
0.0
  0
VERTEX
  5
1313
  8
SURVBND
 10
639269.5414279913529754
 20
601430.7807967523112893
 30
0.0
  0
VERTEX
  5
1314
  8
SURVBND
 10
639258.5597628596005961
 20
601429.8088138436432928
 30
0.0
  0
VERTEX
  5
1315
  8
SURVBND
 10
639233.6424703445518389
 20
601444.8399680957663804
 30
0.0
  0
VERTEX
  5
1316
  8
SURVBND
 10
639225.6670360632706434
 20
601448.8514436902478337
 30
0.0
  0
VERTEX
  5
1317
  8
SURVBND
 10
639213.7110121777513996
 20
601457.8630087053170428
 30
0.0
  0
VERTEX
  5
1318
  8
SURVBND
 10
639203.7393434809055179
 20
601461.8792359905783087
 30
0.0
  0
VERTEX
  5
1319
  8
SURVBND
 10
639190.7733231603633612
 20
601465.9025908119510859
 30
0.0
  0
VERTEX
  5
131A
  8
SURVBND
 10
639180.792151082190685
 20
601465.9263492657337338
 30
0.0
  0
VERTEX
  5
131B
  8
SURVBND
 10
639167.8166273802053183
 20
601465.9572352556278929
 30
0.0
  0
VERTEX
  5
131C
  8
SURVBND
 10
639148.8571521221892908
 20
601467.9986107335425913
 30
0.0
  0
VERTEX
  5
131D
  8
SURVBND
 10
639145.874679725500755
 20
601472.9963243089150637
 30
0.0
  0
VERTEX
  5
131E
  8
SURVBND
 10
639141.8917142758145928
 20
601476.9982965219533071
 30
0.0
  0
VERTEX
  5
131F
  8
SURVBND
 10
639138.8997384975664318
 20
601478.0035412657307461
 30
0.0
  0
VERTEX
  5
1320
  8
SURVBND
 10
639123.930356225464493
 20
601479.0372961543034762
 30
0.0
  0
VERTEX
  5
1321
  8
SURVBND
 10
639110.9595842143753543
 20
601481.0644165599951521
 30
0.0
  0
VERTEX
  5
1322
  8
SURVBND
 10
639092.9934744732454419
 20
601481.1071817768970504
 30
0.0
  0
VERTEX
  5
1323
  8
SURVBND
 10
639082.016561032505706
 20
601482.1314332839101553
 30
0.0
  0
VERTEX
  5
1324
  8
SURVBND
 10
639065.0485684992745519
 20
601482.171822655480355
 30
0.0
  0
VERTEX
  5
1325
  8
SURVBND
 10
639057.0612549911020324
 20
601481.1927122105844319
 30
0.0
  0
VERTEX
  5
1326
  8
SURVBND
 10
639034.0950558293843642
 20
601477.2548878231318668
 30
0.0
  0
VERTEX
  5
1327
  8
SURVBND
 10
639019.1185460210544989
 20
601475.2942910883575678
 30
0.0
  0
VERTEX
  5
1328
  8
SURVBND
 10
639005.1520326475147158
 20
601478.32190454704687
 30
0.0
  0
VERTEX
  5
1329
  8
SURVBND
 10
639002.16005686938297
 20
601479.3271492910571396
 30
0.0
  0
VERTEX
  5
132A
  8
SURVBND
 10
638999.1657052458031103
 20
601479.3342768272850662
 30
0.0
  0
VERTEX
  5
132B
  8
SURVBND
 10
638991.1665125108556822
 20
601473.3645803432445973
 30
0.0
  0
VERTEX
  5
132C
  8
SURVBND
 10
638984.1464302205713466
 20
601459.4075703512644395
 30
0.0
  0
VERTEX
  5
132D
  8
SURVBND
 10
638976.1163514957297593
 20
601440.4623501654714346
 30
0.0
  0
VERTEX
  5
132E
  8
SURVBND
 10
638967.1237932435469702
 20
601436.4912639424437657
 30
0.0
  0
VERTEX
  5
132F
  8
SURVBND
 10
638957.1354936291463673
 20
601433.5206707727629691
 30
0.0
  0
VERTEX
  5
1330
  8
SURVBND
 10
638948.1405595317482948
 20
601428.5514673420693725
 30
0.0
  0
VERTEX
  5
1331
  8
SURVBND
 10
638944.1362114733783528
 20
601423.570384684484452
 30
0.0
  0
VERTEX
  5
1332
  8
SURVBND
 10
638935.1270223037572578
 20
601412.6124780066311359
 30
0.0
  0
VERTEX
  5
1333
  8
SURVBND
 10
638931.1179225546075031
 20
601405.6351609332486987
 30
0.0
  0
VERTEX
  5
1334
  8
SURVBND
 10
638925.119715926120989
 20
601401.6569471743423492
 30
0.0
  0
VERTEX
  5
1335
  8
SURVBND
 10
638909.1237063015578315
 20
601390.7156714141601697
 30
0.0
  0
VERTEX
  5
1336
  8
SURVBND
 10
638900.1073895955923945
 20
601376.7634131129598245
 30
0.0
  0
VERTEX
  5
1337
  8
SURVBND
 10
638886.0648491695756093
 20
601347.8512759209843352
 30
0.0
  0
VERTEX
  5
1338
  8
SURVBND
 10
638883.0514907833421603
 20
601339.8734657944878563
 30
0.0
  0
VERTEX
  5
1339
  8
SURVBND
 10
638875.0570497389417142
 20
601335.9000037262449041
 30
0.0
  0
VERTEX
  5
133A
  8
SURVBND
 10
638858.0748021332547069
 20
601329.9516898506553844
 30
0.0
  0
VERTEX
  5
133B
  8
SURVBND
 10
638841.1163129816995934
 20
601333.9845480535877869
 30
0.0
  0
VERTEX
  5
133C
  8
SURVBND
 10
638835.1228580439928919
 20
601332.0025687101297081
 30
0.0
  0
VERTEX
  5
133D
  8
SURVBND
 10
638834.0891031553037465
 20
601317.0331864380277693
 30
0.0
  0
VERTEX
  5
133E
  8
SURVBND
 10
638826.0994138019159436
 20
601315.0559587853495032
 30
0.0
  0
VERTEX
  5
133F
  8
SURVBND
 10
638816.1301209504017606
 20
601320.0703032783931121
 30
0.0
  0
VERTEX
  5
1340
  8
SURVBND
 10
638798.1853938178392127
 20
601329.0961233658017591
 30
0.0
  0
VERTEX
  5
1341
  8
SURVBND
 10
638777.2344358348054811
 20
601333.1384849501773715
 30
0.0
  0
VERTEX
  5
1342
  8
SURVBND
 10
638757.2744675234425813
 20
601334.1841190657578409
 30
0.0
  0
VERTEX
  5
1343
  8
SURVBND
 10
638751.2881401218473911
 20
601335.1964913458796218
 30
0.0
  0
VERTEX
  5
1344
  8
SURVBND
 10
638739.3083577824290842
 20
601334.2268842825433239
 30
0.0
  0
VERTEX
  5
1345
  8
SURVBND
 10
638721.3184895875165239
 20
601324.2884774211561307
 30
0.0
  0
VERTEX
  5
1346
  8
SURVBND
 10
638713.3050417802296579
 20
601312.330077690188773
 30
0.0
  0
VERTEX
  5
1347
  8
SURVBND
 10
638702.2711080502485856
 20
601289.3995162091450766
 30
0.0
  0
VERTEX
  5
1348
  8
SURVBND
 10
638697.263891093316488
 20
601282.4245749812107533
 30
0.0
  0
VERTEX
  5
1349
  8
SURVBND
 10
638692.2471707549411803
 20
601271.4571649219142273
 30
0.0
  0
VERTEX
  5
134A
  8
SURVBND
 10
638686.2275815178873017
 20
601258.4958962922682986
 30
0.0
  0
VERTEX
  5
134B
  8
SURVBND
 10
638679.1979958461597562
 20
601240.5464174690423533
 30
0.0
  0
VERTEX
  5
134C
  8
SURVBND
 10
638681.1752234988380224
 20
601232.5567281155381352
 30
0.0
  0
VERTEX
  5
134D
  8
SURVBND
 10
638688.1382854997646064
 20
601222.5589251194614917
 30
0.0
  0
VERTEX
  5
134E
  8
SURVBND
 10
638691.1160062056733295
 20
601215.5649771284079179
 30
0.0
  0
VERTEX
  5
134F
  8
SURVBND
 10
638690.0941305439919233
 20
601205.586180895450525
 30
0.0
  0
VERTEX
  5
1350
  8
SURVBND
 10
638690.0822513172170147
 20
601200.5955948563059792
 30
0.0
  0
VERTEX
  5
1351
  8
SURVBND
 10
638690.0466136363102123
 20
601185.6238367387559265
 30
0.0
  0
VERTEX
  5
1352
  8
SURVBND
 10
638731.9128919217037037
 20
601162.5673554523382336
 30
0.0
  0
VERTEX
  5
1353
  8
SURVBND
 10
638734.8858609367161989
 20
601153.5771730457199737
 30
0.0
  0
VERTEX
  5
1354
  8
SURVBND
 10
638735.8483404638245702
 20
601138.6030390827218071
 30
0.0
  0
VERTEX
  5
1355
  8
SURVBND
 10
638736.7846856918185949
 20
601112.6496158336522058
 30
0.0
  0
VERTEX
  5
1356
  8
SURVBND
 10
638736.7466721655800939
 20
601096.6797405082033947
 30
0.0
  0
VERTEX
  5
1357
  8
SURVBND
 10
638736.7110344847897068
 20
601081.707982390653342
 30
0.0
  0
VERTEX
  5
1358
  8
SURVBND
 10
638757.6382340141572058
 20
601067.6844487278722227
 30
0.0
  0
VERTEX
  5
1359
  8
SURVBND
 10
638762.6026857539545745
 20
601056.6932802149094641
 30
0.0
  0
VERTEX
  5
135A
  8
SURVBND
 10
638778.5321717078331858
 20
601039.6872741555562243
 30
0.0
  0
VERTEX
  5
135B
  8
SURVBND
 10
638777.4889134378172457
 20
601020.7254230519756675
 30
0.0
  0
VERTEX
  5
135C
  8
SURVBND
 10
638780.4642582982778549
 20
601012.7333578530233353
 30
0.0
  0
VERTEX
  5
135D
  8
SURVBND
 10
638782.4414859508397058
 20
601004.7436684996355325
 30
0.0
  0
VERTEX
  5
135E
  8
SURVBND
 10
638782.408224115613848
 20
600990.7700275898678228
 30
0.0
  0
VERTEX
  5
135F
  8
SURVBND
 10
638781.3720933814765885
 20
600974.8025281098671257
 30
0.0
  0
VERTEX
  5
1360
  8
SURVBND
 10
638780.3644727921346202
 20
600970.812435123953037
 30
0.0
  0
VERTEX
  5
1361
  8
SURVBND
 10
638779.344972975901328
 20
600961.8317560987779871
 30
0.0
  0
VERTEX
  5
1362
  8
SURVBND
 10
638781.3222006284631789
 20
600953.8420667452737689
 30
0.0
  0
VERTEX
  5
1363
  8
SURVBND
 10
638783.2780456726904958
 20
600936.8693225213792175
 30
0.0
  0
VERTEX
  5
1364
  8
SURVBND
 10
638786.2343837700318545
 20
600920.8923196599353105
 30
0.0
  0
VERTEX
  5
1365
  8
SURVBND
 10
638788.1878529689274728
 20
600902.9214582280255854
 30
0.0
  0
VERTEX
  5
1366
  8
SURVBND
 10
638787.1540980802383274
 20
600887.9520759558072314
 30
0.0
  0
VERTEX
  5
1367
  8
SURVBND
 10
638787.1065811725566164
 20
600867.9897317992290482
 30
0.0
  0
VERTEX
  5
1368
  8
SURVBND
 10
638789.064802062115632
 20
600852.0151047828840092
 30
0.0
  0
VERTEX
  5
1369
  8
SURVBND
 10
638792.0306435411330312
 20
600840.0305707526858896
 30
0.0
  0
VERTEX
  5
136A
  8
SURVBND
 10
638805.9710226154420525
 20
600826.0236680076923221
 30
0.0
  0
VERTEX
  5
136B
  8
SURVBND
 10
638821.9028844146523625
 20
600810.0157791561214253
 30
0.0
  0
VERTEX
  5
136C
  8
SURVBND
 10
638820.8667536806315184
 20
600794.0482796762371436
 30
0.0
  0
VERTEX
  5
136D
  8
SURVBND
 10
638823.7114270450547338
 20
600731.1597680462291464
 30
0.0
  0
VERTEX
  5
136E
  8
SURVBND
 10
638820.6814377408009022
 20
600716.1951374649070203
 30
0.0
  0
VERTEX
  5
136F
  8
SURVBND
 10
638816.6390761565417051
 20
600695.2441794818732888
 30
0.0
  0
VERTEX
  5
1370
  8
SURVBND
 10
638826.6131206986028701
 20
600692.2260694046271965
 30
0.0
  0
VERTEX
  5
1371
  8
SURVBND
 10
638823.5878830851288512
 20
600679.2576732387533411
 30
0.0
  0
VERTEX
  5
1372
  8
SURVBND
 10
638825.5318489024648443
 20
600657.2943429755978286
 30
0.0
  0
VERTEX
  5
1373
  8
SURVBND
 10
638833.5001556474016979
 20
600650.2885157576529309
 30
0.0
  0
VERTEX
  5
1374
  8
SURVBND
 10
638847.4714207117212936
 20
600649.2571367144118994
 30
0.0
  0
VERTEX
  5
1375
  8
SURVBND
 10
638842.4570762187941
 20
600639.2878438631305471
 30
0.0
  0
VERTEX
  5
1376
  8
SURVBND
 10
638831.4516526333754882
 20
600628.3346888760570437
 30
0.0
  0
VERTEX
  5
1377
  8
SURVBND
 10
638823.4453323622001335
 20
600619.3706407685531303
 30
0.0
  0
VERTEX
  5
1378
  8
SURVBND
 10
638818.4333637146046385
 20
600610.3994651249377057
 30
0.0
  0
VERTEX
  5
1379
  8
SURVBND
 10
638815.4176294824574143
 20
600601.4235377905424684
 30
0.0
  0
VERTEX
  5
137A
  8
SURVBND
 10
638806.4226953851757571
 20
600596.4543343598488718
 30
0.0
  0
VERTEX
  5
137B
  8
SURVBND
 10
638798.4139992686687037
 20
600586.4921690444462001
 30
0.0
  0
VERTEX
  5
137C
  8
SURVBND
 10
638790.3910480798222125
 20
600570.5413004822330549
 30
0.0
  0
VERTEX
  5
137D
  8
SURVBND
 10
638793.3473861771635711
 20
600554.5642976206727326
 30
0.0
  0
VERTEX
  5
137E
  8
SURVBND
 10
638791.3273933076998219
 20
600544.5878772330470383
 30
0.0
  0
VERTEX
  5
137F
  8
SURVBND
 10
638786.3130488146562129
 20
600534.6185843816492707
 30
0.0
  0
VERTEX
  5
1380
  8
SURVBND
 10
638781.3010801670607179
 20
600525.6474087381502613
 30
0.0
  0
VERTEX
  5
1381
  8
SURVBND
 10
638778.278218399034813
 20
600513.6771297799423337
 30
0.0
  0
VERTEX
  5
1382
  8
SURVBND
 10
638763.2613192192511633
 20
600494.748540512053296
 30
0.0
  0
VERTEX
  5
1383
  8
SURVBND
 10
638769.2310157030588016
 20
600486.7493477769894525
 30
0.0
  0
VERTEX
  5
1384
  8
SURVBND
 10
638780.1770431540207937
 20
600472.749572567990981
 30
0.0
  0
VERTEX
  5
1385
  8
SURVBND
 10
638799.1103841129224747
 20
600459.7289078038884327
 30
0.0
  0
VERTEX
  5
1386
  8
SURVBND
 10
638807.0786908578593284
 20
600452.723080585943535
 30
0.0
  0
VERTEX
  5
1387
  8
SURVBND
 10
638820.0280802604975179
 20
600441.7129053097451106
 30
0.0
  0
VERTEX
  5
1388
  8
SURVBND
 10
638823.9944147926289588
 20
600430.7241126419976354
 30
0.0
  0
VERTEX
  5
1389
  8
SURVBND
 10
638830.9503492575604469
 20
600417.7319580224575475
 30
0.0
  0
VERTEX
  5
138A
  8
SURVBND
 10
638842.9443866693181917
 20
600424.6902683327207342
 30
0.0
  0
VERTEX
  5
138B
  8
SURVBND
 10
638855.9460446703014895
 20
600435.6386716288980097
 30
0.0
  0
VERTEX
  5
138C
  8
SURVBND
 10
638865.9200892125954852
 20
600432.6205615516519174
 30
0.0
  0
VERTEX
  5
138D
  8
SURVBND
 10
638887.8572851766366512
 20
600423.5852380825672299
 30
0.0
  0
VERTEX
  5
138E
  8
SURVBND
 10
638894.8155954867834225
 20
600411.5912006709259003
 30
0.0
  0
VERTEX
  5
138F
  8
SURVBND
 10
638905.7616229377454147
 20
600397.5914254620438442
 30
0.0
  0
VERTEX
  5
1390
  8
SURVBND
 10
638909.718454088200815
 20
600382.6101639630505815
 30
0.0
  0
VERTEX
  5
1391
  8
SURVBND
 10
638906.6884647839469835
 20
600367.6455333814956248
 30
0.0
  0
VERTEX
  5
1392
  8
SURVBND
 10
638901.6646169093437493
 20
600353.6837716987356544
 30
0.0
  0
VERTEX
  5
1393
  8
SURVBND
 10
638898.646506832097657
 20
600343.7097271564416587
 30
0.0
  0
VERTEX
  5
1394
  8
SURVBND
 10
638897.6198794797528535
 20
600331.7346965078031644
 30
0.0
  0
VERTEX
  5
1395
  8
SURVBND
 10
638889.6111833632458001
 20
600321.7725311926333234
 30
0.0
  0
VERTEX
  5
1396
  8
SURVBND
 10
638889.5993041362380609
 20
600316.7819451532559469
 30
0.0
  0
VERTEX
  5
1397
  8
SURVBND
 10
638897.553355808951892
 20
600303.7874146883841604
 30
0.0
  0
VERTEX
  5
1398
  8
SURVBND
 10
638902.5486935388762504
 20
600305.7717698771739379
 30
0.0
  0
VERTEX
  5
1399
  8
SURVBND
 10
638904.5187936553265899
 20
600294.7877289003226906
 30
0.0
  0
VERTEX
  5
139A
  8
SURVBND
 10
638905.5002799455542117
 20
600287.7985326000489295
 30
0.0
  0
VERTEX
  5
139B
  8
SURVBND
 10
638905.4693939555436373
 20
600274.8230088980635628
 30
0.0
  0
VERTEX
  5
139C
  8
SURVBND
 10
638900.447921926388517
 20
600261.8593644230859354
 30
0.0
  0
VERTEX
  5
139D
  8
SURVBND
 10
638900.4336668540490791
 20
600255.8706611760426313
 30
0.0
  0
VERTEX
  5
139E
  8
SURVBND
 10
638905.3909910579677671
 20
600241.885141039500013
 30
0.0
  0
VERTEX
  5
139F
  8
SURVBND
 10
638896.3770501974504441
 20
600228.9309999460820109
 30
0.0
  0
VERTEX
  5
13A0
  8
SURVBND
 10
638889.385478051728569
 20
600226.951396448072046
 30
0.0
  0
VERTEX
  5
13A1
  8
SURVBND
 10
638869.4326372767100111
 20
600230.9913821869995445
 30
0.0
  0
VERTEX
  5
13A2
  8
SURVBND
 10
638853.4556344151496887
 20
600228.0350440896581858
 30
0.0
  0
VERTEX
  5
13A3
  8
SURVBND
 10
638838.4672453798120841
 20
600221.0838613156229258
 30
0.0
  0
VERTEX
  5
13A4
  8
SURVBND
 10
638831.4685456979786977
 20
600216.1099061940331012
 30
0.0
  0
VERTEX
  5
13A5
  8
SURVBND
 10
638825.465587378712371
 20
600210.1354580194456503
 30
0.0
  0
VERTEX
  5
13A6
  8
SURVBND
 10
638802.530274206888862
 20
600219.1731573336292058
 30
0.0
  0
VERTEX
  5
13A7
  8
SURVBND
 10
638796.5558260321849957
 20
600225.1761156530119479
 30
0.0
  0
VERTEX
  5
13A8
  8
SURVBND
 10
638790.5885053935926408
 20
600234.173425595741719
 30
0.0
  0
VERTEX
  5
13A9
  8
SURVBND
 10
638780.6287159237544984
 20
600243.1802389201475307
 30
0.0
  0
VERTEX
  5
13AA
  8
SURVBND
 10
638775.6523849568329751
 20
600249.1808213940821588
 30
0.0
  0
VERTEX
  5
13AB
  8
SURVBND
 10
638766.6883368494454771
 20
600257.1871416652575135
 30
0.0
  0
VERTEX
  5
13AC
  8
SURVBND
 10
638761.7143817278556526
 20
600264.1858413469744846
 30
0.0
  0
VERTEX
  5
13AD
  8
SURVBND
 10
638752.7479577751364559
 20
600271.194044410251081
 30
0.0
  0
VERTEX
  5
13AE
  8
SURVBND
 10
638745.7825199286453426
 20
600280.1937301985453814
 30
0.0
  0
VERTEX
  5
13AF
  8
SURVBND
 10
638739.8056959084933624
 20
600285.1985713101457804
 30
0.0
  0
VERTEX
  5
13B0
  8
SURVBND
 10
638730.841647800989449
 20
600293.2048915810883045
 30
0.0
  0
VERTEX
  5
13B1
  8
SURVBND
 10
638719.8718618963612244
 20
600297.2234947116812691
 30
0.0
  0
VERTEX
  5
13B2
  8
SURVBND
 10
638705.9124760590493679
 20
600303.2454597940668464
 30
0.0
  0
VERTEX
  5
13B3
  8
SURVBND
 10
638676.9647011862834916
 20
600302.3162421023007482
 30
0.0
  0
VERTEX
  5
13B4
  8
SURVBND
 10
638657.9885950104799122
 20
600297.3707971252733842
 30
0.0
  0
VERTEX
  5
13B5
  8
SURVBND
 10
638642.0044646128080785
 20
600291.4201074045849964
 30
0.0
  0
VERTEX
  5
13B6
  8
SURVBND
 10
638627.0089480413589627
 20
600281.4745730069698766
 30
0.0
  0
VERTEX
  5
13B7
  8
SURVBND
 10
638611.0058108806842938
 20
600267.5389456233242527
 30
0.0
  0
VERTEX
  5
13B8
  8
SURVBND
 10
638605.9890905421925709
 20
600256.571535564144142
 30
0.0
  0
VERTEX
  5
13B9
  8
SURVBND
 10
638605.9748354699695483
 20
600250.5828323169844225
 30
0.0
  0
VERTEX
  5
13BA
  8
SURVBND
 10
638584.9478504346916452
 20
600222.6854432506952435
 30
0.0
  0
VERTEX
  5
13BB
  8
SURVBND
 10
638555.9620620359200984
 20
600205.7863502334803343
 30
0.0
  0
VERTEX
  5
13BC
  8
SURVBND
 10
638539.9803074835799634
 20
600200.8337777204578742
 30
0.0
  0
VERTEX
  5
13BD
  8
SURVBND
 10
638528.0005251440452412
 20
600199.8641706572379917
 30
0.0
  0
VERTEX
  5
13BE
  8
SURVBND
 10
638515.0321289785206318
 20
600202.8894082707120106
 30
0.0
  0
VERTEX
  5
13BF
  8
SURVBND
 10
638498.0712639812845737
 20
600205.9241492657456547
 30
0.0
  0
VERTEX
  5
13C0
  8
SURVBND
 10
638488.101971129886806
 20
600210.9384937586728483
 30
0.0
  0
VERTEX
  5
13C1
  8
SURVBND
 10
638477.13456107059028
 20
600215.9552140971645713
 30
0.0
  0
VERTEX
  5
13C2
  8
SURVBND
 10
638456.2002340053441003
 20
600226.9843961363658309
 30
0.0
  0
VERTEX
  5
13C3
  8
SURVBND
 10
638450.2424167481949553
 20
600239.9741749105742201
 30
0.0
  0
VERTEX
  5
13C4
  8
SURVBND
 10
638440.2873789690202102
 20
600250.9772226505447179
 30
0.0
  0
VERTEX
  5
13C5
  8
SURVBND
 10
638435.3039204659871757
 20
600253.9834535010159016
 30
0.0
  0
VERTEX
  5
13C6
  8
SURVBND
 10
638431.3399617793038487
 20
600265.9703633765457198
 30
0.0
  0
VERTEX
  5
13C7
  8
SURVBND
 10
638435.3538132191170007
 20
600274.9439148656092584
 30
0.0
  0
VERTEX
  5
13C8
  8
SURVBND
 10
638431.3827269960893318
 20
600283.9364731176756322
 30
0.0
  0
VERTEX
  5
13C9
  8
SURVBND
 10
638426.4063960292842239
 20
600289.9370555916102603
 30
0.0
  0
VERTEX
  5
13CA
  8
SURVBND
 10
638414.4289895353140309
 20
600289.9655657361727208
 30
0.0
  0
VERTEX
  5
13CB
  8
SURVBND
 10
638411.4370137569494545
 20
600290.9708104801829904
 30
0.0
  0
VERTEX
  5
13CC
  8
SURVBND
 10
638392.4632834268268198
 20
600287.0234827110543847
 30
0.0
  0
VERTEX
  5
13CD
  8
SURVBND
 10
638368.5464839646592736
 20
600303.0503783256281167
 30
0.0
  0
VERTEX
  5
13CE
  8
SURVBND
 10
638360.5829289106186479
 20
600312.0524399592541158
 30
0.0
  0
VERTEX
  5
13CF
  8
SURVBND
 10
638370.6068662056932226
 20
600329.9947912466013804
 30
0.0
  0
VERTEX
  5
13D0
  8
SURVBND
 10
638383.6394101969199255
 20
600353.9187182446476072
 30
0.0
  0
VERTEX
  5
13D1
  8
SURVBND
 10
638344.6890806372975931
 20
600344.0302041361574084
 30
0.0
  0
VERTEX
  5
13D2
  8
SURVBND
 10
638299.7856855116551742
 20
600349.1277032175567001
 30
0.0
  0
VERTEX
  5
13D3
  8
SURVBND
 10
638196.6945116583956406
 20
600229.5983503515599295
 30
0.0
  0
VERTEX
  5
13D4
  8
SURVBND
 10
638090.7182750693755224
 20
600155.9895165822235867
 30
0.0
  0
VERTEX
  5
13D5
  8
SURVBND
 10
638092.7073819489451125
 20
600152.9904132679803297
 30
0.0
  0
VERTEX
  5
13D6
  8
SURVBND
 10
638083.7148236968787387
 20
600149.0193270450690761
 30
0.0
  0
VERTEX
  5
13D7
  8
SURVBND
 10
638080.7014653102960438
 20
600141.0415169185725972
 30
0.0
  0
VERTEX
  5
13D8
  8
SURVBND
 10
637978.6250395827228203
 20
600028.4966086620697752
 30
0.0
  0
VERTEX
  5
13D9
  8
SURVBND
 10
637952.4150250322418287
 20
599919.7636049877619371
 30
0.0
  0
VERTEX
  5
13DA
  8
SURVBND
 10
637896.0191580175887793
 20
599709.2939214756479487
 30
0.0
  0
VERTEX
  5
13DB
  8
SURVBND
 10
637781.8845470529049635
 20
599562.841538297245279
 30
0.0
  0
VERTEX
  5
13DC
  8
SURVBND
 10
637688.5892293382203206
 20
599365.4352847662521526
 30
0.0
  0
VERTEX
  5
13DD
  8
SURVBND
 10
637335.1749590210383758
 20
599332.3403489653719589
 30
0.0
  0
VERTEX
  5
13DE
  8
SURVBND
 10
637088.592491777613759
 20
599312.9648386181797832
 30
0.0
  0
VERTEX
  5
13DF
  8
SURVBND
 10
636844.952107559540309
 20
599271.6236221625003964
 30
0.0
  0
VERTEX
  5
13E0
  8
SURVBND
 10
636734.7767035907600075
 20
599111.188094692886807
 30
0.0
  0
VERTEX
  5
13E1
  8
SURVBND
 10
636656.6812251503579319
 20
599009.565455433446914
 30
0.0
  0
VERTEX
  5
13E2
  8
SURVBND
 10
636632.417552262544632
 20
598879.8672387036494911
 30
0.0
  0
VERTEX
  5
13E3
  8
SURVBND
 10
636586.2071800292469561
 20
598755.2118766118073836
 30
0.0
  0
VERTEX
  5
13E4
  8
SURVBND
 10
636516.2867068820632994
 20
598733.4196072161430493
 30
0.0
  0
VERTEX
  5
13E5
  8
SURVBND
 10
636394.418997865403071
 20
598692.7866548317251727
 30
0.0
  0
VERTEX
  5
13E6
  8
SURVBND
 10
636308.5571595375658944
 20
598683.0098054561531171
 30
0.0
  0
VERTEX
  5
13E7
  8
SURVBND
 10
636228.5581046515144408
 20
598620.3184889930998906
 30
0.0
  0
VERTEX
  5
13E8
  8
SURVBND
 10
636143.466302374843508
 20
598514.7200118198525161
 30
0.0
  0
VERTEX
  5
13E9
  8
SURVBND
 10
636150.4079817675519735
 20
598495.739153953269124
 30
0.0
  0
VERTEX
  5
13EA
  8
SURVBND
 10
636137.4277063747867942
 20
598493.7738055274821818
 30
0.0
  0
VERTEX
  5
13EB
  8
SURVBND
 10
636092.4435325060039759
 20
598464.935319542651996
 30
0.0
  0
VERTEX
  5
13EC
  8
SURVBND
 10
636041.4564003179548308
 20
598430.1223853830015287
 30
0.0
  0
VERTEX
  5
13ED
  8
SURVBND
 10
636002.5227016762364656
 20
598427.2206917292205617
 30
0.0
  0
VERTEX
  5
13EE
  8
SURVBND
 10
635969.5301893736468628
 20
598404.3423988467548043
 30
0.0
  0
VERTEX
  5
13EF
  8
SURVBND
 10
635901.4966617547906935
 20
598336.6319861997617409
 30
0.0
  0
VERTEX
  5
13F0
  8
SURVBND
 10
635830.4497757493518293
 20
598260.9437634263886139
 30
0.0
  0
VERTEX
  5
13F1
  8
SURVBND
 10
635802.3813258153386414
 20
598210.1063094973796979
 30
0.0
  0
VERTEX
  5
13F2
  8
SURVBND
 10
635781.297320490819402
 20
598158.2541074430337176
 30
0.0
  0
VERTEX
  5
13F3
  8
SURVBND
 10
635773.29575191042386
 20
598151.2862937510944903
 30
0.0
  0
VERTEX
  5
13F4
  8
SURVBND
 10
635770.284769369289279
 20
598144.3066008324967697
 30
0.0
  0
VERTEX
  5
13F5
  8
SURVBND
 10
635722.3157472586026415
 20
598119.4677112149074674
 30
0.0
  0
VERTEX
  5
13F6
  8
SURVBND
 10
635656.2333129930775613
 20
598032.7883199283387512
 30
0.0
  0
VERTEX
  5
13F7
  8
SURVBND
 10
635553.3987304412294179
 20
598021.055625508655794
 30
0.0
  0
VERTEX
  5
13F8
  8
SURVBND
 10
635526.2381155906477943
 20
597932.2873418366070837
 30
0.0
  0
VERTEX
  5
13F9
  8
SURVBND
 10
635472.1283361283130944
 20
597843.5832059897948056
 30
0.0
  0
VERTEX
  5
13FA
  8
SURVBND
 10
635440.1363168790703639
 20
597821.7006544696632773
 30
0.0
  0
VERTEX
  5
13FB
  8
SURVBND
 10
635394.1160122763831168
 20
597776.8946690045995638
 30
0.0
  0
VERTEX
  5
13FC
  8
SURVBND
 10
635350.0919420893769711
 20
597732.083931848872453
 30
0.0
  0
VERTEX
  5
13FD
  8
SURVBND
 10
635325.0225954696070403
 20
597683.2355847995495424
 30
0.0
  0
VERTEX
  5
13FE
  8
SURVBND
 10
635297.9498868981609121
 20
597631.397637817193754
 30
0.0
  0
VERTEX
  5
13FF
  8
SURVBND
 10
635253.9020582572557032
 20
597576.6057285830611363
 30
0.0
  0
VERTEX
  5
1400
  8
SURVBND
 10
635217.8344155882950872
 20
597519.7985781701281667
 30
0.0
  0
VERTEX
  5
1401
  8
SURVBND
 10
635173.8150970920687541
 20
597476.9840754299657419
 30
0.0
  0
VERTEX
  5
1402
  8
SURVBND
 10
635139.7864540556911379
 20
597438.1382830673828721
 30
0.0
  0
VERTEX
  5
1403
  8
SURVBND
 10
635098.7567354921484366
 20
597393.3204183754278347
 30
0.0
  0
VERTEX
  5
1404
  8
SURVBND
 10
635051.7359378362307325
 20
597347.5186915479134768
 30
0.0
  0
VERTEX
  5
1405
  8
SURVBND
 10
634998.6741683348082006
 20
597279.772641220362857
 30
0.0
  0
VERTEX
  5
1406
  8
SURVBND
 10
634956.6273258003639057
 20
597226.9722147110151127
 30
0.0
  0
VERTEX
  5
1407
  8
SURVBND
 10
634914.5804832659196109
 20
597174.1717882017837837
 30
0.0
  0
VERTEX
  5
1408
  8
SURVBND
 10
634851.5494209130993113
 20
597111.4400823671603575
 30
0.0
  0
VERTEX
  5
1409
  8
SURVBND
 10
634807.5134714990854263
 20
597061.6387591720558703
 30
0.0
  0
VERTEX
  5
140A
  8
SURVBND
 10
634751.4977397457696497
 20
597010.8678289139643312
 30
0.0
  0
VERTEX
  5
140B
  8
SURVBND
 10
634671.4773022512672469
 20
596939.1934575804043561
 30
0.0
  0
VERTEX
  5
140C
  8
SURVBND
 10
634620.4664116093190387
 20
596894.3993513422319666
 30
0.0
  0
VERTEX
  5
140D
  8
SURVBND
 10
634578.4599584464449435
 20
596858.566917366348207
 30
0.0
  0
VERTEX
  5
140E
  8
SURVBND
 10
634531.4866776979761198
 20
596832.7275346954120323
 30
0.0
  0
VERTEX
  5
140F
  8
SURVBND
 10
634454.5603773331968114
 20
596802.9669585548108444
 30
0.0
  0
VERTEX
  5
1410
  8
SURVBND
 10
634401.6197759463684633
 20
596786.1248858269536868
 30
0.0
  0
VERTEX
  5
1411
  8
SURVBND
 10
634386.6123801481444389
 20
596771.1887653900776058
 30
0.0
  0
VERTEX
  5
1412
  8
SURVBND
 10
634371.6382461851462722
 20
596770.2262858629692346
 30
0.0
  0
VERTEX
  5
1413
  8
SURVBND
 10
634366.6690427543362603
 20
596779.2212199603673071
 30
0.0
  0
VERTEX
  5
1414
  8
SURVBND
 10
634344.7627327805384994
 20
596801.2320671313209459
 30
0.0
  0
VERTEX
  5
1415
  8
SURVBND
 10
634326.8227573386393487
 20
596812.2541216342942789
 30
0.0
  0
VERTEX
  5
1416
  8
SURVBND
 10
634303.8351755683543161
 20
596799.3332423763349652
 30
0.0
  0
VERTEX
  5
1417
  8
SURVBND
 10
634274.8351320972433314
 20
596776.4454461120767519
 30
0.0
  0
VERTEX
  5
1418
  8
SURVBND
 10
634243.8412300558993593
 20
596754.5605187466135249
 30
0.0
  0
VERTEX
  5
1419
  8
SURVBND
 10
634224.8009760547429323
 20
596722.6659091580659151
 30
0.0
  0
VERTEX
  5
141A
  8
SURVBND
 10
634202.7853771931258962
 20
596698.7633647684706375
 30
0.0
  0
VERTEX
  5
141B
  8
SURVBND
 10
634177.7778025533771142
 20
596675.8660651227692142
 30
0.0
  0
VERTEX
  5
141C
  8
SURVBND
 10
634148.7801349277142435
 20
596653.9763860664097592
 30
0.0
  0
VERTEX
  5
141D
  8
SURVBND
 10
634126.7716636022087187
 20
596633.068193300277926
 30
0.0
  0
VERTEX
  5
141E
  8
SURVBND
 10
634106.7356682386016473
 20
596602.1740767649607733
 30
0.0
  0
VERTEX
  5
141F
  8
SURVBND
 10
634082.7285866521997377
 20
596580.2725184818264097
 30
0.0
  0
VERTEX
  5
1420
  8
SURVBND
 10
634057.7328912393422797
 20
596562.3658048752695322
 30
0.0
  0
VERTEX
  5
1421
  8
SURVBND
 10
634023.7565168014261872
 20
596545.4785910850623623
 30
0.0
  0
VERTEX
  5
1422
  8
SURVBND
 10
633999.7708178233588114
 20
596532.5600876724347472
 30
0.0
  0
VERTEX
  5
1423
  8
SURVBND
 10
633971.7997775501571596
 20
596522.6454392647137865
 30
0.0
  0
VERTEX
  5
1424
  8
SURVBND
 10
633949.8316955961054191
 20
596518.7052390318131074
 30
0.0
  0
VERTEX
  5
1425
  8
SURVBND
 10
633913.885221041738987
 20
596512.8020662185736001
 30
0.0
  0
VERTEX
  5
1426
  8
SURVBND
 10
633877.9482498688157648
 20
596510.8913622366962954
 30
0.0
  0
VERTEX
  5
1427
  8
SURVBND
 10
633852.97631290985737
 20
596502.9658207085449249
 30
0.0
  0
VERTEX
  5
1428
  8
SURVBND
 10
633831.987341400817968
 20
596491.0383069675881416
 30
0.0
  0
VERTEX
  5
1429
  8
SURVBND
 10
633811.9869837178848684
 20
596475.1159485498210415
 30
0.0
  0
VERTEX
  5
142A
  8
SURVBND
 10
633793.9662295329617336
 20
596452.202017986564897
 30
0.0
  0
VERTEX
  5
142B
  8
SURVBND
 10
633775.9621062657097355
 20
596436.2749078780179843
 30
0.0
  0
VERTEX
  5
142C
  8
SURVBND
 10
633745.9710731230443344
 20
596416.3838390826713294
 30
0.0
  0
VERTEX
  5
142D
  8
SURVBND
 10
633717.966771014383994
 20
596392.4955497654154897
 30
0.0
  0
VERTEX
  5
142E
  8
SURVBND
 10
633702.9688785976031795
 20
596381.5518981599016115
 30
0.0
  0
VERTEX
  5
142F
  8
SURVBND
 10
633682.9922793685691431
 20
596375.6107118205400184
 30
0.0
  0
VERTEX
  5
1430
  8
SURVBND
 10
633663.0204318304313347
 20
596371.6657598967431113
 30
0.0
  0
VERTEX
  5
1431
  8
SURVBND
 10
633644.0538290360709652
 20
596370.7127837513107806
 30
0.0
  0
VERTEX
  5
1432
  8
SURVBND
 10
633614.1316954093053937
 20
596379.7671139833983034
 30
0.0
  0
VERTEX
  5
1433
  8
SURVBND
 10
633589.2239062758162618
 20
596398.7907370667671785
 30
0.0
  0
VERTEX
  5
1434
  8
SURVBND
 10
633584.2998439073562622
 20
596426.7498981133103371
 30
0.0
  0
VERTEX
  5
1435
  8
SURVBND
 10
633592.3584327767603099
 20
596457.672524793073535
 30
0.0
  0
VERTEX
  5
1436
  8
SURVBND
 10
633606.4009732026606798
 20
596486.5846619850490242
 30
0.0
  0
VERTEX
  5
1437
  8
SURVBND
 10
633612.4443208934972063
 20
596509.5271026927512139
 30
0.0
  0
VERTEX
  5
1438
  8
SURVBND
 10
633617.5204373664455488
 20
596545.4474429481197149
 30
0.0
  0
VERTEX
  5
1439
  8
SURVBND
 10
633632.5777259177993983
 20
596581.3440247494727373
 30
0.0
  0
VERTEX
  5
143A
  8
SURVBND
 10
633623.7015840894309804
 20
596626.2806817104574293
 30
0.0
  0
VERTEX
  5
143B
  8
SURVBND
 10
633612.8505904539488256
 20
596680.2051452328450978
 30
0.0
  0
VERTEX
  5
143C
  8
SURVBND
 10
633605.9350453605875373
 20
596710.1652923858491704
 30
0.0
  0
VERTEX
  5
143D
  8
SURVBND
 10
633602.0067243545781821
 20
596737.1239603789290413
 30
0.0
  0
VERTEX
  5
143E
  8
SURVBND
 10
633596.0987998505588621
 20
596771.0742005176143721
 30
0.0
  0
VERTEX
  5
143F
  8
SURVBND
 10
633574.1853623404167593
 20
596790.0906960649881512
 30
0.0
  0
VERTEX
  5
1440
  8
SURVBND
 10
633561.2359729377785698
 20
596801.1008713411865756
 30
0.0
  0
VERTEX
  5
1441
  8
SURVBND
 10
633547.2789629456819966
 20
596808.1209536313544959
 30
0.0
  0
VERTEX
  5
1442
  8
SURVBND
 10
633528.3551253684563562
 20
596825.134087226819247
 30
0.0
  0
VERTEX
  5
1443
  8
SURVBND
 10
633510.4341566895600408
 20
596844.1410793927498162
 30
0.0
  0
VERTEX
  5
1444
  8
SURVBND
 10
633499.5166393832769245
 20
596870.1182610956020653
 30
0.0
  0
VERTEX
  5
1445
  8
SURVBND
 10
633483.6180394194088876
 20
596900.0997908569406718
 30
0.0
  0
VERTEX
  5
1446
  8
SURVBND
 10
633470.7042876974446699
 20
596926.0817242505727336
 30
0.0
  0
VERTEX
  5
1447
  8
SURVBND
 10
633456.7662844684673473
 20
596941.0867442034650594
 30
0.0
  0
VERTEX
  5
1448
  8
SURVBND
 10
633436.8110678478842601
 20
596944.1286127346102148
 30
0.0
  0
VERTEX
  5
1449
  8
SURVBND
 10
633419.8525786963291466
 20
596948.1614709375426173
 30
0.0
  0
VERTEX
  5
144A
  8
SURVBND
 10
633392.9224208476953208
 20
596956.2105564255034551
 30
0.0
  0
VERTEX
  5
144B
  8
SURVBND
 10
633369.9728526036487892
 20
596959.2595524928765371
 30
0.0
  0
VERTEX
  5
144C
  8
SURVBND
 10
633357.0068322832230479
 20
596963.282907314132899
 30
0.0
  0
VERTEX
  5
144D
  8
SURVBND
 10
633343.0308155282400548
 20
596962.3180519416928291
 30
0.0
  0
VERTEX
  5
144E
  8
SURVBND
 10
633332.0586537780473009
 20
596965.3385378643870354
 30
0.0
  0
VERTEX
  5
144F
  8
SURVBND
 10
633315.0859095541527495
 20
596963.3826928202761337
 30
0.0
  0
VERTEX
  5
1450
  8
SURVBND
 10
633292.1363413099898025
 20
596966.4316888875328004
 30
0.0
  0
VERTEX
  5
1451
  8
SURVBND
 10
633271.1925108630675822
 20
596973.4684020956046879
 30
0.0
  0
VERTEX
  5
1452
  8
SURVBND
 10
633256.2421353538520634
 20
596982.4870946466689929
 30
0.0
  0
VERTEX
  5
1453
  8
SURVBND
 10
633237.318297776626423
 20
596999.5002282422501594
 30
0.0
  0
VERTEX
  5
1454
  8
SURVBND
 10
633223.3921737746568397
 20
597019.4958342344034463
 30
0.0
  0
VERTEX
  5
1455
  8
SURVBND
 10
633211.4670358789153397
 20
597041.482922951458022
 30
0.0
  0
VERTEX
  5
1456
  8
SURVBND
 10
633201.5428840897511691
 20
597065.4614943932974711
 30
0.0
  0
VERTEX
  5
1457
  8
SURVBND
 10
633201.614159451215528
 20
597095.4050106283975765
 30
0.0
  0
VERTEX
  5
1458
  8
SURVBND
 10
633211.6404725918546319
 20
597114.3454791235271841
 30
0.0
  0
VERTEX
  5
1459
  8
SURVBND
 10
633223.6748993750661612
 20
597138.2717819669051096
 30
0.0
  0
VERTEX
  5
145A
  8
SURVBND
 10
633242.6985224585514516
 20
597163.1795711005106568
 30
0.0
  0
VERTEX
  5
145B
  8
SURVBND
 10
633276.6131249164463952
 20
597154.1157374869799241
 30
0.0
  0
VERTEX
  5
145C
  8
SURVBND
 10
633304.5390241275308654
 20
597145.0661589457886294
 30
0.0
  0
VERTEX
  5
145D
  8
SURVBND
 10
633306.5708962241187692
 20
597160.0331653725588694
 30
0.0
  0
VERTEX
  5
145E
  8
SURVBND
 10
633305.6345509961247444
 20
597185.986588621744886
 30
0.0
  0
VERTEX
  5
145F
  8
SURVBND
 10
633302.6734612080035731
 20
597199.967357067624107
 30
0.0
  0
VERTEX
  5
1460
  8
SURVBND
 10
633295.7341576607432216
 20
597219.9463321419898421
 30
0.0
  0
VERTEX
  5
1461
  8
SURVBND
 10
633286.8057472341461107
 20
597242.9244105305988342
 30
0.0
  0
VERTEX
  5
1462
  8
SURVBND
 10
633277.8868401888757944
 20
597269.8949577506864443
 30
0.0
  0
VERTEX
  5
1463
  8
SURVBND
 10
633269.9612986607244238
 20
597294.8668947096448392
 30
0.0
  0
VERTEX
  5
1464
  8
SURVBND
 10
633259.017647055326961
 20
597309.8647871264256537
 30
0.0
  0
VERTEX
  5
1465
  8
SURVBND
 10
633241.1085576034383848
 20
597333.8623653313843533
 30
0.0
  0
VERTEX
  5
1466
  8
SURVBND
 10
633231.1582715150434524
 20
597346.8616474871523678
 30
0.0
  0
VERTEX
  5
1467
  8
SURVBND
 10
633222.1965992528712377
 20
597355.8660849661100656
 30
0.0
  0
VERTEX
  5
1468
  8
SURVBND
 10
633209.2472098502330482
 20
597366.87626024230849
 30
0.0
  0
VERTEX
  5
1469
  8
SURVBND
 10
633190.3091172005515546
 20
597377.900690590729937
 30
0.0
  0
VERTEX
  5
146A
  8
SURVBND
 10
633175.3563658462371677
 20
597385.9212659342447296
 30
0.0
  0
VERTEX
  5
146B
  8
SURVBND
 10
633168.4146864535287023
 20
597404.9021238009445369
 30
0.0
  0
VERTEX
  5
146C
  8
SURVBND
 10
633164.4459760759491473
 20
597414.8927992606768385
 30
0.0
  0
VERTEX
  5
146D
  8
SURVBND
 10
633164.4768620659597218
 20
597427.8683229625457898
 30
0.0
  0
VERTEX
  5
146E
  8
SURVBND
 10
633165.5129927997477353
 20
597443.8358224425464869
 30
0.0
  0
VERTEX
  5
146F
  8
SURVBND
 10
633161.5490341131808236
 20
597455.8227323181927204
 30
0.0
  0
VERTEX
  5
1470
  8
SURVBND
 10
633155.5817134745884687
 20
597464.8200422610389069
 30
0.0
  0
VERTEX
  5
1471
  8
SURVBND
 10
633146.6342962847556919
 20
597479.8131829870399088
 30
0.0
  0
VERTEX
  5
1472
  8
SURVBND
 10
633132.6844138287706301
 20
597489.8276169006712735
 30
0.0
  0
VERTEX
  5
1473
  8
SURVBND
 10
633111.7287041550735012
 20
597491.8737440693657845
 30
0.0
  0
VERTEX
  5
1474
  8
SURVBND
 10
633100.7517907144501805
 20
597492.8979955764953047
 30
0.0
  0
VERTEX
  5
1475
  8
SURVBND
 10
633089.7986357272602618
 20
597503.9034191619139165
 30
0.0
  0
VERTEX
  5
1476
  8
SURVBND
 10
633088.8480354270432144
 20
597523.8681391640566289
 30
0.0
  0
VERTEX
  5
1477
  8
SURVBND
 10
633090.8965384411858395
 20
597545.8219660456525162
 30
0.0
  0
VERTEX
  5
1478
  8
SURVBND
 10
633091.9611793197691441
 20
597573.7668720196234062
 30
0.0
  0
VERTEX
  5
1479
  8
SURVBND
 10
633092.020575454342179
 20
597598.7198022155789658
 30
0.0
  0
VERTEX
  5
147A
  8
SURVBND
 10
633095.0695715215988457
 20
597621.6693704597419128
 30
0.0
  0
VERTEX
  5
147B
  8
SURVBND
 10
633095.1265918109565973
 20
597645.624183447798714
 30
0.0
  0
VERTEX
  5
147C
  8
SURVBND
 10
633093.1683709212811664
 20
597661.5988104639109224
 30
0.0
  0
VERTEX
  5
147D
  8
SURVBND
 10
633068.2985953139141202
 20
597696.5923088728450239
 30
0.0
  0
VERTEX
  5
147E
  8
SURVBND
 10
633051.3709921520203352
 20
597713.6006907776463777
 30
0.0
  0
VERTEX
  5
147F
  8
SURVBND
 10
633036.4111132614780217
 20
597718.6269144974648952
 30
0.0
  0
VERTEX
  5
1480
  8
SURVBND
 10
633019.4431207282468677
 20
597718.667303869035095
 30
0.0
  0
VERTEX
  5
1481
  8
SURVBND
 10
633004.461859229253605
 20
597714.710472718346864
 30
0.0
  0
VERTEX
  5
1482
  8
SURVBND
 10
632977.4841844730544835
 20
597702.7972140496131033
 30
0.0
  0
VERTEX
  5
1483
  8
SURVBND
 10
632955.5089749828912318
 20
597695.8626621932489797
 30
0.0
  0
VERTEX
  5
1484
  8
SURVBND
 10
632939.5319721213309094
 20
597692.9063240957912058
 30
0.0
  0
VERTEX
  5
1485
  8
SURVBND
 10
632913.5880522537045181
 20
597695.9624476992757991
 30
0.0
  0
VERTEX
  5
1486
  8
SURVBND
 10
632891.6627355166710913
 20
597709.9883572075050324
 30
0.0
  0
VERTEX
  5
1487
  8
SURVBND
 10
632864.7682153488276526
 20
597733.0092008131323382
 30
0.0
  0
VERTEX
  5
1488
  8
SURVBND
 10
632843.8623984281439334
 20
597756.0157893464202061
 30
0.0
  0
VERTEX
  5
1489
  8
SURVBND
 10
632819.9598540384322405
 20
597778.031388207920827
 30
0.0
  0
VERTEX
  5
148A
  8
SURVBND
 10
632795.0615682862699032
 20
597801.0474801226519048
 30
0.0
  0
VERTEX
  5
148B
  8
SURVBND
 10
632778.1292134338291362
 20
597816.0596276118885726
 30
0.0
  0
VERTEX
  5
148C
  8
SURVBND
 10
632760.2034930641530082
 20
597833.0703853619052097
 30
0.0
  0
VERTEX
  5
148D
  8
SURVBND
 10
632756.2632928313687444
 20
597855.0384673159569502
 30
0.0
  0
VERTEX
  5
148E
  8
SURVBND
 10
632766.2729750543367118
 20
597866.99211535602808
 30
0.0
  0
VERTEX
  5
148F
  8
SURVBND
 10
632789.2391742160543799
 20
597870.9299397435970604
 30
0.0
  0
VERTEX
  5
1490
  8
SURVBND
 10
632818.186949088703841
 20
597871.8591574353631586
 30
0.0
  0
VERTEX
  5
1491
  8
SURVBND
 10
632841.1531482506543398
 20
597875.7969818230485544
 30
0.0
  0
VERTEX
  5
1492
  8
SURVBND
 10
632869.128940214519389
 20
597887.7078646462177858
 30
0.0
  0
VERTEX
  5
1493
  8
SURVBND
 10
632882.1947460409719497
 20
597925.6054325540317222
 30
0.0
  0
VERTEX
  5
1494
  8
SURVBND
 10
632878.294935179525055
 20
597964.5415070411982015
 30
0.0
  0
VERTEX
  5
1495
  8
SURVBND
 10
632877.344334879424423
 20
597984.5062270434573293
 30
0.0
  0
VERTEX
  5
1496
  8
SURVBND
 10
632863.4443451765691862
 20
598015.4811223215656355
 30
0.0
  0
VERTEX
  5
1497
  8
SURVBND
 10
632879.452234028140083
 20
598031.4129841208923608
 30
0.0
  0
VERTEX
  5
1498
  8
SURVBND
 10
632931.3590805262792856
 20
598033.2856745766475797
 30
0.0
  0
VERTEX
  5
1499
  8
SURVBND
 10
632947.3907278316328302
 20
598059.1987084542633966
 30
0.0
  0
VERTEX
  5
149A
  8
SURVBND
 10
632961.4522750206524506
 20
598096.095783308846876
 30
0.0
  0
VERTEX
  5
149B
  8
SURVBND
 10
632958.5933465838897973
 20
598152.9955916916951537
 30
0.0
  0
VERTEX
  5
149C
  8
SURVBND
 10
632972.6192560920026153
 20
598174.9209084288449958
 30
0.0
  0
VERTEX
  5
149D
  8
SURVBND
 10
632976.6378592225955799
 20
598185.8906943334732205
 30
0.0
  0
VERTEX
  5
149E
  8
SURVBND
 10
632979.7082378983031958
 20
598217.8233174480265006
 30
0.0
  0
VERTEX
  5
149F
  8
SURVBND
 10
632975.7870444286381826
 20
598247.7763370646862313
 30
0.0
  0
VERTEX
  5
14A0
  8
SURVBND
 10
632975.8440647176466882
 20
598271.7311500527430326
 30
0.0
  0
VERTEX
  5
14A1
  8
SURVBND
 10
632974.9077194897690788
 20
598297.6845733020454645
 30
0.0
  0
VERTEX
  5
14A2
  8
SURVBND
 10
632981.9658153061755002
 20
598327.611458619358018
 30
0.0
  0
VERTEX
  5
14A3
  8
SURVBND
 10
632988.004411306232214
 20
598348.557664911611937
 30
0.0
  0
VERTEX
  5
14A4
  8
SURVBND
 10
633005.0389275101479143
 20
598376.4645573594607413
 30
0.0
  0
VERTEX
  5
14A5
  8
SURVBND
 10
633017.0614750664681196
 20
598395.4002741638105363
 30
0.0
  0
VERTEX
  5
14A6
  8
SURVBND
 10
633033.0978740626014769
 20
598423.3095424571074545
 30
0.0
  0
VERTEX
  5
14A7
  8
SURVBND
 10
633043.1123079762328416
 20
598437.259424912976101
 30
0.0
  0
VERTEX
  5
14A8
  8
SURVBND
 10
633056.1305968950036913
 20
598455.194648664095439
 30
0.0
  0
VERTEX
  5
14A9
  8
SURVBND
 10
633073.1556097174761817
 20
598479.1090722806984559
 30
0.0
  0
VERTEX
  5
14AA
  8
SURVBND
 10
633083.1747953221201897
 20
598495.0551891522482038
 30
0.0
  0
VERTEX
  5
14AB
  8
SURVBND
 10
633097.203080675448291
 20
598517.9786230970639735
 30
0.0
  0
VERTEX
  5
14AC
  8
SURVBND
 10
633107.217514589196071
 20
598531.9285055530490354
 30
0.0
  0
VERTEX
  5
14AD
  8
SURVBND
 10
633120.2334276627516374
 20
598548.865612096269615
 30
0.0
  0
VERTEX
  5
14AE
  8
SURVBND
 10
633131.2554821657249704
 20
598566.8055875380523503
 30
0.0
  0
VERTEX
  5
14AF
  8
SURVBND
 10
633146.2771330362884328
 20
598587.7304112219717354
 30
0.0
  0
VERTEX
  5
14B0
  8
SURVBND
 10
633160.2982908536214381
 20
598607.6594935433240607
 30
0.0
  0
VERTEX
  5
14B1
  8
SURVBND
 10
633173.3118280816124752
 20
598623.5984828787622973
 30
0.0
  0
VERTEX
  5
14B2
  8
SURVBND
 10
633201.3327611079439521
 20
598654.4735926509601995
 30
0.0
  0
VERTEX
  5
14B3
  8
SURVBND
 10
633225.3493460760219023
 20
598680.3676197654567659
 30
0.0
  0
VERTEX
  5
14B4
  8
SURVBND
 10
633242.3624796714866534
 20
598699.2914573430316523
 30
0.0
  0
VERTEX
  5
14B5
  8
SURVBND
 10
633273.3872677028411999
 20
598734.1519084103638306
 30
0.0
  0
VERTEX
  5
14B6
  8
SURVBND
 10
633298.4186007963726297
 20
598767.0303801343543455
 30
0.0
  0
VERTEX
  5
14B7
  8
SURVBND
 10
633332.4519955236464739
 20
598807.8724069126183167
 30
0.0
  0
VERTEX
  5
14B8
  8
SURVBND
 10
633372.4835968792904168
 20
598852.6926474500214681
 30
0.0
  0
VERTEX
  5
14B9
  8
SURVBND
 10
633407.5341155773494393
 20
598901.5172360455617309
 30
0.0
  0
VERTEX
  5
14BA
  8
SURVBND
 10
633443.5661205656360835
 20
598943.3526283409446478
 30
0.0
  0
VERTEX
  5
14BB
  8
SURVBND
 10
633484.5910874382825568
 20
598986.1742586172185838
 30
0.0
  0
VERTEX
  5
14BC
  8
SURVBND
 10
633574.7542544972384349
 20
599125.6968416299205273
 30
0.0
  0
VERTEX
  5
14BD
  8
SURVBND
 10
633619.8310863359365612
 20
599193.4618987205903977
 30
0.0
  0
VERTEX
  5
14BE
  8
SURVBND
 10
633659.8603118462488055
 20
599237.2840220500947908
 30
0.0
  0
VERTEX
  5
14BF
  8
SURVBND
 10
633683.8792726596584544
 20
599264.1761663724901155
 30
0.0
  0
VERTEX
  5
14C0
  8
SURVBND
 10
633726.9836285364581272
 20
599341.9271472323453054
 30
0.0
  0
VERTEX
  5
14C1
  8
SURVBND
 10
633752.0410959292203188
 20
599385.7849082425236702
 30
0.0
  0
VERTEX
  5
14C2
  8
SURVBND
 10
633777.0938116312026978
 20
599427.6464348372537643
 30
0.0
  0
VERTEX
  5
14C3
  8
SURVBND
 10
633808.113847971893847
 20
599460.5106514889048412
 30
0.0
  0
VERTEX
  5
14C4
  8
SURVBND
 10
633832.1470638575265184
 20
599493.3914990582270548
 30
0.0
  0
VERTEX
  5
14C5
  8
SURVBND
 10
633869.1866894350387156
 20
599539.2169843396404758
 30
0.0
  0
VERTEX
  5
14C6
  8
SURVBND
 10
633882.1907232815865427
 20
599551.1635048437165096
 30
0.0
  0
VERTEX
  5
14C7
  8
SURVBND
 10
633907.1959220758872107
 20
599573.0626872815191746
 30
0.0
  0
VERTEX
  5
14C8
  8
SURVBND
 10
633906.3094696011394262
 20
599619.9765718951821327
 30
0.0
  0
VERTEX
  5
14C9
  8
SURVBND
 10
633882.4877039544517174
 20
599675.9281558232614771
 30
0.0
  0
VERTEX
  5
14CA
  8
SURVBND
 10
633872.5611763198394328
 20
599698.9086100573185831
 30
0.0
  0
VERTEX
  5
14CB
  8
SURVBND
 10
633805.8845185615355149
 20
599781.9115199483931065
 30
0.0
  0
VERTEX
  5
14CC
  8
SURVBND
 10
633755.1468501386698335
 20
599851.900892611593008
 30
0.0
  0
VERTEX
  5
14CD
  8
SURVBND
 10
633730.288953758077696
 20
599891.88497705955524
 30
0.0
  0
VERTEX
  5
14CE
  8
SURVBND
 10
633711.3532369538443163
 20
599903.9075246158754453
 30
0.0
  0
VERTEX
  5
14CF
  8
SURVBND
 10
633696.4028614447452128
 20
599912.9262171670561656
 30
0.0
  0
VERTEX
  5
14D0
  8
SURVBND
 10
633660.5157830248354003
 20
599931.9759745500050485
 30
0.0
  0
VERTEX
  5
14D1
  8
SURVBND
 10
633617.5872397063067183
 20
599928.0856670701177791
 30
0.0
  0
VERTEX
  5
14D2
  8
SURVBND
 10
633624.4671471189940348
 20
599883.1537617996800691
 30
0.0
  0
VERTEX
  5
14D3
  8
SURVBND
 10
633625.4320024915505201
 20
599869.1777450445806608
 30
0.0
  0
VERTEX
  5
14D4
  8
SURVBND
 10
633600.4410587693564594
 20
599853.2672658537048846
 30
0.0
  0
VERTEX
  5
14D5
  8
SURVBND
 10
633544.53936759440694
 20
599850.4059615718433633
 30
0.0
  0
VERTEX
  5
14D6
  8
SURVBND
 10
633487.641935056890361
 20
599848.5451503427466378
 30
0.0
  0
VERTEX
  5
14D7
  8
SURVBND
 10
633445.7305157092632726
 20
599852.6374046802520752
 30
0.0
  0
VERTEX
  5
14D8
  8
SURVBND
 10
633394.7932762742275372
 20
599838.7849318850785494
 30
0.0
  0
VERTEX
  5
14D9
  8
SURVBND
 10
633333.865361379343085
 20
599820.9637487123254687
 30
0.0
  0
VERTEX
  5
14DA
  8
SURVBND
 10
633277.8852673067012802
 20
599785.1645765716675669
 30
0.0
  0
VERTEX
  5
14DB
  8
SURVBND
 10
633235.9334585877368227
 20
599772.2888383758254349
 30
0.0
  0
VERTEX
  5
14DC
  8
SURVBND
 10
633185.0674945140490308
 20
599788.3798818157520145
 30
0.0
  0
VERTEX
  5
14DD
  8
SURVBND
 10
633164.1212882216786966
 20
599794.4184778159251437
 30
0.0
  0
VERTEX
  5
14DE
  8
SURVBND
 10
633120.2373929122695699
 20
599808.49665592238307
 30
0.0
  0
VERTEX
  5
14DF
  8
SURVBND
 10
633058.3992670888546854
 20
599827.6081852850038558
 30
0.0
  0
VERTEX
  5
14E0
  8
SURVBND
 10
633014.5367543876636773
 20
599850.669418262084946
 30
0.0
  0
VERTEX
  5
14E1
  8
SURVBND
 10
632971.658103822148405
 20
599867.7395721469074488
 30
0.0
  0
VERTEX
  5
14E2
  8
SURVBND
 10
632928.7651981844101101
 20
599878.8210227844538167
 30
0.0
  0
VERTEX
  5
14E3
  8
SURVBND
 10
632882.8874443046515808
 20
599893.9020697897067294
 30
0.0
  0
VERTEX
  5
14E4
  8
SURVBND
 10
632835.015831854660064
 20
599909.9859856934053823
 30
0.0
  0
VERTEX
  5
14E5
  8
SURVBND
 10
632791.1129297821316868
 20
599916.0792261372553185
 30
0.0
  0
VERTEX
  5
14E6
  8
SURVBND
 10
632747.1672624927014112
 20
599904.2063568400917575
 30
0.0
  0
VERTEX
  5
14E7
  8
SURVBND
 10
632727.2025424905586988
 20
599903.2557565398747101
 30
0.0
  0
VERTEX
  5
14E8
  8
SURVBND
 10
632668.3088755374774337
 20
599901.3996970017906278
 30
0.0
  0
VERTEX
  5
14E9
  8
SURVBND
 10
632628.39606645074673
 20
599906.4853168562985957
 30
0.0
  0
VERTEX
  5
14EA
  8
SURVBND
 10
632573.4853649475844577
 20
599900.627285105525516
 30
0.0
  0
VERTEX
  5
14EB
  8
SURVBND
 10
632533.5630524795269594
 20
599901.7204361285548657
 30
0.0
  0
VERTEX
  5
14EC
  8
SURVBND
 10
632490.7936908015981317
 20
599964.7039815736934543
 30
0.0
  0
VERTEX
  5
14ED
  8
SURVBND
 10
632443.0337430847575888
 20
600027.6994062459561974
 30
0.0
  0
VERTEX
  5
14EE
  8
SURVBND
 10
632389.2850921206409112
 20
600090.7090859902091324
 30
0.0
  0
VERTEX
  5
14EF
  8
SURVBND
 10
632329.5287311463616788
 20
600145.7480831441935152
 30
0.0
  0
VERTEX
  5
14F0
  8
SURVBND
 10
632288.727093739551492
 20
600196.7494704046985134
 30
0.0
  0
VERTEX
  5
14F1
  8
SURVBND
 10
632243.9187324291560799
 20
600241.7716577994870022
 30
0.0
  0
VERTEX
  5
14F2
  8
SURVBND
 10
632139.3658893714891747
 20
600346.8234283875208348
 30
0.0
  0
VERTEX
  5
14F3
  8
SURVBND
 10
632103.4194148172391579
 20
600340.9202555742813274
 30
0.0
  0
VERTEX
  5
14F4
  8
SURVBND
 10
632058.6229327336186543
 20
600390.9330290084471926
 30
0.0
  0
VERTEX
  5
14F5
  8
SURVBND
 10
632005.8985332765150815
 20
600464.9196221935562789
 30
0.0
  0
VERTEX
  5
14F6
  8
SURVBND
 10
631951.1446375685045496
 20
600524.9373261597938836
 30
0.0
  0
VERTEX
  5
14F7
  8
SURVBND
 10
631899.2425427611451596
 20
600525.0608701198361814
 30
0.0
  0
VERTEX
  5
14F8
  8
SURVBND
 10
631858.2342068060534075
 20
600489.2260602982714772
 30
0.0
  0
VERTEX
  5
14F9
  8
SURVBND
 10
631851.2188762064324692
 20
600477.2652847218560055
 30
0.0
  0
VERTEX
  5
14FA
  8
SURVBND
 10
631824.1604227072093636
 20
600431.4160409867763519
 30
0.0
  0
VERTEX
  5
14FB
  8
SURVBND
 10
631777.0826047621667385
 20
600361.6595011712051928
 30
0.0
  0
VERTEX
  5
14FC
  8
SURVBND
 10
631736.9916072719497606
 20
600291.8863304379628971
 30
0.0
  0
VERTEX
  5
14FD
  8
SURVBND
 10
631737.8566771382465959
 20
600235.9893909536767751
 30
0.0
  0
VERTEX
  5
14FE
  8
SURVBND
 10
631732.6617683961521834
 20
600150.1631903066299856
 30
0.0
  0
VERTEX
  5
14FF
  8
SURVBND
 10
631729.5058592867571861
 20
600082.2983477100497112
 30
0.0
  0
VERTEX
  5
1500
  8
SURVBND
 10
631735.4541731621138752
 20
600065.3161001043627039
 30
0.0
  0
VERTEX
  5
1501
  8
SURVBND
 10
631751.3171354453079402
 20
600020.36281222559046
 30
0.0
  0
VERTEX
  5
1502
  8
SURVBND
 10
631759.2189185194438323
 20
599985.4097031882265583
 30
0.0
  0
VERTEX
  5
1503
  8
SURVBND
 10
631755.1361675636144355
 20
599947.4907526719616726
 30
0.0
  0
VERTEX
  5
1504
  8
SURVBND
 10
631743.082734017400071
 20
599915.5795121658593416
 30
0.0
  0
VERTEX
  5
1505
  8
SURVBND
 10
631727.0344557943753898
 20
599882.6796578334178776
 30
0.0
  0
VERTEX
  5
1506
  8
SURVBND
 10
631708.0345911646727473
 20
599867.7530407779850066
 30
0.0
  0
VERTEX
  5
1507
  8
SURVBND
 10
631640.0865939795039594
 20
599835.9748476133681834
 30
0.0
  0
VERTEX
  5
1508
  8
SURVBND
 10
631589.0994617914548144
 20
599801.1619134536013007
 30
0.0
  0
VERTEX
  5
1509
  8
SURVBND
 10
631566.0857457220554352
 20
599777.2617449093377218
 30
0.0
  0
VERTEX
  5
150A
  8
SURVBND
 10
631518.1024685390293598
 20
599746.4341520448215306
 30
0.0
  0
VERTEX
  5
150B
  8
SURVBND
 10
631488.1256904685869813
 20
599732.5317864966345951
 30
0.0
  0
VERTEX
  5
150C
  8
SURVBND
 10
631437.1694442705484107
 20
599710.6943760386202484
 30
0.0
  0
VERTEX
  5
150D
  8
SURVBND
 10
631376.2248984577599913
 20
599685.8863724110415205
 30
0.0
  0
VERTEX
  5
150E
  8
SURVBND
 10
631328.2891381824156269
 20
599675.0211237032199278
 30
0.0
  0
VERTEX
  5
150F
  8
SURVBND
 10
631282.34723647730425
 20
599663.1530060969525948
 30
0.0
  0
VERTEX
  5
1510
  8
SURVBND
 10
631234.4471138827502728
 20
599667.2595155064482242
 30
0.0
  0
VERTEX
  5
1511
  8
SURVBND
 10
631205.5801177532412112
 20
599700.2662828812608495
 30
0.0
  0
VERTEX
  5
1512
  8
SURVBND
 10
631165.7528391004307196
 20
599741.2841222179122269
 30
0.0
  0
VERTEX
  5
1513
  8
SURVBND
 10
631138.8868290771497414
 20
599776.2823723175097257
 30
0.0
  0
VERTEX
  5
1514
  8
SURVBND
 10
631119.0123911995906383
 20
599813.2602259151171893
 30
0.0
  0
VERTEX
  5
1515
  8
SURVBND
 10
631090.1739052146440372
 20
599858.2443997840164229
 30
0.0
  0
VERTEX
  5
1516
  8
SURVBND
 10
631046.4016746380366385
 20
599919.2340866586891934
 30
0.0
  0
VERTEX
  5
1517
  8
SURVBND
 10
631019.5570472234394401
 20
599963.2153916289098561
 30
0.0
  0
VERTEX
  5
1518
  8
SURVBND
 10
630995.6972680506296456
 20
600003.1971002315403894
 30
0.0
  0
VERTEX
  5
1519
  8
SURVBND
 10
630976.8161956900730729
 20
600038.1763435681350529
 30
0.0
  0
VERTEX
  5
151A
  8
SURVBND
 10
630958.9189854650758207
 20
600067.1645078123547137
 30
0.0
  0
VERTEX
  5
151B
  8
SURVBND
 10
630947.9824613957898691
 20
600085.1567518527153879
 30
0.0
  0
VERTEX
  5
151C
  8
SURVBND
 10
630917.1667477580485865
 20
600138.1306150746531785
 30
0.0
  0
VERTEX
  5
151D
  8
SURVBND
 10
630897.2923098806058988
 20
600175.1084686722606421
 30
0.0
  0
VERTEX
  5
151E
  8
SURVBND
 10
630874.4425271425861865
 20
600220.0783874688204378
 30
0.0
  0
VERTEX
  5
151F
  8
SURVBND
 10
630857.5648167338222265
 20
600258.0472307380987331
 30
0.0
  0
VERTEX
  5
1520
  8
SURVBND
 10
630859.6394540471956134
 20
600290.9803469059988856
 30
0.0
  0
VERTEX
  5
1521
  8
SURVBND
 10
630862.6789467330090702
 20
600309.9374463189160451
 30
0.0
  0
VERTEX
  5
1522
  8
SURVBND
 10
630866.7997112148441374
 20
600363.8262721603969112
 30
0.0
  0
VERTEX
  5
1523
  8
SURVBND
 10
630875.9562027986394241
 20
600436.6674457241315395
 30
0.0
  0
VERTEX
  5
1524
  8
SURVBND
 10
630887.0804186530876905
 20
600497.5264611028833315
 30
0.0
  0
VERTEX
  5
1525
  8
SURVBND
 10
630894.1860313770594075
 20
600547.4156905770068988
 30
0.0
  0
VERTEX
  5
1526
  8
SURVBND
 10
630894.2573067385237664
 20
600577.3592068121070042
 30
0.0
  0
VERTEX
  5
1527
  8
SURVBND
 10
630885.3692856832640246
 20
600617.3052777340635657
 30
0.0
  0
VERTEX
  5
1528
  8
SURVBND
 10
630874.4493925316492096
 20
600642.2843422292498872
 30
0.0
  0
VERTEX
  5
1529
  8
SURVBND
 10
630864.5656301140552387
 20
600683.2309062043204904
 30
0.0
  0
VERTEX
  5
152A
  8
SURVBND
 10
630858.6980949814897031
 20
600734.1491388762369752
 30
0.0
  0
VERTEX
  5
152B
  8
SURVBND
 10
630838.8521672484930605
 20
600783.1043989679310471
 30
0.0
  0
VERTEX
  5
152C
  8
SURVBND
 10
630815.0422808289295062
 20
600844.0465689351549372
 30
0.0
  0
VERTEX
  5
152D
  8
SURVBND
 10
630807.114363455446437
 20
600868.020388686330989
 30
0.0
  0
VERTEX
  5
152E
  8
SURVBND
 10
630799.1888219271786511
 20
600892.9923256452893838
 30
0.0
  0
VERTEX
  5
152F
  8
SURVBND
 10
630767.391621999326162
 20
600952.9553851677337661
 30
0.0
  0
VERTEX
  5
1530
  8
SURVBND
 10
630752.5053943154634908
 20
600988.9232423306675628
 30
0.0
  0
VERTEX
  5
1531
  8
SURVBND
 10
630717.6544466296909377
 20
601023.9404991933843121
 30
0.0
  0
VERTEX
  5
1532
  8
SURVBND
 10
630682.8153781706932932
 20
601063.9483420952456072
 30
0.0
  0
VERTEX
  5
1533
  8
SURVBND
 10
630648.9768027650425211
 20
601104.9519263595575467
 30
0.0
  0
VERTEX
  5
1534
  8
SURVBND
 10
630643.0118579718982801
 20
601114.9473535101860762
 30
0.0
  0
VERTEX
  5
1535
  8
SURVBND
 10
630643.1662879218347371
 20
601179.8249720196472481
 30
0.0
  0
VERTEX
  5
1536
  8
SURVBND
 10
630570.4177723280154169
 20
601227.9080347087001428
 30
0.0
  0
VERTEX
  5
1537
  8
SURVBND
 10
630234.3682607229566202
 20
601361.4582832449814305
 30
0.0
  0
VERTEX
  5
1538
  8
SURVBND
 10
630111.7542741089127958
 20
601426.6281307365279645
 30
0.0
  0
VERTEX
  5
1539
  8
SURVBND
 10
630097.9136805406305939
 20
601482.5559562107082456
 30
0.0
  0
VERTEX
  5
153A
  8
SURVBND
 10
630055.3106280395295471
 20
601615.4077062044525519
 30
0.0
  0
VERTEX
  5
153B
  8
SURVBND
 10
630075.5533219515345991
 20
601733.1380198216065764
 30
0.0
  0
VERTEX
  5
153C
  8
SURVBND
 10
630070.8003204505657777
 20
601832.9616198322037235
 30
0.0
  0
VERTEX
  5
153D
  8
SURVBND
 10
630021.1486755148507655
 20
601939.8789533397648484
 30
0.0
  0
VERTEX
  5
153E
  8
SURVBND
 10
629931.3395094178849831
 20
601949.0758342947810888
 30
0.0
  0
VERTEX
  5
153F
  8
SURVBND
 10
629843.593101407517679
 20
601986.215245378552936
 30
0.0
  0
VERTEX
  5
1540
  8
SURVBND
 10
629737.904342109686695
 20
602033.3785937573993579
 30
0.0
  0
VERTEX
  5
1541
  8
SURVBND
 10
629680.1846049226587638
 20
602105.3808317539514974
 30
0.0
  0
VERTEX
  5
1542
  8
SURVBND
 10
629560.5079496429534629
 20
602146.5887387210968882
 30
0.0
  0
VERTEX
  5
1543
  8
SURVBND
 10
629499.6299275010824203
 20
602149.7280169129371643
 30
0.0
  0
VERTEX
  5
1544
  8
SURVBND
 10
629408.8582818772410974
 20
602173.8990318309515715
 30
0.0
  0
VERTEX
  5
1545
  8
SURVBND
 10
629359.0094417744548991
 20
602197.9726370880380273
 30
0.0
  0
VERTEX
  5
1546
  8
SURVBND
 10
629298.1765606948174536
 20
602220.0761422290233895
 30
0.0
  0
VERTEX
  5
1547
  8
SURVBND
 10
629224.337269923533313
 20
602229.2350096576847136
 30
0.0
  0
VERTEX
  5
1548
  8
SURVBND
 10
629176.451402401085943
 20
602239.3302223144564778
 30
0.0
  0
VERTEX
  5
1549
  8
SURVBND
 10
629128.567910724086687
 20
602250.423552179010585
 30
0.0
  0
VERTEX
  5
154A
  8
SURVBND
 10
629072.7161123021505773
 20
602268.5227092616260052
 30
0.0
  0
VERTEX
  5
154B
  8
SURVBND
 10
629027.8174688671715558
 20
602275.6164427587063983
 30
0.0
  0
VERTEX
  5
154C
  8
SURVBND
 10
628981.9183323789620772
 20
602281.7144348934525624
 30
0.0
  0
VERTEX
  5
154D
  8
SURVBND
 10
628917.0692240141797811
 20
602293.846271337242797
 30
0.0
  0
VERTEX
  5
154E
  8
SURVBND
 10
628872.1610771976411343
 20
602296.9475360029609874
 30
0.0
  0
VERTEX
  5
154F
  8
SURVBND
 10
628820.3017476070672274
 20
602315.037189703900367
 30
0.0
  0
VERTEX
  5
1550
  8
SURVBND
 10
628745.4049434931948781
 20
602299.2455027822870761
 30
0.0
  0
VERTEX
  5
1551
  8
SURVBND
 10
628696.4473075561691076
 20
602278.4014578416245058
 30
0.0
  0
VERTEX
  5
1552
  8
SURVBND
 10
628642.475327126099728
 20
602247.5881200492149219
 30
0.0
  0
VERTEX
  5
1553
  8
SURVBND
 10
628587.4933502612402663
 20
602211.7865720631089061
 30
0.0
  0
VERTEX
  5
1554
  8
SURVBND
 10
628530.5293940531555563
 20
602181.9784790149424225
 30
0.0
  0
VERTEX
  5
1555
  8
SURVBND
 10
628446.5948906247504056
 20
602143.2514789213892072
 30
0.0
  0
VERTEX
  5
1556
  8
SURVBND
 10
628364.7041385200573131
 20
602124.4820712938671932
 30
0.0
  0
VERTEX
  5
1557
  8
SURVBND
 10
628312.9422185900621116
 20
602183.4945305162109435
 30
0.0
  0
VERTEX
  5
1558
  8
SURVBND
 10
628276.223332139197737
 20
602272.4148682928644121
 30
0.0
  0
VERTEX
  5
1559
  8
SURVBND
 10
628239.4711838528746739
 20
602347.361565159750171
 30
0.0
  0
VERTEX
  5
155A
  8
SURVBND
 10
628207.700118224369362
 20
602418.3039139683824033
 30
0.0
  0
VERTEX
  5
155B
  8
SURVBND
 10
628184.0256549913901836
 20
602536.1387647823430598
 30
0.0
  0
VERTEX
  5
155C
  8
SURVBND
 10
628190.2519427768420428
 20
602635.936230493709445
 30
0.0
  0
VERTEX
  5
155D
  8
SURVBND
 10
628215.4186990569578484
 20
602725.7073830645531416
 30
0.0
  0
VERTEX
  5
155E
  8
SURVBND
 10
628250.5690032612765208
 20
602816.4528943891637027
 30
0.0
  0
VERTEX
  5
155F
  8
SURVBND
 10
628281.7458453972358257
 20
602915.19284675817471
 30
0.0
  0
VERTEX
  5
1560
  8
SURVBND
 10
628261.2201637376565486
 20
603097.8981885453686118
 30
0.0
  0
VERTEX
  5
1561
  8
SURVBND
 10
628251.3364013199461624
 20
603138.8447525205556303
 30
0.0
  0
VERTEX
  5
1562
  8
SURVBND
 10
628141.7264485523337498
 20
603215.9611205160617828
 30
0.0
  0
VERTEX
  5
1563
  8
SURVBND
 10
628078.9804876454873011
 20
603273.0034796219551936
 30
0.0
  0
VERTEX
  5
1564
  8
SURVBND
 10
628024.3049948350526392
 20
603365.959051446756348
 30
0.0
  0
VERTEX
  5
1565
  8
SURVBND
 10
627994.5515462305629626
 20
603445.8797034351155162
 30
0.0
  0
VERTEX
  5
1566
  8
SURVBND
 10
628011.6003175068181008
 20
603479.7752991300076246
 30
0.0
  0
VERTEX
  5
1567
  8
SURVBND
 10
628006.7261478913715109
 20
603528.6949215411441401
 30
0.0
  0
VERTEX
  5
1568
  8
SURVBND
 10
627999.9365226031513885
 20
603611.5552807091735303
 30
0.0
  0
VERTEX
  5
1569
  8
SURVBND
 10
627983.1989870722172782
 20
603708.4130392407532781
 30
0.0
  0
VERTEX
  5
156A
  8
SURVBND
 10
627990.3901302301092073
 20
603794.2344881971366704
 30
0.0
  0
VERTEX
  5
156B
  8
SURVBND
 10
627970.5061889708740637
 20
603827.2198729633819312
 30
0.0
  0
VERTEX
  5
156C
  8
SURVBND
 10
627935.6861272749956697
 20
603875.2126535278512165
 30
0.0
  0
VERTEX
  5
156D
  8
SURVBND
 10
627910.9137613282073289
 20
603951.1289574580732733
 30
0.0
  0
VERTEX
  5
156E
  8
SURVBND
 10
627866.1838029155042022
 20
604029.0890127115417272
 30
0.0
  0
VERTEX
  5
156F
  8
SURVBND
 10
627822.3925655758939683
 20
604082.0937619237229228
 30
0.0
  0
VERTEX
  5
1570
  8
SURVBND
 10
627739.5892266968730837
 20
604099.2589496237924322
 30
0.0
  0
VERTEX
  5
1571
  8
SURVBND
 10
627654.7777741753961891
 20
604111.4383029753807932
 30
0.0
  0
VERTEX
  5
1572
  8
SURVBND
 10
627571.9269183888100088
 20
604108.6411465187557042
 30
0.0
  0
VERTEX
  5
1573
  8
SURVBND
 10
627496.0438762939302251
 20
604097.8424214816186577
 30
0.0
  0
VERTEX
  5
1574
  8
SURVBND
 10
627412.1735206911107525
 20
604086.0645859995856881
 30
0.0
  0
VERTEX
  5
1575
  8
SURVBND
 10
627352.3934012631652877
 20
604131.1224110752809793
 30
0.0
  0
VERTEX
  5
1576
  8
SURVBND
 10
627265.6878756773658097
 20
604186.2255560547346249
 30
0.0
  0
VERTEX
  5
1577
  8
SURVBND
 10
627178.029373946134001
 20
604260.295303828199394
 30
0.0
  0
VERTEX
  5
1578
  8
SURVBND
 10
627184.039459801511839
 20
604269.26410362648312
 30
0.0
  0
VERTEX
  5
1579
  8
SURVBND
 10
627109.3137165552470833
 20
604325.3368556690402329
 30
0.0
  0
VERTEX
  5
157A
  8
SURVBND
 10
627054.6239686724729836
 20
604412.3037242469144985
 30
0.0
  0
VERTEX
  5
157B
  8
SURVBND
 10
626918.7398535291431472
 20
604353.7379239565925673
 30
0.0
  0
VERTEX
  5
157C
  8
SURVBND
 10
626849.9315381684573367
 20
604379.8529046917101368
 30
0.0
  0
VERTEX
  5
157D
  8
SURVBND
 10
626736.238834444899112
 20
604419.0503221709514037
 30
0.0
  0
VERTEX
  5
157E
  8
SURVBND
 10
626642.5060990329366177
 20
604457.2021055348450318
 30
0.0
  0
VERTEX
  5
157F
  8
SURVBND
 10
626560.7008773616980761
 20
604474.3649173894664273
 30
0.0
  0
VERTEX
  5
1580
  8
SURVBND
 10
626476.8780386664438993
 20
604482.5494260643608868
 30
0.0
  0
VERTEX
  5
1581
  8
SURVBND
 10
626398.0053966387640685
 20
604473.754062979016453
 30
0.0
  0
VERTEX
  5
1582
  8
SURVBND
 10
626316.1574097508564591
 20
604472.9507650926243514
 30
0.0
  0
VERTEX
  5
1583
  8
SURVBND
 10
626218.3229166199453175
 20
604465.198660277412273
 30
0.0
  0
VERTEX
  5
1584
  8
SURVBND
 10
626138.4379023121437058
 20
604450.416969790472649
 30
0.0
  0
VERTEX
  5
1585
  8
SURVBND
 10
626046.6538844080641866
 20
604468.6016573067754507
 30
0.0
  0
VERTEX
  5
1586
  8
SURVBND
 10
625931.9345533321611583
 20
604495.8240441373782232
 30
0.0
  0
VERTEX
  5
1587
  8
SURVBND
 10
625825.2357975996565074
 20
604537.9991823225282133
 30
0.0
  0
VERTEX
  5
1588
  8
SURVBND
 10
625747.5299578021513298
 20
604600.0677651482401416
 30
0.0
  0
VERTEX
  5
1589
  8
SURVBND
 10
625680.8485483530675992
 20
604681.0744406236335635
 30
0.0
  0
VERTEX
  5
158A
  8
SURVBND
 10
625720.8658946364885196
 20
604719.9059779139934108
 30
0.0
  0
VERTEX
  5
158B
  8
SURVBND
 10
625758.9131408034591004
 20
604769.7215561814373359
 30
0.0
  0
VERTEX
  5
158C
  8
SURVBND
 10
625811.9273933971999213
 20
604817.5052623521769419
 30
0.0
  0
VERTEX
  5
158D
  8
SURVBND
 10
625905.9285993376979604
 20
604892.1407234739745036
 30
0.0
  0
VERTEX
  5
158E
  8
SURVBND
 10
626009.9371116554830223
 20
604977.731715428060852
 30
0.0
  0
VERTEX
  5
158F
  8
SURVBND
 10
626078.9996424722485244
 20
605058.4152759314747527
 30
0.0
  0
VERTEX
  5
1590
  8
SURVBND
 10
626166.8553393704351038
 20
605067.189256408251822
 30
0.0
  0
VERTEX
  5
1591
  8
SURVBND
 10
626181.8318491786485538
 20
605069.1498531432589516
 30
0.0
  0
VERTEX
  5
1592
  8
SURVBND
 10
626192.8467761457432061
 20
605084.0954769615782425
 30
0.0
  0
VERTEX
  5
1593
  8
SURVBND
 10
626167.0026417841436341
 20
605129.0725232941331342
 30
0.0
  0
VERTEX
  5
1594
  8
SURVBND
 10
626127.1634839044418186
 20
605165.0997765917563811
 30
0.0
  0
VERTEX
  5
1595
  8
SURVBND
 10
626125.1743770248722285
 20
605168.0988799058832228
 30
0.0
  0
VERTEX
  5
1596
  8
SURVBND
 10
626131.2794966958463192
 20
605216.9923680175561458
 30
0.0
  0
VERTEX
  5
1597
  8
SURVBND
 10
626147.3253990733064711
 20
605248.8941051422152668
 30
0.0
  0
VERTEX
  5
1598
  8
SURVBND
 10
626207.352606421103701
 20
605307.6404696815880015
 30
0.0
  0
VERTEX
  5
1599
  8
SURVBND
 10
626241.3931286843726411
 20
605351.4768480834318325
 30
0.0
  0
VERTEX
  5
159A
  8
SURVBND
 10
626260.4666445208713412
 20
605397.3450985816307366
 30
0.0
  0
VERTEX
  5
159B
  8
SURVBND
 10
626228.6932030470343307
 20
605467.2893301824806258
 30
0.0
  0
VERTEX
  5
159C
  8
SURVBND
 10
626239.7556469215778634
 20
605502.1972981574945152
 30
0.0
  0
VERTEX
  5
159D
  8
SURVBND
 10
626311.7293747734511271
 20
605547.9396288505522534
 30
0.0
  0
VERTEX
  5
159E
  8
SURVBND
 10
626343.7522800125880167
 20
605582.7977040725527331
 30
0.0
  0
VERTEX
  5
159F
  8
SURVBND
 10
626363.838168129324913
 20
605634.6522819723468274
 30
0.0
  0
VERTEX
  5
15A0
  8
SURVBND
 10
626357.9777605328708887
 20
605688.564866267843172
 30
0.0
  0
VERTEX
  5
15A1
  8
SURVBND
 10
626348.1035014968365431
 20
605733.5038990743923932
 30
0.0
  0
VERTEX
  5
15A2
  8
SURVBND
 10
626300.2722784181823954
 20
605766.5558075114386156
 30
0.0
  0
VERTEX
  5
15A3
  8
SURVBND
 10
626264.3947033799486235
 20
605789.59803372528404
 30
0.0
  0
VERTEX
  5
15A4
  8
SURVBND
 10
626222.4975391045445576
 20
605799.6789913098327816
 30
0.0
  0
VERTEX
  5
15A5
  8
SURVBND
 10
626207.5447877501137555
 20
605807.6995666533475742
 30
0.0
  0
VERTEX
  5
15A6
  8
SURVBND
 10
626218.5692180985352024
 20
605826.6376593029126525
 30
0.0
  0
VERTEX
  5
15A7
  8
SURVBND
 10
626235.5871033848961815
 20
605847.5577312959358096
 30
0.0
  0
VERTEX
  5
15A8
  8
SURVBND
 10
626258.6222020627465099
 20
605880.4409547108225524
 30
0.0
  0
VERTEX
  5
15A9
  8
SURVBND
 10
626275.6400873489910737
 20
605901.3610267038457096
 30
0.0
  0
VERTEX
  5
15AA
  8
SURVBND
 10
626299.6614240078488365
 20
605929.2512882342562079
 30
0.0
  0
VERTEX
  5
15AB
  8
SURVBND
 10
626318.6707920191111043
 20
605948.1703741207020357
 30
0.0
  0
VERTEX
  5
15AC
  8
SURVBND
 10
626338.6830289287026972
 20
605969.0833185776136816
 30
0.0
  0
VERTEX
  5
15AD
  8
SURVBND
 10
626372.6879135112976655
 20
605997.9479388619074598
 30
0.0
  0
VERTEX
  5
15AE
  8
SURVBND
 10
626407.6647810024442151
 20
606015.8308940144488588
 30
0.0
  0
VERTEX
  5
15AF
  8
SURVBND
 10
626498.700145463924855
 20
606102.45088916644454
 30
0.0
  0
VERTEX
  5
15B0
  8
SURVBND
 10
626584.7639306492637843
 20
606197.0677012080559507
 30
0.0
  0
VERTEX
  5
15B1
  8
SURVBND
 10
626621.7964286906644702
 20
606239.898834865889512
 30
0.0
  0
VERTEX
  5
15B2
  8
SURVBND
 10
626655.8583335623843595
 20
606292.7182681383565068
 30
0.0
  0
VERTEX
  5
15B3
  8
SURVBND
 10
626689.8750973718706518
 20
606326.5734744616784155
 30
0.0
  0
VERTEX
  5
15B4
  8
SURVBND
 10
626721.8694924664450809
 20
606349.4541431897087023
 30
0.0
  0
VERTEX
  5
15B5
  8
SURVBND
 10
626741.9244945931714028
 20
606388.3331973876338452
 30
0.0
  0
VERTEX
  5
15B6
  8
SURVBND
 10
626748.0058558102464303
 20
606427.2455134209012613
 30
0.0
  0
VERTEX
  5
15B7
  8
SURVBND
 10
626765.0593787771649659
 20
606463.1373435315908864
 30
0.0
  0
VERTEX
  5
15B8
  8
SURVBND
 10
626773.1227193374652416
 20
606496.056204627151601
 30
0.0
  0
VERTEX
  5
15B9
  8
SURVBND
 10
626771.2238945824792609
 20
606536.983761839219369
 30
0.0
  0
VERTEX
  5
15BA
  8
SURVBND
 10
626783.2440662933513522
 20
606554.9213614356704056
 30
0.0
  0
VERTEX
  5
15BB
  8
SURVBND
 10
626785.3139519159449264
 20
606585.8582431877730414
 30
0.0
  0
VERTEX
  5
15BC
  8
SURVBND
 10
626792.4219404853647575
 20
606636.7455898697953671
 30
0.0
  0
VERTEX
  5
15BD
  8
SURVBND
 10
626805.5091289202682674
 20
606683.6262126481160522
 30
0.0
  0
VERTEX
  5
15BE
  8
SURVBND
 10
626813.5415834905579686
 20
606703.5695500418078154
 30
0.0
  0
VERTEX
  5
15BF
  8
SURVBND
 10
626809.6203900205437094
 20
606733.5225696583511308
 30
0.0
  0
VERTEX
  5
15C0
  8
SURVBND
 10
626821.6524409585399553
 20
606756.4507552941795439
 30
0.0
  0
VERTEX
  5
15C1
  8
SURVBND
 10
626831.6930091716349125
 20
606781.3799270362360403
 30
0.0
  0
VERTEX
  5
15C2
  8
SURVBND
 10
626842.7316945922793821
 20
606806.3067229329608381
 30
0.0
  0
VERTEX
  5
15C3
  8
SURVBND
 10
626853.7893867760431021
 20
606839.2184564922936261
 30
0.0
  0
VERTEX
  5
15C4
  8
SURVBND
 10
626857.8697618866572157
 20
606876.1392898006597534
 30
0.0
  0
VERTEX
  5
15C5
  8
SURVBND
 10
626860.925885490141809
 20
606902.0832096684025601
 30
0.0
  0
VERTEX
  5
15C6
  8
SURVBND
 10
626871.9907052100170404
 20
606937.9892948513152078
 30
0.0
  0
VERTEX
  5
15C7
  8
SURVBND
 10
626882.0479043406667188
 20
606969.9052870483137667
 30
0.0
  0
VERTEX
  5
15C8
  8
SURVBND
 10
626891.1141137996455655
 20
607004.8180067141074687
 30
0.0
  0
VERTEX
  5
15C9
  8
SURVBND
 10
626888.2171718367608264
 20
607045.7479397715069354
 30
0.0
  0
VERTEX
  5
15CA
  8
SURVBND
 10
626900.301491373218596
 20
607090.634703979594633
 30
0.0
  0
VERTEX
  5
15CB
  8
SURVBND
 10
626917.3954037115909159
 20
607143.4945266233989969
 30
0.0
  0
VERTEX
  5
15CC
  8
SURVBND
 10
627013.3880923767574131
 20
607216.1290016388520598
 30
0.0
  0
VERTEX
  5
15CD
  8
SURVBND
 10
627166.3613681680290028
 20
607325.5583901571808383
 30
0.0
  0
VERTEX
  5
15CE
  8
SURVBND
 10
627183.3935085266130045
 20
607352.4671653973637149
 30
0.0
  0
VERTEX
  5
15CF
  8
SURVBND
 10
627185.3873670968459919
 20
607351.4642964986851439
 30
0.0
  0
VERTEX
  5
15D0
  8
SURVBND
 10
627230.3857960379682481
 20
607386.2914857307914644
 30
0.0
  0
VERTEX
  5
15D1
  8
SURVBND
 10
627281.3800557621289045
 20
607424.0987715140217915
 30
0.0
  0
VERTEX
  5
15D2
  8
SURVBND
 10
627313.3744508567033336
 20
607446.9794402420520782
 30
0.0
  0
VERTEX
  5
15D3
  8
SURVBND
 10
627349.3874490818707272
 20
607480.8298948747105896
 30
0.0
  0
VERTEX
  5
15D4
  8
SURVBND
 10
627378.3447273360798135
 20
607485.7515813978388906
 30
0.0
  0
VERTEX
  5
15D5
  8
SURVBND
 10
627424.2723739688517526
 20
607491.6309957571793348
 30
0.0
  0
VERTEX
  5
15D6
  8
SURVBND
 10
627516.1347947706235573
 20
607506.3841760995564982
 30
0.0
  0
VERTEX
  5
15D7
  8
SURVBND
 10
627568.0962857125559822
 20
607531.21356233546976
 30
0.0
  0
VERTEX
  5
15D8
  8
SURVBND
 10
627647.0021895755780861
 20
607553.9825663304654881
 30
0.0
  0
VERTEX
  5
15D9
  8
SURVBND
 10
627712.9587040358455852
 20
607587.7617456016596407
 30
0.0
  0
VERTEX
  5
15DA
  8
SURVBND
 10
627773.9127532298443839
 20
607616.5622180607169867
 30
0.0
  0
VERTEX
  5
15DB
  8
SURVBND
 10
627830.8695819020504132
 20
607643.3759594853036106
 30
0.0
  0
VERTEX
  5
15DC
  8
SURVBND
 10
627881.8044454917544499
 20
607656.2303150726947933
 30
0.0
  0
VERTEX
  5
15DD
  8
SURVBND
 10
627922.7842713021673262
 20
607680.0877184001728892
 30
0.0
  0
VERTEX
  5
15DE
  8
SURVBND
 10
627968.7214213164988905
 20
607689.9596015908755362
 30
0.0
  0
VERTEX
  5
15DF
  8
SURVBND
 10
628014.67757809383329
 20
607707.816422444419004
 30
0.0
  0
VERTEX
  5
15E0
  8
SURVBND
 10
628041.6623803861439228
 20
607722.7240327364997938
 30
0.0
  0
VERTEX
  5
15E1
  8
SURVBND
 10
628083.5833031154470518
 20
607722.6242472304729745
 30
0.0
  0
VERTEX
  5
15E2
  8
SURVBND
 10
628158.4706038476433605
 20
607734.4234653208404779
 30
0.0
  0
VERTEX
  5
15E3
  8
SURVBND
 10
628200.3891507314983755
 20
607733.3255626069149002
 30
0.0
  0
VERTEX
  5
15E4
  8
SURVBND
 10
628250.3021386594045907
 20
607736.2011219612322748
 30
0.0
  0
VERTEX
  5
15E5
  8
SURVBND
 10
628294.2478059489512816
 20
607748.0739912583958358
 30
0.0
  0
VERTEX
  5
15E6
  8
SURVBND
 10
628335.2252559139160439
 20
607770.9332773779751733
 30
0.0
  0
VERTEX
  5
15E7
  8
SURVBND
 10
628378.2036919854581356
 20
607795.7840462224557996
 30
0.0
  0
VERTEX
  5
15E8
  8
SURVBND
 10
628418.1854005883214995
 20
607819.6438253951491788
 30
0.0
  0
VERTEX
  5
15E9
  8
SURVBND
 10
628455.182260948815383
 20
607847.5032009354326874
 30
0.0
  0
VERTEX
  5
15EA
  8
SURVBND
 10
628492.1743696186458692
 20
607873.3663420600350946
 30
0.0
  0
VERTEX
  5
15EB
  8
SURVBND
 10
628530.166971341939643
 20
607900.2252245470881462
 30
0.0
  0
VERTEX
  5
15EC
  8
SURVBND
 10
628559.1551355860428885
 20
607918.1224347720853984
 30
0.0
  0
VERTEX
  5
15ED
  8
SURVBND
 10
628600.1515923142433167
 20
607948.9666585542727262
 30
0.0
  0
VERTEX
  5
15EE
  8
SURVBND
 10
628630.1521288385847583
 20
607972.8501961808651686
 30
0.0
  0
VERTEX
  5
15EF
  8
SURVBND
 10
628652.1701035455334932
 20
607997.7508577782427892
 30
0.0
  0
VERTEX
  5
15F0
  8
SURVBND
 10
628677.1824298759456724
 20
608022.6443918398581445
 30
0.0
  0
VERTEX
  5
15F1
  8
SURVBND
 10
628698.2070390658918768
 20
608049.5436636982485652
 30
0.0
  0
VERTEX
  5
15F2
  8
SURVBND
 10
628729.2080686434637755
 20
608074.422942687291652
 30
0.0
  0
VERTEX
  5
15F3
  8
SURVBND
 10
628742.2358609436778352
 20
608096.3506352697731927
 30
0.0
  0
VERTEX
  5
15F4
  8
SURVBND
 10
628772.2862902210326865
 20
608141.1946342608425766
 30
0.0
  0
VERTEX
  5
15F5
  8
SURVBND
 10
628808.2517715385183692
 20
608155.0827447369229048
 30
0.0
  0
VERTEX
  5
15F6
  8
SURVBND
 10
632209.5746758173918352
 20
610553.4607068387558684
 30
0.0
  0
VERTEX
  5
15F7
  8
SURVBND
 10
632215.6227751990081742
 20
610578.3993819623719901
 30
0.0
  0
VERTEX
  5
15F8
  8
SURVBND
 10
632415.5883385015185922
 20
610721.6530908142449334
 30
0.0
  0
VERTEX
  5
15F9
  8
SURVBND
 10
632582.5400068931048736
 20
610833.0454519130289555
 30
0.0
  0
VERTEX
  5
15FA
  8
SURVBND
 10
632769.4754020498367026
 20
610953.3733509747544304
 30
0.0
  0
VERTEX
  5
15FB
  8
SURVBND
 10
632905.423665018635802
 20
611038.8883158765966073
 30
0.0
  0
VERTEX
  5
15FC
  8
SURVBND
 10
633068.3472268981859088
 20
611135.3184222393902019
 30
0.0
  0
VERTEX
  5
15FD
  8
SURVBND
 10
633150.3353886636905372
 20
611195.010635388083756
 30
0.0
  0
VERTEX
  5
15FE
  8
SURVBND
 10
633192.2610630836570635
 20
611196.907084297738038
 30
0.0
  0
VERTEX
  5
15FF
  8
SURVBND
 10
633213.2999273458262905
 20
611229.7950594032881781
 30
0.0
  0
VERTEX
  5
1600
  8
SURVBND
 10
632957.5250686913495883
 20
611541.8182205117773265
 30
0.0
  0
VERTEX
  5
1601
  8
SURVBND
 10
633491.25379389943555
 20
611848.9677362989168614
 30
0.0
  0
VERTEX
  5
1602
  8
SURVBND
 10
633929.051602422259748
 20
612109.4338244744576514
 30
0.0
  0
VERTEX
  5
1603
  8
SURVBND
 10
633919.9616345094982535
 20
612064.5399327302584425
 30
0.0
  0
VERTEX
  5
1604
  8
SURVBND
 10
633908.7899017472518608
 20
611983.7185731946956366
 30
0.0
  0
VERTEX
  5
1605
  8
SURVBND
 10
633894.6713342693401501
 20
611922.8666853519389406
 30
0.0
  0
VERTEX
  5
1606
  8
SURVBND
 10
633884.5642423855606467
 20
611869.9902317904634401
 30
0.0
  0
VERTEX
  5
1607
  8
SURVBND
 10
633869.4950746074318886
 20
611829.1030639498494565
 30
0.0
  0
VERTEX
  5
1608
  8
SURVBND
 10
633875.4053749566664919
 20
611796.1509410189464688
 30
0.0
  0
VERTEX
  5
1609
  8
SURVBND
 10
633875.3507305128732696
 20
611773.1942452387884259
 30
0.0
  0
VERTEX
  5
160A
  8
SURVBND
 10
633859.2715662999544293
 20
611727.3188672043615952
 30
0.0
  0
VERTEX
  5
160B
  8
SURVBND
 10
633852.1968395658768713
 20
611690.4051614321069792
 30
0.0
  0
VERTEX
  5
160C
  8
SURVBND
 10
633845.13874374947045
 20
611660.4782761146780103
 30
0.0
  0
VERTEX
  5
160D
  8
SURVBND
 10
633832.1038239130284637
 20
611635.5562319087330252
 30
0.0
  0
VERTEX
  5
160E
  8
SURVBND
 10
633834.0430380393518135
 20
611611.5966672300128266
 30
0.0
  0
VERTEX
  5
160F
  8
SURVBND
 10
633848.9055072694318369
 20
611565.6476379886735231
 30
0.0
  0
VERTEX
  5
1610
  8
SURVBND
 10
633876.7553794281557202
 20
611524.6583087965846062
 30
0.0
  0
VERTEX
  5
1611
  8
SURVBND
 10
633905.6295030940091237
 20
611494.6458930453518406
 30
0.0
  0
VERTEX
  5
1612
  8
SURVBND
 10
633929.4845305759226903
 20
611452.6679500270402059
 30
0.0
  0
VERTEX
  5
1613
  8
SURVBND
 10
633962.3249887740239501
 20
611411.6667416081763804
 30
0.0
  0
VERTEX
  5
1614
  8
SURVBND
 10
633992.1734711936442181
 20
611371.6707779332064092
 30
0.0
  0
VERTEX
  5
1615
  8
SURVBND
 10
634032.975108600454405
 20
611320.6693906729342416
 30
0.0
  0
VERTEX
  5
1616
  8
SURVBND
 10
634045.8603501778561622
 20
611282.7100507849827409
 30
0.0
  0
VERTEX
  5
1617
  8
SURVBND
 10
634053.6457168282940984
 20
611198.8491985638393089
 30
0.0
  0
VERTEX
  5
1618
  8
SURVBND
 10
634062.5503688013413921
 20
611165.8899480965919793
 30
0.0
  0
VERTEX
  5
1619
  8
SURVBND
 10
634058.5483965884195641
 20
611161.9069826467894018
 30
0.0
  0
VERTEX
  5
161A
  8
SURVBND
 10
634059.4681108985096216
 20
611128.966738942777738
 30
0.0
  0
VERTEX
  5
161B
  8
SURVBND
 10
634063.4558280392084271
 20
611126.9610011455370113
 30
0.0
  0
VERTEX
  5
161C
  8
SURVBND
 10
634070.0102446342352778
 20
610945.287038401584141
 30
0.0
  0
VERTEX
  5
161D
  8
SURVBND
 10
634069.7322707244893536
 20
610828.5073250846471637
 30
0.0
  0
VERTEX
  5
161E
  8
SURVBND
 10
634080.5001097717322409
 20
610739.6487592880148441
 30
0.0
  0
VERTEX
  5
161F
  8
SURVBND
 10
634103.2215968589298427
 20
610640.780511268414557
 30
0.0
  0
VERTEX
  5
1620
  8
SURVBND
 10
634122.0195146310143173
 20
610570.8671656574588269
 30
0.0
  0
VERTEX
  5
1621
  8
SURVBND
 10
634142.8421769633423537
 20
610512.9264748500427231
 30
0.0
  0
VERTEX
  5
1622
  8
SURVBND
 10
634182.5435358108952641
 20
610419.0084234980167821
 30
0.0
  0
VERTEX
  5
1623
  8
SURVBND
 10
634206.2179990437580273
 20
610301.1735726840561256
 30
0.0
  0
VERTEX
  5
1624
  8
SURVBND
 10
634197.1898031110176817
 20
610282.2307283435948193
 30
0.0
  0
VERTEX
  5
1625
  8
SURVBND
 10
634217.6917263166978955
 20
610089.5442144781118259
 30
0.0
  0
VERTEX
  5
1626
  8
SURVBND
 10
634221.6841951480600983
 20
610089.5347110965522006
 30
0.0
  0
VERTEX
  5
1627
  8
SURVBND
 10
634230.4748065425083041
 20
610008.6658346533076838
 30
0.0
  0
VERTEX
  5
1628
  8
SURVBND
 10
634241.3115451058838516
 20
609948.7526678838767111
 30
0.0
  0
VERTEX
  5
1629
  8
SURVBND
 10
634248.1344322292134166
 20
609879.8659496254986152
 30
0.0
  0
VERTEX
  5
162A
  8
SURVBND
 10
634257.0105740573490039
 20
609834.9292926643975079
 30
0.0
  0
VERTEX
  5
162B
  8
SURVBND
 10
634268.9072018085280433
 20
609800.9647974533727393
 30
0.0
  0
VERTEX
  5
162C
  8
SURVBND
 10
634287.7930258597480133
 20
609767.9817885324591771
 30
0.0
  0
VERTEX
  5
162D
  8
SURVBND
 10
634302.6792535436106846
 20
609732.0139313695253804
 30
0.0
  0
VERTEX
  5
162E
  8
SURVBND
 10
634308.5943055838579312
 20
609701.0580428543034941
 30
0.0
  0
VERTEX
  5
162F
  8
SURVBND
 10
634314.4808474793098867
 20
609658.1247478451114148
 30
0.0
  0
VERTEX
  5
1630
  8
SURVBND
 10
634320.4006512102205306
 20
609629.1650937454542145
 30
0.0
  0
VERTEX
  5
1631
  8
SURVBND
 10
634320.3032415495254099
 20
609588.2422882241662592
 30
0.0
  0
VERTEX
  5
1632
  8
SURVBND
 10
634326.2325486619956791
 20
609563.275102955987677
 30
0.0
  0
VERTEX
  5
1633
  8
SURVBND
 10
634333.1314628376858309
 20
609526.3281353483907878
 30
0.0
  0
VERTEX
  5
1634
  8
SURVBND
 10
634334.0297945395577699
 20
609484.4048367737559602
 30
0.0
  0
VERTEX
  5
1635
  8
SURVBND
 10
634339.9234639711212367
 20
609444.4658933880273253
 30
0.0
  0
VERTEX
  5
1636
  8
SURVBND
 10
634338.8303129478590563
 20
609404.5435809198534116
 30
0.0
  0
VERTEX
  5
1637
  8
SURVBND
 10
634337.7442894610576332
 20
609367.6156200752593577
 30
0.0
  0
VERTEX
  5
1638
  8
SURVBND
 10
634343.6569656557403505
 20
609335.6616143522551283
 30
0.0
  0
VERTEX
  5
1639
  8
SURVBND
 10
634347.5401455993996933
 20
609289.7387194102630019
 30
0.0
  0
VERTEX
  5
163A
  8
SURVBND
 10
634354.4556906927609816
 20
609259.77857225749176
 30
0.0
  0
VERTEX
  5
163B
  8
SURVBND
 10
634358.3911392349982634
 20
609235.8142558878753334
 30
0.0
  0
VERTEX
  5
163C
  8
SURVBND
 10
634365.3090601736912504
 20
609206.8522259430028498
 30
0.0
  0
VERTEX
  5
163D
  8
SURVBND
 10
634375.2142051998525858
 20
609174.8887168384389952
 30
0.0
  0
VERTEX
  5
163E
  8
SURVBND
 10
634377.1534193262923509
 20
609150.929152159485966
 30
0.0
  0
VERTEX
  5
163F
  8
SURVBND
 10
634383.0969815112184733
 20
609131.9506701382342726
 30
0.0
  0
VERTEX
  5
1640
  8
SURVBND
 10
634391.0296505753649399
 20
609109.9730848028557375
 30
0.0
  0
VERTEX
  5
1641
  8
SURVBND
 10
634397.9071821426041424
 20
609064.0430623246356845
 30
0.0
  0
VERTEX
  5
1642
  8
SURVBND
 10
634413.7772719619097188
 20
609022.0841260694433004
 30
0.0
  0
VERTEX
  5
1643
  8
SURVBND
 10
634430.6621099066687748
 20
608987.1096344237448648
 30
0.0
  0
VERTEX
  5
1644
  8
SURVBND
 10
634443.547351484070532
 20
608949.150294535793364
 30
0.0
  0
VERTEX
  5
1645
  8
SURVBND
 10
634452.4710102200042456
 20
608924.1759817313868552
 30
0.0
  0
VERTEX
  5
1646
  8
SURVBND
 10
634462.3975378546165302
 20
608901.1955274973297492
 30
0.0
  0
VERTEX
  5
1647
  8
SURVBND
 10
634470.3349586095428094
 20
608881.2141765775159001
 30
0.0
  0
VERTEX
  5
1648
  8
SURVBND
 10
634468.2531937601743266
 20
608845.2867087861523032
 30
0.0
  0
VERTEX
  5
1649
  8
SURVBND
 10
634471.1572632590541616
 20
608807.351127352216281
 30
0.0
  0
VERTEX
  5
164A
  8
SURVBND
 10
634479.0804289418738335
 20
608781.3810731854755431
 30
0.0
  0
VERTEX
  5
164B
  8
SURVBND
 10
634486.9940912430174649
 20
608751.4185501872561872
 30
0.0
  0
VERTEX
  5
164C
  8
SURVBND
 10
634495.9082465975079685
 20
608722.451768551603891
 30
0.0
  0
VERTEX
  5
164D
  8
SURVBND
 10
634514.8035740304039791
 20
608693.4612284619361162
 30
0.0
  0
VERTEX
  5
164E
  8
SURVBND
 10
634537.6699876859784126
 20
608655.4781301204347983
 30
0.0
  0
VERTEX
  5
164F
  8
SURVBND
 10
634551.5224604811519384
 20
608604.5408906853990629
 30
0.0
  0
VERTEX
  5
1650
  8
SURVBND
 10
634568.4215534982504323
 20
608575.5551022867439315
 30
0.0
  0
VERTEX
  5
1651
  8
SURVBND
 10
634591.2974705355009064
 20
608541.5644727762555704
 30
0.0
  0
VERTEX
  5
1652
  8
SURVBND
 10
634605.1998360836878419
 20
608511.5876947059296072
 30
0.0
  0
VERTEX
  5
1653
  8
SURVBND
 10
634626.0771428600419313
 20
608476.603699678555131
 30
0.0
  0
VERTEX
  5
1654
  8
SURVBND
 10
634650.9231600137427449
 20
608431.6290291913319379
 30
0.0
  0
VERTEX
  5
1655
  8
SURVBND
 10
634669.8279908279655501
 20
608406.6309579331427813
 30
0.0
  0
VERTEX
  5
1656
  8
SURVBND
 10
634678.7397703370079398
 20
608376.6660590895917267
 30
0.0
  0
VERTEX
  5
1657
  8
SURVBND
 10
634688.6686738169519231
 20
608354.6837220634333789
 30
0.0
  0
VERTEX
  5
1658
  8
SURVBND
 10
634701.6038081472506747
 20
608337.6848435403080657
 30
0.0
  0
VERTEX
  5
1659
  8
SURVBND
 10
634720.5419007970485836
 20
608326.6604131916537881
 30
0.0
  0
VERTEX
  5
165A
  8
SURVBND
 10
634737.4790073402691633
 20
608313.6445001183310524
 30
0.0
  0
VERTEX
  5
165B
  8
SURVBND
 10
634752.4032485502539203
 20
608293.6465182807296515
 30
0.0
  0
VERTEX
  5
165C
  8
SURVBND
 10
634771.3033276736969128
 20
608266.6522126069758087
 30
0.0
  0
VERTEX
  5
165D
  8
SURVBND
 10
634784.2242069317726418
 20
608243.6646308366907761
 30
0.0
  0
VERTEX
  5
165E
  8
SURVBND
 10
634794.1364794940454885
 20
608214.6954733555903658
 30
0.0
  0
VERTEX
  5
165F
  8
SURVBND
 10
634804.0748863555490971
 20
608196.7056051606778055
 30
0.0
  0
VERTEX
  5
1660
  8
SURVBND
 10
634811.0094382120296359
 20
608174.7303956706309691
 30
0.0
  0
VERTEX
  5
1661
  8
SURVBND
 10
634809.9661799417808652
 20
608155.7685445670504123
 30
0.0
  0
VERTEX
  5
1662
  8
SURVBND
 10
634812.9153905031271279
 20
608136.7971900821430609
 30
0.0
  0
VERTEX
  5
1663
  8
SURVBND
 10
634801.926597835146822
 20
608132.8308555498952046
 30
0.0
  0
VERTEX
  5
1664
  8
SURVBND
 10
634806.6891027176752687
 20
608036.9997243706602603
 30
0.0
  0
VERTEX
  5
1665
  8
SURVBND
 10
634806.6891027176752687
 20
608036.9997243706602603
 30
0.0
  0
SEQEND
  5
1666
  8
SURVBND
  0
ENDSEC
  0
EOF
