  0
SECTION
  2
HEADER
  9
$ACADVER
  1
AC1009
  9
$INSBASE
 10
0.0
 20
0.0
 30
0.0
  9
$EXTMIN
 10
23.5
 20
88.0
 30
0.0
  9
$EXTMAX
 10
41.0
 20
104.0
 30
0.0
  9
$LIMMIN
 10
23.0
 20
88.0
  9
$LIMMAX
 10
40.0
 20
104.0
  9
$ORTHOMODE
 70
     0
  9
$REGENMODE
 70
     1
  9
$FILLMODE
 70
     1
  9
$QTEXTMODE
 70
     0
  9
$MIRRTEXT
 70
     1
  9
$DRAGMODE
 70
     2
  9
$LTSCALE
 40
1.0
  9
$OSMODE
 70
     0
  9
$ATTMODE
 70
     1
  9
$TEXTSIZE
 40
0.25
  9
$TRACEWID
 40
0.05
  9
$TEXTSTYLE
  7
STANDARD
  9
$CLAYER
  8
0
  9
$CELTYPE
  6
BYLAYER
  9
$CECOLOR
 62
   256
  9
$DIMSCALE
 40
1.0
  9
$DIMASZ
 40
0.18
  9
$DIMEXO
 40
0.063
  9
$DIMDLI
 40
0.38
  9
$DIMRND
 40
0.0
  9
$DIMDLE
 40
0.0
  9
$DIMEXE
 40
0.18
  9
$DIMTP
 40
0.0
  9
$DIMTM
 40
0.0
  9
$DIMTXT
 40
0.18
  9
$DIMCEN
 40
0.09
  9
$DIMTSZ
 40
0.0
  9
$DIMTOL
 70
     0
  9
$DIMLIM
 70
     0
  9
$DIMTIH
 70
     1
  9
$DIMTOH
 70
     1
  9
$DIMSE1
 70
     0
  9
$DIMSE2
 70
     0
  9
$DIMTAD
 70
     0
  9
$DIMZIN
 70
     0
  9
$DIMBLK
  1

  9
$DIMASO
 70
     1
  9
$DIMSHO
 70
     0
  9
$DIMPOST
  1

  9
$DIMAPOST
  1

  9
$DIMALT
 70
     0
  9
$DIMALTD
 70
     2
  9
$DIMALTF
 40
25.4
  9
$DIMLFAC
 40
1.0
  9
$DIMTOFL
 70
     0
  9
$DIMTVP
 40
0.0
  9
$DIMTIX
 70
     0
  9
$DIMSOXD
 70
     0
  9
$DIMSAH
 70
     0
  9
$DIMBLK1
  1

  9
$DIMBLK2
  1

  9
$DIMSTYLE
  2
*UNNAMED
  9
$DIMCLRD
 70
     0
  9
$DIMCLRE
 70
     0
  9
$DIMCLRT
 70
     0
  9
$DIMTFAC
 40
1.0
  9
$DIMGAP
 40
0.09
  9
$LUNITS
 70
     2
  9
$LUPREC
 70
     4
  9
$SKETCHINC
 40
0.1
  9
$FILLETRAD
 40
0.0
  9
$AUNITS
 70
     0
  9
$AUPREC
 70
     0
  9
$MENU
  1
ACAD
  9
$ELEVATION
 40
0.0
  9
$PELEVATION
 40
0.0
  9
$THICKNESS
 40
0.0
  9
$LIMCHECK
 70
     0
  9
$BLIPMODE
 70
     1
  9
$CHAMFERA
 40
0.0
  9
$CHAMFERB
 40
0.0
  9
$SKPOLY
 70
     0
  9
$TDCREATE
 40
2450151.460440856
  9
$TDUPDATE
 40
2450151.460440856
  9
$TDINDWG
 40
0.0000000000
  9
$TDUSRTIMER
 40
0.0000000000
  9
$USRTIMER
 70
     1
  9
$ANGBASE
 50
0.0
  9
$ANGDIR
 70
     0
  9
$PDMODE
 70
     0
  9
$PDSIZE
 40
0.0
  9
$PLINEWID
 40
0.0
  9
$COORDS
 70
     2
  9
$SPLFRAME
 70
     0
  9
$SPLINETYPE
 70
     6
  9
$SPLINESEGS
 70
     8
  9
$ATTDIA
 70
     0
  9
$ATTREQ
 70
     1
  9
$HANDLING
 70
     0
  9
$HANDSEED
  5
0
  9
$SURFTAB1
 70
     6
  9
$SURFTAB2
 70
     6
  9
$SURFTYPE
 70
     6
  9
$SURFU
 70
     6
  9
$SURFV
 70
     6
  9
$UCSNAME
  2

  9
$UCSORG
 10
0.0
 20
0.0
 30
0.0
  9
$UCSXDIR
 10
1.0
 20
0.0
 30
0.0
  9
$UCSYDIR
 10
0.0
 20
1.0
 30
0.0
  9
$PUCSNAME
  2

  9
$PUCSORG
 10
0.0
 20
0.0
 30
0.0
  9
$PUCSXDIR
 10
1.0
 20
0.0
 30
0.0
  9
$PUCSYDIR
 10
0.0
 20
1.0
 30
0.0
  9
$USERI1
 70
     0
  9
$USERI2
 70
     0
  9
$USERI3
 70
     0
  9
$USERI4
 70
     0
  9
$USERI5
 70
     0
  9
$USERR1
 40
0.0
  9
$USERR2
 40
0.0
  9
$USERR3
 40
0.0
  9
$USERR4
 40
0.0
  9
$USERR5
 40
0.0
  9
$WORLDVIEW
 70
     1
  9
$SHADEDGE
 70
     3
  9
$SHADEDIF
 70
    70
  9
$TILEMODE
 70
     1
  9
$MAXACTVP
 70
    16
  9
$PINSBASE
 10
96.908
 20
50.0
 30
23.403
  9
$PLIMCHECK
 70
     0
  9
$PEXTMIN
 10
1.000E+20
 20
1.000E+20
 30
1.000E+20
  9
$PEXTMAX
 10
-1.000E+20
 20
-1.000E+20
 30
-1.000E+20
  9
$PLIMMIN
 10
0.0
 20
0.0
  9
$PLIMMAX
 10
12.0
 20
9.0
  9
$UNITMODE
 70
     0
  9
$VISRETAIN
 70
     0
  9
$PLINEGEN
 70
     0
  9
$PSLTSCALE
 70
     0
  9
$TREEDEPTH
 70
  3020
  9
$DWGCODEPAGE
  3
undefined
  0
ENDSEC
  0
SECTION
  2
TABLES
  0
TABLE
  2
VPORT
 70
     1
  0
VPORT
  2
*ACTIVE
 70
     0
 10
0.0
 20
0.0
 11
1.0
 21
1.0
 12
35.877724
 22
96.0
 13
0.0
 23
0.0
 14
1.0
 24
1.0
 15
0.0
 25
0.0
 16
0.0
 26
0.0
 36
1.0
 17
0.0
 27
0.0
 37
0.0
 40
16.0
 41
1.547215
 42
50.0
 43
0.0
 44
0.0
 50
0.0
 51
0.0
 71
     0
 72
   100
 73
     1
 74
     0
 75
     0
 76
     0
 77
     0
 78
     0
  0
ENDTAB
  0
TABLE
  2
LTYPE
 70
     1
  0
LTYPE
  2
CONTINUOUS
 70
    64
  3
Solid line
 72
    65
 73
     0
 40
0.0
  0
ENDTAB
  0
TABLE
  2
LAYER
 70
     4
  0
LAYER
  2
0
 70
     0
 62
     7
  6
CONTINUOUS
  0
LAYER
  2
AREAS
 70
    64
 62
     2
  6
CONTINUOUS
  0
LAYER
  2
SURVBND
 70
    64
 62
     1
  6
CONTINUOUS
  0
LAYER
  2
FRAME
 70
    64
 62
     7
  6
CONTINUOUS
  0
ENDTAB
  0
TABLE
  2
STYLE
 70
     1
  0
STYLE
  2
STANDARD
 70
     0
 40
0.25
 41
1.0
 50
0.0
 71
     0
 42
0.25
  3
complex
  4

  0
ENDTAB
  0
TABLE
  2
VIEW
 70
     0
  0
ENDTAB
  0
TABLE
  2
UCS
 70
     0
  0
ENDTAB
  0
TABLE
  2
APPID
 70
     1
  0
APPID
  2
ACAD
 70
    64
  0
ENDTAB
  0
TABLE
  2
DIMSTYLE
 70
     0
  0
ENDTAB
  0
ENDSEC
  0
SECTION
  2
BLOCKS
  0
ENDSEC
  0
SECTION
  2
ENTITIES
  0
POLYLINE
  8
AREAS
 66
     1
 10
0.0
 20
0.0
 30
0.0
 70
     1
  0
VERTEX
  8
AREAS
 10
34.655
 20
94.379
 30
0.0
  0
VERTEX
  8
AREAS
 10
34.633
 20
94.34
 30
0.0
  0
VERTEX
  8
AREAS
 10
34.676
 20
94.343
 30
0.0
  0
VERTEX
  8
AREAS
 10
34.683
 20
94.342
 30
0.0
  0
VERTEX
  8
AREAS
 10
34.715
 20
94.33
 30
0.0
  0
VERTEX
  8
AREAS
 10
34.755
 20
94.306
 30
0.0
  0
VERTEX
  8
AREAS
 10
34.766
 20
94.325
 30
0.0
  0
VERTEX
  8
AREAS
 10
34.762
 20
94.341
 30
0.0
  0
VERTEX
  8
AREAS
 10
34.753
 20
94.348
 30
0.0
  0
VERTEX
  8
AREAS
 10
34.753
 20
94.364
 30
0.0
  0
VERTEX
  8
AREAS
 10
34.694
 20
94.378
 30
0.0
  0
VERTEX
  8
AREAS
 10
34.663
 20
94.379
 30
0.0
  0
SEQEND
  8
AREAS
  0
POLYLINE
  8
AREAS
 66
     1
 10
0.0
 20
0.0
 30
0.0
 70
     1
  0
VERTEX
  8
AREAS
 10
34.347
 20
94.526
 30
0.0
  0
VERTEX
  8
AREAS
 10
34.413
 20
94.537
 30
0.0
  0
VERTEX
  8
AREAS
 10
34.418
 20
94.503
 30
0.0
  0
VERTEX
  8
AREAS
 10
34.432
 20
94.491
 30
0.0
  0
VERTEX
  8
AREAS
 10
34.448
 20
94.441
 30
0.0
  0
VERTEX
  8
AREAS
 10
34.506
 20
94.4
 30
0.0
  0
VERTEX
  8
AREAS
 10
34.443
 20
94.394
 30
0.0
  0
VERTEX
  8
AREAS
 10
34.477
 20
94.333
 30
0.0
  0
VERTEX
  8
AREAS
 10
34.461
 20
94.331
 30
0.0
  0
VERTEX
  8
AREAS
 10
34.446
 20
94.323
 30
0.0
  0
VERTEX
  8
AREAS
 10
34.408
 20
94.328
 30
0.0
  0
VERTEX
  8
AREAS
 10
34.404
 20
94.32
 30
0.0
  0
VERTEX
  8
AREAS
 10
34.391
 20
94.328
 30
0.0
  0
VERTEX
  8
AREAS
 10
34.394
 20
94.414
 30
0.0
  0
VERTEX
  8
AREAS
 10
34.353
 20
94.456
 30
0.0
  0
VERTEX
  8
AREAS
 10
34.366
 20
94.479
 30
0.0
  0
SEQEND
  8
AREAS
  0
POLYLINE
  8
AREAS
 66
     1
 10
0.0
 20
0.0
 30
0.0
 70
     1
  0
VERTEX
  8
AREAS
 10
33.796
 20
94.22
 30
0.0
  0
VERTEX
  8
AREAS
 10
33.787
 20
94.196
 30
0.0
  0
VERTEX
  8
AREAS
 10
33.772
 20
94.175
 30
0.0
  0
VERTEX
  8
AREAS
 10
33.812
 20
94.181
 30
0.0
  0
VERTEX
  8
AREAS
 10
33.783
 20
94.102
 30
0.0
  0
VERTEX
  8
AREAS
 10
33.797
 20
94.095
 30
0.0
  0
VERTEX
  8
AREAS
 10
33.83
 20
94.098
 30
0.0
  0
VERTEX
  8
AREAS
 10
33.843
 20
94.105
 30
0.0
  0
VERTEX
  8
AREAS
 10
33.852
 20
94.117
 30
0.0
  0
VERTEX
  8
AREAS
 10
33.858
 20
94.126
 30
0.0
  0
VERTEX
  8
AREAS
 10
33.86
 20
94.142
 30
0.0
  0
VERTEX
  8
AREAS
 10
33.86
 20
94.151
 30
0.0
  0
VERTEX
  8
AREAS
 10
33.859
 20
94.157
 30
0.0
  0
VERTEX
  8
AREAS
 10
33.867
 20
94.182
 30
0.0
  0
VERTEX
  8
AREAS
 10
33.821
 20
94.207
 30
0.0
  0
SEQEND
  8
AREAS
  0
POLYLINE
  8
AREAS
 66
     1
 10
0.0
 20
0.0
 30
0.0
 70
     1
  0
VERTEX
  8
AREAS
 10
33.533
 20
94.153
 30
0.0
  0
VERTEX
  8
AREAS
 10
33.555
 20
94.184
 30
0.0
  0
VERTEX
  8
AREAS
 10
33.602
 20
94.206
 30
0.0
  0
VERTEX
  8
AREAS
 10
33.616
 20
94.204
 30
0.0
  0
VERTEX
  8
AREAS
 10
33.618
 20
94.201
 30
0.0
  0
VERTEX
  8
AREAS
 10
33.616
 20
94.178
 30
0.0
  0
VERTEX
  8
AREAS
 10
33.612
 20
94.168
 30
0.0
  0
VERTEX
  8
AREAS
 10
33.605
 20
94.154
 30
0.0
  0
VERTEX
  8
AREAS
 10
33.604
 20
94.146
 30
0.0
  0
VERTEX
  8
AREAS
 10
33.596
 20
94.136
 30
0.0
  0
VERTEX
  8
AREAS
 10
33.537
 20
94.126
 30
0.0
  0
SEQEND
  8
AREAS
  0
POLYLINE
  8
AREAS
 66
     1
 10
0.0
 20
0.0
 30
0.0
 70
     1
  0
VERTEX
  8
AREAS
 10
33.712
 20
94.588
 30
0.0
  0
VERTEX
  8
AREAS
 10
33.736
 20
94.59
 30
0.0
  0
VERTEX
  8
AREAS
 10
33.747
 20
94.592
 30
0.0
  0
VERTEX
  8
AREAS
 10
33.756
 20
94.591
 30
0.0
  0
VERTEX
  8
AREAS
 10
33.769
 20
94.585
 30
0.0
  0
VERTEX
  8
AREAS
 10
33.773
 20
94.578
 30
0.0
  0
VERTEX
  8
AREAS
 10
33.776
 20
94.57
 30
0.0
  0
VERTEX
  8
AREAS
 10
33.767
 20
94.548
 30
0.0
  0
VERTEX
  8
AREAS
 10
33.757
 20
94.539
 30
0.0
  0
VERTEX
  8
AREAS
 10
33.7
 20
94.549
 30
0.0
  0
SEQEND
  8
AREAS
  0
POLYLINE
  8
AREAS
 66
     1
 10
0.0
 20
0.0
 30
0.0
 70
     1
  0
VERTEX
  8
AREAS
 10
33.585
 20
94.79
 30
0.0
  0
VERTEX
  8
AREAS
 10
33.596
 20
94.788
 30
0.0
  0
VERTEX
  8
AREAS
 10
33.613
 20
94.788
 30
0.0
  0
VERTEX
  8
AREAS
 10
33.64
 20
94.779
 30
0.0
  0
VERTEX
  8
AREAS
 10
33.658
 20
94.771
 30
0.0
  0
VERTEX
  8
AREAS
 10
33.636
 20
94.7
 30
0.0
  0
VERTEX
  8
AREAS
 10
33.615
 20
94.705
 30
0.0
  0
VERTEX
  8
AREAS
 10
33.594
 20
94.705
 30
0.0
  0
VERTEX
  8
AREAS
 10
33.586
 20
94.787
 30
0.0
  0
SEQEND
  8
AREAS
  0
POLYLINE
  8
AREAS
 66
     1
 10
0.0
 20
0.0
 30
0.0
 70
     1
  0
VERTEX
  8
AREAS
 10
33.549
 20
93.696
 30
0.0
  0
VERTEX
  8
AREAS
 10
33.576
 20
93.705
 30
0.0
  0
VERTEX
  8
AREAS
 10
33.587
 20
93.681
 30
0.0
  0
VERTEX
  8
AREAS
 10
33.581
 20
93.657
 30
0.0
  0
VERTEX
  8
AREAS
 10
33.569
 20
93.651
 30
0.0
  0
VERTEX
  8
AREAS
 10
33.555
 20
93.648
 30
0.0
  0
VERTEX
  8
AREAS
 10
33.541
 20
93.644
 30
0.0
  0
VERTEX
  8
AREAS
 10
33.536
 20
93.643
 30
0.0
  0
VERTEX
  8
AREAS
 10
33.525
 20
93.648
 30
0.0
  0
VERTEX
  8
AREAS
 10
33.521
 20
93.66
 30
0.0
  0
VERTEX
  8
AREAS
 10
33.544
 20
93.69
 30
0.0
  0
SEQEND
  8
AREAS
  0
POLYLINE
  8
AREAS
 66
     1
 10
0.0
 20
0.0
 30
0.0
 70
     1
  0
VERTEX
  8
AREAS
 10
33.694
 20
93.354
 30
0.0
  0
VERTEX
  8
AREAS
 10
33.731
 20
93.351
 30
0.0
  0
VERTEX
  8
AREAS
 10
33.732
 20
93.326
 30
0.0
  0
VERTEX
  8
AREAS
 10
33.726
 20
93.307
 30
0.0
  0
VERTEX
  8
AREAS
 10
33.72
 20
93.292
 30
0.0
  0
VERTEX
  8
AREAS
 10
33.713
 20
93.288
 30
0.0
  0
VERTEX
  8
AREAS
 10
33.708
 20
93.289
 30
0.0
  0
VERTEX
  8
AREAS
 10
33.699
 20
93.294
 30
0.0
  0
VERTEX
  8
AREAS
 10
33.699
 20
93.3
 30
0.0
  0
VERTEX
  8
AREAS
 10
33.693
 20
93.313
 30
0.0
  0
VERTEX
  8
AREAS
 10
33.696
 20
93.327
 30
0.0
  0
SEQEND
  8
AREAS
  0
POLYLINE
  8
AREAS
 66
     1
 10
0.0
 20
0.0
 30
0.0
 70
     1
  0
VERTEX
  8
AREAS
 10
33.467
 20
93.478
 30
0.0
  0
VERTEX
  8
AREAS
 10
33.481
 20
93.484
 30
0.0
  0
VERTEX
  8
AREAS
 10
33.49
 20
93.482
 30
0.0
  0
VERTEX
  8
AREAS
 10
33.506
 20
93.472
 30
0.0
  0
VERTEX
  8
AREAS
 10
33.522
 20
93.459
 30
0.0
  0
VERTEX
  8
AREAS
 10
33.535
 20
93.445
 30
0.0
  0
VERTEX
  8
AREAS
 10
33.549
 20
93.43
 30
0.0
  0
VERTEX
  8
AREAS
 10
33.57
 20
93.421
 30
0.0
  0
VERTEX
  8
AREAS
 10
33.577
 20
93.418
 30
0.0
  0
VERTEX
  8
AREAS
 10
33.601
 20
93.419
 30
0.0
  0
VERTEX
  8
AREAS
 10
33.638
 20
93.406
 30
0.0
  0
VERTEX
  8
AREAS
 10
33.57
 20
93.309
 30
0.0
  0
VERTEX
  8
AREAS
 10
33.574
 20
93.279
 30
0.0
  0
VERTEX
  8
AREAS
 10
33.621
 20
93.265
 30
0.0
  0
VERTEX
  8
AREAS
 10
33.645
 20
93.272
 30
0.0
  0
VERTEX
  8
AREAS
 10
33.659
 20
93.249
 30
0.0
  0
VERTEX
  8
AREAS
 10
33.663
 20
93.243
 30
0.0
  0
VERTEX
  8
AREAS
 10
33.668
 20
93.219
 30
0.0
  0
VERTEX
  8
AREAS
 10
33.673
 20
93.21
 30
0.0
  0
VERTEX
  8
AREAS
 10
33.727
 20
93.204
 30
0.0
  0
VERTEX
  8
AREAS
 10
33.734
 20
93.183
 30
0.0
  0
VERTEX
  8
AREAS
 10
33.732
 20
93.18
 30
0.0
  0
VERTEX
  8
AREAS
 10
33.721
 20
93.174
 30
0.0
  0
VERTEX
  8
AREAS
 10
33.708
 20
93.169
 30
0.0
  0
VERTEX
  8
AREAS
 10
33.687
 20
93.175
 30
0.0
  0
VERTEX
  8
AREAS
 10
33.669
 20
93.184
 30
0.0
  0
VERTEX
  8
AREAS
 10
33.662
 20
93.177
 30
0.0
  0
VERTEX
  8
AREAS
 10
33.646
 20
93.172
 30
0.0
  0
VERTEX
  8
AREAS
 10
33.628
 20
93.168
 30
0.0
  0
VERTEX
  8
AREAS
 10
33.618
 20
93.166
 30
0.0
  0
VERTEX
  8
AREAS
 10
33.594
 20
93.155
 30
0.0
  0
VERTEX
  8
AREAS
 10
33.548
 20
93.148
 30
0.0
  0
VERTEX
  8
AREAS
 10
33.534
 20
93.146
 30
0.0
  0
VERTEX
  8
AREAS
 10
33.505
 20
93.208
 30
0.0
  0
VERTEX
  8
AREAS
 10
33.459
 20
93.224
 30
0.0
  0
VERTEX
  8
AREAS
 10
33.407
 20
93.245
 30
0.0
  0
VERTEX
  8
AREAS
 10
33.391
 20
93.25
 30
0.0
  0
VERTEX
  8
AREAS
 10
33.385
 20
93.255
 30
0.0
  0
VERTEX
  8
AREAS
 10
33.385
 20
93.262
 30
0.0
  0
VERTEX
  8
AREAS
 10
33.387
 20
93.287
 30
0.0
  0
VERTEX
  8
AREAS
 10
33.383
 20
93.306
 30
0.0
  0
VERTEX
  8
AREAS
 10
33.38
 20
93.312
 30
0.0
  0
VERTEX
  8
AREAS
 10
33.381
 20
93.334
 30
0.0
  0
VERTEX
  8
AREAS
 10
33.385
 20
93.341
 30
0.0
  0
VERTEX
  8
AREAS
 10
33.407
 20
93.356
 30
0.0
  0
VERTEX
  8
AREAS
 10
33.422
 20
93.385
 30
0.0
  0
VERTEX
  8
AREAS
 10
33.444
 20
93.432
 30
0.0
  0
VERTEX
  8
AREAS
 10
33.448
 20
93.449
 30
0.0
  0
VERTEX
  8
AREAS
 10
33.459
 20
93.464
 30
0.0
  0
SEQEND
  8
AREAS
  0
POLYLINE
  8
AREAS
 66
     1
 10
0.0
 20
0.0
 30
0.0
 70
     1
  0
VERTEX
  8
AREAS
 10
32.761
 20
91.284
 30
0.0
  0
VERTEX
  8
AREAS
 10
32.774
 20
91.293
 30
0.0
  0
VERTEX
  8
AREAS
 10
32.786
 20
91.295
 30
0.0
  0
VERTEX
  8
AREAS
 10
32.79
 20
91.291
 30
0.0
  0
VERTEX
  8
AREAS
 10
32.792
 20
91.28
 30
0.0
  0
VERTEX
  8
AREAS
 10
32.792
 20
91.27
 30
0.0
  0
VERTEX
  8
AREAS
 10
32.79
 20
91.263
 30
0.0
  0
VERTEX
  8
AREAS
 10
32.784
 20
91.254
 30
0.0
  0
VERTEX
  8
AREAS
 10
32.773
 20
91.249
 30
0.0
  0
VERTEX
  8
AREAS
 10
32.761
 20
91.25
 30
0.0
  0
VERTEX
  8
AREAS
 10
32.752
 20
91.253
 30
0.0
  0
VERTEX
  8
AREAS
 10
32.759
 20
91.279
 30
0.0
  0
SEQEND
  8
AREAS
  0
POLYLINE
  8
AREAS
 66
     1
 10
0.0
 20
0.0
 30
0.0
 70
     1
  0
VERTEX
  8
AREAS
 10
33.648
 20
91.072
 30
0.0
  0
VERTEX
  8
AREAS
 10
33.653
 20
91.08
 30
0.0
  0
VERTEX
  8
AREAS
 10
33.715
 20
91.149
 30
0.0
  0
VERTEX
  8
AREAS
 10
33.726
 20
91.141
 30
0.0
  0
VERTEX
  8
AREAS
 10
33.728
 20
91.132
 30
0.0
  0
VERTEX
  8
AREAS
 10
33.723
 20
91.118
 30
0.0
  0
VERTEX
  8
AREAS
 10
33.721
 20
91.117
 30
0.0
  0
VERTEX
  8
AREAS
 10
33.71
 20
91.105
 30
0.0
  0
VERTEX
  8
AREAS
 10
33.7
 20
91.094
 30
0.0
  0
VERTEX
  8
AREAS
 10
33.683
 20
91.072
 30
0.0
  0
VERTEX
  8
AREAS
 10
33.667
 20
91.053
 30
0.0
  0
VERTEX
  8
AREAS
 10
33.655
 20
91.064
 30
0.0
  0
SEQEND
  8
AREAS
  0
POLYLINE
  8
AREAS
 66
     1
 10
0.0
 20
0.0
 30
0.0
 70
     1
  0
VERTEX
  8
AREAS
 10
33.836
 20
91.306
 30
0.0
  0
VERTEX
  8
AREAS
 10
33.83
 20
91.321
 30
0.0
  0
VERTEX
  8
AREAS
 10
33.827
 20
91.331
 30
0.0
  0
VERTEX
  8
AREAS
 10
33.827
 20
91.335
 30
0.0
  0
VERTEX
  8
AREAS
 10
33.831
 20
91.349
 30
0.0
  0
VERTEX
  8
AREAS
 10
33.837
 20
91.35
 30
0.0
  0
VERTEX
  8
AREAS
 10
33.854
 20
91.341
 30
0.0
  0
VERTEX
  8
AREAS
 10
33.866
 20
91.314
 30
0.0
  0
VERTEX
  8
AREAS
 10
33.868
 20
91.306
 30
0.0
  0
VERTEX
  8
AREAS
 10
33.867
 20
91.282
 30
0.0
  0
VERTEX
  8
AREAS
 10
33.866
 20
91.266
 30
0.0
  0
VERTEX
  8
AREAS
 10
33.86
 20
91.242
 30
0.0
  0
VERTEX
  8
AREAS
 10
33.837
 20
91.226
 30
0.0
  0
VERTEX
  8
AREAS
 10
33.819
 20
91.206
 30
0.0
  0
VERTEX
  8
AREAS
 10
33.808
 20
91.197
 30
0.0
  0
VERTEX
  8
AREAS
 10
33.792
 20
91.198
 30
0.0
  0
VERTEX
  8
AREAS
 10
33.787
 20
91.204
 30
0.0
  0
VERTEX
  8
AREAS
 10
33.796
 20
91.22
 30
0.0
  0
VERTEX
  8
AREAS
 10
33.807
 20
91.235
 30
0.0
  0
VERTEX
  8
AREAS
 10
33.825
 20
91.267
 30
0.0
  0
VERTEX
  8
AREAS
 10
33.833
 20
91.297
 30
0.0
  0
SEQEND
  8
AREAS
  0
POLYLINE
  8
AREAS
 66
     1
 10
0.0
 20
0.0
 30
0.0
 70
     1
  0
VERTEX
  8
AREAS
 10
33.725
 20
92.433
 30
0.0
  0
VERTEX
  8
AREAS
 10
33.756
 20
92.444
 30
0.0
  0
VERTEX
  8
AREAS
 10
33.761
 20
92.44
 30
0.0
  0
VERTEX
  8
AREAS
 10
33.765
 20
92.435
 30
0.0
  0
VERTEX
  8
AREAS
 10
33.77
 20
92.432
 30
0.0
  0
VERTEX
  8
AREAS
 10
33.776
 20
92.43
 30
0.0
  0
VERTEX
  8
AREAS
 10
33.785
 20
92.424
 30
0.0
  0
VERTEX
  8
AREAS
 10
33.773
 20
92.397
 30
0.0
  0
VERTEX
  8
AREAS
 10
33.753
 20
92.401
 30
0.0
  0
VERTEX
  8
AREAS
 10
33.742
 20
92.408
 30
0.0
  0
VERTEX
  8
AREAS
 10
33.734
 20
92.416
 30
0.0
  0
SEQEND
  8
AREAS
  0
POLYLINE
  8
AREAS
 66
     1
 10
0.0
 20
0.0
 30
0.0
 70
     1
  0
VERTEX
  8
AREAS
 10
31.354
 20
88.678
 30
0.0
  0
VERTEX
  8
AREAS
 10
31.375
 20
88.702
 30
0.0
  0
VERTEX
  8
AREAS
 10
31.393
 20
88.7
 30
0.0
  0
VERTEX
  8
AREAS
 10
31.405
 20
88.693
 30
0.0
  0
VERTEX
  8
AREAS
 10
31.413
 20
88.684
 30
0.0
  0
VERTEX
  8
AREAS
 10
31.414
 20
88.679
 30
0.0
  0
VERTEX
  8
AREAS
 10
31.41
 20
88.674
 30
0.0
  0
VERTEX
  8
AREAS
 10
31.404
 20
88.67
 30
0.0
  0
VERTEX
  8
AREAS
 10
31.393
 20
88.669
 30
0.0
  0
VERTEX
  8
AREAS
 10
31.388
 20
88.671
 30
0.0
  0
VERTEX
  8
AREAS
 10
31.379
 20
88.67
 30
0.0
  0
SEQEND
  8
AREAS
  0
POLYLINE
  8
AREAS
 66
     1
 10
0.0
 20
0.0
 30
0.0
 70
     1
  0
VERTEX
  8
AREAS
 10
31.196
 20
89.059
 30
0.0
  0
VERTEX
  8
AREAS
 10
31.267
 20
89.09
 30
0.0
  0
VERTEX
  8
AREAS
 10
31.261
 20
89.1
 30
0.0
  0
VERTEX
  8
AREAS
 10
31.259
 20
89.11
 30
0.0
  0
VERTEX
  8
AREAS
 10
31.25
 20
89.113
 30
0.0
  0
VERTEX
  8
AREAS
 10
31.245
 20
89.112
 30
0.0
  0
VERTEX
  8
AREAS
 10
31.219
 20
89.106
 30
0.0
  0
VERTEX
  8
AREAS
 10
31.203
 20
89.094
 30
0.0
  0
VERTEX
  8
AREAS
 10
31.199
 20
89.072
 30
0.0
  0
SEQEND
  8
AREAS
  0
POLYLINE
  8
AREAS
 66
     1
 10
0.0
 20
0.0
 30
0.0
 70
     1
  0
VERTEX
  8
AREAS
 10
31.611
 20
89.472
 30
0.0
  0
VERTEX
  8
AREAS
 10
31.606
 20
89.437
 30
0.0
  0
VERTEX
  8
AREAS
 10
31.652
 20
89.418
 30
0.0
  0
VERTEX
  8
AREAS
 10
31.651
 20
89.436
 30
0.0
  0
VERTEX
  8
AREAS
 10
31.651
 20
89.449
 30
0.0
  0
VERTEX
  8
AREAS
 10
31.644
 20
89.459
 30
0.0
  0
VERTEX
  8
AREAS
 10
31.639
 20
89.465
 30
0.0
  0
VERTEX
  8
AREAS
 10
31.63
 20
89.47
 30
0.0
  0
VERTEX
  8
AREAS
 10
31.617
 20
89.472
 30
0.0
  0
SEQEND
  8
AREAS
  0
POLYLINE
  8
AREAS
 66
     1
 10
0.0
 20
0.0
 30
0.0
 70
     1
  0
VERTEX
  8
AREAS
 10
31.764
 20
88.793
 30
0.0
  0
VERTEX
  8
AREAS
 10
31.81
 20
88.813
 30
0.0
  0
VERTEX
  8
AREAS
 10
31.817
 20
88.807
 30
0.0
  0
VERTEX
  8
AREAS
 10
31.82
 20
88.802
 30
0.0
  0
VERTEX
  8
AREAS
 10
31.82
 20
88.791
 30
0.0
  0
VERTEX
  8
AREAS
 10
31.811
 20
88.785
 30
0.0
  0
VERTEX
  8
AREAS
 10
31.809
 20
88.781
 30
0.0
  0
VERTEX
  8
AREAS
 10
31.805
 20
88.778
 30
0.0
  0
VERTEX
  8
AREAS
 10
31.801
 20
88.775
 30
0.0
  0
VERTEX
  8
AREAS
 10
31.797
 20
88.774
 30
0.0
  0
VERTEX
  8
AREAS
 10
31.789
 20
88.774
 30
0.0
  0
VERTEX
  8
AREAS
 10
31.779
 20
88.779
 30
0.0
  0
SEQEND
  8
AREAS
  0
POLYLINE
  8
AREAS
 66
     1
 10
0.0
 20
0.0
 30
0.0
 70
     1
  0
VERTEX
  8
AREAS
 10
32.245
 20
93.497
 30
0.0
  0
VERTEX
  8
AREAS
 10
32.266
 20
93.502
 30
0.0
  0
VERTEX
  8
AREAS
 10
32.279
 20
93.447
 30
0.0
  0
VERTEX
  8
AREAS
 10
32.256
 20
93.441
 30
0.0
  0
VERTEX
  8
AREAS
 10
32.247
 20
93.44
 30
0.0
  0
VERTEX
  8
AREAS
 10
32.236
 20
93.473
 30
0.0
  0
VERTEX
  8
AREAS
 10
32.237
 20
93.486
 30
0.0
  0
SEQEND
  8
AREAS
  0
POLYLINE
  8
AREAS
 66
     1
 10
0.0
 20
0.0
 30
0.0
 70
     1
  0
VERTEX
  8
AREAS
 10
32.406
 20
93.454
 30
0.0
  0
VERTEX
  8
AREAS
 10
32.413
 20
93.465
 30
0.0
  0
VERTEX
  8
AREAS
 10
32.416
 20
93.466
 30
0.0
  0
VERTEX
  8
AREAS
 10
32.439
 20
93.47
 30
0.0
  0
VERTEX
  8
AREAS
 10
32.449
 20
93.47
 30
0.0
  0
VERTEX
  8
AREAS
 10
32.457
 20
93.463
 30
0.0
  0
VERTEX
  8
AREAS
 10
32.467
 20
93.453
 30
0.0
  0
VERTEX
  8
AREAS
 10
32.467
 20
93.435
 30
0.0
  0
VERTEX
  8
AREAS
 10
32.461
 20
93.428
 30
0.0
  0
VERTEX
  8
AREAS
 10
32.423
 20
93.41
 30
0.0
  0
VERTEX
  8
AREAS
 10
32.408
 20
93.451
 30
0.0
  0
SEQEND
  8
AREAS
  0
POLYLINE
  8
AREAS
 66
     1
 10
0.0
 20
0.0
 30
0.0
 70
     1
  0
VERTEX
  8
AREAS
 10
32.4
 20
89.196
 30
0.0
  0
VERTEX
  8
AREAS
 10
32.415
 20
89.202
 30
0.0
  0
VERTEX
  8
AREAS
 10
32.427
 20
89.214
 30
0.0
  0
VERTEX
  8
AREAS
 10
32.439
 20
89.216
 30
0.0
  0
VERTEX
  8
AREAS
 10
32.481
 20
89.19
 30
0.0
  0
VERTEX
  8
AREAS
 10
32.449
 20
89.168
 30
0.0
  0
VERTEX
  8
AREAS
 10
32.434
 20
89.155
 30
0.0
  0
SEQEND
  8
AREAS
  0
POLYLINE
  8
AREAS
 66
     1
 10
0.0
 20
0.0
 30
0.0
 70
     1
  0
VERTEX
  8
AREAS
 10
32.261
 20
89.809
 30
0.0
  0
VERTEX
  8
AREAS
 10
32.306
 20
89.828
 30
0.0
  0
VERTEX
  8
AREAS
 10
32.318
 20
89.843
 30
0.0
  0
VERTEX
  8
AREAS
 10
32.32
 20
89.853
 30
0.0
  0
VERTEX
  8
AREAS
 10
32.316
 20
89.865
 30
0.0
  0
VERTEX
  8
AREAS
 10
32.297
 20
89.875
 30
0.0
  0
VERTEX
  8
AREAS
 10
32.273
 20
89.878
 30
0.0
  0
VERTEX
  8
AREAS
 10
32.261
 20
89.872
 30
0.0
  0
VERTEX
  8
AREAS
 10
32.255
 20
89.865
 30
0.0
  0
VERTEX
  8
AREAS
 10
32.249
 20
89.853
 30
0.0
  0
VERTEX
  8
AREAS
 10
32.244
 20
89.839
 30
0.0
  0
VERTEX
  8
AREAS
 10
32.247
 20
89.824
 30
0.0
  0
VERTEX
  8
AREAS
 10
32.253
 20
89.816
 30
0.0
  0
SEQEND
  8
AREAS
  0
POLYLINE
  8
AREAS
 66
     1
 10
0.0
 20
0.0
 30
0.0
 70
     1
  0
VERTEX
  8
AREAS
 10
31.756
 20
89.715
 30
0.0
  0
VERTEX
  8
AREAS
 10
31.831
 20
89.725
 30
0.0
  0
VERTEX
  8
AREAS
 10
31.808
 20
89.76
 30
0.0
  0
VERTEX
  8
AREAS
 10
31.786
 20
89.759
 30
0.0
  0
VERTEX
  8
AREAS
 10
31.773
 20
89.752
 30
0.0
  0
VERTEX
  8
AREAS
 10
31.766
 20
89.746
 30
0.0
  0
VERTEX
  8
AREAS
 10
31.759
 20
89.739
 30
0.0
  0
VERTEX
  8
AREAS
 10
31.754
 20
89.729
 30
0.0
  0
SEQEND
  8
AREAS
  0
POLYLINE
  8
AREAS
 66
     1
 10
0.0
 20
0.0
 30
0.0
 70
     1
  0
VERTEX
  8
AREAS
 10
33.167
 20
90.183
 30
0.0
  0
VERTEX
  8
AREAS
 10
33.173
 20
90.185
 30
0.0
  0
VERTEX
  8
AREAS
 10
33.212
 20
90.197
 30
0.0
  0
VERTEX
  8
AREAS
 10
33.226
 20
90.16
 30
0.0
  0
VERTEX
  8
AREAS
 10
33.218
 20
90.16
 30
0.0
  0
VERTEX
  8
AREAS
 10
33.209
 20
90.15
 30
0.0
  0
VERTEX
  8
AREAS
 10
33.202
 20
90.14
 30
0.0
  0
VERTEX
  8
AREAS
 10
33.199
 20
90.133
 30
0.0
  0
VERTEX
  8
AREAS
 10
33.194
 20
90.128
 30
0.0
  0
VERTEX
  8
AREAS
 10
33.183
 20
90.123
 30
0.0
  0
VERTEX
  8
AREAS
 10
33.173
 20
90.126
 30
0.0
  0
VERTEX
  8
AREAS
 10
33.167
 20
90.131
 30
0.0
  0
VERTEX
  8
AREAS
 10
33.165
 20
90.134
 30
0.0
  0
VERTEX
  8
AREAS
 10
33.162
 20
90.146
 30
0.0
  0
SEQEND
  8
AREAS
  0
POLYLINE
  8
AREAS
 66
     1
 10
0.0
 20
0.0
 30
0.0
 70
     1
  0
VERTEX
  8
AREAS
 10
31.935
 20
90.402
 30
0.0
  0
VERTEX
  8
AREAS
 10
31.979
 20
90.416
 30
0.0
  0
VERTEX
  8
AREAS
 10
31.999
 20
90.395
 30
0.0
  0
VERTEX
  8
AREAS
 10
32.002
 20
90.38
 30
0.0
  0
VERTEX
  8
AREAS
 10
32.002
 20
90.368
 30
0.0
  0
VERTEX
  8
AREAS
 10
31.996
 20
90.356
 30
0.0
  0
VERTEX
  8
AREAS
 10
31.971
 20
90.35
 30
0.0
  0
VERTEX
  8
AREAS
 10
31.955
 20
90.35
 30
0.0
  0
VERTEX
  8
AREAS
 10
31.937
 20
90.352
 30
0.0
  0
VERTEX
  8
AREAS
 10
31.925
 20
90.363
 30
0.0
  0
VERTEX
  8
AREAS
 10
31.919
 20
90.377
 30
0.0
  0
VERTEX
  8
AREAS
 10
31.923
 20
90.39
 30
0.0
  0
SEQEND
  8
AREAS
  0
POLYLINE
  8
AREAS
 66
     1
 10
0.0
 20
0.0
 30
0.0
 70
     1
  0
VERTEX
  8
AREAS
 10
31.686
 20
90.481
 30
0.0
  0
VERTEX
  8
AREAS
 10
31.743
 20
90.501
 30
0.0
  0
VERTEX
  8
AREAS
 10
31.728
 20
90.523
 30
0.0
  0
VERTEX
  8
AREAS
 10
31.728
 20
90.54
 30
0.0
  0
VERTEX
  8
AREAS
 10
31.723
 20
90.548
 30
0.0
  0
VERTEX
  8
AREAS
 10
31.72
 20
90.56
 30
0.0
  0
VERTEX
  8
AREAS
 10
31.707
 20
90.561
 30
0.0
  0
VERTEX
  8
AREAS
 10
31.686
 20
90.549
 30
0.0
  0
VERTEX
  8
AREAS
 10
31.673
 20
90.534
 30
0.0
  0
VERTEX
  8
AREAS
 10
31.666
 20
90.519
 30
0.0
  0
VERTEX
  8
AREAS
 10
31.669
 20
90.51
 30
0.0
  0
VERTEX
  8
AREAS
 10
31.681
 20
90.503
 30
0.0
  0
SEQEND
  8
AREAS
  0
POLYLINE
  8
AREAS
 66
     1
 10
0.0
 20
0.0
 30
0.0
 70
     1
  0
VERTEX
  8
AREAS
 10
29.423
 20
92.977
 30
0.0
  0
VERTEX
  8
AREAS
 10
29.433
 20
92.988
 30
0.0
  0
VERTEX
  8
AREAS
 10
29.462
 20
92.988
 30
0.0
  0
VERTEX
  8
AREAS
 10
29.477
 20
92.966
 30
0.0
  0
VERTEX
  8
AREAS
 10
29.478
 20
92.946
 30
0.0
  0
VERTEX
  8
AREAS
 10
29.473
 20
92.94
 30
0.0
  0
VERTEX
  8
AREAS
 10
29.467
 20
92.937
 30
0.0
  0
VERTEX
  8
AREAS
 10
29.451
 20
92.936
 30
0.0
  0
VERTEX
  8
AREAS
 10
29.441
 20
92.934
 30
0.0
  0
VERTEX
  8
AREAS
 10
29.429
 20
92.934
 30
0.0
  0
VERTEX
  8
AREAS
 10
29.42
 20
92.936
 30
0.0
  0
VERTEX
  8
AREAS
 10
29.416
 20
92.951
 30
0.0
  0
VERTEX
  8
AREAS
 10
29.42
 20
92.964
 30
0.0
  0
SEQEND
  8
AREAS
  0
POLYLINE
  8
AREAS
 66
     1
 10
0.0
 20
0.0
 30
0.0
 70
     1
  0
VERTEX
  8
AREAS
 10
29.159
 20
92.343
 30
0.0
  0
VERTEX
  8
AREAS
 10
29.205
 20
92.345
 30
0.0
  0
VERTEX
  8
AREAS
 10
29.224
 20
92.321
 30
0.0
  0
VERTEX
  8
AREAS
 10
29.213
 20
92.293
 30
0.0
  0
VERTEX
  8
AREAS
 10
29.166
 20
92.289
 30
0.0
  0
SEQEND
  8
AREAS
  0
POLYLINE
  8
AREAS
 66
     1
 10
0.0
 20
0.0
 30
0.0
 70
     1
  0
VERTEX
  8
AREAS
 10
28.297
 20
95.153
 30
0.0
  0
VERTEX
  8
AREAS
 10
28.303
 20
95.161
 30
0.0
  0
VERTEX
  8
AREAS
 10
28.315
 20
95.17
 30
0.0
  0
VERTEX
  8
AREAS
 10
28.343
 20
95.177
 30
0.0
  0
VERTEX
  8
AREAS
 10
28.356
 20
95.173
 30
0.0
  0
VERTEX
  8
AREAS
 10
28.361
 20
95.167
 30
0.0
  0
VERTEX
  8
AREAS
 10
28.366
 20
95.15
 30
0.0
  0
VERTEX
  8
AREAS
 10
28.384
 20
95.146
 30
0.0
  0
VERTEX
  8
AREAS
 10
28.386
 20
95.135
 30
0.0
  0
VERTEX
  8
AREAS
 10
28.385
 20
95.123
 30
0.0
  0
VERTEX
  8
AREAS
 10
28.379
 20
95.113
 30
0.0
  0
VERTEX
  8
AREAS
 10
28.358
 20
95.095
 30
0.0
  0
VERTEX
  8
AREAS
 10
28.357
 20
95.094
 30
0.0
  0
VERTEX
  8
AREAS
 10
28.35
 20
95.091
 30
0.0
  0
VERTEX
  8
AREAS
 10
28.344
 20
95.089
 30
0.0
  0
VERTEX
  8
AREAS
 10
28.339
 20
95.088
 30
0.0
  0
VERTEX
  8
AREAS
 10
28.325
 20
95.094
 30
0.0
  0
VERTEX
  8
AREAS
 10
28.315
 20
95.101
 30
0.0
  0
VERTEX
  8
AREAS
 10
28.335
 20
95.122
 30
0.0
  0
SEQEND
  8
AREAS
  0
POLYLINE
  8
AREAS
 66
     1
 10
0.0
 20
0.0
 30
0.0
 70
     1
  0
VERTEX
  8
AREAS
 10
28.529
 20
94.622
 30
0.0
  0
VERTEX
  8
AREAS
 10
28.581
 20
94.626
 30
0.0
  0
VERTEX
  8
AREAS
 10
28.63
 20
94.634
 30
0.0
  0
VERTEX
  8
AREAS
 10
28.603
 20
94.579
 30
0.0
  0
VERTEX
  8
AREAS
 10
28.533
 20
94.572
 30
0.0
  0
SEQEND
  8
AREAS
  0
POLYLINE
  8
AREAS
 66
     1
 10
0.0
 20
0.0
 30
0.0
 70
     1
  0
VERTEX
  8
AREAS
 10
28.527
 20
95.195
 30
0.0
  0
VERTEX
  8
AREAS
 10
28.546
 20
95.205
 30
0.0
  0
VERTEX
  8
AREAS
 10
28.561
 20
95.21
 30
0.0
  0
VERTEX
  8
AREAS
 10
28.579
 20
95.21
 30
0.0
  0
VERTEX
  8
AREAS
 10
28.588
 20
95.205
 30
0.0
  0
VERTEX
  8
AREAS
 10
28.588
 20
95.191
 30
0.0
  0
VERTEX
  8
AREAS
 10
28.547
 20
95.156
 30
0.0
  0
VERTEX
  8
AREAS
 10
28.521
 20
95.148
 30
0.0
  0
VERTEX
  8
AREAS
 10
28.506
 20
95.149
 30
0.0
  0
VERTEX
  8
AREAS
 10
28.505
 20
95.159
 30
0.0
  0
SEQEND
  8
AREAS
  0
POLYLINE
  8
AREAS
 66
     1
 10
0.0
 20
0.0
 30
0.0
 70
     1
  0
VERTEX
  8
AREAS
 10
28.656
 20
95.112
 30
0.0
  0
VERTEX
  8
AREAS
 10
28.698
 20
95.138
 30
0.0
  0
VERTEX
  8
AREAS
 10
28.706
 20
95.13
 30
0.0
  0
VERTEX
  8
AREAS
 10
28.705
 20
95.125
 30
0.0
  0
VERTEX
  8
AREAS
 10
28.706
 20
95.117
 30
0.0
  0
VERTEX
  8
AREAS
 10
28.703
 20
95.111
 30
0.0
  0
VERTEX
  8
AREAS
 10
28.7
 20
95.107
 30
0.0
  0
VERTEX
  8
AREAS
 10
28.69
 20
95.103
 30
0.0
  0
VERTEX
  8
AREAS
 10
28.681
 20
95.1
 30
0.0
  0
VERTEX
  8
AREAS
 10
28.676
 20
95.099
 30
0.0
  0
VERTEX
  8
AREAS
 10
28.669
 20
95.097
 30
0.0
  0
VERTEX
  8
AREAS
 10
28.661
 20
95.093
 30
0.0
  0
SEQEND
  8
AREAS
  0
POLYLINE
  8
AREAS
 66
     1
 10
0.0
 20
0.0
 30
0.0
 70
     1
  0
VERTEX
  8
AREAS
 10
32.266
 20
94.978
 30
0.0
  0
VERTEX
  8
AREAS
 10
32.282
 20
94.977
 30
0.0
  0
VERTEX
  8
AREAS
 10
32.322
 20
94.956
 30
0.0
  0
VERTEX
  8
AREAS
 10
32.321
 20
94.927
 30
0.0
  0
VERTEX
  8
AREAS
 10
32.312
 20
94.908
 30
0.0
  0
VERTEX
  8
AREAS
 10
32.295
 20
94.908
 30
0.0
  0
VERTEX
  8
AREAS
 10
32.283
 20
94.917
 30
0.0
  0
VERTEX
  8
AREAS
 10
32.268
 20
94.924
 30
0.0
  0
VERTEX
  8
AREAS
 10
32.257
 20
94.943
 30
0.0
  0
VERTEX
  8
AREAS
 10
32.258
 20
94.96
 30
0.0
  0
VERTEX
  8
AREAS
 10
32.259
 20
94.963
 30
0.0
  0
VERTEX
  8
AREAS
 10
32.262
 20
94.971
 30
0.0
  0
SEQEND
  8
AREAS
  0
POLYLINE
  8
AREAS
 66
     1
 10
0.0
 20
0.0
 30
0.0
 70
     1
  0
VERTEX
  8
AREAS
 10
31.427
 20
95.138
 30
0.0
  0
VERTEX
  8
AREAS
 10
31.465
 20
95.141
 30
0.0
  0
VERTEX
  8
AREAS
 10
31.464
 20
95.12
 30
0.0
  0
VERTEX
  8
AREAS
 10
31.46
 20
95.106
 30
0.0
  0
VERTEX
  8
AREAS
 10
31.461
 20
95.089
 30
0.0
  0
VERTEX
  8
AREAS
 10
31.461
 20
95.063
 30
0.0
  0
VERTEX
  8
AREAS
 10
31.456
 20
95.053
 30
0.0
  0
VERTEX
  8
AREAS
 10
31.444
 20
95.051
 30
0.0
  0
VERTEX
  8
AREAS
 10
31.435
 20
95.057
 30
0.0
  0
VERTEX
  8
AREAS
 10
31.424
 20
95.066
 30
0.0
  0
VERTEX
  8
AREAS
 10
31.426
 20
95.124
 30
0.0
  0
SEQEND
  8
AREAS
  0
POLYLINE
  8
AREAS
 66
     1
 10
0.0
 20
0.0
 30
0.0
 70
     1
  0
VERTEX
  8
AREAS
 10
32.427
 20
95.679
 30
0.0
  0
VERTEX
  8
AREAS
 10
32.437
 20
95.697
 30
0.0
  0
VERTEX
  8
AREAS
 10
32.478
 20
95.718
 30
0.0
  0
VERTEX
  8
AREAS
 10
32.496
 20
95.714
 30
0.0
  0
VERTEX
  8
AREAS
 10
32.504
 20
95.705
 30
0.0
  0
VERTEX
  8
AREAS
 10
32.535
 20
95.687
 30
0.0
  0
VERTEX
  8
AREAS
 10
32.487
 20
95.636
 30
0.0
  0
VERTEX
  8
AREAS
 10
32.475
 20
95.639
 30
0.0
  0
VERTEX
  8
AREAS
 10
32.46
 20
95.648
 30
0.0
  0
VERTEX
  8
AREAS
 10
32.436
 20
95.656
 30
0.0
  0
SEQEND
  8
AREAS
  0
POLYLINE
  8
AREAS
 66
     1
 10
0.0
 20
0.0
 30
0.0
 70
     1
  0
VERTEX
  8
AREAS
 10
32.661
 20
96.645
 30
0.0
  0
VERTEX
  8
AREAS
 10
32.67
 20
96.655
 30
0.0
  0
VERTEX
  8
AREAS
 10
32.702
 20
96.658
 30
0.0
  0
VERTEX
  8
AREAS
 10
32.715
 20
96.645
 30
0.0
  0
VERTEX
  8
AREAS
 10
32.719
 20
96.632
 30
0.0
  0
VERTEX
  8
AREAS
 10
32.714
 20
96.614
 30
0.0
  0
VERTEX
  8
AREAS
 10
32.698
 20
96.604
 30
0.0
  0
VERTEX
  8
AREAS
 10
32.689
 20
96.6
 30
0.0
  0
VERTEX
  8
AREAS
 10
32.678
 20
96.603
 30
0.0
  0
VERTEX
  8
AREAS
 10
32.666
 20
96.605
 30
0.0
  0
VERTEX
  8
AREAS
 10
32.655
 20
96.613
 30
0.0
  0
VERTEX
  8
AREAS
 10
32.659
 20
96.636
 30
0.0
  0
SEQEND
  8
AREAS
  0
POLYLINE
  8
AREAS
 66
     1
 10
0.0
 20
0.0
 30
0.0
 70
     1
  0
VERTEX
  8
AREAS
 10
30.599
 20
94.269
 30
0.0
  0
VERTEX
  8
AREAS
 10
30.626
 20
94.288
 30
0.0
  0
VERTEX
  8
AREAS
 10
30.671
 20
94.291
 30
0.0
  0
VERTEX
  8
AREAS
 10
30.676
 20
94.24
 30
0.0
  0
VERTEX
  8
AREAS
 10
30.657
 20
94.236
 30
0.0
  0
VERTEX
  8
AREAS
 10
30.625
 20
94.223
 30
0.0
  0
VERTEX
  8
AREAS
 10
30.613
 20
94.223
 30
0.0
  0
VERTEX
  8
AREAS
 10
30.607
 20
94.229
 30
0.0
  0
VERTEX
  8
AREAS
 10
30.605
 20
94.25
 30
0.0
  0
VERTEX
  8
AREAS
 10
30.6
 20
94.266
 30
0.0
  0
SEQEND
  8
AREAS
  0
POLYLINE
  8
AREAS
 66
     1
 10
0.0
 20
0.0
 30
0.0
 70
     1
  0
VERTEX
  8
AREAS
 10
30.326
 20
96.805
 30
0.0
  0
VERTEX
  8
AREAS
 10
30.335
 20
96.823
 30
0.0
  0
VERTEX
  8
AREAS
 10
30.389
 20
96.834
 30
0.0
  0
VERTEX
  8
AREAS
 10
30.406
 20
96.821
 30
0.0
  0
VERTEX
  8
AREAS
 10
30.415
 20
96.803
 30
0.0
  0
VERTEX
  8
AREAS
 10
30.402
 20
96.789
 30
0.0
  0
VERTEX
  8
AREAS
 10
30.375
 20
96.778
 30
0.0
  0
VERTEX
  8
AREAS
 10
30.344
 20
96.775
 30
0.0
  0
VERTEX
  8
AREAS
 10
30.327
 20
96.786
 30
0.0
  0
SEQEND
  8
AREAS
  0
POLYLINE
  8
AREAS
 66
     1
 10
0.0
 20
0.0
 30
0.0
 70
     1
  0
VERTEX
  8
AREAS
 10
28.175
 20
95.94
 30
0.0
  0
VERTEX
  8
AREAS
 10
28.21
 20
95.948
 30
0.0
  0
VERTEX
  8
AREAS
 10
28.228
 20
95.944
 30
0.0
  0
VERTEX
  8
AREAS
 10
28.24
 20
95.944
 30
0.0
  0
VERTEX
  8
AREAS
 10
28.252
 20
95.938
 30
0.0
  0
VERTEX
  8
AREAS
 10
28.258
 20
95.93
 30
0.0
  0
VERTEX
  8
AREAS
 10
28.263
 20
95.922
 30
0.0
  0
VERTEX
  8
AREAS
 10
28.265
 20
95.911
 30
0.0
  0
VERTEX
  8
AREAS
 10
28.266
 20
95.888
 30
0.0
  0
VERTEX
  8
AREAS
 10
28.254
 20
95.859
 30
0.0
  0
VERTEX
  8
AREAS
 10
28.217
 20
95.85
 30
0.0
  0
VERTEX
  8
AREAS
 10
28.197
 20
95.848
 30
0.0
  0
VERTEX
  8
AREAS
 10
28.18
 20
95.919
 30
0.0
  0
SEQEND
  8
AREAS
  0
POLYLINE
  8
AREAS
 66
     1
 10
0.0
 20
0.0
 30
0.0
 70
     1
  0
VERTEX
  8
AREAS
 10
25.845
 20
98.567
 30
0.0
  0
VERTEX
  8
AREAS
 10
25.891
 20
98.608
 30
0.0
  0
VERTEX
  8
AREAS
 10
25.917
 20
98.621
 30
0.0
  0
VERTEX
  8
AREAS
 10
25.927
 20
98.622
 30
0.0
  0
VERTEX
  8
AREAS
 10
25.939
 20
98.606
 30
0.0
  0
VERTEX
  8
AREAS
 10
25.942
 20
98.591
 30
0.0
  0
VERTEX
  8
AREAS
 10
25.931
 20
98.568
 30
0.0
  0
VERTEX
  8
AREAS
 10
25.912
 20
98.55
 30
0.0
  0
VERTEX
  8
AREAS
 10
25.878
 20
98.532
 30
0.0
  0
SEQEND
  8
AREAS
  0
POLYLINE
  8
AREAS
 66
     1
 10
0.0
 20
0.0
 30
0.0
 70
     1
  0
VERTEX
  8
AREAS
 10
26.415
 20
98.59
 30
0.0
  0
VERTEX
  8
AREAS
 10
26.451
 20
98.615
 30
0.0
  0
VERTEX
  8
AREAS
 10
26.454
 20
98.676
 30
0.0
  0
VERTEX
  8
AREAS
 10
26.452
 20
98.69
 30
0.0
  0
VERTEX
  8
AREAS
 10
26.451
 20
98.706
 30
0.0
  0
VERTEX
  8
AREAS
 10
26.451
 20
98.719
 30
0.0
  0
VERTEX
  8
AREAS
 10
26.471
 20
98.746
 30
0.0
  0
VERTEX
  8
AREAS
 10
26.495
 20
98.765
 30
0.0
  0
VERTEX
  8
AREAS
 10
26.508
 20
98.776
 30
0.0
  0
VERTEX
  8
AREAS
 10
26.53
 20
98.782
 30
0.0
  0
VERTEX
  8
AREAS
 10
26.54
 20
98.783
 30
0.0
  0
VERTEX
  8
AREAS
 10
26.553
 20
98.781
 30
0.0
  0
VERTEX
  8
AREAS
 10
26.56
 20
98.763
 30
0.0
  0
VERTEX
  8
AREAS
 10
26.591
 20
98.759
 30
0.0
  0
VERTEX
  8
AREAS
 10
26.567
 20
98.676
 30
0.0
  0
VERTEX
  8
AREAS
 10
26.672
 20
98.677
 30
0.0
  0
VERTEX
  8
AREAS
 10
26.691
 20
98.586
 30
0.0
  0
VERTEX
  8
AREAS
 10
26.696
 20
98.476
 30
0.0
  0
VERTEX
  8
AREAS
 10
26.688
 20
98.482
 30
0.0
  0
VERTEX
  8
AREAS
 10
26.649
 20
98.483
 30
0.0
  0
VERTEX
  8
AREAS
 10
26.611
 20
98.484
 30
0.0
  0
VERTEX
  8
AREAS
 10
26.603
 20
98.484
 30
0.0
  0
VERTEX
  8
AREAS
 10
26.582
 20
98.526
 30
0.0
  0
VERTEX
  8
AREAS
 10
26.567
 20
98.556
 30
0.0
  0
VERTEX
  8
AREAS
 10
26.532
 20
98.553
 30
0.0
  0
VERTEX
  8
AREAS
 10
26.501
 20
98.551
 30
0.0
  0
VERTEX
  8
AREAS
 10
26.49
 20
98.551
 30
0.0
  0
VERTEX
  8
AREAS
 10
26.476
 20
98.522
 30
0.0
  0
VERTEX
  8
AREAS
 10
26.465
 20
98.504
 30
0.0
  0
VERTEX
  8
AREAS
 10
26.441
 20
98.506
 30
0.0
  0
VERTEX
  8
AREAS
 10
26.416
 20
98.51
 30
0.0
  0
VERTEX
  8
AREAS
 10
26.414
 20
98.553
 30
0.0
  0
VERTEX
  8
AREAS
 10
26.414
 20
98.571
 30
0.0
  0
SEQEND
  8
AREAS
  0
POLYLINE
  8
AREAS
 66
     1
 10
0.0
 20
0.0
 30
0.0
 70
     1
  0
VERTEX
  8
AREAS
 10
26.57
 20
98.264
 30
0.0
  0
VERTEX
  8
AREAS
 10
26.608
 20
98.31
 30
0.0
  0
VERTEX
  8
AREAS
 10
26.58
 20
98.339
 30
0.0
  0
VERTEX
  8
AREAS
 10
26.573
 20
98.351
 30
0.0
  0
VERTEX
  8
AREAS
 10
26.555
 20
98.357
 30
0.0
  0
VERTEX
  8
AREAS
 10
26.536
 20
98.353
 30
0.0
  0
VERTEX
  8
AREAS
 10
26.524
 20
98.338
 30
0.0
  0
VERTEX
  8
AREAS
 10
26.526
 20
98.317
 30
0.0
  0
VERTEX
  8
AREAS
 10
26.559
 20
98.282
 30
0.0
  0
SEQEND
  8
AREAS
  0
POLYLINE
  8
AREAS
 66
     1
 10
0.0
 20
0.0
 30
0.0
 70
     1
  0
VERTEX
  8
AREAS
 10
27.763
 20
97.848
 30
0.0
  0
VERTEX
  8
AREAS
 10
27.787
 20
97.851
 30
0.0
  0
VERTEX
  8
AREAS
 10
27.799
 20
97.837
 30
0.0
  0
VERTEX
  8
AREAS
 10
27.799
 20
97.821
 30
0.0
  0
VERTEX
  8
AREAS
 10
27.798
 20
97.809
 30
0.0
  0
VERTEX
  8
AREAS
 10
27.791
 20
97.796
 30
0.0
  0
VERTEX
  8
AREAS
 10
27.78
 20
97.789
 30
0.0
  0
VERTEX
  8
AREAS
 10
27.768
 20
97.786
 30
0.0
  0
VERTEX
  8
AREAS
 10
27.751
 20
97.791
 30
0.0
  0
VERTEX
  8
AREAS
 10
27.754
 20
97.816
 30
0.0
  0
VERTEX
  8
AREAS
 10
27.762
 20
97.84
 30
0.0
  0
VERTEX
  8
AREAS
 10
27.763
 20
97.845
 30
0.0
  0
SEQEND
  8
AREAS
  0
POLYLINE
  8
AREAS
 66
     1
 10
0.0
 20
0.0
 30
0.0
 70
     1
  0
VERTEX
  8
AREAS
 10
27.049
 20
97.385
 30
0.0
  0
VERTEX
  8
AREAS
 10
27.064
 20
97.404
 30
0.0
  0
VERTEX
  8
AREAS
 10
27.085
 20
97.405
 30
0.0
  0
VERTEX
  8
AREAS
 10
27.104
 20
97.409
 30
0.0
  0
VERTEX
  8
AREAS
 10
27.135
 20
97.419
 30
0.0
  0
VERTEX
  8
AREAS
 10
27.143
 20
97.299
 30
0.0
  0
VERTEX
  8
AREAS
 10
27.075
 20
97.285
 30
0.0
  0
VERTEX
  8
AREAS
 10
27.066
 20
97.318
 30
0.0
  0
VERTEX
  8
AREAS
 10
27.059
 20
97.333
 30
0.0
  0
VERTEX
  8
AREAS
 10
27.052
 20
97.355
 30
0.0
  0
SEQEND
  8
AREAS
  0
POLYLINE
  8
AREAS
 66
     1
 10
0.0
 20
0.0
 30
0.0
 70
     1
  0
VERTEX
  8
AREAS
 10
27.906
 20
97.937
 30
0.0
  0
VERTEX
  8
AREAS
 10
27.918
 20
97.951
 30
0.0
  0
VERTEX
  8
AREAS
 10
27.94
 20
97.959
 30
0.0
  0
VERTEX
  8
AREAS
 10
27.964
 20
97.93
 30
0.0
  0
VERTEX
  8
AREAS
 10
27.967
 20
97.921
 30
0.0
  0
VERTEX
  8
AREAS
 10
27.969
 20
97.911
 30
0.0
  0
VERTEX
  8
AREAS
 10
27.967
 20
97.896
 30
0.0
  0
VERTEX
  8
AREAS
 10
27.962
 20
97.887
 30
0.0
  0
VERTEX
  8
AREAS
 10
27.953
 20
97.884
 30
0.0
  0
VERTEX
  8
AREAS
 10
27.927
 20
97.883
 30
0.0
  0
VERTEX
  8
AREAS
 10
27.906
 20
97.908
 30
0.0
  0
SEQEND
  8
AREAS
  0
POLYLINE
  8
AREAS
 66
     1
 10
0.0
 20
0.0
 30
0.0
 70
     1
  0
VERTEX
  8
AREAS
 10
24.312
 20
97.422
 30
0.0
  0
VERTEX
  8
AREAS
 10
24.432
 20
97.511
 30
0.0
  0
VERTEX
  8
AREAS
 10
24.415
 20
97.55
 30
0.0
  0
VERTEX
  8
AREAS
 10
24.37
 20
97.621
 30
0.0
  0
VERTEX
  8
AREAS
 10
24.356
 20
97.666
 30
0.0
  0
VERTEX
  8
AREAS
 10
24.307
 20
97.658
 30
0.0
  0
VERTEX
  8
AREAS
 10
24.269
 20
97.645
 30
0.0
  0
VERTEX
  8
AREAS
 10
24.241
 20
97.628
 30
0.0
  0
VERTEX
  8
AREAS
 10
24.237
 20
97.596
 30
0.0
  0
VERTEX
  8
AREAS
 10
24.254
 20
97.537
 30
0.0
  0
VERTEX
  8
AREAS
 10
24.253
 20
97.533
 30
0.0
  0
VERTEX
  8
AREAS
 10
24.278
 20
97.484
 30
0.0
  0
VERTEX
  8
AREAS
 10
24.3
 20
97.458
 30
0.0
  0
SEQEND
  8
AREAS
  0
POLYLINE
  8
AREAS
 66
     1
 10
0.0
 20
0.0
 30
0.0
 70
     1
  0
VERTEX
  8
AREAS
 10
24.208
 20
96.704
 30
0.0
  0
VERTEX
  8
AREAS
 10
24.304
 20
96.718
 30
0.0
  0
VERTEX
  8
AREAS
 10
24.291
 20
96.685
 30
0.0
  0
VERTEX
  8
AREAS
 10
24.278
 20
96.656
 30
0.0
  0
VERTEX
  8
AREAS
 10
24.255
 20
96.639
 30
0.0
  0
VERTEX
  8
AREAS
 10
24.229
 20
96.638
 30
0.0
  0
VERTEX
  8
AREAS
 10
24.208
 20
96.635
 30
0.0
  0
SEQEND
  8
AREAS
  0
POLYLINE
  8
AREAS
 66
     1
 10
0.0
 20
0.0
 30
0.0
 70
     1
  0
VERTEX
  8
AREAS
 10
30.677
 20
97.739
 30
0.0
  0
VERTEX
  8
AREAS
 10
30.776
 20
97.769
 30
0.0
  0
VERTEX
  8
AREAS
 10
30.781
 20
97.756
 30
0.0
  0
VERTEX
  8
AREAS
 10
30.783
 20
97.748
 30
0.0
  0
VERTEX
  8
AREAS
 10
30.795
 20
97.726
 30
0.0
  0
VERTEX
  8
AREAS
 10
30.796
 20
97.718
 30
0.0
  0
VERTEX
  8
AREAS
 10
30.793
 20
97.703
 30
0.0
  0
VERTEX
  8
AREAS
 10
30.762
 20
97.678
 30
0.0
  0
VERTEX
  8
AREAS
 10
30.743
 20
97.67
 30
0.0
  0
VERTEX
  8
AREAS
 10
30.721
 20
97.665
 30
0.0
  0
VERTEX
  8
AREAS
 10
30.703
 20
97.669
 30
0.0
  0
VERTEX
  8
AREAS
 10
30.689
 20
97.692
 30
0.0
  0
VERTEX
  8
AREAS
 10
30.678
 20
97.738
 30
0.0
  0
SEQEND
  8
AREAS
  0
POLYLINE
  8
AREAS
 66
     1
 10
0.0
 20
0.0
 30
0.0
 70
     1
  0
VERTEX
  8
AREAS
 10
31.146
 20
102.206
 30
0.0
  0
VERTEX
  8
AREAS
 10
31.165
 20
102.196
 30
0.0
  0
VERTEX
  8
AREAS
 10
31.16
 20
102.176
 30
0.0
  0
VERTEX
  8
AREAS
 10
31.151
 20
102.16
 30
0.0
  0
VERTEX
  8
AREAS
 10
31.146
 20
102.143
 30
0.0
  0
VERTEX
  8
AREAS
 10
31.139
 20
102.125
 30
0.0
  0
VERTEX
  8
AREAS
 10
31.116
 20
102.112
 30
0.0
  0
VERTEX
  8
AREAS
 10
31.107
 20
102.133
 30
0.0
  0
VERTEX
  8
AREAS
 10
31.111
 20
102.158
 30
0.0
  0
VERTEX
  8
AREAS
 10
31.134
 20
102.189
 30
0.0
  0
SEQEND
  8
AREAS
  0
POLYLINE
  8
AREAS
 66
     1
 10
0.0
 20
0.0
 30
0.0
 70
     1
  0
VERTEX
  8
AREAS
 10
39.071
 20
98.026
 30
0.0
  0
VERTEX
  8
AREAS
 10
39.13
 20
98.097
 30
0.0
  0
VERTEX
  8
AREAS
 10
39.13
 20
98.052
 30
0.0
  0
VERTEX
  8
AREAS
 10
39.13
 20
98.011
 30
0.0
  0
VERTEX
  8
AREAS
 10
39.131
 20
97.973
 30
0.0
  0
VERTEX
  8
AREAS
 10
39.104
 20
97.95
 30
0.0
  0
VERTEX
  8
AREAS
 10
39.089
 20
97.986
 30
0.0
  0
VERTEX
  8
AREAS
 10
39.078
 20
98.01
 30
0.0
  0
SEQEND
  8
AREAS
  0
POLYLINE
  8
FRAME
 66
     1
 10
0.0
 20
0.0
 30
0.0
 70
     1
  0
VERTEX
  8
FRAME
 10
23.5
 20
88.0
 30
0.0
  0
VERTEX
  8
FRAME
 10
23.5
 20
104.0
 30
0.0
  0
VERTEX
  8
FRAME
 10
41.0
 20
104.0
 30
0.0
  0
VERTEX
  8
FRAME
 10
41.0
 20
88.0
 30
0.0
  0
SEQEND
  8
FRAME
  0
POLYLINE
  8
SURVBND
 66
     1
 10
0.0
 20
0.0
 30
0.0
 70
     1
  0
VERTEX
  8
SURVBND
 10
32.702
 20
99.786
 30
0.0
  0
VERTEX
  8
SURVBND
 10
32.707
 20
99.777
 30
0.0
  0
VERTEX
  8
SURVBND
 10
32.733
 20
99.743
 30
0.0
  0
VERTEX
  8
SURVBND
 10
32.757
 20
99.723
 30
0.0
  0
VERTEX
  8
SURVBND
 10
32.794
 20
99.689
 30
0.0
  0
VERTEX
  8
SURVBND
 10
32.842
 20
99.662
 30
0.0
  0
VERTEX
  8
SURVBND
 10
32.88
 20
99.638
 30
0.0
  0
VERTEX
  8
SURVBND
 10
32.921
 20
99.6
 30
0.0
  0
VERTEX
  8
SURVBND
 10
32.955
 20
99.584
 30
0.0
  0
VERTEX
  8
SURVBND
 10
32.987
 20
99.558
 30
0.0
  0
VERTEX
  8
SURVBND
 10
33.016
 20
99.519
 30
0.0
  0
VERTEX
  8
SURVBND
 10
33.032
 20
99.492
 30
0.0
  0
VERTEX
  8
SURVBND
 10
33.068
 20
99.463
 30
0.0
  0
VERTEX
  8
SURVBND
 10
33.099
 20
99.44
 30
0.0
  0
VERTEX
  8
SURVBND
 10
33.13
 20
99.412
 30
0.0
  0
VERTEX
  8
SURVBND
 10
33.168
 20
99.385
 30
0.0
  0
VERTEX
  8
SURVBND
 10
33.209
 20
99.354
 30
0.0
  0
VERTEX
  8
SURVBND
 10
33.247
 20
99.314
 30
0.0
  0
VERTEX
  8
SURVBND
 10
33.28
 20
99.275
 30
0.0
  0
VERTEX
  8
SURVBND
 10
33.333
 20
99.226
 30
0.0
  0
VERTEX
  8
SURVBND
 10
33.378
 20
99.189
 30
0.0
  0
VERTEX
  8
SURVBND
 10
33.424
 20
99.145
 30
0.0
  0
VERTEX
  8
SURVBND
 10
33.497
 20
99.076
 30
0.0
  0
VERTEX
  8
SURVBND
 10
33.557
 20
99.034
 30
0.0
  0
VERTEX
  8
SURVBND
 10
33.605
 20
98.974
 30
0.0
  0
VERTEX
  8
SURVBND
 10
33.663
 20
98.922
 30
0.0
  0
VERTEX
  8
SURVBND
 10
33.697
 20
98.896
 30
0.0
  0
VERTEX
  8
SURVBND
 10
33.694
 20
98.887
 30
0.0
  0
VERTEX
  8
SURVBND
 10
33.707
 20
98.88
 30
0.0
  0
VERTEX
  8
SURVBND
 10
33.721
 20
98.869
 30
0.0
  0
VERTEX
  8
SURVBND
 10
33.73
 20
98.863
 30
0.0
  0
VERTEX
  8
SURVBND
 10
33.741
 20
98.852
 30
0.0
  0
VERTEX
  8
SURVBND
 10
33.752
 20
98.838
 30
0.0
  0
VERTEX
  8
SURVBND
 10
33.759
 20
98.828
 30
0.0
  0
VERTEX
  8
SURVBND
 10
33.769
 20
98.816
 30
0.0
  0
VERTEX
  8
SURVBND
 10
33.777
 20
98.81
 30
0.0
  0
VERTEX
  8
SURVBND
 10
33.784
 20
98.801
 30
0.0
  0
VERTEX
  8
SURVBND
 10
33.807
 20
98.789
 30
0.0
  0
VERTEX
  8
SURVBND
 10
33.827
 20
98.778
 30
0.0
  0
VERTEX
  8
SURVBND
 10
33.836
 20
98.77
 30
0.0
  0
VERTEX
  8
SURVBND
 10
33.842
 20
98.765
 30
0.0
  0
VERTEX
  8
SURVBND
 10
33.854
 20
98.754
 30
0.0
  0
VERTEX
  8
SURVBND
 10
33.866
 20
98.742
 30
0.0
  0
VERTEX
  8
SURVBND
 10
33.875
 20
98.734
 30
0.0
  0
VERTEX
  8
SURVBND
 10
33.883
 20
98.726
 30
0.0
  0
VERTEX
  8
SURVBND
 10
33.899
 20
98.711
 30
0.0
  0
VERTEX
  8
SURVBND
 10
33.909
 20
98.697
 30
0.0
  0
VERTEX
  8
SURVBND
 10
33.916
 20
98.692
 30
0.0
  0
VERTEX
  8
SURVBND
 10
33.945
 20
98.725
 30
0.0
  0
VERTEX
  8
SURVBND
 10
33.959
 20
98.718
 30
0.0
  0
VERTEX
  8
SURVBND
 10
33.971
 20
98.717
 30
0.0
  0
VERTEX
  8
SURVBND
 10
33.986
 20
98.715
 30
0.0
  0
VERTEX
  8
SURVBND
 10
33.989
 20
98.718
 30
0.0
  0
VERTEX
  8
SURVBND
 10
33.991
 20
98.721
 30
0.0
  0
VERTEX
  8
SURVBND
 10
34.006
 20
98.733
 30
0.0
  0
VERTEX
  8
SURVBND
 10
34.014
 20
98.744
 30
0.0
  0
VERTEX
  8
SURVBND
 10
34.029
 20
98.742
 30
0.0
  0
VERTEX
  8
SURVBND
 10
34.021
 20
98.725
 30
0.0
  0
VERTEX
  8
SURVBND
 10
34.021
 20
98.718
 30
0.0
  0
VERTEX
  8
SURVBND
 10
34.021
 20
98.703
 30
0.0
  0
VERTEX
  8
SURVBND
 10
34.021
 20
98.691
 30
0.0
  0
VERTEX
  8
SURVBND
 10
34.028
 20
98.686
 30
0.0
  0
VERTEX
  8
SURVBND
 10
34.039
 20
98.687
 30
0.0
  0
VERTEX
  8
SURVBND
 10
34.045
 20
98.693
 30
0.0
  0
VERTEX
  8
SURVBND
 10
34.048
 20
98.697
 30
0.0
  0
VERTEX
  8
SURVBND
 10
34.057
 20
98.697
 30
0.0
  0
VERTEX
  8
SURVBND
 10
34.065
 20
98.689
 30
0.0
  0
VERTEX
  8
SURVBND
 10
34.074
 20
98.68
 30
0.0
  0
VERTEX
  8
SURVBND
 10
34.083
 20
98.67
 30
0.0
  0
VERTEX
  8
SURVBND
 10
34.093
 20
98.659
 30
0.0
  0
VERTEX
  8
SURVBND
 10
34.12
 20
98.615
 30
0.0
  0
VERTEX
  8
SURVBND
 10
34.132
 20
98.601
 30
0.0
  0
VERTEX
  8
SURVBND
 10
34.141
 20
98.596
 30
0.0
  0
VERTEX
  8
SURVBND
 10
34.152
 20
98.592
 30
0.0
  0
VERTEX
  8
SURVBND
 10
34.161
 20
98.595
 30
0.0
  0
VERTEX
  8
SURVBND
 10
34.173
 20
98.601
 30
0.0
  0
VERTEX
  8
SURVBND
 10
34.179
 20
98.601
 30
0.0
  0
VERTEX
  8
SURVBND
 10
34.187
 20
98.585
 30
0.0
  0
VERTEX
  8
SURVBND
 10
34.184
 20
98.577
 30
0.0
  0
VERTEX
  8
SURVBND
 10
34.182
 20
98.567
 30
0.0
  0
VERTEX
  8
SURVBND
 10
34.19
 20
98.562
 30
0.0
  0
VERTEX
  8
SURVBND
 10
34.202
 20
98.552
 30
0.0
  0
VERTEX
  8
SURVBND
 10
34.221
 20
98.563
 30
0.0
  0
VERTEX
  8
SURVBND
 10
34.226
 20
98.564
 30
0.0
  0
VERTEX
  8
SURVBND
 10
34.234
 20
98.552
 30
0.0
  0
VERTEX
  8
SURVBND
 10
34.24
 20
98.54
 30
0.0
  0
VERTEX
  8
SURVBND
 10
34.255
 20
98.524
 30
0.0
  0
VERTEX
  8
SURVBND
 10
34.268
 20
98.519
 30
0.0
  0
VERTEX
  8
SURVBND
 10
34.276
 20
98.519
 30
0.0
  0
VERTEX
  8
SURVBND
 10
34.281
 20
98.517
 30
0.0
  0
VERTEX
  8
SURVBND
 10
34.293
 20
98.512
 30
0.0
  0
VERTEX
  8
SURVBND
 10
34.303
 20
98.502
 30
0.0
  0
VERTEX
  8
SURVBND
 10
34.311
 20
98.496
 30
0.0
  0
VERTEX
  8
SURVBND
 10
34.321
 20
98.497
 30
0.0
  0
VERTEX
  8
SURVBND
 10
34.325
 20
98.496
 30
0.0
  0
VERTEX
  8
SURVBND
 10
34.33
 20
98.488
 30
0.0
  0
VERTEX
  8
SURVBND
 10
34.329
 20
98.481
 30
0.0
  0
VERTEX
  8
SURVBND
 10
34.332
 20
98.469
 30
0.0
  0
VERTEX
  8
SURVBND
 10
34.351
 20
98.455
 30
0.0
  0
VERTEX
  8
SURVBND
 10
34.352
 20
98.456
 30
0.0
  0
VERTEX
  8
SURVBND
 10
34.36
 20
98.457
 30
0.0
  0
VERTEX
  8
SURVBND
 10
34.366
 20
98.453
 30
0.0
  0
VERTEX
  8
SURVBND
 10
34.382
 20
98.445
 30
0.0
  0
VERTEX
  8
SURVBND
 10
34.396
 20
98.446
 30
0.0
  0
VERTEX
  8
SURVBND
 10
34.412
 20
98.441
 30
0.0
  0
VERTEX
  8
SURVBND
 10
34.418
 20
98.439
 30
0.0
  0
VERTEX
  8
SURVBND
 10
34.431
 20
98.435
 30
0.0
  0
VERTEX
  8
SURVBND
 10
34.435
 20
98.427
 30
0.0
  0
VERTEX
  8
SURVBND
 10
34.44
 20
98.421
 30
0.0
  0
VERTEX
  8
SURVBND
 10
34.451
 20
98.407
 30
0.0
  0
VERTEX
  8
SURVBND
 10
34.459
 20
98.399
 30
0.0
  0
VERTEX
  8
SURVBND
 10
34.47
 20
98.398
 30
0.0
  0
VERTEX
  8
SURVBND
 10
34.471
 20
98.402
 30
0.0
  0
VERTEX
  8
SURVBND
 10
34.467
 20
98.407
 30
0.0
  0
VERTEX
  8
SURVBND
 10
34.465
 20
98.413
 30
0.0
  0
VERTEX
  8
SURVBND
 10
34.464
 20
98.422
 30
0.0
  0
VERTEX
  8
SURVBND
 10
34.467
 20
98.426
 30
0.0
  0
VERTEX
  8
SURVBND
 10
34.48
 20
98.42
 30
0.0
  0
VERTEX
  8
SURVBND
 10
34.485
 20
98.414
 30
0.0
  0
VERTEX
  8
SURVBND
 10
34.496
 20
98.407
 30
0.0
  0
VERTEX
  8
SURVBND
 10
34.505
 20
98.401
 30
0.0
  0
VERTEX
  8
SURVBND
 10
34.525
 20
98.394
 30
0.0
  0
VERTEX
  8
SURVBND
 10
34.537
 20
98.393
 30
0.0
  0
VERTEX
  8
SURVBND
 10
34.548
 20
98.39
 30
0.0
  0
VERTEX
  8
SURVBND
 10
34.554
 20
98.384
 30
0.0
  0
VERTEX
  8
SURVBND
 10
34.566
 20
98.391
 30
0.0
  0
VERTEX
  8
SURVBND
 10
34.568
 20
98.392
 30
0.0
  0
VERTEX
  8
SURVBND
 10
34.585
 20
98.384
 30
0.0
  0
VERTEX
  8
SURVBND
 10
34.599
 20
98.377
 30
0.0
  0
VERTEX
  8
SURVBND
 10
34.627
 20
98.367
 30
0.0
  0
VERTEX
  8
SURVBND
 10
34.636
 20
98.359
 30
0.0
  0
VERTEX
  8
SURVBND
 10
34.641
 20
98.35
 30
0.0
  0
VERTEX
  8
SURVBND
 10
34.651
 20
98.343
 30
0.0
  0
VERTEX
  8
SURVBND
 10
34.665
 20
98.337
 30
0.0
  0
VERTEX
  8
SURVBND
 10
34.671
 20
98.324
 30
0.0
  0
VERTEX
  8
SURVBND
 10
34.676
 20
98.316
 30
0.0
  0
VERTEX
  8
SURVBND
 10
34.682
 20
98.31
 30
0.0
  0
VERTEX
  8
SURVBND
 10
34.69
 20
98.303
 30
0.0
  0
VERTEX
  8
SURVBND
 10
34.705
 20
98.306
 30
0.0
  0
VERTEX
  8
SURVBND
 10
34.713
 20
98.308
 30
0.0
  0
VERTEX
  8
SURVBND
 10
34.719
 20
98.306
 30
0.0
  0
VERTEX
  8
SURVBND
 10
34.728
 20
98.299
 30
0.0
  0
VERTEX
  8
SURVBND
 10
34.734
 20
98.291
 30
0.0
  0
VERTEX
  8
SURVBND
 10
34.741
 20
98.288
 30
0.0
  0
VERTEX
  8
SURVBND
 10
34.75
 20
98.283
 30
0.0
  0
VERTEX
  8
SURVBND
 10
34.757
 20
98.277
 30
0.0
  0
VERTEX
  8
SURVBND
 10
34.765
 20
98.271
 30
0.0
  0
VERTEX
  8
SURVBND
 10
34.759
 20
98.264
 30
0.0
  0
VERTEX
  8
SURVBND
 10
34.773
 20
98.261
 30
0.0
  0
VERTEX
  8
SURVBND
 10
34.785
 20
98.255
 30
0.0
  0
VERTEX
  8
SURVBND
 10
34.794
 20
98.26
 30
0.0
  0
VERTEX
  8
SURVBND
 10
34.8
 20
98.256
 30
0.0
  0
VERTEX
  8
SURVBND
 10
34.811
 20
98.248
 30
0.0
  0
VERTEX
  8
SURVBND
 10
34.819
 20
98.249
 30
0.0
  0
VERTEX
  8
SURVBND
 10
34.821
 20
98.255
 30
0.0
  0
VERTEX
  8
SURVBND
 10
34.824
 20
98.257
 30
0.0
  0
VERTEX
  8
SURVBND
 10
34.828
 20
98.26
 30
0.0
  0
VERTEX
  8
SURVBND
 10
34.835
 20
98.26
 30
0.0
  0
VERTEX
  8
SURVBND
 10
34.852
 20
98.256
 30
0.0
  0
VERTEX
  8
SURVBND
 10
34.869
 20
98.251
 30
0.0
  0
VERTEX
  8
SURVBND
 10
34.883
 20
98.245
 30
0.0
  0
VERTEX
  8
SURVBND
 10
34.891
 20
98.243
 30
0.0
  0
VERTEX
  8
SURVBND
 10
34.897
 20
98.241
 30
0.0
  0
VERTEX
  8
SURVBND
 10
34.909
 20
98.24
 30
0.0
  0
VERTEX
  8
SURVBND
 10
34.92
 20
98.239
 30
0.0
  0
VERTEX
  8
SURVBND
 10
34.922
 20
98.239
 30
0.0
  0
VERTEX
  8
SURVBND
 10
34.928
 20
98.241
 30
0.0
  0
VERTEX
  8
SURVBND
 10
34.935
 20
98.245
 30
0.0
  0
VERTEX
  8
SURVBND
 10
34.94
 20
98.25
 30
0.0
  0
VERTEX
  8
SURVBND
 10
34.944
 20
98.25
 30
0.0
  0
VERTEX
  8
SURVBND
 10
35.015
 20
98.2
 30
0.0
  0
VERTEX
  8
SURVBND
 10
35.137
 20
98.22
 30
0.0
  0
VERTEX
  8
SURVBND
 10
35.137
 20
98.219
 30
0.0
  0
VERTEX
  8
SURVBND
 10
35.143
 20
98.216
 30
0.0
  0
VERTEX
  8
SURVBND
 10
35.152
 20
98.211
 30
0.0
  0
VERTEX
  8
SURVBND
 10
35.162
 20
98.208
 30
0.0
  0
VERTEX
  8
SURVBND
 10
35.169
 20
98.204
 30
0.0
  0
VERTEX
  8
SURVBND
 10
35.176
 20
98.204
 30
0.0
  0
VERTEX
  8
SURVBND
 10
35.184
 20
98.205
 30
0.0
  0
VERTEX
  8
SURVBND
 10
35.19
 20
98.197
 30
0.0
  0
VERTEX
  8
SURVBND
 10
35.194
 20
98.193
 30
0.0
  0
VERTEX
  8
SURVBND
 10
35.206
 20
98.188
 30
0.0
  0
VERTEX
  8
SURVBND
 10
35.21
 20
98.187
 30
0.0
  0
VERTEX
  8
SURVBND
 10
35.222
 20
98.187
 30
0.0
  0
VERTEX
  8
SURVBND
 10
35.224
 20
98.189
 30
0.0
  0
VERTEX
  8
SURVBND
 10
35.226
 20
98.192
 30
0.0
  0
VERTEX
  8
SURVBND
 10
35.223
 20
98.196
 30
0.0
  0
VERTEX
  8
SURVBND
 10
35.221
 20
98.199
 30
0.0
  0
VERTEX
  8
SURVBND
 10
35.219
 20
98.204
 30
0.0
  0
VERTEX
  8
SURVBND
 10
35.219
 20
98.205
 30
0.0
  0
VERTEX
  8
SURVBND
 10
35.225
 20
98.208
 30
0.0
  0
VERTEX
  8
SURVBND
 10
35.228
 20
98.206
 30
0.0
  0
VERTEX
  8
SURVBND
 10
35.24
 20
98.203
 30
0.0
  0
VERTEX
  8
SURVBND
 10
35.244
 20
98.202
 30
0.0
  0
VERTEX
  8
SURVBND
 10
35.257
 20
98.202
 30
0.0
  0
VERTEX
  8
SURVBND
 10
35.261
 20
98.202
 30
0.0
  0
VERTEX
  8
SURVBND
 10
35.261
 20
98.203
 30
0.0
  0
VERTEX
  8
SURVBND
 10
35.268
 20
98.205
 30
0.0
  0
VERTEX
  8
SURVBND
 10
35.273
 20
98.204
 30
0.0
  0
VERTEX
  8
SURVBND
 10
35.283
 20
98.201
 30
0.0
  0
VERTEX
  8
SURVBND
 10
35.295
 20
98.199
 30
0.0
  0
VERTEX
  8
SURVBND
 10
35.312
 20
98.199
 30
0.0
  0
VERTEX
  8
SURVBND
 10
35.315
 20
98.198
 30
0.0
  0
VERTEX
  8
SURVBND
 10
35.333
 20
98.201
 30
0.0
  0
VERTEX
  8
SURVBND
 10
35.341
 20
98.205
 30
0.0
  0
VERTEX
  8
SURVBND
 10
35.345
 20
98.206
 30
0.0
  0
VERTEX
  8
SURVBND
 10
35.36
 20
98.211
 30
0.0
  0
VERTEX
  8
SURVBND
 10
35.363
 20
98.212
 30
0.0
  0
VERTEX
  8
SURVBND
 10
35.375
 20
98.207
 30
0.0
  0
VERTEX
  8
SURVBND
 10
35.378
 20
98.2
 30
0.0
  0
VERTEX
  8
SURVBND
 10
35.399
 20
98.196
 30
0.0
  0
VERTEX
  8
SURVBND
 10
35.407
 20
98.198
 30
0.0
  0
VERTEX
  8
SURVBND
 10
35.416
 20
98.204
 30
0.0
  0
VERTEX
  8
SURVBND
 10
35.419
 20
98.209
 30
0.0
  0
VERTEX
  8
SURVBND
 10
35.419
 20
98.209
 30
0.0
  0
VERTEX
  8
SURVBND
 10
35.426
 20
98.206
 30
0.0
  0
VERTEX
  8
SURVBND
 10
35.44
 20
98.209
 30
0.0
  0
VERTEX
  8
SURVBND
 10
35.447
 20
98.208
 30
0.0
  0
VERTEX
  8
SURVBND
 10
35.454
 20
98.209
 30
0.0
  0
VERTEX
  8
SURVBND
 10
35.462
 20
98.211
 30
0.0
  0
VERTEX
  8
SURVBND
 10
35.477
 20
98.212
 30
0.0
  0
VERTEX
  8
SURVBND
 10
35.488
 20
98.218
 30
0.0
  0
VERTEX
  8
SURVBND
 10
35.494
 20
98.223
 30
0.0
  0
VERTEX
  8
SURVBND
 10
35.498
 20
98.229
 30
0.0
  0
VERTEX
  8
SURVBND
 10
35.5
 20
98.236
 30
0.0
  0
VERTEX
  8
SURVBND
 10
35.501
 20
98.237
 30
0.0
  0
VERTEX
  8
SURVBND
 10
35.507
 20
98.238
 30
0.0
  0
VERTEX
  8
SURVBND
 10
35.51
 20
98.235
 30
0.0
  0
VERTEX
  8
SURVBND
 10
35.516
 20
98.224
 30
0.0
  0
VERTEX
  8
SURVBND
 10
35.524
 20
98.227
 30
0.0
  0
VERTEX
  8
SURVBND
 10
35.531
 20
98.234
 30
0.0
  0
VERTEX
  8
SURVBND
 10
35.536
 20
98.24
 30
0.0
  0
VERTEX
  8
SURVBND
 10
35.547
 20
98.245
 30
0.0
  0
VERTEX
  8
SURVBND
 10
35.552
 20
98.25
 30
0.0
  0
VERTEX
  8
SURVBND
 10
35.557
 20
98.257
 30
0.0
  0
VERTEX
  8
SURVBND
 10
35.562
 20
98.262
 30
0.0
  0
VERTEX
  8
SURVBND
 10
35.576
 20
98.272
 30
0.0
  0
VERTEX
  8
SURVBND
 10
35.586
 20
98.283
 30
0.0
  0
VERTEX
  8
SURVBND
 10
35.592
 20
98.289
 30
0.0
  0
VERTEX
  8
SURVBND
 10
35.598
 20
98.29
 30
0.0
  0
VERTEX
  8
SURVBND
 10
35.596
 20
98.281
 30
0.0
  0
VERTEX
  8
SURVBND
 10
35.601
 20
98.275
 30
0.0
  0
VERTEX
  8
SURVBND
 10
35.612
 20
98.267
 30
0.0
  0
VERTEX
  8
SURVBND
 10
35.621
 20
98.268
 30
0.0
  0
VERTEX
  8
SURVBND
 10
35.638
 20
98.272
 30
0.0
  0
VERTEX
  8
SURVBND
 10
35.642
 20
98.274
 30
0.0
  0
VERTEX
  8
SURVBND
 10
35.652
 20
98.277
 30
0.0
  0
VERTEX
  8
SURVBND
 10
35.657
 20
98.279
 30
0.0
  0
VERTEX
  8
SURVBND
 10
35.664
 20
98.287
 30
0.0
  0
VERTEX
  8
SURVBND
 10
35.667
 20
98.292
 30
0.0
  0
VERTEX
  8
SURVBND
 10
35.672
 20
98.295
 30
0.0
  0
VERTEX
  8
SURVBND
 10
35.675
 20
98.29
 30
0.0
  0
VERTEX
  8
SURVBND
 10
35.68
 20
98.281
 30
0.0
  0
VERTEX
  8
SURVBND
 10
35.69
 20
98.284
 30
0.0
  0
VERTEX
  8
SURVBND
 10
35.692
 20
98.286
 30
0.0
  0
VERTEX
  8
SURVBND
 10
35.703
 20
98.293
 30
0.0
  0
VERTEX
  8
SURVBND
 10
35.709
 20
98.296
 30
0.0
  0
VERTEX
  8
SURVBND
 10
35.717
 20
98.3
 30
0.0
  0
VERTEX
  8
SURVBND
 10
35.719
 20
98.302
 30
0.0
  0
VERTEX
  8
SURVBND
 10
35.729
 20
98.304
 30
0.0
  0
VERTEX
  8
SURVBND
 10
35.734
 20
98.301
 30
0.0
  0
VERTEX
  8
SURVBND
 10
35.739
 20
98.3
 30
0.0
  0
VERTEX
  8
SURVBND
 10
35.74
 20
98.3
 30
0.0
  0
VERTEX
  8
SURVBND
 10
35.745
 20
98.301
 30
0.0
  0
VERTEX
  8
SURVBND
 10
35.746
 20
98.302
 30
0.0
  0
VERTEX
  8
SURVBND
 10
35.754
 20
98.309
 30
0.0
  0
VERTEX
  8
SURVBND
 10
35.757
 20
98.315
 30
0.0
  0
VERTEX
  8
SURVBND
 10
35.769
 20
98.32
 30
0.0
  0
VERTEX
  8
SURVBND
 10
35.787
 20
98.321
 30
0.0
  0
VERTEX
  8
SURVBND
 10
35.787
 20
98.321
 30
0.0
  0
VERTEX
  8
SURVBND
 10
35.801
 20
98.326
 30
0.0
  0
VERTEX
  8
SURVBND
 10
35.813
 20
98.333
 30
0.0
  0
VERTEX
  8
SURVBND
 10
35.829
 20
98.339
 30
0.0
  0
VERTEX
  8
SURVBND
 10
35.838
 20
98.342
 30
0.0
  0
VERTEX
  8
SURVBND
 10
35.853
 20
98.349
 30
0.0
  0
VERTEX
  8
SURVBND
 10
35.872
 20
98.356
 30
0.0
  0
VERTEX
  8
SURVBND
 10
35.876
 20
98.362
 30
0.0
  0
VERTEX
  8
SURVBND
 10
35.88
 20
98.372
 30
0.0
  0
VERTEX
  8
SURVBND
 10
35.875
 20
98.381
 30
0.0
  0
VERTEX
  8
SURVBND
 10
35.875
 20
98.387
 30
0.0
  0
VERTEX
  8
SURVBND
 10
35.885
 20
98.394
 30
0.0
  0
VERTEX
  8
SURVBND
 10
35.889
 20
98.392
 30
0.0
  0
VERTEX
  8
SURVBND
 10
35.893
 20
98.383
 30
0.0
  0
VERTEX
  8
SURVBND
 10
35.898
 20
98.377
 30
0.0
  0
VERTEX
  8
SURVBND
 10
35.91
 20
98.378
 30
0.0
  0
VERTEX
  8
SURVBND
 10
35.916
 20
98.381
 30
0.0
  0
VERTEX
  8
SURVBND
 10
35.916
 20
98.388
 30
0.0
  0
VERTEX
  8
SURVBND
 10
35.913
 20
98.395
 30
0.0
  0
VERTEX
  8
SURVBND
 10
35.914
 20
98.405
 30
0.0
  0
VERTEX
  8
SURVBND
 10
35.923
 20
98.412
 30
0.0
  0
VERTEX
  8
SURVBND
 10
35.933
 20
98.415
 30
0.0
  0
VERTEX
  8
SURVBND
 10
35.941
 20
98.417
 30
0.0
  0
VERTEX
  8
SURVBND
 10
35.954
 20
98.419
 30
0.0
  0
VERTEX
  8
SURVBND
 10
35.954
 20
98.419
 30
0.0
  0
VERTEX
  8
SURVBND
 10
35.953
 20
98.411
 30
0.0
  0
VERTEX
  8
SURVBND
 10
35.952
 20
98.403
 30
0.0
  0
VERTEX
  8
SURVBND
 10
35.96
 20
98.396
 30
0.0
  0
VERTEX
  8
SURVBND
 10
35.966
 20
98.395
 30
0.0
  0
VERTEX
  8
SURVBND
 10
35.984
 20
98.398
 30
0.0
  0
VERTEX
  8
SURVBND
 10
35.991
 20
98.401
 30
0.0
  0
VERTEX
  8
SURVBND
 10
35.999
 20
98.404
 30
0.0
  0
VERTEX
  8
SURVBND
 10
36.004
 20
98.407
 30
0.0
  0
VERTEX
  8
SURVBND
 10
36.012
 20
98.415
 30
0.0
  0
VERTEX
  8
SURVBND
 10
36.019
 20
98.424
 30
0.0
  0
VERTEX
  8
SURVBND
 10
36.024
 20
98.433
 30
0.0
  0
VERTEX
  8
SURVBND
 10
36.059
 20
98.39
 30
0.0
  0
VERTEX
  8
SURVBND
 10
36.121
 20
98.403
 30
0.0
  0
VERTEX
  8
SURVBND
 10
36.147
 20
98.421
 30
0.0
  0
VERTEX
  8
SURVBND
 10
36.188
 20
98.467
 30
0.0
  0
VERTEX
  8
SURVBND
 10
36.191
 20
98.466
 30
0.0
  0
VERTEX
  8
SURVBND
 10
36.199
 20
98.466
 30
0.0
  0
VERTEX
  8
SURVBND
 10
36.212
 20
98.468
 30
0.0
  0
VERTEX
  8
SURVBND
 10
36.214
 20
98.47
 30
0.0
  0
VERTEX
  8
SURVBND
 10
36.221
 20
98.475
 30
0.0
  0
VERTEX
  8
SURVBND
 10
36.233
 20
98.483
 30
0.0
  0
VERTEX
  8
SURVBND
 10
36.238
 20
98.488
 30
0.0
  0
VERTEX
  8
SURVBND
 10
36.241
 20
98.496
 30
0.0
  0
VERTEX
  8
SURVBND
 10
36.246
 20
98.504
 30
0.0
  0
VERTEX
  8
SURVBND
 10
36.255
 20
98.514
 30
0.0
  0
VERTEX
  8
SURVBND
 10
36.262
 20
98.52
 30
0.0
  0
VERTEX
  8
SURVBND
 10
36.272
 20
98.528
 30
0.0
  0
VERTEX
  8
SURVBND
 10
36.275
 20
98.529
 30
0.0
  0
VERTEX
  8
SURVBND
 10
36.291
 20
98.528
 30
0.0
  0
VERTEX
  8
SURVBND
 10
36.294
 20
98.528
 30
0.0
  0
VERTEX
  8
SURVBND
 10
36.3
 20
98.529
 30
0.0
  0
VERTEX
  8
SURVBND
 10
36.304
 20
98.538
 30
0.0
  0
VERTEX
  8
SURVBND
 10
36.307
 20
98.543
 30
0.0
  0
VERTEX
  8
SURVBND
 10
36.313
 20
98.547
 30
0.0
  0
VERTEX
  8
SURVBND
 10
36.319
 20
98.556
 30
0.0
  0
VERTEX
  8
SURVBND
 10
36.324
 20
98.569
 30
0.0
  0
VERTEX
  8
SURVBND
 10
36.327
 20
98.576
 30
0.0
  0
VERTEX
  8
SURVBND
 10
36.328
 20
98.583
 30
0.0
  0
VERTEX
  8
SURVBND
 10
36.327
 20
98.591
 30
0.0
  0
VERTEX
  8
SURVBND
 10
36.327
 20
98.593
 30
0.0
  0
VERTEX
  8
SURVBND
 10
36.356
 20
98.613
 30
0.0
  0
VERTEX
  8
SURVBND
 10
36.365
 20
98.618
 30
0.0
  0
VERTEX
  8
SURVBND
 10
36.363
 20
98.634
 30
0.0
  0
VERTEX
  8
SURVBND
 10
36.371
 20
98.646
 30
0.0
  0
VERTEX
  8
SURVBND
 10
36.379
 20
98.648
 30
0.0
  0
VERTEX
  8
SURVBND
 10
36.381
 20
98.643
 30
0.0
  0
VERTEX
  8
SURVBND
 10
36.388
 20
98.642
 30
0.0
  0
VERTEX
  8
SURVBND
 10
36.4
 20
98.647
 30
0.0
  0
VERTEX
  8
SURVBND
 10
36.41
 20
98.654
 30
0.0
  0
VERTEX
  8
SURVBND
 10
36.419
 20
98.66
 30
0.0
  0
VERTEX
  8
SURVBND
 10
36.424
 20
98.664
 30
0.0
  0
VERTEX
  8
SURVBND
 10
36.432
 20
98.669
 30
0.0
  0
VERTEX
  8
SURVBND
 10
36.441
 20
98.673
 30
0.0
  0
VERTEX
  8
SURVBND
 10
36.455
 20
98.681
 30
0.0
  0
VERTEX
  8
SURVBND
 10
36.458
 20
98.686
 30
0.0
  0
VERTEX
  8
SURVBND
 10
36.459
 20
98.69
 30
0.0
  0
VERTEX
  8
SURVBND
 10
36.454
 20
98.703
 30
0.0
  0
VERTEX
  8
SURVBND
 10
36.459
 20
98.706
 30
0.0
  0
VERTEX
  8
SURVBND
 10
36.48
 20
98.714
 30
0.0
  0
VERTEX
  8
SURVBND
 10
36.491
 20
98.718
 30
0.0
  0
VERTEX
  8
SURVBND
 10
36.495
 20
98.72
 30
0.0
  0
VERTEX
  8
SURVBND
 10
36.504
 20
98.725
 30
0.0
  0
VERTEX
  8
SURVBND
 10
36.508
 20
98.732
 30
0.0
  0
VERTEX
  8
SURVBND
 10
36.519
 20
98.741
 30
0.0
  0
VERTEX
  8
SURVBND
 10
36.53
 20
98.747
 30
0.0
  0
VERTEX
  8
SURVBND
 10
36.533
 20
98.748
 30
0.0
  0
VERTEX
  8
SURVBND
 10
36.539
 20
98.741
 30
0.0
  0
VERTEX
  8
SURVBND
 10
36.543
 20
98.738
 30
0.0
  0
VERTEX
  8
SURVBND
 10
36.549
 20
98.734
 30
0.0
  0
VERTEX
  8
SURVBND
 10
36.555
 20
98.73
 30
0.0
  0
VERTEX
  8
SURVBND
 10
36.559
 20
98.728
 30
0.0
  0
VERTEX
  8
SURVBND
 10
36.565
 20
98.726
 30
0.0
  0
VERTEX
  8
SURVBND
 10
36.572
 20
98.726
 30
0.0
  0
VERTEX
  8
SURVBND
 10
36.579
 20
98.731
 30
0.0
  0
VERTEX
  8
SURVBND
 10
36.58
 20
98.737
 30
0.0
  0
VERTEX
  8
SURVBND
 10
36.581
 20
98.743
 30
0.0
  0
VERTEX
  8
SURVBND
 10
36.58
 20
98.749
 30
0.0
  0
VERTEX
  8
SURVBND
 10
36.594
 20
98.763
 30
0.0
  0
VERTEX
  8
SURVBND
 10
36.608
 20
98.764
 30
0.0
  0
VERTEX
  8
SURVBND
 10
36.614
 20
98.759
 30
0.0
  0
VERTEX
  8
SURVBND
 10
36.618
 20
98.754
 30
0.0
  0
VERTEX
  8
SURVBND
 10
36.621
 20
98.749
 30
0.0
  0
VERTEX
  8
SURVBND
 10
36.629
 20
98.747
 30
0.0
  0
VERTEX
  8
SURVBND
 10
36.638
 20
98.744
 30
0.0
  0
VERTEX
  8
SURVBND
 10
36.652
 20
98.744
 30
0.0
  0
VERTEX
  8
SURVBND
 10
36.653
 20
98.745
 30
0.0
  0
VERTEX
  8
SURVBND
 10
36.66
 20
98.748
 30
0.0
  0
VERTEX
  8
SURVBND
 10
36.663
 20
98.747
 30
0.0
  0
VERTEX
  8
SURVBND
 10
36.695
 20
98.742
 30
0.0
  0
VERTEX
  8
SURVBND
 10
36.701
 20
98.738
 30
0.0
  0
VERTEX
  8
SURVBND
 10
36.71
 20
98.731
 30
0.0
  0
VERTEX
  8
SURVBND
 10
36.714
 20
98.724
 30
0.0
  0
VERTEX
  8
SURVBND
 10
36.714
 20
98.717
 30
0.0
  0
VERTEX
  8
SURVBND
 10
36.713
 20
98.709
 30
0.0
  0
VERTEX
  8
SURVBND
 10
36.716
 20
98.703
 30
0.0
  0
VERTEX
  8
SURVBND
 10
36.718
 20
98.7
 30
0.0
  0
VERTEX
  8
SURVBND
 10
36.721
 20
98.694
 30
0.0
  0
VERTEX
  8
SURVBND
 10
36.723
 20
98.69
 30
0.0
  0
VERTEX
  8
SURVBND
 10
36.721
 20
98.682
 30
0.0
  0
VERTEX
  8
SURVBND
 10
36.72
 20
98.675
 30
0.0
  0
VERTEX
  8
SURVBND
 10
36.728
 20
98.672
 30
0.0
  0
VERTEX
  8
SURVBND
 10
36.739
 20
98.671
 30
0.0
  0
VERTEX
  8
SURVBND
 10
36.749
 20
98.669
 30
0.0
  0
VERTEX
  8
SURVBND
 10
36.753
 20
98.666
 30
0.0
  0
VERTEX
  8
SURVBND
 10
36.764
 20
98.663
 30
0.0
  0
VERTEX
  8
SURVBND
 10
36.773
 20
98.663
 30
0.0
  0
VERTEX
  8
SURVBND
 10
36.781
 20
98.663
 30
0.0
  0
VERTEX
  8
SURVBND
 10
36.784
 20
98.665
 30
0.0
  0
VERTEX
  8
SURVBND
 10
36.795
 20
98.667
 30
0.0
  0
VERTEX
  8
SURVBND
 10
36.799
 20
98.67
 30
0.0
  0
VERTEX
  8
SURVBND
 10
36.809
 20
98.677
 30
0.0
  0
VERTEX
  8
SURVBND
 10
36.822
 20
98.683
 30
0.0
  0
VERTEX
  8
SURVBND
 10
36.826
 20
98.684
 30
0.0
  0
VERTEX
  8
SURVBND
 10
36.838
 20
98.681
 30
0.0
  0
VERTEX
  8
SURVBND
 10
36.839
 20
98.675
 30
0.0
  0
VERTEX
  8
SURVBND
 10
36.833
 20
98.668
 30
0.0
  0
VERTEX
  8
SURVBND
 10
36.83
 20
98.664
 30
0.0
  0
VERTEX
  8
SURVBND
 10
36.823
 20
98.656
 30
0.0
  0
VERTEX
  8
SURVBND
 10
36.815
 20
98.646
 30
0.0
  0
VERTEX
  8
SURVBND
 10
36.813
 20
98.639
 30
0.0
  0
VERTEX
  8
SURVBND
 10
36.811
 20
98.633
 30
0.0
  0
VERTEX
  8
SURVBND
 10
36.809
 20
98.626
 30
0.0
  0
VERTEX
  8
SURVBND
 10
36.809
 20
98.625
 30
0.0
  0
VERTEX
  8
SURVBND
 10
36.805
 20
98.616
 30
0.0
  0
VERTEX
  8
SURVBND
 10
36.794
 20
98.604
 30
0.0
  0
VERTEX
  8
SURVBND
 10
36.794
 20
98.599
 30
0.0
  0
VERTEX
  8
SURVBND
 10
36.79
 20
98.576
 30
0.0
  0
VERTEX
  8
SURVBND
 10
36.789
 20
98.571
 30
0.0
  0
VERTEX
  8
SURVBND
 10
36.789
 20
98.56
 30
0.0
  0
VERTEX
  8
SURVBND
 10
36.788
 20
98.556
 30
0.0
  0
VERTEX
  8
SURVBND
 10
36.791
 20
98.546
 30
0.0
  0
VERTEX
  8
SURVBND
 10
36.797
 20
98.536
 30
0.0
  0
VERTEX
  8
SURVBND
 10
36.799
 20
98.535
 30
0.0
  0
VERTEX
  8
SURVBND
 10
36.806
 20
98.533
 30
0.0
  0
VERTEX
  8
SURVBND
 10
36.818
 20
98.529
 30
0.0
  0
VERTEX
  8
SURVBND
 10
36.825
 20
98.527
 30
0.0
  0
VERTEX
  8
SURVBND
 10
36.836
 20
98.52
 30
0.0
  0
VERTEX
  8
SURVBND
 10
36.838
 20
98.511
 30
0.0
  0
VERTEX
  8
SURVBND
 10
36.837
 20
98.505
 30
0.0
  0
VERTEX
  8
SURVBND
 10
36.834
 20
98.496
 30
0.0
  0
VERTEX
  8
SURVBND
 10
36.834
 20
98.487
 30
0.0
  0
VERTEX
  8
SURVBND
 10
36.828
 20
98.466
 30
0.0
  0
VERTEX
  8
SURVBND
 10
36.829
 20
98.459
 30
0.0
  0
VERTEX
  8
SURVBND
 10
36.83
 20
98.444
 30
0.0
  0
VERTEX
  8
SURVBND
 10
36.832
 20
98.434
 30
0.0
  0
VERTEX
  8
SURVBND
 10
36.837
 20
98.419
 30
0.0
  0
VERTEX
  8
SURVBND
 10
36.84
 20
98.414
 30
0.0
  0
VERTEX
  8
SURVBND
 10
36.845
 20
98.409
 30
0.0
  0
VERTEX
  8
SURVBND
 10
36.848
 20
98.403
 30
0.0
  0
VERTEX
  8
SURVBND
 10
36.852
 20
98.389
 30
0.0
  0
VERTEX
  8
SURVBND
 10
36.854
 20
98.381
 30
0.0
  0
VERTEX
  8
SURVBND
 10
36.853
 20
98.375
 30
0.0
  0
VERTEX
  8
SURVBND
 10
36.85
 20
98.366
 30
0.0
  0
VERTEX
  8
SURVBND
 10
36.846
 20
98.357
 30
0.0
  0
VERTEX
  8
SURVBND
 10
36.845
 20
98.345
 30
0.0
  0
VERTEX
  8
SURVBND
 10
36.845
 20
98.339
 30
0.0
  0
VERTEX
  8
SURVBND
 10
36.854
 20
98.334
 30
0.0
  0
VERTEX
  8
SURVBND
 10
36.867
 20
98.33
 30
0.0
  0
VERTEX
  8
SURVBND
 10
36.877
 20
98.32
 30
0.0
  0
VERTEX
  8
SURVBND
 10
36.881
 20
98.308
 30
0.0
  0
VERTEX
  8
SURVBND
 10
36.884
 20
98.3
 30
0.0
  0
VERTEX
  8
SURVBND
 10
36.886
 20
98.29
 30
0.0
  0
VERTEX
  8
SURVBND
 10
36.887
 20
98.282
 30
0.0
  0
VERTEX
  8
SURVBND
 10
36.881
 20
98.269
 30
0.0
  0
VERTEX
  8
SURVBND
 10
36.881
 20
98.265
 30
0.0
  0
VERTEX
  8
SURVBND
 10
36.883
 20
98.259
 30
0.0
  0
VERTEX
  8
SURVBND
 10
36.877
 20
98.242
 30
0.0
  0
VERTEX
  8
SURVBND
 10
36.877
 20
98.24
 30
0.0
  0
VERTEX
  8
SURVBND
 10
36.883
 20
98.232
 30
0.0
  0
VERTEX
  8
SURVBND
 10
36.902
 20
98.225
 30
0.0
  0
VERTEX
  8
SURVBND
 10
36.906
 20
98.224
 30
0.0
  0
VERTEX
  8
SURVBND
 10
36.919
 20
98.22
 30
0.0
  0
VERTEX
  8
SURVBND
 10
36.93
 20
98.226
 30
0.0
  0
VERTEX
  8
SURVBND
 10
36.929
 20
98.231
 30
0.0
  0
VERTEX
  8
SURVBND
 10
36.924
 20
98.239
 30
0.0
  0
VERTEX
  8
SURVBND
 10
36.92
 20
98.246
 30
0.0
  0
VERTEX
  8
SURVBND
 10
36.922
 20
98.258
 30
0.0
  0
VERTEX
  8
SURVBND
 10
36.919
 20
98.268
 30
0.0
  0
VERTEX
  8
SURVBND
 10
36.92
 20
98.275
 30
0.0
  0
VERTEX
  8
SURVBND
 10
36.919
 20
98.284
 30
0.0
  0
VERTEX
  8
SURVBND
 10
36.915
 20
98.297
 30
0.0
  0
VERTEX
  8
SURVBND
 10
36.913
 20
98.303
 30
0.0
  0
VERTEX
  8
SURVBND
 10
36.917
 20
98.314
 30
0.0
  0
VERTEX
  8
SURVBND
 10
36.921
 20
98.333
 30
0.0
  0
VERTEX
  8
SURVBND
 10
36.921
 20
98.343
 30
0.0
  0
VERTEX
  8
SURVBND
 10
36.924
 20
98.35
 30
0.0
  0
VERTEX
  8
SURVBND
 10
36.927
 20
98.369
 30
0.0
  0
VERTEX
  8
SURVBND
 10
36.926
 20
98.375
 30
0.0
  0
VERTEX
  8
SURVBND
 10
36.924
 20
98.382
 30
0.0
  0
VERTEX
  8
SURVBND
 10
36.923
 20
98.4
 30
0.0
  0
VERTEX
  8
SURVBND
 10
36.922
 20
98.407
 30
0.0
  0
VERTEX
  8
SURVBND
 10
36.923
 20
98.414
 30
0.0
  0
VERTEX
  8
SURVBND
 10
36.914
 20
98.433
 30
0.0
  0
VERTEX
  8
SURVBND
 10
36.913
 20
98.435
 30
0.0
  0
VERTEX
  8
SURVBND
 10
36.906
 20
98.456
 30
0.0
  0
VERTEX
  8
SURVBND
 10
36.911
 20
98.475
 30
0.0
  0
VERTEX
  8
SURVBND
 10
36.906
 20
98.486
 30
0.0
  0
VERTEX
  8
SURVBND
 10
36.911
 20
98.495
 30
0.0
  0
VERTEX
  8
SURVBND
 10
36.925
 20
98.489
 30
0.0
  0
VERTEX
  8
SURVBND
 10
36.936
 20
98.488
 30
0.0
  0
VERTEX
  8
SURVBND
 10
36.941
 20
98.489
 30
0.0
  0
VERTEX
  8
SURVBND
 10
36.947
 20
98.485
 30
0.0
  0
VERTEX
  8
SURVBND
 10
36.95
 20
98.485
 30
0.0
  0
VERTEX
  8
SURVBND
 10
36.953
 20
98.487
 30
0.0
  0
VERTEX
  8
SURVBND
 10
36.955
 20
98.493
 30
0.0
  0
VERTEX
  8
SURVBND
 10
36.957
 20
98.497
 30
0.0
  0
VERTEX
  8
SURVBND
 10
36.967
 20
98.503
 30
0.0
  0
VERTEX
  8
SURVBND
 10
36.971
 20
98.505
 30
0.0
  0
VERTEX
  8
SURVBND
 10
36.975
 20
98.506
 30
0.0
  0
VERTEX
  8
SURVBND
 10
36.983
 20
98.502
 30
0.0
  0
VERTEX
  8
SURVBND
 10
36.986
 20
98.497
 30
0.0
  0
VERTEX
  8
SURVBND
 10
36.991
 20
98.482
 30
0.0
  0
VERTEX
  8
SURVBND
 10
36.994
 20
98.469
 30
0.0
  0
VERTEX
  8
SURVBND
 10
36.996
 20
98.453
 30
0.0
  0
VERTEX
  8
SURVBND
 10
36.998
 20
98.44
 30
0.0
  0
VERTEX
  8
SURVBND
 10
37.0
 20
98.426
 30
0.0
  0
VERTEX
  8
SURVBND
 10
37.0
 20
98.407
 30
0.0
  0
VERTEX
  8
SURVBND
 10
37.0
 20
98.398
 30
0.0
  0
VERTEX
  8
SURVBND
 10
36.999
 20
98.384
 30
0.0
  0
VERTEX
  8
SURVBND
 10
37.0
 20
98.376
 30
0.0
  0
VERTEX
  8
SURVBND
 10
37.003
 20
98.359
 30
0.0
  0
VERTEX
  8
SURVBND
 10
37.003
 20
98.346
 30
0.0
  0
VERTEX
  8
SURVBND
 10
37.004
 20
98.338
 30
0.0
  0
VERTEX
  8
SURVBND
 10
37.012
 20
98.324
 30
0.0
  0
VERTEX
  8
SURVBND
 10
37.022
 20
98.311
 30
0.0
  0
VERTEX
  8
SURVBND
 10
37.024
 20
98.295
 30
0.0
  0
VERTEX
  8
SURVBND
 10
37.023
 20
98.283
 30
0.0
  0
VERTEX
  8
SURVBND
 10
37.022
 20
98.269
 30
0.0
  0
VERTEX
  8
SURVBND
 10
37.025
 20
98.258
 30
0.0
  0
VERTEX
  8
SURVBND
 10
37.03
 20
98.244
 30
0.0
  0
VERTEX
  8
SURVBND
 10
37.03
 20
98.229
 30
0.0
  0
VERTEX
  8
SURVBND
 10
37.031
 20
98.216
 30
0.0
  0
VERTEX
  8
SURVBND
 10
37.039
 20
98.206
 30
0.0
  0
VERTEX
  8
SURVBND
 10
37.041
 20
98.186
 30
0.0
  0
VERTEX
  8
SURVBND
 10
37.037
 20
98.17
 30
0.0
  0
VERTEX
  8
SURVBND
 10
37.038
 20
98.16
 30
0.0
  0
VERTEX
  8
SURVBND
 10
37.042
 20
98.147
 30
0.0
  0
VERTEX
  8
SURVBND
 10
37.042
 20
98.133
 30
0.0
  0
VERTEX
  8
SURVBND
 10
37.042
 20
98.119
 30
0.0
  0
VERTEX
  8
SURVBND
 10
37.043
 20
98.11
 30
0.0
  0
VERTEX
  8
SURVBND
 10
37.044
 20
98.1
 30
0.0
  0
VERTEX
  8
SURVBND
 10
37.046
 20
98.089
 30
0.0
  0
VERTEX
  8
SURVBND
 10
37.047
 20
98.08
 30
0.0
  0
VERTEX
  8
SURVBND
 10
37.05
 20
98.072
 30
0.0
  0
VERTEX
  8
SURVBND
 10
37.057
 20
98.065
 30
0.0
  0
VERTEX
  8
SURVBND
 10
37.061
 20
98.055
 30
0.0
  0
VERTEX
  8
SURVBND
 10
37.063
 20
98.047
 30
0.0
  0
VERTEX
  8
SURVBND
 10
37.063
 20
98.03
 30
0.0
  0
VERTEX
  8
SURVBND
 10
37.067
 20
98.013
 30
0.0
  0
VERTEX
  8
SURVBND
 10
37.072
 20
97.998
 30
0.0
  0
VERTEX
  8
SURVBND
 10
37.078
 20
97.985
 30
0.0
  0
VERTEX
  8
SURVBND
 10
37.083
 20
97.977
 30
0.0
  0
VERTEX
  8
SURVBND
 10
37.086
 20
97.966
 30
0.0
  0
VERTEX
  8
SURVBND
 10
37.091
 20
97.955
 30
0.0
  0
VERTEX
  8
SURVBND
 10
37.093
 20
97.935
 30
0.0
  0
VERTEX
  8
SURVBND
 10
37.098
 20
97.923
 30
0.0
  0
VERTEX
  8
SURVBND
 10
37.102
 20
97.906
 30
0.0
  0
VERTEX
  8
SURVBND
 10
37.102
 20
97.895
 30
0.0
  0
VERTEX
  8
SURVBND
 10
37.101
 20
97.883
 30
0.0
  0
VERTEX
  8
SURVBND
 10
37.102
 20
97.876
 30
0.0
  0
VERTEX
  8
SURVBND
 10
37.103
 20
97.865
 30
0.0
  0
VERTEX
  8
SURVBND
 10
37.101
 20
97.857
 30
0.0
  0
VERTEX
  8
SURVBND
 10
37.099
 20
97.848
 30
0.0
  0
VERTEX
  8
SURVBND
 10
37.096
 20
97.843
 30
0.0
  0
VERTEX
  8
SURVBND
 10
37.09
 20
97.834
 30
0.0
  0
VERTEX
  8
SURVBND
 10
37.088
 20
97.826
 30
0.0
  0
VERTEX
  8
SURVBND
 10
37.083
 20
97.813
 30
0.0
  0
VERTEX
  8
SURVBND
 10
37.082
 20
97.804
 30
0.0
  0
VERTEX
  8
SURVBND
 10
37.08
 20
97.791
 30
0.0
  0
VERTEX
  8
SURVBND
 10
37.083
 20
97.776
 30
0.0
  0
VERTEX
  8
SURVBND
 10
37.089
 20
97.766
 30
0.0
  0
VERTEX
  8
SURVBND
 10
37.087
 20
97.75
 30
0.0
  0
VERTEX
  8
SURVBND
 10
37.086
 20
97.74
 30
0.0
  0
VERTEX
  8
SURVBND
 10
37.086
 20
97.725
 30
0.0
  0
VERTEX
  8
SURVBND
 10
37.078
 20
97.71
 30
0.0
  0
VERTEX
  8
SURVBND
 10
37.078
 20
97.697
 30
0.0
  0
VERTEX
  8
SURVBND
 10
37.08
 20
97.687
 30
0.0
  0
VERTEX
  8
SURVBND
 10
37.084
 20
97.674
 30
0.0
  0
VERTEX
  8
SURVBND
 10
37.091
 20
97.657
 30
0.0
  0
VERTEX
  8
SURVBND
 10
37.098
 20
97.643
 30
0.0
  0
VERTEX
  8
SURVBND
 10
37.103
 20
97.632
 30
0.0
  0
VERTEX
  8
SURVBND
 10
37.107
 20
97.625
 30
0.0
  0
VERTEX
  8
SURVBND
 10
37.108
 20
97.623
 30
0.0
  0
VERTEX
  8
SURVBND
 10
37.111
 20
97.62
 30
0.0
  0
VERTEX
  8
SURVBND
 10
37.116
 20
97.61
 30
0.0
  0
VERTEX
  8
SURVBND
 10
37.126
 20
97.608
 30
0.0
  0
VERTEX
  8
SURVBND
 10
37.135
 20
97.61
 30
0.0
  0
VERTEX
  8
SURVBND
 10
37.144
 20
97.62
 30
0.0
  0
VERTEX
  8
SURVBND
 10
37.154
 20
97.63
 30
0.0
  0
VERTEX
  8
SURVBND
 10
37.16
 20
97.636
 30
0.0
  0
VERTEX
  8
SURVBND
 10
37.169
 20
97.641
 30
0.0
  0
VERTEX
  8
SURVBND
 10
37.211
 20
97.672
 30
0.0
  0
VERTEX
  8
SURVBND
 10
37.22
 20
97.682
 30
0.0
  0
VERTEX
  8
SURVBND
 10
37.23
 20
97.686
 30
0.0
  0
VERTEX
  8
SURVBND
 10
37.234
 20
97.682
 30
0.0
  0
VERTEX
  8
SURVBND
 10
37.236
 20
97.676
 30
0.0
  0
VERTEX
  8
SURVBND
 10
37.232
 20
97.665
 30
0.0
  0
VERTEX
  8
SURVBND
 10
37.232
 20
97.661
 30
0.0
  0
VERTEX
  8
SURVBND
 10
37.231
 20
97.65
 30
0.0
  0
VERTEX
  8
SURVBND
 10
37.213
 20
97.642
 30
0.0
  0
VERTEX
  8
SURVBND
 10
37.212
 20
97.639
 30
0.0
  0
VERTEX
  8
SURVBND
 10
37.209
 20
97.628
 30
0.0
  0
VERTEX
  8
SURVBND
 10
37.21
 20
97.621
 30
0.0
  0
VERTEX
  8
SURVBND
 10
37.213
 20
97.616
 30
0.0
  0
VERTEX
  8
SURVBND
 10
37.212
 20
97.599
 30
0.0
  0
VERTEX
  8
SURVBND
 10
37.59
 20
97.609
 30
0.0
  0
VERTEX
  8
SURVBND
 10
38.329
 20
97.931
 30
0.0
  0
VERTEX
  8
SURVBND
 10
38.315
 20
98.54
 30
0.0
  0
VERTEX
  8
SURVBND
 10
38.772
 20
98.507
 30
0.0
  0
VERTEX
  8
SURVBND
 10
38.758
 20
98.435
 30
0.0
  0
VERTEX
  8
SURVBND
 10
39.221
 20
98.531
 30
0.0
  0
VERTEX
  8
SURVBND
 10
39.331
 20
98.493
 30
0.0
  0
VERTEX
  8
SURVBND
 10
39.364
 20
98.411
 30
0.0
  0
VERTEX
  8
SURVBND
 10
39.601
 20
98.483
 30
0.0
  0
VERTEX
  8
SURVBND
 10
39.594
 20
98.009
 30
0.0
  0
VERTEX
  8
SURVBND
 10
39.539
 20
97.98
 30
0.0
  0
VERTEX
  8
SURVBND
 10
39.643
 20
97.88
 30
0.0
  0
VERTEX
  8
SURVBND
 10
39.467
 20
97.629
 30
0.0
  0
VERTEX
  8
SURVBND
 10
39.482
 20
97.54
 30
0.0
  0
VERTEX
  8
SURVBND
 10
39.438
 20
97.478
 30
0.0
  0
VERTEX
  8
SURVBND
 10
39.442
 20
97.481
 30
0.0
  0
VERTEX
  8
SURVBND
 10
39.443
 20
97.481
 30
0.0
  0
VERTEX
  8
SURVBND
 10
39.445
 20
97.481
 30
0.0
  0
VERTEX
  8
SURVBND
 10
39.471
 20
97.482
 30
0.0
  0
VERTEX
  8
SURVBND
 10
39.476
 20
97.46
 30
0.0
  0
VERTEX
  8
SURVBND
 10
39.489
 20
97.46
 30
0.0
  0
VERTEX
  8
SURVBND
 10
39.504
 20
97.455
 30
0.0
  0
VERTEX
  8
SURVBND
 10
39.514
 20
97.45
 30
0.0
  0
VERTEX
  8
SURVBND
 10
39.517
 20
97.438
 30
0.0
  0
VERTEX
  8
SURVBND
 10
39.539
 20
97.442
 30
0.0
  0
VERTEX
  8
SURVBND
 10
39.541
 20
97.443
 30
0.0
  0
VERTEX
  8
SURVBND
 10
39.544
 20
97.449
 30
0.0
  0
VERTEX
  8
SURVBND
 10
39.559
 20
97.463
 30
0.0
  0
VERTEX
  8
SURVBND
 10
39.564
 20
97.471
 30
0.0
  0
VERTEX
  8
SURVBND
 10
39.579
 20
97.46
 30
0.0
  0
VERTEX
  8
SURVBND
 10
39.576
 20
97.457
 30
0.0
  0
VERTEX
  8
SURVBND
 10
39.575
 20
97.454
 30
0.0
  0
VERTEX
  8
SURVBND
 10
39.581
 20
97.445
 30
0.0
  0
VERTEX
  8
SURVBND
 10
39.588
 20
97.443
 30
0.0
  0
VERTEX
  8
SURVBND
 10
39.59
 20
97.44
 30
0.0
  0
VERTEX
  8
SURVBND
 10
39.594
 20
97.427
 30
0.0
  0
VERTEX
  8
SURVBND
 10
39.594
 20
97.426
 30
0.0
  0
VERTEX
  8
SURVBND
 10
39.599
 20
97.425
 30
0.0
  0
VERTEX
  8
SURVBND
 10
39.6
 20
97.425
 30
0.0
  0
VERTEX
  8
SURVBND
 10
39.609
 20
97.42
 30
0.0
  0
VERTEX
  8
SURVBND
 10
39.614
 20
97.412
 30
0.0
  0
VERTEX
  8
SURVBND
 10
39.619
 20
97.414
 30
0.0
  0
VERTEX
  8
SURVBND
 10
39.64
 20
97.418
 30
0.0
  0
VERTEX
  8
SURVBND
 10
39.643
 20
97.411
 30
0.0
  0
VERTEX
  8
SURVBND
 10
39.64
 20
97.398
 30
0.0
  0
VERTEX
  8
SURVBND
 10
39.639
 20
97.389
 30
0.0
  0
VERTEX
  8
SURVBND
 10
39.66
 20
97.39
 30
0.0
  0
VERTEX
  8
SURVBND
 10
39.674
 20
97.401
 30
0.0
  0
VERTEX
  8
SURVBND
 10
39.693
 20
97.392
 30
0.0
  0
VERTEX
  8
SURVBND
 10
39.702
 20
97.389
 30
0.0
  0
VERTEX
  8
SURVBND
 10
39.704
 20
97.372
 30
0.0
  0
VERTEX
  8
SURVBND
 10
39.709
 20
97.369
 30
0.0
  0
VERTEX
  8
SURVBND
 10
39.726
 20
97.365
 30
0.0
  0
VERTEX
  8
SURVBND
 10
39.729
 20
97.361
 30
0.0
  0
VERTEX
  8
SURVBND
 10
39.735
 20
97.353
 30
0.0
  0
VERTEX
  8
SURVBND
 10
39.745
 20
97.348
 30
0.0
  0
VERTEX
  8
SURVBND
 10
39.759
 20
97.35
 30
0.0
  0
VERTEX
  8
SURVBND
 10
39.771
 20
97.348
 30
0.0
  0
VERTEX
  8
SURVBND
 10
39.79
 20
97.344
 30
0.0
  0
VERTEX
  8
SURVBND
 10
39.785
 20
97.332
 30
0.0
  0
VERTEX
  8
SURVBND
 10
39.772
 20
97.323
 30
0.0
  0
VERTEX
  8
SURVBND
 10
39.778
 20
97.312
 30
0.0
  0
VERTEX
  8
SURVBND
 10
39.789
 20
97.31
 30
0.0
  0
VERTEX
  8
SURVBND
 10
39.802
 20
97.315
 30
0.0
  0
VERTEX
  8
SURVBND
 10
39.809
 20
97.318
 30
0.0
  0
VERTEX
  8
SURVBND
 10
39.821
 20
97.325
 30
0.0
  0
VERTEX
  8
SURVBND
 10
39.843
 20
97.325
 30
0.0
  0
VERTEX
  8
SURVBND
 10
39.846
 20
97.318
 30
0.0
  0
VERTEX
  8
SURVBND
 10
39.848
 20
97.31
 30
0.0
  0
VERTEX
  8
SURVBND
 10
39.853
 20
97.308
 30
0.0
  0
VERTEX
  8
SURVBND
 10
39.867
 20
97.305
 30
0.0
  0
VERTEX
  8
SURVBND
 10
39.881
 20
97.296
 30
0.0
  0
VERTEX
  8
SURVBND
 10
39.885
 20
97.292
 30
0.0
  0
VERTEX
  8
SURVBND
 10
39.897
 20
97.275
 30
0.0
  0
VERTEX
  8
SURVBND
 10
39.909
 20
97.272
 30
0.0
  0
VERTEX
  8
SURVBND
 10
39.918
 20
97.263
 30
0.0
  0
VERTEX
  8
SURVBND
 10
39.915
 20
97.247
 30
0.0
  0
VERTEX
  8
SURVBND
 10
39.927
 20
97.24
 30
0.0
  0
VERTEX
  8
SURVBND
 10
39.945
 20
97.238
 30
0.0
  0
VERTEX
  8
SURVBND
 10
39.945
 20
97.24
 30
0.0
  0
VERTEX
  8
SURVBND
 10
39.953
 20
97.243
 30
0.0
  0
VERTEX
  8
SURVBND
 10
39.959
 20
97.237
 30
0.0
  0
VERTEX
  8
SURVBND
 10
39.963
 20
97.229
 30
0.0
  0
VERTEX
  8
SURVBND
 10
39.966
 20
97.219
 30
0.0
  0
VERTEX
  8
SURVBND
 10
39.964
 20
97.211
 30
0.0
  0
VERTEX
  8
SURVBND
 10
39.955
 20
97.199
 30
0.0
  0
VERTEX
  8
SURVBND
 10
39.959
 20
97.192
 30
0.0
  0
VERTEX
  8
SURVBND
 10
39.956
 20
97.182
 30
0.0
  0
VERTEX
  8
SURVBND
 10
39.952
 20
97.163
 30
0.0
  0
VERTEX
  8
SURVBND
 10
39.953
 20
97.163
 30
0.0
  0
VERTEX
  8
SURVBND
 10
39.968
 20
97.159
 30
0.0
  0
VERTEX
  8
SURVBND
 10
39.975
 20
97.153
 30
0.0
  0
VERTEX
  8
SURVBND
 10
39.98
 20
97.145
 30
0.0
  0
VERTEX
  8
SURVBND
 10
39.982
 20
97.135
 30
0.0
  0
VERTEX
  8
SURVBND
 10
39.991
 20
97.129
 30
0.0
  0
VERTEX
  8
SURVBND
 10
40.008
 20
97.114
 30
0.0
  0
VERTEX
  8
SURVBND
 10
40.021
 20
97.103
 30
0.0
  0
VERTEX
  8
SURVBND
 10
40.022
 20
97.1
 30
0.0
  0
VERTEX
  8
SURVBND
 10
40.025
 20
97.091
 30
0.0
  0
VERTEX
  8
SURVBND
 10
40.006
 20
97.076
 30
0.0
  0
VERTEX
  8
SURVBND
 10
40.008
 20
97.059
 30
0.0
  0
VERTEX
  8
SURVBND
 10
40.019
 20
97.053
 30
0.0
  0
VERTEX
  8
SURVBND
 10
40.022
 20
97.034
 30
0.0
  0
VERTEX
  8
SURVBND
 10
40.012
 20
97.019
 30
0.0
  0
VERTEX
  8
SURVBND
 10
40.014
 20
97.005
 30
0.0
  0
VERTEX
  8
SURVBND
 10
40.024
 20
96.987
 30
0.0
  0
VERTEX
  8
SURVBND
 10
40.019
 20
96.972
 30
0.0
  0
VERTEX
  8
SURVBND
 10
40.019
 20
96.969
 30
0.0
  0
VERTEX
  8
SURVBND
 10
40.007
 20
96.931
 30
0.0
  0
VERTEX
  8
SURVBND
 10
40.018
 20
96.898
 30
0.0
  0
VERTEX
  8
SURVBND
 10
40.009
 20
96.869
 30
0.0
  0
VERTEX
  8
SURVBND
 10
40.001
 20
96.851
 30
0.0
  0
VERTEX
  8
SURVBND
 10
40.01
 20
96.829
 30
0.0
  0
VERTEX
  8
SURVBND
 10
40.028
 20
96.817
 30
0.0
  0
VERTEX
  8
SURVBND
 10
40.041
 20
96.799
 30
0.0
  0
VERTEX
  8
SURVBND
 10
40.033
 20
96.789
 30
0.0
  0
VERTEX
  8
SURVBND
 10
40.023
 20
96.78
 30
0.0
  0
VERTEX
  8
SURVBND
 10
40.016
 20
96.767
 30
0.0
  0
VERTEX
  8
SURVBND
 10
40.014
 20
96.762
 30
0.0
  0
VERTEX
  8
SURVBND
 10
40.009
 20
96.751
 30
0.0
  0
VERTEX
  8
SURVBND
 10
40.008
 20
96.741
 30
0.0
  0
VERTEX
  8
SURVBND
 10
40.008
 20
96.733
 30
0.0
  0
VERTEX
  8
SURVBND
 10
40.0
 20
96.723
 30
0.0
  0
VERTEX
  8
SURVBND
 10
39.998
 20
96.719
 30
0.0
  0
VERTEX
  8
SURVBND
 10
40.018
 20
96.72
 30
0.0
  0
VERTEX
  8
SURVBND
 10
40.015
 20
96.708
 30
0.0
  0
VERTEX
  8
SURVBND
 10
40.023
 20
96.702
 30
0.0
  0
VERTEX
  8
SURVBND
 10
40.027
 20
96.688
 30
0.0
  0
VERTEX
  8
SURVBND
 10
40.034
 20
96.677
 30
0.0
  0
VERTEX
  8
SURVBND
 10
40.031
 20
96.667
 30
0.0
  0
VERTEX
  8
SURVBND
 10
40.023
 20
96.656
 30
0.0
  0
VERTEX
  8
SURVBND
 10
40.019
 20
96.65
 30
0.0
  0
VERTEX
  8
SURVBND
 10
40.008
 20
96.64
 30
0.0
  0
VERTEX
  8
SURVBND
 10
40.001
 20
96.631
 30
0.0
  0
VERTEX
  8
SURVBND
 10
39.998
 20
96.625
 30
0.0
  0
VERTEX
  8
SURVBND
 10
40.002
 20
96.616
 30
0.0
  0
VERTEX
  8
SURVBND
 10
40.006
 20
96.608
 30
0.0
  0
VERTEX
  8
SURVBND
 10
40.013
 20
96.593
 30
0.0
  0
VERTEX
  8
SURVBND
 10
40.016
 20
96.58
 30
0.0
  0
VERTEX
  8
SURVBND
 10
40.009
 20
96.578
 30
0.0
  0
VERTEX
  8
SURVBND
 10
40.006
 20
96.577
 30
0.0
  0
VERTEX
  8
SURVBND
 10
39.998
 20
96.564
 30
0.0
  0
VERTEX
  8
SURVBND
 10
40.0
 20
96.557
 30
0.0
  0
VERTEX
  8
SURVBND
 10
39.997
 20
96.547
 30
0.0
  0
VERTEX
  8
SURVBND
 10
39.999
 20
96.544
 30
0.0
  0
VERTEX
  8
SURVBND
 10
40.009
 20
96.533
 30
0.0
  0
VERTEX
  8
SURVBND
 10
40.007
 20
96.528
 30
0.0
  0
VERTEX
  8
SURVBND
 10
40.003
 20
96.525
 30
0.0
  0
VERTEX
  8
SURVBND
 10
40.005
 20
96.515
 30
0.0
  0
VERTEX
  8
SURVBND
 10
40.016
 20
96.507
 30
0.0
  0
VERTEX
  8
SURVBND
 10
40.024
 20
96.502
 30
0.0
  0
VERTEX
  8
SURVBND
 10
40.018
 20
96.488
 30
0.0
  0
VERTEX
  8
SURVBND
 10
40.006
 20
96.488
 30
0.0
  0
VERTEX
  8
SURVBND
 10
40.003
 20
96.477
 30
0.0
  0
VERTEX
  8
SURVBND
 10
40.007
 20
96.467
 30
0.0
  0
VERTEX
  8
SURVBND
 10
40.007
 20
96.457
 30
0.0
  0
VERTEX
  8
SURVBND
 10
40.005
 20
96.447
 30
0.0
  0
VERTEX
  8
SURVBND
 10
40.003
 20
96.438
 30
0.0
  0
VERTEX
  8
SURVBND
 10
40.0
 20
96.426
 30
0.0
  0
VERTEX
  8
SURVBND
 10
39.997
 20
96.414
 30
0.0
  0
VERTEX
  8
SURVBND
 10
39.994
 20
96.408
 30
0.0
  0
VERTEX
  8
SURVBND
 10
39.991
 20
96.399
 30
0.0
  0
VERTEX
  8
SURVBND
 10
39.983
 20
96.393
 30
0.0
  0
VERTEX
  8
SURVBND
 10
39.978
 20
96.383
 30
0.0
  0
VERTEX
  8
SURVBND
 10
39.978
 20
96.377
 30
0.0
  0
VERTEX
  8
SURVBND
 10
39.987
 20
96.375
 30
0.0
  0
VERTEX
  8
SURVBND
 10
39.991
 20
96.373
 30
0.0
  0
VERTEX
  8
SURVBND
 10
39.996
 20
96.371
 30
0.0
  0
VERTEX
  8
SURVBND
 10
39.999
 20
96.358
 30
0.0
  0
VERTEX
  8
SURVBND
 10
39.998
 20
96.347
 30
0.0
  0
VERTEX
  8
SURVBND
 10
40.001
 20
96.34
 30
0.0
  0
VERTEX
  8
SURVBND
 10
40.007
 20
96.331
 30
0.0
  0
VERTEX
  8
SURVBND
 10
40.009
 20
96.326
 30
0.0
  0
VERTEX
  8
SURVBND
 10
40.009
 20
96.315
 30
0.0
  0
VERTEX
  8
SURVBND
 10
40.01
 20
96.307
 30
0.0
  0
VERTEX
  8
SURVBND
 10
40.016
 20
96.303
 30
0.0
  0
VERTEX
  8
SURVBND
 10
40.011
 20
96.286
 30
0.0
  0
VERTEX
  8
SURVBND
 10
40.006
 20
96.275
 30
0.0
  0
VERTEX
  8
SURVBND
 10
40.012
 20
96.263
 30
0.0
  0
VERTEX
  8
SURVBND
 10
40.017
 20
96.261
 30
0.0
  0
VERTEX
  8
SURVBND
 10
40.023
 20
96.25
 30
0.0
  0
VERTEX
  8
SURVBND
 10
40.026
 20
96.247
 30
0.0
  0
VERTEX
  8
SURVBND
 10
40.031
 20
96.236
 30
0.0
  0
VERTEX
  8
SURVBND
 10
40.025
 20
96.223
 30
0.0
  0
VERTEX
  8
SURVBND
 10
40.024
 20
96.221
 30
0.0
  0
VERTEX
  8
SURVBND
 10
40.016
 20
96.216
 30
0.0
  0
VERTEX
  8
SURVBND
 10
40.009
 20
96.218
 30
0.0
  0
VERTEX
  8
SURVBND
 10
40.005
 20
96.208
 30
0.0
  0
VERTEX
  8
SURVBND
 10
40.01
 20
96.203
 30
0.0
  0
VERTEX
  8
SURVBND
 10
40.014
 20
96.2
 30
0.0
  0
VERTEX
  8
SURVBND
 10
40.021
 20
96.193
 30
0.0
  0
VERTEX
  8
SURVBND
 10
40.027
 20
96.183
 30
0.0
  0
VERTEX
  8
SURVBND
 10
40.02
 20
96.165
 30
0.0
  0
VERTEX
  8
SURVBND
 10
40.01
 20
96.16
 30
0.0
  0
VERTEX
  8
SURVBND
 10
40.01
 20
96.15
 30
0.0
  0
VERTEX
  8
SURVBND
 10
40.004
 20
96.136
 30
0.0
  0
VERTEX
  8
SURVBND
 10
40.001
 20
96.13
 30
0.0
  0
VERTEX
  8
SURVBND
 10
39.999
 20
96.113
 30
0.0
  0
VERTEX
  8
SURVBND
 10
39.994
 20
96.102
 30
0.0
  0
VERTEX
  8
SURVBND
 10
39.992
 20
96.094
 30
0.0
  0
VERTEX
  8
SURVBND
 10
39.994
 20
96.089
 30
0.0
  0
VERTEX
  8
SURVBND
 10
39.996
 20
96.079
 30
0.0
  0
VERTEX
  8
SURVBND
 10
39.989
 20
96.066
 30
0.0
  0
VERTEX
  8
SURVBND
 10
39.99
 20
96.053
 30
0.0
  0
VERTEX
  8
SURVBND
 10
39.993
 20
96.043
 30
0.0
  0
VERTEX
  8
SURVBND
 10
39.994
 20
96.037
 30
0.0
  0
VERTEX
  8
SURVBND
 10
39.999
 20
96.032
 30
0.0
  0
VERTEX
  8
SURVBND
 10
39.999
 20
96.032
 30
0.0
  0
VERTEX
  8
SURVBND
 10
40.011
 20
96.02
 30
0.0
  0
VERTEX
  8
SURVBND
 10
40.015
 20
96.01
 30
0.0
  0
VERTEX
  8
SURVBND
 10
39.995
 20
95.99
 30
0.0
  0
VERTEX
  8
SURVBND
 10
39.986
 20
95.99
 30
0.0
  0
VERTEX
  8
SURVBND
 10
39.977
 20
95.984
 30
0.0
  0
VERTEX
  8
SURVBND
 10
39.971
 20
95.957
 30
0.0
  0
VERTEX
  8
SURVBND
 10
39.965
 20
95.942
 30
0.0
  0
VERTEX
  8
SURVBND
 10
39.971
 20
95.938
 30
0.0
  0
VERTEX
  8
SURVBND
 10
39.976
 20
95.949
 30
0.0
  0
VERTEX
  8
SURVBND
 10
39.993
 20
95.947
 30
0.0
  0
VERTEX
  8
SURVBND
 10
40.005
 20
95.945
 30
0.0
  0
VERTEX
  8
SURVBND
 10
40.01
 20
95.938
 30
0.0
  0
VERTEX
  8
SURVBND
 10
39.995
 20
95.927
 30
0.0
  0
VERTEX
  8
SURVBND
 10
39.992
 20
95.924
 30
0.0
  0
VERTEX
  8
SURVBND
 10
39.983
 20
95.918
 30
0.0
  0
VERTEX
  8
SURVBND
 10
39.965
 20
95.911
 30
0.0
  0
VERTEX
  8
SURVBND
 10
39.965
 20
95.91
 30
0.0
  0
VERTEX
  8
SURVBND
 10
39.96
 20
95.907
 30
0.0
  0
VERTEX
  8
SURVBND
 10
39.955
 20
95.901
 30
0.0
  0
VERTEX
  8
SURVBND
 10
39.951
 20
95.898
 30
0.0
  0
VERTEX
  8
SURVBND
 10
39.993
 20
95.882
 30
0.0
  0
VERTEX
  8
SURVBND
 10
40.019
 20
95.884
 30
0.0
  0
VERTEX
  8
SURVBND
 10
40.032
 20
95.88
 30
0.0
  0
VERTEX
  8
SURVBND
 10
40.042
 20
95.867
 30
0.0
  0
VERTEX
  8
SURVBND
 10
40.053
 20
95.859
 30
0.0
  0
VERTEX
  8
SURVBND
 10
40.059
 20
95.851
 30
0.0
  0
VERTEX
  8
SURVBND
 10
40.058
 20
95.841
 30
0.0
  0
VERTEX
  8
SURVBND
 10
40.053
 20
95.827
 30
0.0
  0
VERTEX
  8
SURVBND
 10
40.053
 20
95.807
 30
0.0
  0
VERTEX
  8
SURVBND
 10
40.033
 20
95.811
 30
0.0
  0
VERTEX
  8
SURVBND
 10
40.03
 20
95.804
 30
0.0
  0
VERTEX
  8
SURVBND
 10
40.014
 20
95.792
 30
0.0
  0
VERTEX
  8
SURVBND
 10
40.011
 20
95.78
 30
0.0
  0
VERTEX
  8
SURVBND
 10
40.009
 20
95.772
 30
0.0
  0
VERTEX
  8
SURVBND
 10
40.0
 20
95.768
 30
0.0
  0
VERTEX
  8
SURVBND
 10
39.991
 20
95.77
 30
0.0
  0
VERTEX
  8
SURVBND
 10
39.989
 20
95.772
 30
0.0
  0
VERTEX
  8
SURVBND
 10
39.988
 20
95.775
 30
0.0
  0
VERTEX
  8
SURVBND
 10
39.986
 20
95.783
 30
0.0
  0
VERTEX
  8
SURVBND
 10
39.982
 20
95.788
 30
0.0
  0
VERTEX
  8
SURVBND
 10
39.977
 20
95.793
 30
0.0
  0
VERTEX
  8
SURVBND
 10
39.97
 20
95.799
 30
0.0
  0
VERTEX
  8
SURVBND
 10
39.965
 20
95.802
 30
0.0
  0
VERTEX
  8
SURVBND
 10
39.96
 20
95.804
 30
0.0
  0
VERTEX
  8
SURVBND
 10
39.949
 20
95.801
 30
0.0
  0
VERTEX
  8
SURVBND
 10
39.938
 20
95.786
 30
0.0
  0
VERTEX
  8
SURVBND
 10
39.932
 20
95.773
 30
0.0
  0
VERTEX
  8
SURVBND
 10
39.926
 20
95.764
 30
0.0
  0
VERTEX
  8
SURVBND
 10
39.913
 20
95.755
 30
0.0
  0
VERTEX
  8
SURVBND
 10
39.901
 20
95.748
 30
0.0
  0
VERTEX
  8
SURVBND
 10
39.9
 20
95.74
 30
0.0
  0
VERTEX
  8
SURVBND
 10
39.904
 20
95.725
 30
0.0
  0
VERTEX
  8
SURVBND
 10
39.905
 20
95.715
 30
0.0
  0
VERTEX
  8
SURVBND
 10
39.905
 20
95.707
 30
0.0
  0
VERTEX
  8
SURVBND
 10
39.902
 20
95.698
 30
0.0
  0
VERTEX
  8
SURVBND
 10
39.886
 20
95.686
 30
0.0
  0
VERTEX
  8
SURVBND
 10
39.884
 20
95.683
 30
0.0
  0
VERTEX
  8
SURVBND
 10
39.89
 20
95.676
 30
0.0
  0
VERTEX
  8
SURVBND
 10
39.894
 20
95.676
 30
0.0
  0
VERTEX
  8
SURVBND
 10
39.9
 20
95.675
 30
0.0
  0
VERTEX
  8
SURVBND
 10
39.905
 20
95.672
 30
0.0
  0
VERTEX
  8
SURVBND
 10
39.909
 20
95.665
 30
0.0
  0
VERTEX
  8
SURVBND
 10
39.909
 20
95.659
 30
0.0
  0
VERTEX
  8
SURVBND
 10
39.908
 20
95.65
 30
0.0
  0
VERTEX
  8
SURVBND
 10
39.905
 20
95.641
 30
0.0
  0
VERTEX
  8
SURVBND
 10
39.904
 20
95.64
 30
0.0
  0
VERTEX
  8
SURVBND
 10
39.884
 20
95.64
 30
0.0
  0
VERTEX
  8
SURVBND
 10
39.875
 20
95.633
 30
0.0
  0
VERTEX
  8
SURVBND
 10
39.877
 20
95.618
 30
0.0
  0
VERTEX
  8
SURVBND
 10
39.888
 20
95.61
 30
0.0
  0
VERTEX
  8
SURVBND
 10
39.905
 20
95.603
 30
0.0
  0
VERTEX
  8
SURVBND
 10
39.896
 20
95.591
 30
0.0
  0
VERTEX
  8
SURVBND
 10
39.882
 20
95.583
 30
0.0
  0
VERTEX
  8
SURVBND
 10
39.875
 20
95.578
 30
0.0
  0
VERTEX
  8
SURVBND
 10
39.872
 20
95.571
 30
0.0
  0
VERTEX
  8
SURVBND
 10
39.869
 20
95.558
 30
0.0
  0
VERTEX
  8
SURVBND
 10
39.865
 20
95.549
 30
0.0
  0
VERTEX
  8
SURVBND
 10
39.863
 20
95.541
 30
0.0
  0
VERTEX
  8
SURVBND
 10
39.859
 20
95.532
 30
0.0
  0
VERTEX
  8
SURVBND
 10
39.85
 20
95.517
 30
0.0
  0
VERTEX
  8
SURVBND
 10
39.852
 20
95.511
 30
0.0
  0
VERTEX
  8
SURVBND
 10
39.861
 20
95.503
 30
0.0
  0
VERTEX
  8
SURVBND
 10
39.861
 20
95.491
 30
0.0
  0
VERTEX
  8
SURVBND
 10
39.851
 20
95.478
 30
0.0
  0
VERTEX
  8
SURVBND
 10
39.841
 20
95.468
 30
0.0
  0
VERTEX
  8
SURVBND
 10
39.837
 20
95.465
 30
0.0
  0
VERTEX
  8
SURVBND
 10
39.829
 20
95.459
 30
0.0
  0
VERTEX
  8
SURVBND
 10
39.823
 20
95.454
 30
0.0
  0
VERTEX
  8
SURVBND
 10
39.803
 20
95.444
 30
0.0
  0
VERTEX
  8
SURVBND
 10
39.794
 20
95.435
 30
0.0
  0
VERTEX
  8
SURVBND
 10
39.787
 20
95.423
 30
0.0
  0
VERTEX
  8
SURVBND
 10
39.781
 20
95.412
 30
0.0
  0
VERTEX
  8
SURVBND
 10
39.773
 20
95.4
 30
0.0
  0
VERTEX
  8
SURVBND
 10
39.767
 20
95.389
 30
0.0
  0
VERTEX
  8
SURVBND
 10
39.766
 20
95.383
 30
0.0
  0
VERTEX
  8
SURVBND
 10
39.76
 20
95.372
 30
0.0
  0
VERTEX
  8
SURVBND
 10
39.755
 20
95.355
 30
0.0
  0
VERTEX
  8
SURVBND
 10
39.746
 20
95.344
 30
0.0
  0
VERTEX
  8
SURVBND
 10
39.741
 20
95.333
 30
0.0
  0
VERTEX
  8
SURVBND
 10
39.74
 20
95.324
 30
0.0
  0
VERTEX
  8
SURVBND
 10
39.742
 20
95.315
 30
0.0
  0
VERTEX
  8
SURVBND
 10
39.746
 20
95.309
 30
0.0
  0
VERTEX
  8
SURVBND
 10
39.751
 20
95.3
 30
0.0
  0
VERTEX
  8
SURVBND
 10
39.747
 20
95.291
 30
0.0
  0
VERTEX
  8
SURVBND
 10
39.741
 20
95.287
 30
0.0
  0
VERTEX
  8
SURVBND
 10
39.728
 20
95.288
 30
0.0
  0
VERTEX
  8
SURVBND
 10
39.73
 20
95.277
 30
0.0
  0
VERTEX
  8
SURVBND
 10
39.736
 20
95.269
 30
0.0
  0
VERTEX
  8
SURVBND
 10
39.715
 20
95.256
 30
0.0
  0
VERTEX
  8
SURVBND
 10
39.713
 20
95.248
 30
0.0
  0
VERTEX
  8
SURVBND
 10
39.71
 20
95.242
 30
0.0
  0
VERTEX
  8
SURVBND
 10
39.698
 20
95.233
 30
0.0
  0
VERTEX
  8
SURVBND
 10
39.692
 20
95.225
 30
0.0
  0
VERTEX
  8
SURVBND
 10
39.696
 20
95.216
 30
0.0
  0
VERTEX
  8
SURVBND
 10
39.707
 20
95.208
 30
0.0
  0
VERTEX
  8
SURVBND
 10
39.709
 20
95.201
 30
0.0
  0
VERTEX
  8
SURVBND
 10
39.686
 20
95.189
 30
0.0
  0
VERTEX
  8
SURVBND
 10
39.661
 20
95.183
 30
0.0
  0
VERTEX
  8
SURVBND
 10
39.655
 20
95.166
 30
0.0
  0
VERTEX
  8
SURVBND
 10
39.658
 20
95.161
 30
0.0
  0
VERTEX
  8
SURVBND
 10
39.666
 20
95.154
 30
0.0
  0
VERTEX
  8
SURVBND
 10
39.679
 20
95.146
 30
0.0
  0
VERTEX
  8
SURVBND
 10
39.679
 20
95.14
 30
0.0
  0
VERTEX
  8
SURVBND
 10
39.671
 20
95.137
 30
0.0
  0
VERTEX
  8
SURVBND
 10
39.655
 20
95.137
 30
0.0
  0
VERTEX
  8
SURVBND
 10
39.648
 20
95.134
 30
0.0
  0
VERTEX
  8
SURVBND
 10
39.646
 20
95.124
 30
0.0
  0
VERTEX
  8
SURVBND
 10
39.648
 20
95.113
 30
0.0
  0
VERTEX
  8
SURVBND
 10
39.642
 20
95.101
 30
0.0
  0
VERTEX
  8
SURVBND
 10
39.633
 20
95.086
 30
0.0
  0
VERTEX
  8
SURVBND
 10
39.63
 20
95.075
 30
0.0
  0
VERTEX
  8
SURVBND
 10
39.629
 20
95.067
 30
0.0
  0
VERTEX
  8
SURVBND
 10
39.632
 20
95.065
 30
0.0
  0
VERTEX
  8
SURVBND
 10
39.639
 20
95.053
 30
0.0
  0
VERTEX
  8
SURVBND
 10
39.631
 20
95.05
 30
0.0
  0
VERTEX
  8
SURVBND
 10
39.617
 20
95.048
 30
0.0
  0
VERTEX
  8
SURVBND
 10
39.609
 20
95.044
 30
0.0
  0
VERTEX
  8
SURVBND
 10
39.59
 20
95.042
 30
0.0
  0
VERTEX
  8
SURVBND
 10
39.586
 20
95.047
 30
0.0
  0
VERTEX
  8
SURVBND
 10
39.583
 20
95.044
 30
0.0
  0
VERTEX
  8
SURVBND
 10
39.578
 20
95.039
 30
0.0
  0
VERTEX
  8
SURVBND
 10
39.55
 20
95.017
 30
0.0
  0
VERTEX
  8
SURVBND
 10
39.557
 20
95.003
 30
0.0
  0
VERTEX
  8
SURVBND
 10
39.557
 20
94.994
 30
0.0
  0
VERTEX
  8
SURVBND
 10
39.542
 20
94.991
 30
0.0
  0
VERTEX
  8
SURVBND
 10
39.539
 20
94.988
 30
0.0
  0
VERTEX
  8
SURVBND
 10
39.541
 20
94.974
 30
0.0
  0
VERTEX
  8
SURVBND
 10
39.537
 20
94.968
 30
0.0
  0
VERTEX
  8
SURVBND
 10
39.525
 20
94.957
 30
0.0
  0
VERTEX
  8
SURVBND
 10
39.519
 20
94.941
 30
0.0
  0
VERTEX
  8
SURVBND
 10
39.516
 20
94.937
 30
0.0
  0
VERTEX
  8
SURVBND
 10
39.516
 20
94.929
 30
0.0
  0
VERTEX
  8
SURVBND
 10
39.512
 20
94.919
 30
0.0
  0
VERTEX
  8
SURVBND
 10
39.513
 20
94.918
 30
0.0
  0
VERTEX
  8
SURVBND
 10
39.517
 20
94.913
 30
0.0
  0
VERTEX
  8
SURVBND
 10
39.468
 20
94.908
 30
0.0
  0
VERTEX
  8
SURVBND
 10
39.454
 20
94.878
 30
0.0
  0
VERTEX
  8
SURVBND
 10
39.454
 20
94.856
 30
0.0
  0
VERTEX
  8
SURVBND
 10
39.468
 20
94.848
 30
0.0
  0
VERTEX
  8
SURVBND
 10
39.468
 20
94.841
 30
0.0
  0
VERTEX
  8
SURVBND
 10
39.461
 20
94.833
 30
0.0
  0
VERTEX
  8
SURVBND
 10
39.446
 20
94.818
 30
0.0
  0
VERTEX
  8
SURVBND
 10
39.446
 20
94.811
 30
0.0
  0
VERTEX
  8
SURVBND
 10
39.424
 20
94.796
 30
0.0
  0
VERTEX
  8
SURVBND
 10
39.424
 20
94.789
 30
0.0
  0
VERTEX
  8
SURVBND
 10
39.431
 20
94.781
 30
0.0
  0
VERTEX
  8
SURVBND
 10
39.439
 20
94.774
 30
0.0
  0
VERTEX
  8
SURVBND
 10
39.424
 20
94.759
 30
0.0
  0
VERTEX
  8
SURVBND
 10
39.416
 20
94.751
 30
0.0
  0
VERTEX
  8
SURVBND
 10
39.409
 20
94.736
 30
0.0
  0
VERTEX
  8
SURVBND
 10
39.386
 20
94.722
 30
0.0
  0
VERTEX
  8
SURVBND
 10
39.379
 20
94.692
 30
0.0
  0
VERTEX
  8
SURVBND
 10
39.379
 20
94.654
 30
0.0
  0
VERTEX
  8
SURVBND
 10
39.379
 20
94.64
 30
0.0
  0
VERTEX
  8
SURVBND
 10
39.379
 20
94.625
 30
0.0
  0
VERTEX
  8
SURVBND
 10
39.364
 20
94.61
 30
0.0
  0
VERTEX
  8
SURVBND
 10
39.349
 20
94.595
 30
0.0
  0
VERTEX
  8
SURVBND
 10
39.334
 20
94.572
 30
0.0
  0
VERTEX
  8
SURVBND
 10
39.327
 20
94.558
 30
0.0
  0
VERTEX
  8
SURVBND
 10
39.319
 20
94.543
 30
0.0
  0
VERTEX
  8
SURVBND
 10
39.327
 20
94.52
 30
0.0
  0
VERTEX
  8
SURVBND
 10
39.334
 20
94.513
 30
0.0
  0
VERTEX
  8
SURVBND
 10
39.327
 20
94.49
 30
0.0
  0
VERTEX
  8
SURVBND
 10
39.319
 20
94.483
 30
0.0
  0
VERTEX
  8
SURVBND
 10
39.319
 20
94.483
 30
0.0
  0
VERTEX
  8
SURVBND
 10
39.304
 20
94.476
 30
0.0
  0
VERTEX
  8
SURVBND
 10
39.297
 20
94.476
 30
0.0
  0
VERTEX
  8
SURVBND
 10
39.29
 20
94.476
 30
0.0
  0
VERTEX
  8
SURVBND
 10
39.29
 20
94.483
 30
0.0
  0
VERTEX
  8
SURVBND
 10
39.282
 20
94.483
 30
0.0
  0
VERTEX
  8
SURVBND
 10
39.275
 20
94.476
 30
0.0
  0
VERTEX
  8
SURVBND
 10
39.267
 20
94.468
 30
0.0
  0
VERTEX
  8
SURVBND
 10
39.267
 20
94.461
 30
0.0
  0
VERTEX
  8
SURVBND
 10
39.267
 20
94.453
 30
0.0
  0
VERTEX
  8
SURVBND
 10
39.275
 20
94.446
 30
0.0
  0
VERTEX
  8
SURVBND
 10
39.282
 20
94.438
 30
0.0
  0
VERTEX
  8
SURVBND
 10
39.29
 20
94.438
 30
0.0
  0
VERTEX
  8
SURVBND
 10
39.282
 20
94.423
 30
0.0
  0
VERTEX
  8
SURVBND
 10
39.267
 20
94.423
 30
0.0
  0
VERTEX
  8
SURVBND
 10
39.26
 20
94.416
 30
0.0
  0
VERTEX
  8
SURVBND
 10
39.252
 20
94.408
 30
0.0
  0
VERTEX
  8
SURVBND
 10
39.252
 20
94.408
 30
0.0
  0
VERTEX
  8
SURVBND
 10
39.252
 20
94.401
 30
0.0
  0
VERTEX
  8
SURVBND
 10
39.252
 20
94.394
 30
0.0
  0
VERTEX
  8
SURVBND
 10
39.252
 20
94.386
 30
0.0
  0
VERTEX
  8
SURVBND
 10
39.237
 20
94.371
 30
0.0
  0
VERTEX
  8
SURVBND
 10
39.23
 20
94.364
 30
0.0
  0
VERTEX
  8
SURVBND
 10
39.23
 20
94.349
 30
0.0
  0
VERTEX
  8
SURVBND
 10
39.23
 20
94.341
 30
0.0
  0
VERTEX
  8
SURVBND
 10
39.222
 20
94.334
 30
0.0
  0
VERTEX
  8
SURVBND
 10
39.222
 20
94.326
 30
0.0
  0
VERTEX
  8
SURVBND
 10
39.23
 20
94.326
 30
0.0
  0
VERTEX
  8
SURVBND
 10
39.237
 20
94.319
 30
0.0
  0
VERTEX
  8
SURVBND
 10
39.23
 20
94.312
 30
0.0
  0
VERTEX
  8
SURVBND
 10
39.23
 20
94.304
 30
0.0
  0
VERTEX
  8
SURVBND
 10
39.222
 20
94.304
 30
0.0
  0
VERTEX
  8
SURVBND
 10
39.215
 20
94.297
 30
0.0
  0
VERTEX
  8
SURVBND
 10
39.208
 20
94.289
 30
0.0
  0
VERTEX
  8
SURVBND
 10
39.208
 20
94.282
 30
0.0
  0
VERTEX
  8
SURVBND
 10
39.208
 20
94.282
 30
0.0
  0
VERTEX
  8
SURVBND
 10
39.185
 20
94.274
 30
0.0
  0
VERTEX
  8
SURVBND
 10
39.185
 20
94.267
 30
0.0
  0
VERTEX
  8
SURVBND
 10
39.178
 20
94.259
 30
0.0
  0
VERTEX
  8
SURVBND
 10
39.17
 20
94.252
 30
0.0
  0
VERTEX
  8
SURVBND
 10
39.178
 20
94.252
 30
0.0
  0
VERTEX
  8
SURVBND
 10
39.178
 20
94.252
 30
0.0
  0
VERTEX
  8
SURVBND
 10
39.185
 20
94.244
 30
0.0
  0
VERTEX
  8
SURVBND
 10
39.185
 20
94.237
 30
0.0
  0
VERTEX
  8
SURVBND
 10
39.178
 20
94.23
 30
0.0
  0
VERTEX
  8
SURVBND
 10
39.17
 20
94.222
 30
0.0
  0
VERTEX
  8
SURVBND
 10
39.155
 20
94.215
 30
0.0
  0
VERTEX
  8
SURVBND
 10
39.155
 20
94.215
 30
0.0
  0
VERTEX
  8
SURVBND
 10
39.14
 20
94.207
 30
0.0
  0
VERTEX
  8
SURVBND
 10
39.14
 20
94.207
 30
0.0
  0
VERTEX
  8
SURVBND
 10
39.14
 20
94.207
 30
0.0
  0
VERTEX
  8
SURVBND
 10
39.14
 20
94.2
 30
0.0
  0
VERTEX
  8
SURVBND
 10
39.118
 20
94.148
 30
0.0
  0
VERTEX
  8
SURVBND
 10
39.103
 20
94.133
 30
0.0
  0
VERTEX
  8
SURVBND
 10
39.103
 20
94.133
 30
0.0
  0
VERTEX
  8
SURVBND
 10
39.081
 20
94.125
 30
0.0
  0
VERTEX
  8
SURVBND
 10
39.073
 20
94.125
 30
0.0
  0
VERTEX
  8
SURVBND
 10
39.058
 20
94.125
 30
0.0
  0
VERTEX
  8
SURVBND
 10
39.051
 20
94.118
 30
0.0
  0
VERTEX
  8
SURVBND
 10
39.051
 20
94.11
 30
0.0
  0
VERTEX
  8
SURVBND
 10
39.051
 20
94.103
 30
0.0
  0
VERTEX
  8
SURVBND
 10
39.066
 20
94.103
 30
0.0
  0
VERTEX
  8
SURVBND
 10
39.073
 20
94.095
 30
0.0
  0
VERTEX
  8
SURVBND
 10
39.058
 20
94.088
 30
0.0
  0
VERTEX
  8
SURVBND
 10
39.051
 20
94.073
 30
0.0
  0
VERTEX
  8
SURVBND
 10
39.036
 20
94.058
 30
0.0
  0
VERTEX
  8
SURVBND
 10
39.014
 20
94.051
 30
0.0
  0
VERTEX
  8
SURVBND
 10
38.984
 20
94.043
 30
0.0
  0
VERTEX
  8
SURVBND
 10
38.984
 20
94.028
 30
0.0
  0
VERTEX
  8
SURVBND
 10
38.976
 20
93.998
 30
0.0
  0
VERTEX
  8
SURVBND
 10
38.961
 20
93.969
 30
0.0
  0
VERTEX
  8
SURVBND
 10
38.969
 20
93.961
 30
0.0
  0
VERTEX
  8
SURVBND
 10
38.976
 20
93.954
 30
0.0
  0
VERTEX
  8
SURVBND
 10
38.984
 20
93.946
 30
0.0
  0
VERTEX
  8
SURVBND
 10
38.991
 20
93.946
 30
0.0
  0
VERTEX
  8
SURVBND
 10
39.006
 20
93.939
 30
0.0
  0
VERTEX
  8
SURVBND
 10
38.991
 20
93.931
 30
0.0
  0
VERTEX
  8
SURVBND
 10
38.984
 20
93.931
 30
0.0
  0
VERTEX
  8
SURVBND
 10
38.961
 20
93.924
 30
0.0
  0
VERTEX
  8
SURVBND
 10
38.961
 20
93.924
 30
0.0
  0
VERTEX
  8
SURVBND
 10
38.961
 20
93.916
 30
0.0
  0
VERTEX
  8
SURVBND
 10
38.961
 20
93.909
 30
0.0
  0
VERTEX
  8
SURVBND
 10
38.961
 20
93.901
 30
0.0
  0
VERTEX
  8
SURVBND
 10
38.947
 20
93.887
 30
0.0
  0
VERTEX
  8
SURVBND
 10
38.932
 20
93.879
 30
0.0
  0
VERTEX
  8
SURVBND
 10
38.894
 20
93.872
 30
0.0
  0
VERTEX
  8
SURVBND
 10
38.894
 20
93.857
 30
0.0
  0
VERTEX
  8
SURVBND
 10
38.879
 20
93.842
 30
0.0
  0
VERTEX
  8
SURVBND
 10
38.865
 20
93.819
 30
0.0
  0
VERTEX
  8
SURVBND
 10
38.865
 20
93.79
 30
0.0
  0
VERTEX
  8
SURVBND
 10
38.857
 20
93.767
 30
0.0
  0
VERTEX
  8
SURVBND
 10
38.835
 20
93.752
 30
0.0
  0
VERTEX
  8
SURVBND
 10
38.827
 20
93.745
 30
0.0
  0
VERTEX
  8
SURVBND
 10
38.805
 20
93.745
 30
0.0
  0
VERTEX
  8
SURVBND
 10
38.797
 20
93.745
 30
0.0
  0
VERTEX
  8
SURVBND
 10
38.797
 20
93.737
 30
0.0
  0
VERTEX
  8
SURVBND
 10
38.797
 20
93.73
 30
0.0
  0
VERTEX
  8
SURVBND
 10
38.79
 20
93.723
 30
0.0
  0
VERTEX
  8
SURVBND
 10
38.783
 20
93.723
 30
0.0
  0
VERTEX
  8
SURVBND
 10
38.775
 20
93.708
 30
0.0
  0
VERTEX
  8
SURVBND
 10
38.768
 20
93.7
 30
0.0
  0
VERTEX
  8
SURVBND
 10
38.738
 20
93.693
 30
0.0
  0
VERTEX
  8
SURVBND
 10
38.745
 20
93.685
 30
0.0
  0
VERTEX
  8
SURVBND
 10
38.738
 20
93.67
 30
0.0
  0
VERTEX
  8
SURVBND
 10
38.708
 20
93.663
 30
0.0
  0
VERTEX
  8
SURVBND
 10
38.708
 20
93.655
 30
0.0
  0
VERTEX
  8
SURVBND
 10
38.715
 20
93.641
 30
0.0
  0
VERTEX
  8
SURVBND
 10
38.701
 20
93.633
 30
0.0
  0
VERTEX
  8
SURVBND
 10
38.663
 20
93.618
 30
0.0
  0
VERTEX
  8
SURVBND
 10
38.671
 20
93.603
 30
0.0
  0
VERTEX
  8
SURVBND
 10
38.671
 20
93.588
 30
0.0
  0
VERTEX
  8
SURVBND
 10
38.641
 20
93.573
 30
0.0
  0
VERTEX
  8
SURVBND
 10
38.641
 20
93.559
 30
0.0
  0
VERTEX
  8
SURVBND
 10
38.648
 20
93.544
 30
0.0
  0
VERTEX
  8
SURVBND
 10
38.619
 20
93.544
 30
0.0
  0
VERTEX
  8
SURVBND
 10
38.611
 20
93.544
 30
0.0
  0
VERTEX
  8
SURVBND
 10
38.589
 20
93.529
 30
0.0
  0
VERTEX
  8
SURVBND
 10
38.581
 20
93.521
 30
0.0
  0
VERTEX
  8
SURVBND
 10
38.581
 20
93.514
 30
0.0
  0
VERTEX
  8
SURVBND
 10
38.559
 20
93.506
 30
0.0
  0
VERTEX
  8
SURVBND
 10
38.559
 20
93.499
 30
0.0
  0
VERTEX
  8
SURVBND
 10
38.551
 20
93.447
 30
0.0
  0
VERTEX
  8
SURVBND
 10
38.537
 20
93.439
 30
0.0
  0
VERTEX
  8
SURVBND
 10
38.522
 20
93.439
 30
0.0
  0
VERTEX
  8
SURVBND
 10
38.484
 20
93.432
 30
0.0
  0
VERTEX
  8
SURVBND
 10
38.477
 20
93.432
 30
0.0
  0
VERTEX
  8
SURVBND
 10
38.462
 20
93.417
 30
0.0
  0
VERTEX
  8
SURVBND
 10
38.447
 20
93.402
 30
0.0
  0
VERTEX
  8
SURVBND
 10
38.44
 20
93.402
 30
0.0
  0
VERTEX
  8
SURVBND
 10
38.395
 20
93.395
 30
0.0
  0
VERTEX
  8
SURVBND
 10
38.38
 20
93.395
 30
0.0
  0
VERTEX
  8
SURVBND
 10
38.38
 20
93.387
 30
0.0
  0
VERTEX
  8
SURVBND
 10
38.365
 20
93.38
 30
0.0
  0
VERTEX
  8
SURVBND
 10
38.328
 20
93.372
 30
0.0
  0
VERTEX
  8
SURVBND
 10
38.32
 20
93.38
 30
0.0
  0
VERTEX
  8
SURVBND
 10
38.313
 20
93.387
 30
0.0
  0
VERTEX
  8
SURVBND
 10
38.29
 20
93.38
 30
0.0
  0
VERTEX
  8
SURVBND
 10
38.283
 20
93.38
 30
0.0
  0
VERTEX
  8
SURVBND
 10
38.268
 20
93.38
 30
0.0
  0
VERTEX
  8
SURVBND
 10
38.268
 20
93.357
 30
0.0
  0
VERTEX
  8
SURVBND
 10
38.246
 20
93.335
 30
0.0
  0
VERTEX
  8
SURVBND
 10
38.223
 20
93.327
 30
0.0
  0
VERTEX
  8
SURVBND
 10
38.208
 20
93.32
 30
0.0
  0
VERTEX
  8
SURVBND
 10
38.194
 20
93.313
 30
0.0
  0
VERTEX
  8
SURVBND
 10
38.194
 20
93.29
 30
0.0
  0
VERTEX
  8
SURVBND
 10
38.171
 20
93.268
 30
0.0
  0
VERTEX
  8
SURVBND
 10
38.179
 20
93.245
 30
0.0
  0
VERTEX
  8
SURVBND
 10
38.171
 20
93.223
 30
0.0
  0
VERTEX
  8
SURVBND
 10
38.149
 20
93.208
 30
0.0
  0
VERTEX
  8
SURVBND
 10
38.126
 20
93.193
 30
0.0
  0
VERTEX
  8
SURVBND
 10
38.119
 20
93.178
 30
0.0
  0
VERTEX
  8
SURVBND
 10
38.119
 20
93.156
 30
0.0
  0
VERTEX
  8
SURVBND
 10
38.082
 20
93.134
 30
0.0
  0
VERTEX
  8
SURVBND
 10
38.067
 20
93.119
 30
0.0
  0
VERTEX
  8
SURVBND
 10
38.037
 20
93.119
 30
0.0
  0
VERTEX
  8
SURVBND
 10
38.015
 20
93.119
 30
0.0
  0
VERTEX
  8
SURVBND
 10
37.985
 20
93.096
 30
0.0
  0
VERTEX
  8
SURVBND
 10
37.962
 20
93.089
 30
0.0
  0
VERTEX
  8
SURVBND
 10
37.955
 20
93.089
 30
0.0
  0
VERTEX
  8
SURVBND
 10
37.903
 20
93.081
 30
0.0
  0
VERTEX
  8
SURVBND
 10
37.888
 20
93.074
 30
0.0
  0
VERTEX
  8
SURVBND
 10
37.873
 20
93.067
 30
0.0
  0
VERTEX
  8
SURVBND
 10
37.851
 20
93.059
 30
0.0
  0
VERTEX
  8
SURVBND
 10
37.821
 20
93.059
 30
0.0
  0
VERTEX
  8
SURVBND
 10
37.784
 20
93.067
 30
0.0
  0
VERTEX
  8
SURVBND
 10
37.776
 20
93.067
 30
0.0
  0
VERTEX
  8
SURVBND
 10
37.746
 20
93.052
 30
0.0
  0
VERTEX
  8
SURVBND
 10
37.739
 20
93.052
 30
0.0
  0
VERTEX
  8
SURVBND
 10
37.731
 20
93.037
 30
0.0
  0
VERTEX
  8
SURVBND
 10
37.716
 20
93.029
 30
0.0
  0
VERTEX
  8
SURVBND
 10
37.694
 20
93.022
 30
0.0
  0
VERTEX
  8
SURVBND
 10
37.679
 20
93.022
 30
0.0
  0
VERTEX
  8
SURVBND
 10
37.672
 20
93.029
 30
0.0
  0
VERTEX
  8
SURVBND
 10
37.649
 20
93.037
 30
0.0
  0
VERTEX
  8
SURVBND
 10
37.634
 20
93.044
 30
0.0
  0
VERTEX
  8
SURVBND
 10
37.627
 20
93.052
 30
0.0
  0
VERTEX
  8
SURVBND
 10
37.627
 20
93.052
 30
0.0
  0
VERTEX
  8
SURVBND
 10
37.612
 20
93.037
 30
0.0
  0
VERTEX
  8
SURVBND
 10
37.575
 20
93.044
 30
0.0
  0
VERTEX
  8
SURVBND
 10
37.552
 20
93.044
 30
0.0
  0
VERTEX
  8
SURVBND
 10
37.523
 20
93.044
 30
0.0
  0
VERTEX
  8
SURVBND
 10
37.498
 20
93.019
 30
0.0
  0
VERTEX
  8
SURVBND
 10
37.497
 20
93.02
 30
0.0
  0
VERTEX
  8
SURVBND
 10
37.491
 20
93.023
 30
0.0
  0
VERTEX
  8
SURVBND
 10
37.485
 20
93.029
 30
0.0
  0
VERTEX
  8
SURVBND
 10
37.48
 20
93.033
 30
0.0
  0
VERTEX
  8
SURVBND
 10
37.47
 20
93.038
 30
0.0
  0
VERTEX
  8
SURVBND
 10
37.463
 20
93.045
 30
0.0
  0
VERTEX
  8
SURVBND
 10
37.455
 20
93.053
 30
0.0
  0
VERTEX
  8
SURVBND
 10
37.451
 20
93.063
 30
0.0
  0
VERTEX
  8
SURVBND
 10
37.449
 20
93.07
 30
0.0
  0
VERTEX
  8
SURVBND
 10
37.445
 20
93.075
 30
0.0
  0
VERTEX
  8
SURVBND
 10
37.439
 20
93.08
 30
0.0
  0
VERTEX
  8
SURVBND
 10
37.43
 20
93.086
 30
0.0
  0
VERTEX
  8
SURVBND
 10
37.428
 20
93.089
 30
0.0
  0
VERTEX
  8
SURVBND
 10
37.414
 20
93.087
 30
0.0
  0
VERTEX
  8
SURVBND
 10
37.407
 20
93.069
 30
0.0
  0
VERTEX
  8
SURVBND
 10
37.392
 20
93.067
 30
0.0
  0
VERTEX
  8
SURVBND
 10
37.374
 20
93.074
 30
0.0
  0
VERTEX
  8
SURVBND
 10
37.366
 20
93.077
 30
0.0
  0
VERTEX
  8
SURVBND
 10
37.349
 20
93.087
 30
0.0
  0
VERTEX
  8
SURVBND
 10
37.332
 20
93.093
 30
0.0
  0
VERTEX
  8
SURVBND
 10
37.316
 20
93.093
 30
0.0
  0
VERTEX
  8
SURVBND
 10
37.299
 20
93.095
 30
0.0
  0
VERTEX
  8
SURVBND
 10
37.281
 20
93.1
 30
0.0
  0
VERTEX
  8
SURVBND
 10
37.282
 20
93.105
 30
0.0
  0
VERTEX
  8
SURVBND
 10
37.274
 20
93.114
 30
0.0
  0
VERTEX
  8
SURVBND
 10
37.261
 20
93.103
 30
0.0
  0
VERTEX
  8
SURVBND
 10
37.243
 20
93.107
 30
0.0
  0
VERTEX
  8
SURVBND
 10
37.24
 20
93.117
 30
0.0
  0
VERTEX
  8
SURVBND
 10
37.234
 20
93.124
 30
0.0
  0
VERTEX
  8
SURVBND
 10
37.231
 20
93.127
 30
0.0
  0
VERTEX
  8
SURVBND
 10
37.208
 20
93.143
 30
0.0
  0
VERTEX
  8
SURVBND
 10
37.192
 20
93.168
 30
0.0
  0
VERTEX
  8
SURVBND
 10
37.189
 20
93.178
 30
0.0
  0
VERTEX
  8
SURVBND
 10
37.178
 20
93.177
 30
0.0
  0
VERTEX
  8
SURVBND
 10
37.153
 20
93.192
 30
0.0
  0
VERTEX
  8
SURVBND
 10
37.145
 20
93.196
 30
0.0
  0
VERTEX
  8
SURVBND
 10
37.133
 20
93.205
 30
0.0
  0
VERTEX
  8
SURVBND
 10
37.123
 20
93.209
 30
0.0
  0
VERTEX
  8
SURVBND
 10
37.11
 20
93.213
 30
0.0
  0
VERTEX
  8
SURVBND
 10
37.1
 20
93.213
 30
0.0
  0
VERTEX
  8
SURVBND
 10
37.087
 20
93.213
 30
0.0
  0
VERTEX
  8
SURVBND
 10
37.068
 20
93.215
 30
0.0
  0
VERTEX
  8
SURVBND
 10
37.065
 20
93.22
 30
0.0
  0
VERTEX
  8
SURVBND
 10
37.061
 20
93.224
 30
0.0
  0
VERTEX
  8
SURVBND
 10
37.058
 20
93.225
 30
0.0
  0
VERTEX
  8
SURVBND
 10
37.043
 20
93.226
 30
0.0
  0
VERTEX
  8
SURVBND
 10
37.03
 20
93.228
 30
0.0
  0
VERTEX
  8
SURVBND
 10
37.012
 20
93.228
 30
0.0
  0
VERTEX
  8
SURVBND
 10
37.001
 20
93.229
 30
0.0
  0
VERTEX
  8
SURVBND
 10
36.984
 20
93.229
 30
0.0
  0
VERTEX
  8
SURVBND
 10
36.976
 20
93.228
 30
0.0
  0
VERTEX
  8
SURVBND
 10
36.953
 20
93.224
 30
0.0
  0
VERTEX
  8
SURVBND
 10
36.938
 20
93.222
 30
0.0
  0
VERTEX
  8
SURVBND
 10
36.924
 20
93.225
 30
0.0
  0
VERTEX
  8
SURVBND
 10
36.921
 20
93.226
 30
0.0
  0
VERTEX
  8
SURVBND
 10
36.918
 20
93.226
 30
0.0
  0
VERTEX
  8
SURVBND
 10
36.91
 20
93.22
 30
0.0
  0
VERTEX
  8
SURVBND
 10
36.903
 20
93.206
 30
0.0
  0
VERTEX
  8
SURVBND
 10
36.895
 20
93.187
 30
0.0
  0
VERTEX
  8
SURVBND
 10
36.886
 20
93.183
 30
0.0
  0
VERTEX
  8
SURVBND
 10
36.876
 20
93.18
 30
0.0
  0
VERTEX
  8
SURVBND
 10
36.867
 20
93.175
 30
0.0
  0
VERTEX
  8
SURVBND
 10
36.863
 20
93.17
 30
0.0
  0
VERTEX
  8
SURVBND
 10
36.854
 20
93.159
 30
0.0
  0
VERTEX
  8
SURVBND
 10
36.85
 20
93.152
 30
0.0
  0
VERTEX
  8
SURVBND
 10
36.844
 20
93.148
 30
0.0
  0
VERTEX
  8
SURVBND
 10
36.828
 20
93.137
 30
0.0
  0
VERTEX
  8
SURVBND
 10
36.819
 20
93.123
 30
0.0
  0
VERTEX
  8
SURVBND
 10
36.805
 20
93.094
 30
0.0
  0
VERTEX
  8
SURVBND
 10
36.802
 20
93.086
 30
0.0
  0
VERTEX
  8
SURVBND
 10
36.794
 20
93.082
 30
0.0
  0
VERTEX
  8
SURVBND
 10
36.777
 20
93.076
 30
0.0
  0
VERTEX
  8
SURVBND
 10
36.76
 20
93.08
 30
0.0
  0
VERTEX
  8
SURVBND
 10
36.754
 20
93.078
 30
0.0
  0
VERTEX
  8
SURVBND
 10
36.753
 20
93.063
 30
0.0
  0
VERTEX
  8
SURVBND
 10
36.745
 20
93.061
 30
0.0
  0
VERTEX
  8
SURVBND
 10
36.735
 20
93.066
 30
0.0
  0
VERTEX
  8
SURVBND
 10
36.717
 20
93.075
 30
0.0
  0
VERTEX
  8
SURVBND
 10
36.696
 20
93.079
 30
0.0
  0
VERTEX
  8
SURVBND
 10
36.676
 20
93.08
 30
0.0
  0
VERTEX
  8
SURVBND
 10
36.67
 20
93.081
 30
0.0
  0
VERTEX
  8
SURVBND
 10
36.658
 20
93.08
 30
0.0
  0
VERTEX
  8
SURVBND
 10
36.64
 20
93.07
 30
0.0
  0
VERTEX
  8
SURVBND
 10
36.632
 20
93.058
 30
0.0
  0
VERTEX
  8
SURVBND
 10
36.621
 20
93.035
 30
0.0
  0
VERTEX
  8
SURVBND
 10
36.616
 20
93.028
 30
0.0
  0
VERTEX
  8
SURVBND
 10
36.611
 20
93.017
 30
0.0
  0
VERTEX
  8
SURVBND
 10
36.605
 20
93.004
 30
0.0
  0
VERTEX
  8
SURVBND
 10
36.598
 20
92.986
 30
0.0
  0
VERTEX
  8
SURVBND
 10
36.6
 20
92.978
 30
0.0
  0
VERTEX
  8
SURVBND
 10
36.607
 20
92.968
 30
0.0
  0
VERTEX
  8
SURVBND
 10
36.61
 20
92.961
 30
0.0
  0
VERTEX
  8
SURVBND
 10
36.609
 20
92.951
 30
0.0
  0
VERTEX
  8
SURVBND
 10
36.609
 20
92.946
 30
0.0
  0
VERTEX
  8
SURVBND
 10
36.609
 20
92.931
 30
0.0
  0
VERTEX
  8
SURVBND
 10
36.651
 20
92.908
 30
0.0
  0
VERTEX
  8
SURVBND
 10
36.654
 20
92.899
 30
0.0
  0
VERTEX
  8
SURVBND
 10
36.655
 20
92.884
 30
0.0
  0
VERTEX
  8
SURVBND
 10
36.656
 20
92.858
 30
0.0
  0
VERTEX
  8
SURVBND
 10
36.656
 20
92.842
 30
0.0
  0
VERTEX
  8
SURVBND
 10
36.656
 20
92.827
 30
0.0
  0
VERTEX
  8
SURVBND
 10
36.677
 20
92.813
 30
0.0
  0
VERTEX
  8
SURVBND
 10
36.682
 20
92.802
 30
0.0
  0
VERTEX
  8
SURVBND
 10
36.698
 20
92.785
 30
0.0
  0
VERTEX
  8
SURVBND
 10
36.697
 20
92.766
 30
0.0
  0
VERTEX
  8
SURVBND
 10
36.7
 20
92.758
 30
0.0
  0
VERTEX
  8
SURVBND
 10
36.702
 20
92.75
 30
0.0
  0
VERTEX
  8
SURVBND
 10
36.702
 20
92.736
 30
0.0
  0
VERTEX
  8
SURVBND
 10
36.701
 20
92.72
 30
0.0
  0
VERTEX
  8
SURVBND
 10
36.7
 20
92.716
 30
0.0
  0
VERTEX
  8
SURVBND
 10
36.699
 20
92.707
 30
0.0
  0
VERTEX
  8
SURVBND
 10
36.701
 20
92.699
 30
0.0
  0
VERTEX
  8
SURVBND
 10
36.703
 20
92.682
 30
0.0
  0
VERTEX
  8
SURVBND
 10
36.706
 20
92.666
 30
0.0
  0
VERTEX
  8
SURVBND
 10
36.708
 20
92.648
 30
0.0
  0
VERTEX
  8
SURVBND
 10
36.707
 20
92.633
 30
0.0
  0
VERTEX
  8
SURVBND
 10
36.707
 20
92.613
 30
0.0
  0
VERTEX
  8
SURVBND
 10
36.709
 20
92.597
 30
0.0
  0
VERTEX
  8
SURVBND
 10
36.712
 20
92.585
 30
0.0
  0
VERTEX
  8
SURVBND
 10
36.726
 20
92.571
 30
0.0
  0
VERTEX
  8
SURVBND
 10
36.742
 20
92.555
 30
0.0
  0
VERTEX
  8
SURVBND
 10
36.741
 20
92.539
 30
0.0
  0
VERTEX
  8
SURVBND
 10
36.744
 20
92.476
 30
0.0
  0
VERTEX
  8
SURVBND
 10
36.741
 20
92.461
 30
0.0
  0
VERTEX
  8
SURVBND
 10
36.737
 20
92.44
 30
0.0
  0
VERTEX
  8
SURVBND
 10
36.747
 20
92.437
 30
0.0
  0
VERTEX
  8
SURVBND
 10
36.744
 20
92.424
 30
0.0
  0
VERTEX
  8
SURVBND
 10
36.746
 20
92.402
 30
0.0
  0
VERTEX
  8
SURVBND
 10
36.754
 20
92.395
 30
0.0
  0
VERTEX
  8
SURVBND
 10
36.768
 20
92.394
 30
0.0
  0
VERTEX
  8
SURVBND
 10
36.763
 20
92.384
 30
0.0
  0
VERTEX
  8
SURVBND
 10
36.752
 20
92.373
 30
0.0
  0
VERTEX
  8
SURVBND
 10
36.744
 20
92.364
 30
0.0
  0
VERTEX
  8
SURVBND
 10
36.739
 20
92.355
 30
0.0
  0
VERTEX
  8
SURVBND
 10
36.736
 20
92.346
 30
0.0
  0
VERTEX
  8
SURVBND
 10
36.727
 20
92.341
 30
0.0
  0
VERTEX
  8
SURVBND
 10
36.719
 20
92.331
 30
0.0
  0
VERTEX
  8
SURVBND
 10
36.711
 20
92.315
 30
0.0
  0
VERTEX
  8
SURVBND
 10
36.714
 20
92.299
 30
0.0
  0
VERTEX
  8
SURVBND
 10
36.712
 20
92.289
 30
0.0
  0
VERTEX
  8
SURVBND
 10
36.707
 20
92.279
 30
0.0
  0
VERTEX
  8
SURVBND
 10
36.702
 20
92.27
 30
0.0
  0
VERTEX
  8
SURVBND
 10
36.699
 20
92.258
 30
0.0
  0
VERTEX
  8
SURVBND
 10
36.684
 20
92.239
 30
0.0
  0
VERTEX
  8
SURVBND
 10
36.69
 20
92.231
 30
0.0
  0
VERTEX
  8
SURVBND
 10
36.701
 20
92.217
 30
0.0
  0
VERTEX
  8
SURVBND
 10
36.72
 20
92.204
 30
0.0
  0
VERTEX
  8
SURVBND
 10
36.728
 20
92.197
 30
0.0
  0
VERTEX
  8
SURVBND
 10
36.741
 20
92.186
 30
0.0
  0
VERTEX
  8
SURVBND
 10
36.745
 20
92.175
 30
0.0
  0
VERTEX
  8
SURVBND
 10
36.752
 20
92.162
 30
0.0
  0
VERTEX
  8
SURVBND
 10
36.764
 20
92.169
 30
0.0
  0
VERTEX
  8
SURVBND
 10
36.777
 20
92.18
 30
0.0
  0
VERTEX
  8
SURVBND
 10
36.787
 20
92.177
 30
0.0
  0
VERTEX
  8
SURVBND
 10
36.809
 20
92.168
 30
0.0
  0
VERTEX
  8
SURVBND
 10
36.816
 20
92.156
 30
0.0
  0
VERTEX
  8
SURVBND
 10
36.827
 20
92.142
 30
0.0
  0
VERTEX
  8
SURVBND
 10
36.831
 20
92.127
 30
0.0
  0
VERTEX
  8
SURVBND
 10
36.828
 20
92.112
 30
0.0
  0
VERTEX
  8
SURVBND
 10
36.823
 20
92.098
 30
0.0
  0
VERTEX
  8
SURVBND
 10
36.82
 20
92.088
 30
0.0
  0
VERTEX
  8
SURVBND
 10
36.819
 20
92.076
 30
0.0
  0
VERTEX
  8
SURVBND
 10
36.811
 20
92.066
 30
0.0
  0
VERTEX
  8
SURVBND
 10
36.811
 20
92.061
 30
0.0
  0
VERTEX
  8
SURVBND
 10
36.819
 20
92.048
 30
0.0
  0
VERTEX
  8
SURVBND
 10
36.824
 20
92.05
 30
0.0
  0
VERTEX
  8
SURVBND
 10
36.826
 20
92.039
 30
0.0
  0
VERTEX
  8
SURVBND
 10
36.827
 20
92.032
 30
0.0
  0
VERTEX
  8
SURVBND
 10
36.827
 20
92.019
 30
0.0
  0
VERTEX
  8
SURVBND
 10
36.822
 20
92.006
 30
0.0
  0
VERTEX
  8
SURVBND
 10
36.822
 20
92.0
 30
0.0
  0
VERTEX
  8
SURVBND
 10
36.827
 20
91.986
 30
0.0
  0
VERTEX
  8
SURVBND
 10
36.818
 20
91.973
 30
0.0
  0
VERTEX
  8
SURVBND
 10
36.811
 20
91.971
 30
0.0
  0
VERTEX
  8
SURVBND
 10
36.791
 20
91.975
 30
0.0
  0
VERTEX
  8
SURVBND
 10
36.775
 20
91.972
 30
0.0
  0
VERTEX
  8
SURVBND
 10
36.76
 20
91.965
 30
0.0
  0
VERTEX
  8
SURVBND
 10
36.753
 20
91.96
 30
0.0
  0
VERTEX
  8
SURVBND
 10
36.747
 20
91.954
 30
0.0
  0
VERTEX
  8
SURVBND
 10
36.724
 20
91.963
 30
0.0
  0
VERTEX
  8
SURVBND
 10
36.718
 20
91.969
 30
0.0
  0
VERTEX
  8
SURVBND
 10
36.712
 20
91.978
 30
0.0
  0
VERTEX
  8
SURVBND
 10
36.702
 20
91.987
 30
0.0
  0
VERTEX
  8
SURVBND
 10
36.697
 20
91.993
 30
0.0
  0
VERTEX
  8
SURVBND
 10
36.688
 20
92.001
 30
0.0
  0
VERTEX
  8
SURVBND
 10
36.683
 20
92.008
 30
0.0
  0
VERTEX
  8
SURVBND
 10
36.674
 20
92.015
 30
0.0
  0
VERTEX
  8
SURVBND
 10
36.667
 20
92.024
 30
0.0
  0
VERTEX
  8
SURVBND
 10
36.661
 20
92.029
 30
0.0
  0
VERTEX
  8
SURVBND
 10
36.652
 20
92.037
 30
0.0
  0
VERTEX
  8
SURVBND
 10
36.641
 20
92.041
 30
0.0
  0
VERTEX
  8
SURVBND
 10
36.627
 20
92.047
 30
0.0
  0
VERTEX
  8
SURVBND
 10
36.598
 20
92.046
 30
0.0
  0
VERTEX
  8
SURVBND
 10
36.579
 20
92.041
 30
0.0
  0
VERTEX
  8
SURVBND
 10
36.563
 20
92.035
 30
0.0
  0
VERTEX
  8
SURVBND
 10
36.548
 20
92.025
 30
0.0
  0
VERTEX
  8
SURVBND
 10
36.532
 20
92.011
 30
0.0
  0
VERTEX
  8
SURVBND
 10
36.527
 20
92.0
 30
0.0
  0
VERTEX
  8
SURVBND
 10
36.527
 20
91.994
 30
0.0
  0
VERTEX
  8
SURVBND
 10
36.506
 20
91.966
 30
0.0
  0
VERTEX
  8
SURVBND
 10
36.477
 20
91.949
 30
0.0
  0
VERTEX
  8
SURVBND
 10
36.461
 20
91.944
 30
0.0
  0
VERTEX
  8
SURVBND
 10
36.449
 20
91.943
 30
0.0
  0
VERTEX
  8
SURVBND
 10
36.436
 20
91.946
 30
0.0
  0
VERTEX
  8
SURVBND
 10
36.419
 20
91.949
 30
0.0
  0
VERTEX
  8
SURVBND
 10
36.409
 20
91.954
 30
0.0
  0
VERTEX
  8
SURVBND
 10
36.398
 20
91.959
 30
0.0
  0
VERTEX
  8
SURVBND
 10
36.377
 20
91.97
 30
0.0
  0
VERTEX
  8
SURVBND
 10
36.371
 20
91.983
 30
0.0
  0
VERTEX
  8
SURVBND
 10
36.361
 20
91.994
 30
0.0
  0
VERTEX
  8
SURVBND
 10
36.356
 20
91.997
 30
0.0
  0
VERTEX
  8
SURVBND
 10
36.352
 20
92.009
 30
0.0
  0
VERTEX
  8
SURVBND
 10
36.356
 20
92.018
 30
0.0
  0
VERTEX
  8
SURVBND
 10
36.352
 20
92.027
 30
0.0
  0
VERTEX
  8
SURVBND
 10
36.347
 20
92.033
 30
0.0
  0
VERTEX
  8
SURVBND
 10
36.335
 20
92.033
 30
0.0
  0
VERTEX
  8
SURVBND
 10
36.332
 20
92.034
 30
0.0
  0
VERTEX
  8
SURVBND
 10
36.313
 20
92.03
 30
0.0
  0
VERTEX
  8
SURVBND
 10
36.289
 20
92.046
 30
0.0
  0
VERTEX
  8
SURVBND
 10
36.281
 20
92.055
 30
0.0
  0
VERTEX
  8
SURVBND
 10
36.291
 20
92.073
 30
0.0
  0
VERTEX
  8
SURVBND
 10
36.304
 20
92.097
 30
0.0
  0
VERTEX
  8
SURVBND
 10
36.265
 20
92.087
 30
0.0
  0
VERTEX
  8
SURVBND
 10
36.22
 20
92.092
 30
0.0
  0
VERTEX
  8
SURVBND
 10
36.117
 20
91.972
 30
0.0
  0
VERTEX
  8
SURVBND
 10
36.011
 20
91.898
 30
0.0
  0
VERTEX
  8
SURVBND
 10
36.013
 20
91.895
 30
0.0
  0
VERTEX
  8
SURVBND
 10
36.004
 20
91.891
 30
0.0
  0
VERTEX
  8
SURVBND
 10
36.001
 20
91.883
 30
0.0
  0
VERTEX
  8
SURVBND
 10
35.899
 20
91.77
 30
0.0
  0
VERTEX
  8
SURVBND
 10
35.873
 20
91.661
 30
0.0
  0
VERTEX
  8
SURVBND
 10
35.817
 20
91.45
 30
0.0
  0
VERTEX
  8
SURVBND
 10
35.703
 20
91.303
 30
0.0
  0
VERTEX
  8
SURVBND
 10
35.61
 20
91.105
 30
0.0
  0
VERTEX
  8
SURVBND
 10
35.256
 20
91.071
 30
0.0
  0
VERTEX
  8
SURVBND
 10
35.009
 20
91.051
 30
0.0
  0
VERTEX
  8
SURVBND
 10
34.765
 20
91.009
 30
0.0
  0
VERTEX
  8
SURVBND
 10
34.655
 20
90.848
 30
0.0
  0
VERTEX
  8
SURVBND
 10
34.577
 20
90.746
 30
0.0
  0
VERTEX
  8
SURVBND
 10
34.553
 20
90.616
 30
0.0
  0
VERTEX
  8
SURVBND
 10
34.507
 20
90.491
 30
0.0
  0
VERTEX
  8
SURVBND
 10
34.437
 20
90.469
 30
0.0
  0
VERTEX
  8
SURVBND
 10
34.315
 20
90.428
 30
0.0
  0
VERTEX
  8
SURVBND
 10
34.229
 20
90.418
 30
0.0
  0
VERTEX
  8
SURVBND
 10
34.149
 20
90.355
 30
0.0
  0
VERTEX
  8
SURVBND
 10
34.064
 20
90.249
 30
0.0
  0
VERTEX
  8
SURVBND
 10
34.071
 20
90.23
 30
0.0
  0
VERTEX
  8
SURVBND
 10
34.058
 20
90.228
 30
0.0
  0
VERTEX
  8
SURVBND
 10
34.013
 20
90.199
 30
0.0
  0
VERTEX
  8
SURVBND
 10
33.962
 20
90.164
 30
0.0
  0
VERTEX
  8
SURVBND
 10
33.923
 20
90.161
 30
0.0
  0
VERTEX
  8
SURVBND
 10
33.89
 20
90.138
 30
0.0
  0
VERTEX
  8
SURVBND
 10
33.822
 20
90.07
 30
0.0
  0
VERTEX
  8
SURVBND
 10
33.751
 20
89.994
 30
0.0
  0
VERTEX
  8
SURVBND
 10
33.723
 20
89.943
 30
0.0
  0
VERTEX
  8
SURVBND
 10
33.702
 20
89.891
 30
0.0
  0
VERTEX
  8
SURVBND
 10
33.694
 20
89.884
 30
0.0
  0
VERTEX
  8
SURVBND
 10
33.691
 20
89.877
 30
0.0
  0
VERTEX
  8
SURVBND
 10
33.643
 20
89.852
 30
0.0
  0
VERTEX
  8
SURVBND
 10
33.577
 20
89.765
 30
0.0
  0
VERTEX
  8
SURVBND
 10
33.474
 20
89.753
 30
0.0
  0
VERTEX
  8
SURVBND
 10
33.447
 20
89.664
 30
0.0
  0
VERTEX
  8
SURVBND
 10
33.393
 20
89.575
 30
0.0
  0
VERTEX
  8
SURVBND
 10
33.361
 20
89.553
 30
0.0
  0
VERTEX
  8
SURVBND
 10
33.315
 20
89.508
 30
0.0
  0
VERTEX
  8
SURVBND
 10
33.271
 20
89.463
 30
0.0
  0
VERTEX
  8
SURVBND
 10
33.246
 20
89.414
 30
0.0
  0
VERTEX
  8
SURVBND
 10
33.219
 20
89.362
 30
0.0
  0
VERTEX
  8
SURVBND
 10
33.175
 20
89.307
 30
0.0
  0
VERTEX
  8
SURVBND
 10
33.139
 20
89.25
 30
0.0
  0
VERTEX
  8
SURVBND
 10
33.095
 20
89.207
 30
0.0
  0
VERTEX
  8
SURVBND
 10
33.061
 20
89.168
 30
0.0
  0
VERTEX
  8
SURVBND
 10
33.02
 20
89.123
 30
0.0
  0
VERTEX
  8
SURVBND
 10
32.973
 20
89.077
 30
0.0
  0
VERTEX
  8
SURVBND
 10
32.92
 20
89.009
 30
0.0
  0
VERTEX
  8
SURVBND
 10
32.878
 20
88.956
 30
0.0
  0
VERTEX
  8
SURVBND
 10
32.836
 20
88.903
 30
0.0
  0
VERTEX
  8
SURVBND
 10
32.773
 20
88.84
 30
0.0
  0
VERTEX
  8
SURVBND
 10
32.729
 20
88.79
 30
0.0
  0
VERTEX
  8
SURVBND
 10
32.673
 20
88.739
 30
0.0
  0
VERTEX
  8
SURVBND
 10
32.593
 20
88.667
 30
0.0
  0
VERTEX
  8
SURVBND
 10
32.542
 20
88.622
 30
0.0
  0
VERTEX
  8
SURVBND
 10
32.5
 20
88.586
 30
0.0
  0
VERTEX
  8
SURVBND
 10
32.453
 20
88.56
 30
0.0
  0
VERTEX
  8
SURVBND
 10
32.376
 20
88.53
 30
0.0
  0
VERTEX
  8
SURVBND
 10
32.323
 20
88.513
 30
0.0
  0
VERTEX
  8
SURVBND
 10
32.308
 20
88.498
 30
0.0
  0
VERTEX
  8
SURVBND
 10
32.293
 20
88.497
 30
0.0
  0
VERTEX
  8
SURVBND
 10
32.288
 20
88.506
 30
0.0
  0
VERTEX
  8
SURVBND
 10
32.266
 20
88.528
 30
0.0
  0
VERTEX
  8
SURVBND
 10
32.248
 20
88.539
 30
0.0
  0
VERTEX
  8
SURVBND
 10
32.225
 20
88.526
 30
0.0
  0
VERTEX
  8
SURVBND
 10
32.196
 20
88.503
 30
0.0
  0
VERTEX
  8
SURVBND
 10
32.165
 20
88.481
 30
0.0
  0
VERTEX
  8
SURVBND
 10
32.146
 20
88.449
 30
0.0
  0
VERTEX
  8
SURVBND
 10
32.124
 20
88.425
 30
0.0
  0
VERTEX
  8
SURVBND
 10
32.099
 20
88.402
 30
0.0
  0
VERTEX
  8
SURVBND
 10
32.07
 20
88.38
 30
0.0
  0
VERTEX
  8
SURVBND
 10
32.048
 20
88.359
 30
0.0
  0
VERTEX
  8
SURVBND
 10
32.028
 20
88.328
 30
0.0
  0
VERTEX
  8
SURVBND
 10
32.004
 20
88.306
 30
0.0
  0
VERTEX
  8
SURVBND
 10
31.979
 20
88.288
 30
0.0
  0
VERTEX
  8
SURVBND
 10
31.945
 20
88.271
 30
0.0
  0
VERTEX
  8
SURVBND
 10
31.921
 20
88.258
 30
0.0
  0
VERTEX
  8
SURVBND
 10
31.893
 20
88.248
 30
0.0
  0
VERTEX
  8
SURVBND
 10
31.871
 20
88.244
 30
0.0
  0
VERTEX
  8
SURVBND
 10
31.835
 20
88.238
 30
0.0
  0
VERTEX
  8
SURVBND
 10
31.799
 20
88.236
 30
0.0
  0
VERTEX
  8
SURVBND
 10
31.774
 20
88.228
 30
0.0
  0
VERTEX
  8
SURVBND
 10
31.753
 20
88.216
 30
0.0
  0
VERTEX
  8
SURVBND
 10
31.733
 20
88.2
 30
0.0
  0
VERTEX
  8
SURVBND
 10
31.715
 20
88.177
 30
0.0
  0
VERTEX
  8
SURVBND
 10
31.697
 20
88.161
 30
0.0
  0
VERTEX
  8
SURVBND
 10
31.667
 20
88.141
 30
0.0
  0
VERTEX
  8
SURVBND
 10
31.639
 20
88.117
 30
0.0
  0
VERTEX
  8
SURVBND
 10
31.624
 20
88.106
 30
0.0
  0
VERTEX
  8
SURVBND
 10
31.604
 20
88.1
 30
0.0
  0
VERTEX
  8
SURVBND
 10
31.584
 20
88.096
 30
0.0
  0
VERTEX
  8
SURVBND
 10
31.565
 20
88.095
 30
0.0
  0
VERTEX
  8
SURVBND
 10
31.535
 20
88.104
 30
0.0
  0
VERTEX
  8
SURVBND
 10
31.51
 20
88.123
 30
0.0
  0
VERTEX
  8
SURVBND
 10
31.505
 20
88.151
 30
0.0
  0
VERTEX
  8
SURVBND
 10
31.513
 20
88.182
 30
0.0
  0
VERTEX
  8
SURVBND
 10
31.527
 20
88.211
 30
0.0
  0
VERTEX
  8
SURVBND
 10
31.533
 20
88.234
 30
0.0
  0
VERTEX
  8
SURVBND
 10
31.538
 20
88.27
 30
0.0
  0
VERTEX
  8
SURVBND
 10
31.553
 20
88.306
 30
0.0
  0
VERTEX
  8
SURVBND
 10
31.544
 20
88.351
 30
0.0
  0
VERTEX
  8
SURVBND
 10
31.533
 20
88.405
 30
0.0
  0
VERTEX
  8
SURVBND
 10
31.526
 20
88.435
 30
0.0
  0
VERTEX
  8
SURVBND
 10
31.522
 20
88.462
 30
0.0
  0
VERTEX
  8
SURVBND
 10
31.516
 20
88.496
 30
0.0
  0
VERTEX
  8
SURVBND
 10
31.494
 20
88.515
 30
0.0
  0
VERTEX
  8
SURVBND
 10
31.481
 20
88.526
 30
0.0
  0
VERTEX
  8
SURVBND
 10
31.467
 20
88.533
 30
0.0
  0
VERTEX
  8
SURVBND
 10
31.448
 20
88.55
 30
0.0
  0
VERTEX
  8
SURVBND
 10
31.43
 20
88.569
 30
0.0
  0
VERTEX
  8
SURVBND
 10
31.419
 20
88.595
 30
0.0
  0
VERTEX
  8
SURVBND
 10
31.403
 20
88.625
 30
0.0
  0
VERTEX
  8
SURVBND
 10
31.39
 20
88.651
 30
0.0
  0
VERTEX
  8
SURVBND
 10
31.376
 20
88.666
 30
0.0
  0
VERTEX
  8
SURVBND
 10
31.356
 20
88.669
 30
0.0
  0
VERTEX
  8
SURVBND
 10
31.339
 20
88.673
 30
0.0
  0
VERTEX
  8
SURVBND
 10
31.312
 20
88.681
 30
0.0
  0
VERTEX
  8
SURVBND
 10
31.289
 20
88.684
 30
0.0
  0
VERTEX
  8
SURVBND
 10
31.276
 20
88.688
 30
0.0
  0
VERTEX
  8
SURVBND
 10
31.262
 20
88.687
 30
0.0
  0
VERTEX
  8
SURVBND
 10
31.251
 20
88.69
 30
0.0
  0
VERTEX
  8
SURVBND
 10
31.234
 20
88.688
 30
0.0
  0
VERTEX
  8
SURVBND
 10
31.211
 20
88.691
 30
0.0
  0
VERTEX
  8
SURVBND
 10
31.19
 20
88.698
 30
0.0
  0
VERTEX
  8
SURVBND
 10
31.175
 20
88.707
 30
0.0
  0
VERTEX
  8
SURVBND
 10
31.156
 20
88.724
 30
0.0
  0
VERTEX
  8
SURVBND
 10
31.142
 20
88.744
 30
0.0
  0
VERTEX
  8
SURVBND
 10
31.13
 20
88.766
 30
0.0
  0
VERTEX
  8
SURVBND
 10
31.12
 20
88.79
 30
0.0
  0
VERTEX
  8
SURVBND
 10
31.12
 20
88.82
 30
0.0
  0
VERTEX
  8
SURVBND
 10
31.13
 20
88.839
 30
0.0
  0
VERTEX
  8
SURVBND
 10
31.142
 20
88.863
 30
0.0
  0
VERTEX
  8
SURVBND
 10
31.161
 20
88.888
 30
0.0
  0
VERTEX
  8
SURVBND
 10
31.195
 20
88.879
 30
0.0
  0
VERTEX
  8
SURVBND
 10
31.223
 20
88.87
 30
0.0
  0
VERTEX
  8
SURVBND
 10
31.225
 20
88.885
 30
0.0
  0
VERTEX
  8
SURVBND
 10
31.224
 20
88.911
 30
0.0
  0
VERTEX
  8
SURVBND
 10
31.221
 20
88.925
 30
0.0
  0
VERTEX
  8
SURVBND
 10
31.214
 20
88.945
 30
0.0
  0
VERTEX
  8
SURVBND
 10
31.205
 20
88.968
 30
0.0
  0
VERTEX
  8
SURVBND
 10
31.196
 20
88.995
 30
0.0
  0
VERTEX
  8
SURVBND
 10
31.188
 20
89.02
 30
0.0
  0
VERTEX
  8
SURVBND
 10
31.177
 20
89.035
 30
0.0
  0
VERTEX
  8
SURVBND
 10
31.159
 20
89.059
 30
0.0
  0
VERTEX
  8
SURVBND
 10
31.149
 20
89.072
 30
0.0
  0
VERTEX
  8
SURVBND
 10
31.14
 20
89.081
 30
0.0
  0
VERTEX
  8
SURVBND
 10
31.127
 20
89.092
 30
0.0
  0
VERTEX
  8
SURVBND
 10
31.108
 20
89.103
 30
0.0
  0
VERTEX
  8
SURVBND
 10
31.093
 20
89.111
 30
0.0
  0
VERTEX
  8
SURVBND
 10
31.086
 20
89.13
 30
0.0
  0
VERTEX
  8
SURVBND
 10
31.082
 20
89.14
 30
0.0
  0
VERTEX
  8
SURVBND
 10
31.082
 20
89.153
 30
0.0
  0
VERTEX
  8
SURVBND
 10
31.083
 20
89.169
 30
0.0
  0
VERTEX
  8
SURVBND
 10
31.079
 20
89.181
 30
0.0
  0
VERTEX
  8
SURVBND
 10
31.073
 20
89.19
 30
0.0
  0
VERTEX
  8
SURVBND
 10
31.064
 20
89.205
 30
0.0
  0
VERTEX
  8
SURVBND
 10
31.05
 20
89.215
 30
0.0
  0
VERTEX
  8
SURVBND
 10
31.029
 20
89.217
 30
0.0
  0
VERTEX
  8
SURVBND
 10
31.018
 20
89.218
 30
0.0
  0
VERTEX
  8
SURVBND
 10
31.007
 20
89.229
 30
0.0
  0
VERTEX
  8
SURVBND
 10
31.006
 20
89.249
 30
0.0
  0
VERTEX
  8
SURVBND
 10
31.008
 20
89.271
 30
0.0
  0
VERTEX
  8
SURVBND
 10
31.009
 20
89.299
 30
0.0
  0
VERTEX
  8
SURVBND
 10
31.009
 20
89.324
 30
0.0
  0
VERTEX
  8
SURVBND
 10
31.012
 20
89.347
 30
0.0
  0
VERTEX
  8
SURVBND
 10
31.012
 20
89.371
 30
0.0
  0
VERTEX
  8
SURVBND
 10
31.01
 20
89.387
 30
0.0
  0
VERTEX
  8
SURVBND
 10
30.985
 20
89.422
 30
0.0
  0
VERTEX
  8
SURVBND
 10
30.968
 20
89.439
 30
0.0
  0
VERTEX
  8
SURVBND
 10
30.953
 20
89.444
 30
0.0
  0
VERTEX
  8
SURVBND
 10
30.936
 20
89.444
 30
0.0
  0
VERTEX
  8
SURVBND
 10
30.921
 20
89.44
 30
0.0
  0
VERTEX
  8
SURVBND
 10
30.894
 20
89.428
 30
0.0
  0
VERTEX
  8
SURVBND
 10
30.872
 20
89.421
 30
0.0
  0
VERTEX
  8
SURVBND
 10
30.856
 20
89.418
 30
0.0
  0
VERTEX
  8
SURVBND
 10
30.83
 20
89.421
 30
0.0
  0
VERTEX
  8
SURVBND
 10
30.808
 20
89.435
 30
0.0
  0
VERTEX
  8
SURVBND
 10
30.781
 20
89.458
 30
0.0
  0
VERTEX
  8
SURVBND
 10
30.76
 20
89.481
 30
0.0
  0
VERTEX
  8
SURVBND
 10
30.736
 20
89.503
 30
0.0
  0
VERTEX
  8
SURVBND
 10
30.711
 20
89.526
 30
0.0
  0
VERTEX
  8
SURVBND
 10
30.694
 20
89.541
 30
0.0
  0
VERTEX
  8
SURVBND
 10
30.676
 20
89.558
 30
0.0
  0
VERTEX
  8
SURVBND
 10
30.672
 20
89.58
 30
0.0
  0
VERTEX
  8
SURVBND
 10
30.682
 20
89.592
 30
0.0
  0
VERTEX
  8
SURVBND
 10
30.705
 20
89.596
 30
0.0
  0
VERTEX
  8
SURVBND
 10
30.734
 20
89.597
 30
0.0
  0
VERTEX
  8
SURVBND
 10
30.757
 20
89.601
 30
0.0
  0
VERTEX
  8
SURVBND
 10
30.785
 20
89.613
 30
0.0
  0
VERTEX
  8
SURVBND
 10
30.798
 20
89.651
 30
0.0
  0
VERTEX
  8
SURVBND
 10
30.794
 20
89.69
 30
0.0
  0
VERTEX
  8
SURVBND
 10
30.793
 20
89.71
 30
0.0
  0
VERTEX
  8
SURVBND
 10
30.779
 20
89.741
 30
0.0
  0
VERTEX
  8
SURVBND
 10
30.795
 20
89.757
 30
0.0
  0
VERTEX
  8
SURVBND
 10
30.847
 20
89.759
 30
0.0
  0
VERTEX
  8
SURVBND
 10
30.863
 20
89.785
 30
0.0
  0
VERTEX
  8
SURVBND
 10
30.877
 20
89.822
 30
0.0
  0
VERTEX
  8
SURVBND
 10
30.874
 20
89.879
 30
0.0
  0
VERTEX
  8
SURVBND
 10
30.888
 20
89.901
 30
0.0
  0
VERTEX
  8
SURVBND
 10
30.892
 20
89.912
 30
0.0
  0
VERTEX
  8
SURVBND
 10
30.895
 20
89.944
 30
0.0
  0
VERTEX
  8
SURVBND
 10
30.891
 20
89.974
 30
0.0
  0
VERTEX
  8
SURVBND
 10
30.891
 20
89.998
 30
0.0
  0
VERTEX
  8
SURVBND
 10
30.89
 20
90.024
 30
0.0
  0
VERTEX
  8
SURVBND
 10
30.897
 20
90.054
 30
0.0
  0
VERTEX
  8
SURVBND
 10
30.903
 20
90.075
 30
0.0
  0
VERTEX
  8
SURVBND
 10
30.92
 20
90.103
 30
0.0
  0
VERTEX
  8
SURVBND
 10
30.932
 20
90.122
 30
0.0
  0
VERTEX
  8
SURVBND
 10
30.948
 20
90.15
 30
0.0
  0
VERTEX
  8
SURVBND
 10
30.958
 20
90.164
 30
0.0
  0
VERTEX
  8
SURVBND
 10
30.971
 20
90.182
 30
0.0
  0
VERTEX
  8
SURVBND
 10
30.988
 20
90.206
 30
0.0
  0
VERTEX
  8
SURVBND
 10
30.998
 20
90.222
 30
0.0
  0
VERTEX
  8
SURVBND
 10
31.012
 20
90.245
 30
0.0
  0
VERTEX
  8
SURVBND
 10
31.022
 20
90.259
 30
0.0
  0
VERTEX
  8
SURVBND
 10
31.035
 20
90.276
 30
0.0
  0
VERTEX
  8
SURVBND
 10
31.046
 20
90.294
 30
0.0
  0
VERTEX
  8
SURVBND
 10
31.061
 20
90.315
 30
0.0
  0
VERTEX
  8
SURVBND
 10
31.075
 20
90.335
 30
0.0
  0
VERTEX
  8
SURVBND
 10
31.088
 20
90.351
 30
0.0
  0
VERTEX
  8
SURVBND
 10
31.116
 20
90.382
 30
0.0
  0
VERTEX
  8
SURVBND
 10
31.14
 20
90.408
 30
0.0
  0
VERTEX
  8
SURVBND
 10
31.157
 20
90.427
 30
0.0
  0
VERTEX
  8
SURVBND
 10
31.188
 20
90.462
 30
0.0
  0
VERTEX
  8
SURVBND
 10
31.213
 20
90.495
 30
0.0
  0
VERTEX
  8
SURVBND
 10
31.247
 20
90.536
 30
0.0
  0
VERTEX
  8
SURVBND
 10
31.287
 20
90.581
 30
0.0
  0
VERTEX
  8
SURVBND
 10
31.322
 20
90.63
 30
0.0
  0
VERTEX
  8
SURVBND
 10
31.358
 20
90.672
 30
0.0
  0
VERTEX
  8
SURVBND
 10
31.399
 20
90.715
 30
0.0
  0
VERTEX
  8
SURVBND
 10
31.489
 20
90.855
 30
0.0
  0
VERTEX
  8
SURVBND
 10
31.534
 20
90.923
 30
0.0
  0
VERTEX
  8
SURVBND
 10
31.574
 20
90.967
 30
0.0
  0
VERTEX
  8
SURVBND
 10
31.598
 20
90.994
 30
0.0
  0
VERTEX
  8
SURVBND
 10
31.641
 20
91.072
 30
0.0
  0
VERTEX
  8
SURVBND
 10
31.666
 20
91.116
 30
0.0
  0
VERTEX
  8
SURVBND
 10
31.691
 20
91.158
 30
0.0
  0
VERTEX
  8
SURVBND
 10
31.722
 20
91.191
 30
0.0
  0
VERTEX
  8
SURVBND
 10
31.746
 20
91.224
 30
0.0
  0
VERTEX
  8
SURVBND
 10
31.783
 20
91.27
 30
0.0
  0
VERTEX
  8
SURVBND
 10
31.796
 20
91.282
 30
0.0
  0
VERTEX
  8
SURVBND
 10
31.821
 20
91.304
 30
0.0
  0
VERTEX
  8
SURVBND
 10
31.82
 20
91.351
 30
0.0
  0
VERTEX
  8
SURVBND
 10
31.796
 20
91.407
 30
0.0
  0
VERTEX
  8
SURVBND
 10
31.786
 20
91.43
 30
0.0
  0
VERTEX
  8
SURVBND
 10
31.719
 20
91.513
 30
0.0
  0
VERTEX
  8
SURVBND
 10
31.668
 20
91.583
 30
0.0
  0
VERTEX
  8
SURVBND
 10
31.643
 20
91.623
 30
0.0
  0
VERTEX
  8
SURVBND
 10
31.624
 20
91.635
 30
0.0
  0
VERTEX
  8
SURVBND
 10
31.609
 20
91.644
 30
0.0
  0
VERTEX
  8
SURVBND
 10
31.573
 20
91.663
 30
0.0
  0
VERTEX
  8
SURVBND
 10
31.53
 20
91.659
 30
0.0
  0
VERTEX
  8
SURVBND
 10
31.537
 20
91.614
 30
0.0
  0
VERTEX
  8
SURVBND
 10
31.538
 20
91.6
 30
0.0
  0
VERTEX
  8
SURVBND
 10
31.513
 20
91.584
 30
0.0
  0
VERTEX
  8
SURVBND
 10
31.457
 20
91.581
 30
0.0
  0
VERTEX
  8
SURVBND
 10
31.4
 20
91.579
 30
0.0
  0
VERTEX
  8
SURVBND
 10
31.358
 20
91.583
 30
0.0
  0
VERTEX
  8
SURVBND
 10
31.307
 20
91.569
 30
0.0
  0
VERTEX
  8
SURVBND
 10
31.246
 20
91.551
 30
0.0
  0
VERTEX
  8
SURVBND
 10
31.19
 20
91.515
 30
0.0
  0
VERTEX
  8
SURVBND
 10
31.148
 20
91.502
 30
0.0
  0
VERTEX
  8
SURVBND
 10
31.097
 20
91.518
 30
0.0
  0
VERTEX
  8
SURVBND
 10
31.076
 20
91.524
 30
0.0
  0
VERTEX
  8
SURVBND
 10
31.032
 20
91.538
 30
0.0
  0
VERTEX
  8
SURVBND
 10
30.97
 20
91.557
 30
0.0
  0
VERTEX
  8
SURVBND
 10
30.926
 20
91.58
 30
0.0
  0
VERTEX
  8
SURVBND
 10
30.883
 20
91.597
 30
0.0
  0
VERTEX
  8
SURVBND
 10
30.84
 20
91.608
 30
0.0
  0
VERTEX
  8
SURVBND
 10
30.794
 20
91.623
 30
0.0
  0
VERTEX
  8
SURVBND
 10
30.746
 20
91.639
 30
0.0
  0
VERTEX
  8
SURVBND
 10
30.702
 20
91.645
 30
0.0
  0
VERTEX
  8
SURVBND
 10
30.658
 20
91.633
 30
0.0
  0
VERTEX
  8
SURVBND
 10
30.638
 20
91.632
 30
0.0
  0
VERTEX
  8
SURVBND
 10
30.579
 20
91.63
 30
0.0
  0
VERTEX
  8
SURVBND
 10
30.539
 20
91.635
 30
0.0
  0
VERTEX
  8
SURVBND
 10
30.484
 20
91.629
 30
0.0
  0
VERTEX
  8
SURVBND
 10
30.444
 20
91.63
 30
0.0
  0
VERTEX
  8
SURVBND
 10
30.401
 20
91.693
 30
0.0
  0
VERTEX
  8
SURVBND
 10
30.353
 20
91.756
 30
0.0
  0
VERTEX
  8
SURVBND
 10
30.299
 20
91.819
 30
0.0
  0
VERTEX
  8
SURVBND
 10
30.239
 20
91.874
 30
0.0
  0
VERTEX
  8
SURVBND
 10
30.198
 20
91.925
 30
0.0
  0
VERTEX
  8
SURVBND
 10
30.153
 20
91.97
 30
0.0
  0
VERTEX
  8
SURVBND
 10
30.048
 20
92.075
 30
0.0
  0
VERTEX
  8
SURVBND
 10
30.012
 20
92.069
 30
0.0
  0
VERTEX
  8
SURVBND
 10
29.967
 20
92.119
 30
0.0
  0
VERTEX
  8
SURVBND
 10
29.914
 20
92.193
 30
0.0
  0
VERTEX
  8
SURVBND
 10
29.859
 20
92.253
 30
0.0
  0
VERTEX
  8
SURVBND
 10
29.807
 20
92.253
 30
0.0
  0
VERTEX
  8
SURVBND
 10
29.766
 20
92.217
 30
0.0
  0
VERTEX
  8
SURVBND
 10
29.759
 20
92.205
 30
0.0
  0
VERTEX
  8
SURVBND
 10
29.732
 20
92.159
 30
0.0
  0
VERTEX
  8
SURVBND
 10
29.685
 20
92.089
 30
0.0
  0
VERTEX
  8
SURVBND
 10
29.645
 20
92.019
 30
0.0
  0
VERTEX
  8
SURVBND
 10
29.646
 20
91.963
 30
0.0
  0
VERTEX
  8
SURVBND
 10
29.641
 20
91.877
 30
0.0
  0
VERTEX
  8
SURVBND
 10
29.638
 20
91.809
 30
0.0
  0
VERTEX
  8
SURVBND
 10
29.644
 20
91.792
 30
0.0
  0
VERTEX
  8
SURVBND
 10
29.66
 20
91.747
 30
0.0
  0
VERTEX
  8
SURVBND
 10
29.668
 20
91.712
 30
0.0
  0
VERTEX
  8
SURVBND
 10
29.664
 20
91.674
 30
0.0
  0
VERTEX
  8
SURVBND
 10
29.652
 20
91.642
 30
0.0
  0
VERTEX
  8
SURVBND
 10
29.636
 20
91.609
 30
0.0
  0
VERTEX
  8
SURVBND
 10
29.617
 20
91.594
 30
0.0
  0
VERTEX
  8
SURVBND
 10
29.549
 20
91.562
 30
0.0
  0
VERTEX
  8
SURVBND
 10
29.498
 20
91.527
 30
0.0
  0
VERTEX
  8
SURVBND
 10
29.475
 20
91.503
 30
0.0
  0
VERTEX
  8
SURVBND
 10
29.427
 20
91.472
 30
0.0
  0
VERTEX
  8
SURVBND
 10
29.397
 20
91.458
 30
0.0
  0
VERTEX
  8
SURVBND
 10
29.346
 20
91.436
 30
0.0
  0
VERTEX
  8
SURVBND
 10
29.285
 20
91.411
 30
0.0
  0
VERTEX
  8
SURVBND
 10
29.237
 20
91.4
 30
0.0
  0
VERTEX
  8
SURVBND
 10
29.191
 20
91.388
 30
0.0
  0
VERTEX
  8
SURVBND
 10
29.143
 20
91.392
 30
0.0
  0
VERTEX
  8
SURVBND
 10
29.114
 20
91.425
 30
0.0
  0
VERTEX
  8
SURVBND
 10
29.074
 20
91.466
 30
0.0
  0
VERTEX
  8
SURVBND
 10
29.047
 20
91.501
 30
0.0
  0
VERTEX
  8
SURVBND
 10
29.027
 20
91.538
 30
0.0
  0
VERTEX
  8
SURVBND
 10
28.998
 20
91.583
 30
0.0
  0
VERTEX
  8
SURVBND
 10
28.954
 20
91.644
 30
0.0
  0
VERTEX
  8
SURVBND
 10
28.927
 20
91.688
 30
0.0
  0
VERTEX
  8
SURVBND
 10
28.903
 20
91.728
 30
0.0
  0
VERTEX
  8
SURVBND
 10
28.884
 20
91.763
 30
0.0
  0
VERTEX
  8
SURVBND
 10
28.866
 20
91.792
 30
0.0
  0
VERTEX
  8
SURVBND
 10
28.855
 20
91.81
 30
0.0
  0
VERTEX
  8
SURVBND
 10
28.824
 20
91.863
 30
0.0
  0
VERTEX
  8
SURVBND
 10
28.804
 20
91.9
 30
0.0
  0
VERTEX
  8
SURVBND
 10
28.781
 20
91.945
 30
0.0
  0
VERTEX
  8
SURVBND
 10
28.764
 20
91.983
 30
0.0
  0
VERTEX
  8
SURVBND
 10
28.766
 20
92.016
 30
0.0
  0
VERTEX
  8
SURVBND
 10
28.769
 20
92.035
 30
0.0
  0
VERTEX
  8
SURVBND
 10
28.773
 20
92.089
 30
0.0
  0
VERTEX
  8
SURVBND
 10
28.782
 20
92.162
 30
0.0
  0
VERTEX
  8
SURVBND
 10
28.793
 20
92.223
 30
0.0
  0
VERTEX
  8
SURVBND
 10
28.8
 20
92.273
 30
0.0
  0
VERTEX
  8
SURVBND
 10
28.8
 20
92.303
 30
0.0
  0
VERTEX
  8
SURVBND
 10
28.791
 20
92.343
 30
0.0
  0
VERTEX
  8
SURVBND
 10
28.78
 20
92.368
 30
0.0
  0
VERTEX
  8
SURVBND
 10
28.77
 20
92.409
 30
0.0
  0
VERTEX
  8
SURVBND
 10
28.764
 20
92.46
 30
0.0
  0
VERTEX
  8
SURVBND
 10
28.744
 20
92.509
 30
0.0
  0
VERTEX
  8
SURVBND
 10
28.72
 20
92.57
 30
0.0
  0
VERTEX
  8
SURVBND
 10
28.712
 20
92.594
 30
0.0
  0
VERTEX
  8
SURVBND
 10
28.704
 20
92.619
 30
0.0
  0
VERTEX
  8
SURVBND
 10
28.672
 20
92.679
 30
0.0
  0
VERTEX
  8
SURVBND
 10
28.657
 20
92.715
 30
0.0
  0
VERTEX
  8
SURVBND
 10
28.622
 20
92.75
 30
0.0
  0
VERTEX
  8
SURVBND
 10
28.587
 20
92.79
 30
0.0
  0
VERTEX
  8
SURVBND
 10
28.553
 20
92.831
 30
0.0
  0
VERTEX
  8
SURVBND
 10
28.547
 20
92.841
 30
0.0
  0
VERTEX
  8
SURVBND
 10
28.547
 20
92.906
 30
0.0
  0
VERTEX
  8
SURVBND
 10
28.474
 20
92.954
 30
0.0
  0
VERTEX
  8
SURVBND
 10
28.137
 20
93.087
 30
0.0
  0
VERTEX
  8
SURVBND
 10
28.014
 20
93.152
 30
0.0
  0
VERTEX
  8
SURVBND
 10
28.0
 20
93.208
 30
0.0
  0
VERTEX
  8
SURVBND
 10
27.957
 20
93.341
 30
0.0
  0
VERTEX
  8
SURVBND
 10
27.977
 20
93.459
 30
0.0
  0
VERTEX
  8
SURVBND
 10
27.972
 20
93.559
 30
0.0
  0
VERTEX
  8
SURVBND
 10
27.922
 20
93.666
 30
0.0
  0
VERTEX
  8
SURVBND
 10
27.832
 20
93.675
 30
0.0
  0
VERTEX
  8
SURVBND
 10
27.744
 20
93.712
 30
0.0
  0
VERTEX
  8
SURVBND
 10
27.638
 20
93.759
 30
0.0
  0
VERTEX
  8
SURVBND
 10
27.58
 20
93.831
 30
0.0
  0
VERTEX
  8
SURVBND
 10
27.46
 20
93.872
 30
0.0
  0
VERTEX
  8
SURVBND
 10
27.399
 20
93.875
 30
0.0
  0
VERTEX
  8
SURVBND
 10
27.308
 20
93.899
 30
0.0
  0
VERTEX
  8
SURVBND
 10
27.258
 20
93.923
 30
0.0
  0
VERTEX
  8
SURVBND
 10
27.197
 20
93.945
 30
0.0
  0
VERTEX
  8
SURVBND
 10
27.123
 20
93.954
 30
0.0
  0
VERTEX
  8
SURVBND
 10
27.075
 20
93.964
 30
0.0
  0
VERTEX
  8
SURVBND
 10
27.027
 20
93.975
 30
0.0
  0
VERTEX
  8
SURVBND
 10
26.971
 20
93.993
 30
0.0
  0
VERTEX
  8
SURVBND
 10
26.926
 20
94.0
 30
0.0
  0
VERTEX
  8
SURVBND
 10
26.88
 20
94.006
 30
0.0
  0
VERTEX
  8
SURVBND
 10
26.815
 20
94.018
 30
0.0
  0
VERTEX
  8
SURVBND
 10
26.77
 20
94.021
 30
0.0
  0
VERTEX
  8
SURVBND
 10
26.718
 20
94.039
 30
0.0
  0
VERTEX
  8
SURVBND
 10
26.643
 20
94.023
 30
0.0
  0
VERTEX
  8
SURVBND
 10
26.594
 20
94.002
 30
0.0
  0
VERTEX
  8
SURVBND
 10
26.54
 20
93.971
 30
0.0
  0
VERTEX
  8
SURVBND
 10
26.485
 20
93.935
 30
0.0
  0
VERTEX
  8
SURVBND
 10
26.428
 20
93.905
 30
0.0
  0
VERTEX
  8
SURVBND
 10
26.344
 20
93.866
 30
0.0
  0
VERTEX
  8
SURVBND
 10
26.262
 20
93.847
 30
0.0
  0
VERTEX
  8
SURVBND
 10
26.21
 20
93.906
 30
0.0
  0
VERTEX
  8
SURVBND
 10
26.173
 20
93.995
 30
0.0
  0
VERTEX
  8
SURVBND
 10
26.136
 20
94.07
 30
0.0
  0
VERTEX
  8
SURVBND
 10
26.104
 20
94.141
 30
0.0
  0
VERTEX
  8
SURVBND
 10
26.08
 20
94.259
 30
0.0
  0
VERTEX
  8
SURVBND
 10
26.086
 20
94.359
 30
0.0
  0
VERTEX
  8
SURVBND
 10
26.111
 20
94.449
 30
0.0
  0
VERTEX
  8
SURVBND
 10
26.146
 20
94.54
 30
0.0
  0
VERTEX
  8
SURVBND
 10
26.177
 20
94.639
 30
0.0
  0
VERTEX
  8
SURVBND
 10
26.156
 20
94.822
 30
0.0
  0
VERTEX
  8
SURVBND
 10
26.146
 20
94.863
 30
0.0
  0
VERTEX
  8
SURVBND
 10
26.036
 20
94.94
 30
0.0
  0
VERTEX
  8
SURVBND
 10
25.973
 20
94.997
 30
0.0
  0
VERTEX
  8
SURVBND
 10
25.918
 20
95.09
 30
0.0
  0
VERTEX
  8
SURVBND
 10
25.888
 20
95.17
 30
0.0
  0
VERTEX
  8
SURVBND
 10
25.905
 20
95.204
 30
0.0
  0
VERTEX
  8
SURVBND
 10
25.9
 20
95.253
 30
0.0
  0
VERTEX
  8
SURVBND
 10
25.893
 20
95.336
 30
0.0
  0
VERTEX
  8
SURVBND
 10
25.876
 20
95.433
 30
0.0
  0
VERTEX
  8
SURVBND
 10
25.883
 20
95.519
 30
0.0
  0
VERTEX
  8
SURVBND
 10
25.863
 20
95.552
 30
0.0
  0
VERTEX
  8
SURVBND
 10
25.828
 20
95.6
 30
0.0
  0
VERTEX
  8
SURVBND
 10
25.803
 20
95.676
 30
0.0
  0
VERTEX
  8
SURVBND
 10
25.758
 20
95.754
 30
0.0
  0
VERTEX
  8
SURVBND
 10
25.714
 20
95.807
 30
0.0
  0
VERTEX
  8
SURVBND
 10
25.631
 20
95.824
 30
0.0
  0
VERTEX
  8
SURVBND
 10
25.546
 20
95.836
 30
0.0
  0
VERTEX
  8
SURVBND
 10
25.463
 20
95.833
 30
0.0
  0
VERTEX
  8
SURVBND
 10
25.387
 20
95.822
 30
0.0
  0
VERTEX
  8
SURVBND
 10
25.303
 20
95.81
 30
0.0
  0
VERTEX
  8
SURVBND
 10
25.243
 20
95.855
 30
0.0
  0
VERTEX
  8
SURVBND
 10
25.156
 20
95.91
 30
0.0
  0
VERTEX
  8
SURVBND
 10
25.068
 20
95.984
 30
0.0
  0
VERTEX
  8
SURVBND
 10
25.074
 20
95.993
 30
0.0
  0
VERTEX
  8
SURVBND
 10
24.999
 20
96.049
 30
0.0
  0
VERTEX
  8
SURVBND
 10
24.944
 20
96.136
 30
0.0
  0
VERTEX
  8
SURVBND
 10
24.808
 20
96.077
 30
0.0
  0
VERTEX
  8
SURVBND
 10
24.739
 20
96.103
 30
0.0
  0
VERTEX
  8
SURVBND
 10
24.625
 20
96.142
 30
0.0
  0
VERTEX
  8
SURVBND
 10
24.531
 20
96.18
 30
0.0
  0
VERTEX
  8
SURVBND
 10
24.449
 20
96.197
 30
0.0
  0
VERTEX
  8
SURVBND
 10
24.365
 20
96.205
 30
0.0
  0
VERTEX
  8
SURVBND
 10
24.286
 20
96.196
 30
0.0
  0
VERTEX
  8
SURVBND
 10
24.204
 20
96.195
 30
0.0
  0
VERTEX
  8
SURVBND
 10
24.106
 20
96.187
 30
0.0
  0
VERTEX
  8
SURVBND
 10
24.026
 20
96.172
 30
0.0
  0
VERTEX
  8
SURVBND
 10
23.934
 20
96.19
 30
0.0
  0
VERTEX
  8
SURVBND
 10
23.819
 20
96.217
 30
0.0
  0
VERTEX
  8
SURVBND
 10
23.712
 20
96.259
 30
0.0
  0
VERTEX
  8
SURVBND
 10
23.634
 20
96.321
 30
0.0
  0
VERTEX
  8
SURVBND
 10
23.567
 20
96.402
 30
0.0
  0
VERTEX
  8
SURVBND
 10
23.607
 20
96.441
 30
0.0
  0
VERTEX
  8
SURVBND
 10
23.645
 20
96.491
 30
0.0
  0
VERTEX
  8
SURVBND
 10
23.698
 20
96.539
 30
0.0
  0
VERTEX
  8
SURVBND
 10
23.792
 20
96.614
 30
0.0
  0
VERTEX
  8
SURVBND
 10
23.896
 20
96.7
 30
0.0
  0
VERTEX
  8
SURVBND
 10
23.965
 20
96.781
 30
0.0
  0
VERTEX
  8
SURVBND
 10
24.053
 20
96.79
 30
0.0
  0
VERTEX
  8
SURVBND
 10
24.068
 20
96.792
 30
0.0
  0
VERTEX
  8
SURVBND
 10
24.079
 20
96.807
 30
0.0
  0
VERTEX
  8
SURVBND
 10
24.053
 20
96.852
 30
0.0
  0
VERTEX
  8
SURVBND
 10
24.013
 20
96.888
 30
0.0
  0
VERTEX
  8
SURVBND
 10
24.011
 20
96.891
 30
0.0
  0
VERTEX
  8
SURVBND
 10
24.017
 20
96.94
 30
0.0
  0
VERTEX
  8
SURVBND
 10
24.033
 20
96.972
 30
0.0
  0
VERTEX
  8
SURVBND
 10
24.093
 20
97.031
 30
0.0
  0
VERTEX
  8
SURVBND
 10
24.127
 20
97.075
 30
0.0
  0
VERTEX
  8
SURVBND
 10
24.146
 20
97.121
 30
0.0
  0
VERTEX
  8
SURVBND
 10
24.114
 20
97.191
 30
0.0
  0
VERTEX
  8
SURVBND
 10
24.125
 20
97.226
 30
0.0
  0
VERTEX
  8
SURVBND
 10
24.197
 20
97.272
 30
0.0
  0
VERTEX
  8
SURVBND
 10
24.229
 20
97.307
 30
0.0
  0
VERTEX
  8
SURVBND
 10
24.249
 20
97.359
 30
0.0
  0
VERTEX
  8
SURVBND
 10
24.243
 20
97.413
 30
0.0
  0
VERTEX
  8
SURVBND
 10
24.233
 20
97.458
 30
0.0
  0
VERTEX
  8
SURVBND
 10
24.185
 20
97.491
 30
0.0
  0
VERTEX
  8
SURVBND
 10
24.149
 20
97.514
 30
0.0
  0
VERTEX
  8
SURVBND
 10
24.107
 20
97.524
 30
0.0
  0
VERTEX
  8
SURVBND
 10
24.092
 20
97.532
 30
0.0
  0
VERTEX
  8
SURVBND
 10
24.103
 20
97.551
 30
0.0
  0
VERTEX
  8
SURVBND
 10
24.12
 20
97.572
 30
0.0
  0
VERTEX
  8
SURVBND
 10
24.143
 20
97.605
 30
0.0
  0
VERTEX
  8
SURVBND
 10
24.16
 20
97.626
 30
0.0
  0
VERTEX
  8
SURVBND
 10
24.184
 20
97.654
 30
0.0
  0
VERTEX
  8
SURVBND
 10
24.203
 20
97.673
 30
0.0
  0
VERTEX
  8
SURVBND
 10
24.223
 20
97.694
 30
0.0
  0
VERTEX
  8
SURVBND
 10
24.257
 20
97.723
 30
0.0
  0
VERTEX
  8
SURVBND
 10
24.292
 20
97.741
 30
0.0
  0
VERTEX
  8
SURVBND
 10
24.383
 20
97.828
 30
0.0
  0
VERTEX
  8
SURVBND
 10
24.469
 20
97.923
 30
0.0
  0
VERTEX
  8
SURVBND
 10
24.506
 20
97.966
 30
0.0
  0
VERTEX
  8
SURVBND
 10
24.54
 20
98.019
 30
0.0
  0
VERTEX
  8
SURVBND
 10
24.574
 20
98.053
 30
0.0
  0
VERTEX
  8
SURVBND
 10
24.606
 20
98.076
 30
0.0
  0
VERTEX
  8
SURVBND
 10
24.626
 20
98.115
 30
0.0
  0
VERTEX
  8
SURVBND
 10
24.632
 20
98.154
 30
0.0
  0
VERTEX
  8
SURVBND
 10
24.649
 20
98.19
 30
0.0
  0
VERTEX
  8
SURVBND
 10
24.657
 20
98.223
 30
0.0
  0
VERTEX
  8
SURVBND
 10
24.655
 20
98.264
 30
0.0
  0
VERTEX
  8
SURVBND
 10
24.667
 20
98.282
 30
0.0
  0
VERTEX
  8
SURVBND
 10
24.669
 20
98.313
 30
0.0
  0
VERTEX
  8
SURVBND
 10
24.676
 20
98.364
 30
0.0
  0
VERTEX
  8
SURVBND
 10
24.689
 20
98.411
 30
0.0
  0
VERTEX
  8
SURVBND
 10
24.697
 20
98.431
 30
0.0
  0
VERTEX
  8
SURVBND
 10
24.693
 20
98.461
 30
0.0
  0
VERTEX
  8
SURVBND
 10
24.705
 20
98.484
 30
0.0
  0
VERTEX
  8
SURVBND
 10
24.715
 20
98.509
 30
0.0
  0
VERTEX
  8
SURVBND
 10
24.726
 20
98.534
 30
0.0
  0
VERTEX
  8
SURVBND
 10
24.737
 20
98.567
 30
0.0
  0
VERTEX
  8
SURVBND
 10
24.741
 20
98.604
 30
0.0
  0
VERTEX
  8
SURVBND
 10
24.744
 20
98.63
 30
0.0
  0
VERTEX
  8
SURVBND
 10
24.755
 20
98.666
 30
0.0
  0
VERTEX
  8
SURVBND
 10
24.765
 20
98.698
 30
0.0
  0
VERTEX
  8
SURVBND
 10
24.774
 20
98.733
 30
0.0
  0
VERTEX
  8
SURVBND
 10
24.771
 20
98.774
 30
0.0
  0
VERTEX
  8
SURVBND
 10
24.783
 20
98.819
 30
0.0
  0
VERTEX
  8
SURVBND
 10
24.8
 20
98.872
 30
0.0
  0
VERTEX
  8
SURVBND
 10
24.896
 20
98.945
 30
0.0
  0
VERTEX
  8
SURVBND
 10
25.049
 20
99.055
 30
0.0
  0
VERTEX
  8
SURVBND
 10
25.066
 20
99.082
 30
0.0
  0
VERTEX
  8
SURVBND
 10
25.068
 20
99.081
 30
0.0
  0
VERTEX
  8
SURVBND
 10
25.113
 20
99.116
 30
0.0
  0
VERTEX
  8
SURVBND
 10
25.164
 20
99.154
 30
0.0
  0
VERTEX
  8
SURVBND
 10
25.196
 20
99.177
 30
0.0
  0
VERTEX
  8
SURVBND
 10
25.232
 20
99.211
 30
0.0
  0
VERTEX
  8
SURVBND
 10
25.261
 20
99.216
 30
0.0
  0
VERTEX
  8
SURVBND
 10
25.307
 20
99.222
 30
0.0
  0
VERTEX
  8
SURVBND
 10
25.399
 20
99.237
 30
0.0
  0
VERTEX
  8
SURVBND
 10
25.451
 20
99.262
 30
0.0
  0
VERTEX
  8
SURVBND
 10
25.53
 20
99.285
 30
0.0
  0
VERTEX
  8
SURVBND
 10
25.596
 20
99.319
 30
0.0
  0
VERTEX
  8
SURVBND
 10
25.657
 20
99.348
 30
0.0
  0
VERTEX
  8
SURVBND
 10
25.714
 20
99.375
 30
0.0
  0
VERTEX
  8
SURVBND
 10
25.765
 20
99.388
 30
0.0
  0
VERTEX
  8
SURVBND
 10
25.806
 20
99.412
 30
0.0
  0
VERTEX
  8
SURVBND
 10
25.852
 20
99.422
 30
0.0
  0
VERTEX
  8
SURVBND
 10
25.898
 20
99.44
 30
0.0
  0
VERTEX
  8
SURVBND
 10
25.925
 20
99.455
 30
0.0
  0
VERTEX
  8
SURVBND
 10
25.967
 20
99.455
 30
0.0
  0
VERTEX
  8
SURVBND
 10
26.042
 20
99.467
 30
0.0
  0
VERTEX
  8
SURVBND
 10
26.084
 20
99.466
 30
0.0
  0
VERTEX
  8
SURVBND
 10
26.134
 20
99.469
 30
0.0
  0
VERTEX
  8
SURVBND
 10
26.178
 20
99.481
 30
0.0
  0
VERTEX
  8
SURVBND
 10
26.219
 20
99.504
 30
0.0
  0
VERTEX
  8
SURVBND
 10
26.262
 20
99.529
 30
0.0
  0
VERTEX
  8
SURVBND
 10
26.302
 20
99.553
 30
0.0
  0
VERTEX
  8
SURVBND
 10
26.339
 20
99.581
 30
0.0
  0
VERTEX
  8
SURVBND
 10
26.376
 20
99.607
 30
0.0
  0
VERTEX
  8
SURVBND
 10
26.414
 20
99.634
 30
0.0
  0
VERTEX
  8
SURVBND
 10
26.443
 20
99.652
 30
0.0
  0
VERTEX
  8
SURVBND
 10
26.484
 20
99.683
 30
0.0
  0
VERTEX
  8
SURVBND
 10
26.514
 20
99.707
 30
0.0
  0
VERTEX
  8
SURVBND
 10
26.536
 20
99.732
 30
0.0
  0
VERTEX
  8
SURVBND
 10
26.561
 20
99.757
 30
0.0
  0
VERTEX
  8
SURVBND
 10
26.582
 20
99.784
 30
0.0
  0
VERTEX
  8
SURVBND
 10
26.613
 20
99.809
 30
0.0
  0
VERTEX
  8
SURVBND
 10
26.626
 20
99.831
 30
0.0
  0
VERTEX
  8
SURVBND
 10
26.656
 20
99.876
 30
0.0
  0
VERTEX
  8
SURVBND
 10
26.692
 20
99.89
 30
0.0
  0
VERTEX
  8
SURVBND
 10
30.094
 20
102.301
 30
0.0
  0
VERTEX
  8
SURVBND
 10
30.1
 20
102.326
 30
0.0
  0
VERTEX
  8
SURVBND
 10
30.3
 20
102.47
 30
0.0
  0
VERTEX
  8
SURVBND
 10
30.467
 20
102.582
 30
0.0
  0
VERTEX
  8
SURVBND
 10
30.654
 20
102.703
 30
0.0
  0
VERTEX
  8
SURVBND
 10
30.79
 20
102.789
 30
0.0
  0
VERTEX
  8
SURVBND
 10
30.953
 20
102.886
 30
0.0
  0
VERTEX
  8
SURVBND
 10
31.035
 20
102.946
 30
0.0
  0
VERTEX
  8
SURVBND
 10
31.077
 20
102.948
 30
0.0
  0
VERTEX
  8
SURVBND
 10
31.098
 20
102.981
 30
0.0
  0
VERTEX
  8
SURVBND
 10
30.841
 20
103.293
 30
0.0
  0
VERTEX
  8
SURVBND
 10
31.375
 20
103.602
 30
0.0
  0
VERTEX
  8
SURVBND
 10
31.813
 20
103.864
 30
0.0
  0
VERTEX
  8
SURVBND
 10
31.804
 20
103.819
 30
0.0
  0
VERTEX
  8
SURVBND
 10
31.793
 20
103.738
 30
0.0
  0
VERTEX
  8
SURVBND
 10
31.779
 20
103.677
 30
0.0
  0
VERTEX
  8
SURVBND
 10
31.769
 20
103.624
 30
0.0
  0
VERTEX
  8
SURVBND
 10
31.754
 20
103.583
 30
0.0
  0
VERTEX
  8
SURVBND
 10
31.76
 20
103.55
 30
0.0
  0
VERTEX
  8
SURVBND
 10
31.76
 20
103.527
 30
0.0
  0
VERTEX
  8
SURVBND
 10
31.744
 20
103.481
 30
0.0
  0
VERTEX
  8
SURVBND
 10
31.737
 20
103.444
 30
0.0
  0
VERTEX
  8
SURVBND
 10
31.73
 20
103.414
 30
0.0
  0
VERTEX
  8
SURVBND
 10
31.717
 20
103.389
 30
0.0
  0
VERTEX
  8
SURVBND
 10
31.719
 20
103.365
 30
0.0
  0
VERTEX
  8
SURVBND
 10
31.734
 20
103.319
 30
0.0
  0
VERTEX
  8
SURVBND
 10
31.762
 20
103.278
 30
0.0
  0
VERTEX
  8
SURVBND
 10
31.791
 20
103.248
 30
0.0
  0
VERTEX
  8
SURVBND
 10
31.815
 20
103.206
 30
0.0
  0
VERTEX
  8
SURVBND
 10
31.848
 20
103.165
 30
0.0
  0
VERTEX
  8
SURVBND
 10
31.878
 20
103.125
 30
0.0
  0
VERTEX
  8
SURVBND
 10
31.919
 20
103.074
 30
0.0
  0
VERTEX
  8
SURVBND
 10
31.932
 20
103.036
 30
0.0
  0
VERTEX
  8
SURVBND
 10
31.94
 20
102.952
 30
0.0
  0
VERTEX
  8
SURVBND
 10
31.949
 20
102.919
 30
0.0
  0
VERTEX
  8
SURVBND
 10
31.945
 20
102.915
 30
0.0
  0
VERTEX
  8
SURVBND
 10
31.946
 20
102.882
 30
0.0
  0
VERTEX
  8
SURVBND
 10
31.95
 20
102.88
 30
0.0
  0
VERTEX
  8
SURVBND
 10
31.957
 20
102.698
 30
0.0
  0
VERTEX
  8
SURVBND
 10
31.957
 20
102.581
 30
0.0
  0
VERTEX
  8
SURVBND
 10
31.968
 20
102.492
 30
0.0
  0
VERTEX
  8
SURVBND
 10
31.991
 20
102.393
 30
0.0
  0
VERTEX
  8
SURVBND
 10
32.01
 20
102.323
 30
0.0
  0
VERTEX
  8
SURVBND
 10
32.031
 20
102.265
 30
0.0
  0
VERTEX
  8
SURVBND
 10
32.071
 20
102.171
 30
0.0
  0
VERTEX
  8
SURVBND
 10
32.095
 20
102.053
 30
0.0
  0
VERTEX
  8
SURVBND
 10
32.086
 20
102.034
 30
0.0
  0
VERTEX
  8
SURVBND
 10
32.107
 20
101.841
 30
0.0
  0
VERTEX
  8
SURVBND
 10
32.111
 20
101.841
 30
0.0
  0
VERTEX
  8
SURVBND
 10
32.12
 20
101.76
 30
0.0
  0
VERTEX
  8
SURVBND
 10
32.131
 20
101.7
 30
0.0
  0
VERTEX
  8
SURVBND
 10
32.138
 20
101.631
 30
0.0
  0
VERTEX
  8
SURVBND
 10
32.147
 20
101.586
 30
0.0
  0
VERTEX
  8
SURVBND
 10
32.159
 20
101.552
 30
0.0
  0
VERTEX
  8
SURVBND
 10
32.178
 20
101.519
 30
0.0
  0
VERTEX
  8
SURVBND
 10
32.193
 20
101.483
 30
0.0
  0
VERTEX
  8
SURVBND
 10
32.199
 20
101.452
 30
0.0
  0
VERTEX
  8
SURVBND
 10
32.205
 20
101.409
 30
0.0
  0
VERTEX
  8
SURVBND
 10
32.211
 20
101.38
 30
0.0
  0
VERTEX
  8
SURVBND
 10
32.211
 20
101.339
 30
0.0
  0
VERTEX
  8
SURVBND
 10
32.217
 20
101.314
 30
0.0
  0
VERTEX
  8
SURVBND
 10
32.224
 20
101.277
 30
0.0
  0
VERTEX
  8
SURVBND
 10
32.225
 20
101.235
 30
0.0
  0
VERTEX
  8
SURVBND
 10
32.231
 20
101.195
 30
0.0
  0
VERTEX
  8
SURVBND
 10
32.23
 20
101.155
 30
0.0
  0
VERTEX
  8
SURVBND
 10
32.229
 20
101.118
 30
0.0
  0
VERTEX
  8
SURVBND
 10
32.235
 20
101.086
 30
0.0
  0
VERTEX
  8
SURVBND
 10
32.239
 20
101.04
 30
0.0
  0
VERTEX
  8
SURVBND
 10
32.246
 20
101.01
 30
0.0
  0
VERTEX
  8
SURVBND
 10
32.25
 20
100.986
 30
0.0
  0
VERTEX
  8
SURVBND
 10
32.257
 20
100.957
 30
0.0
  0
VERTEX
  8
SURVBND
 10
32.267
 20
100.925
 30
0.0
  0
VERTEX
  8
SURVBND
 10
32.269
 20
100.901
 30
0.0
  0
VERTEX
  8
SURVBND
 10
32.275
 20
100.882
 30
0.0
  0
VERTEX
  8
SURVBND
 10
32.283
 20
100.86
 30
0.0
  0
VERTEX
  8
SURVBND
 10
32.29
 20
100.814
 30
0.0
  0
VERTEX
  8
SURVBND
 10
32.306
 20
100.772
 30
0.0
  0
VERTEX
  8
SURVBND
 10
32.323
 20
100.737
 30
0.0
  0
VERTEX
  8
SURVBND
 10
32.336
 20
100.699
 30
0.0
  0
VERTEX
  8
SURVBND
 10
32.345
 20
100.674
 30
0.0
  0
VERTEX
  8
SURVBND
 10
32.355
 20
100.651
 30
0.0
  0
VERTEX
  8
SURVBND
 10
32.363
 20
100.631
 30
0.0
  0
VERTEX
  8
SURVBND
 10
32.361
 20
100.595
 30
0.0
  0
VERTEX
  8
SURVBND
 10
32.364
 20
100.557
 30
0.0
  0
VERTEX
  8
SURVBND
 10
32.372
 20
100.531
 30
0.0
  0
VERTEX
  8
SURVBND
 10
32.38
 20
100.501
 30
0.0
  0
VERTEX
  8
SURVBND
 10
32.389
 20
100.472
 30
0.0
  0
VERTEX
  8
SURVBND
 10
32.408
 20
100.443
 30
0.0
  0
VERTEX
  8
SURVBND
 10
32.431
 20
100.405
 30
0.0
  0
VERTEX
  8
SURVBND
 10
32.445
 20
100.354
 30
0.0
  0
VERTEX
  8
SURVBND
 10
32.462
 20
100.325
 30
0.0
  0
VERTEX
  8
SURVBND
 10
32.485
 20
100.291
 30
0.0
  0
VERTEX
  8
SURVBND
 10
32.499
 20
100.261
 30
0.0
  0
VERTEX
  8
SURVBND
 10
32.52
 20
100.226
 30
0.0
  0
VERTEX
  8
SURVBND
 10
32.545
 20
100.181
 30
0.0
  0
VERTEX
  8
SURVBND
 10
32.564
 20
100.156
 30
0.0
  0
VERTEX
  8
SURVBND
 10
32.573
 20
100.126
 30
0.0
  0
VERTEX
  8
SURVBND
 10
32.583
 20
100.104
 30
0.0
  0
VERTEX
  8
SURVBND
 10
32.596
 20
100.087
 30
0.0
  0
VERTEX
  8
SURVBND
 10
32.615
 20
100.076
 30
0.0
  0
VERTEX
  8
SURVBND
 10
32.632
 20
100.063
 30
0.0
  0
VERTEX
  8
SURVBND
 10
32.647
 20
100.043
 30
0.0
  0
VERTEX
  8
SURVBND
 10
32.666
 20
100.016
 30
0.0
  0
VERTEX
  8
SURVBND
 10
32.679
 20
99.993
 30
0.0
  0
VERTEX
  8
SURVBND
 10
32.689
 20
99.964
 30
0.0
  0
VERTEX
  8
SURVBND
 10
32.699
 20
99.946
 30
0.0
  0
VERTEX
  8
SURVBND
 10
32.706
 20
99.924
 30
0.0
  0
VERTEX
  8
SURVBND
 10
32.705
 20
99.905
 30
0.0
  0
VERTEX
  8
SURVBND
 10
32.708
 20
99.886
 30
0.0
  0
VERTEX
  8
SURVBND
 10
32.697
 20
99.882
 30
0.0
  0
VERTEX
  8
SURVBND
 10
32.702
 20
99.786
 30
0.0
  0
VERTEX
  8
SURVBND
 10
32.702
 20
99.786
 30
0.0
  0
SEQEND
  8
SURVBND
  0
ENDSEC
  0
EOF
