  0
SECTION
  2
HEADER
  9
$ACADVER
  1
AC1009
  9
$INSBASE
 10
0.0
 20
0.0
 30
0.0
  9
$EXTMIN
 10
23.5
 20
88.0
 30
0.0
  9
$EXTMAX
 10
41.0
 20
104.0
 30
0.0
  9
$LIMMIN
 10
0.0
 20
0.0
  9
$LIMMAX
 10
12.0
 20
9.0
  9
$ORTHOMODE
 70
     0
  9
$REGENMODE
 70
     1
  9
$FILLMODE
 70
     1
  9
$QTEXTMODE
 70
     0
  9
$MIRRTEXT
 70
     1
  9
$DRAGMODE
 70
     2
  9
$LTSCALE
 40
1.0
  9
$OSMODE
 70
     0
  9
$ATTMODE
 70
     1
  9
$TEXTSIZE
 40
0.025
  9
$TRACEWID
 40
0.05
  9
$TEXTSTYLE
  7
SIMPLEX
  9
$CLAYER
  8
GEOL
  9
$CELTYPE
  6
BYLAYER
  9
$CECOLOR
 62
   256
  9
$DIMSCALE
 40
1.0
  9
$DIMASZ
 40
0.18
  9
$DIMEXO
 40
0.063
  9
$DIMDLI
 40
0.38
  9
$DIMRND
 40
0.0
  9
$DIMDLE
 40
0.0
  9
$DIMEXE
 40
0.18
  9
$DIMTP
 40
0.0
  9
$DIMTM
 40
0.0
  9
$DIMTXT
 40
0.18
  9
$DIMCEN
 40
0.09
  9
$DIMTSZ
 40
0.0
  9
$DIMTOL
 70
     0
  9
$DIMLIM
 70
     0
  9
$DIMTIH
 70
     1
  9
$DIMTOH
 70
     1
  9
$DIMSE1
 70
     0
  9
$DIMSE2
 70
     0
  9
$DIMTAD
 70
     0
  9
$DIMZIN
 70
     0
  9
$DIMBLK
  1

  9
$DIMASO
 70
     1
  9
$DIMSHO
 70
     0
  9
$DIMPOST
  1

  9
$DIMAPOST
  1

  9
$DIMALT
 70
     0
  9
$DIMALTD
 70
     2
  9
$DIMALTF
 40
25.4
  9
$DIMLFAC
 40
1.0
  9
$DIMTOFL
 70
     0
  9
$DIMTVP
 40
0.0
  9
$DIMTIX
 70
     0
  9
$DIMSOXD
 70
     0
  9
$DIMSAH
 70
     0
  9
$DIMBLK1
  1

  9
$DIMBLK2
  1

  9
$DIMSTYLE
  2
*UNNAMED
  9
$DIMCLRD
 70
     0
  9
$DIMCLRE
 70
     0
  9
$DIMCLRT
 70
     0
  9
$DIMTFAC
 40
1.0
  9
$DIMGAP
 40
0.09
  9
$LUNITS
 70
     2
  9
$LUPREC
 70
     4
  9
$SKETCHINC
 40
0.1
  9
$FILLETRAD
 40
0.0
  9
$AUNITS
 70
     0
  9
$AUPREC
 70
     0
  9
$MENU
  1
ACAD
  9
$ELEVATION
 40
0.0
  9
$PELEVATION
 40
0.0
  9
$THICKNESS
 40
0.0
  9
$LIMCHECK
 70
     0
  9
$BLIPMODE
 70
     1
  9
$CHAMFERA
 40
0.0
  9
$CHAMFERB
 40
0.0
  9
$SKPOLY
 70
     0
  9
$TDCREATE
 40
2450074.684269213
  9
$TDUPDATE
 40
2450104.706053819
  9
$TDINDWG
 40
0.0009803241
  9
$TDUSRTIMER
 40
0.0009803241
  9
$USRTIMER
 70
     1
  9
$ANGBASE
 50
0.0
  9
$ANGDIR
 70
     0
  9
$PDMODE
 70
     0
  9
$PDSIZE
 40
0.0
  9
$PLINEWID
 40
0.0
  9
$COORDS
 70
     2
  9
$SPLFRAME
 70
     0
  9
$SPLINETYPE
 70
     6
  9
$SPLINESEGS
 70
     8
  9
$ATTDIA
 70
     0
  9
$ATTREQ
 70
     1
  9
$HANDLING
 70
     0
  9
$HANDSEED
  5
0
  9
$SURFTAB1
 70
     6
  9
$SURFTAB2
 70
     6
  9
$SURFTYPE
 70
     6
  9
$SURFU
 70
     6
  9
$SURFV
 70
     6
  9
$UCSNAME
  2

  9
$UCSORG
 10
0.0
 20
0.0
 30
0.0
  9
$UCSXDIR
 10
1.0
 20
0.0
 30
0.0
  9
$UCSYDIR
 10
0.0
 20
1.0
 30
0.0
  9
$PUCSNAME
  2

  9
$PUCSORG
 10
0.0
 20
0.0
 30
0.0
  9
$PUCSXDIR
 10
1.0
 20
0.0
 30
0.0
  9
$PUCSYDIR
 10
0.0
 20
1.0
 30
0.0
  9
$USERI1
 70
     0
  9
$USERI2
 70
     0
  9
$USERI3
 70
     0
  9
$USERI4
 70
     0
  9
$USERI5
 70
     0
  9
$USERR1
 40
0.0
  9
$USERR2
 40
0.0
  9
$USERR3
 40
0.0
  9
$USERR4
 40
0.0
  9
$USERR5
 40
0.0
  9
$WORLDVIEW
 70
     1
  9
$SHADEDGE
 70
     3
  9
$SHADEDIF
 70
    70
  9
$TILEMODE
 70
     1
  9
$MAXACTVP
 70
    16
  9
$PINSBASE
 10
103.947
 20
50.0
 30
23.327
  9
$PLIMCHECK
 70
     0
  9
$PEXTMIN
 10
1.000E+20
 20
1.000E+20
 30
1.000E+20
  9
$PEXTMAX
 10
-1.000E+20
 20
-1.000E+20
 30
-1.000E+20
  9
$PLIMMIN
 10
0.0
 20
0.0
  9
$PLIMMAX
 10
12.0
 20
9.0
  9
$UNITMODE
 70
     0
  9
$VISRETAIN
 70
     0
  9
$PLINEGEN
 70
     0
  9
$PSLTSCALE
 70
     0
  9
$TREEDEPTH
 70
  5020
  9
$DWGCODEPAGE
  3
undefined
  0
ENDSEC
  0
SECTION
  2
TABLES
  0
TABLE
  2
VPORT
 70
     2
  0
VPORT
  2
*ACTIVE
 70
     0
 10
0.0
 20
0.0
 11
1.0
 21
1.0
 12
35.892232
 22
95.985958
 13
0.0
 23
0.0
 14
0.01
 24
0.01
 15
0.0
 25
0.0
 16
0.0
 26
0.0
 36
1.0
 17
0.0
 27
0.0
 37
0.0
 40
16.116807
 41
1.547215
 42
50.0
 43
0.0
 44
0.0
 50
0.0
 51
0.0
 71
     0
 72
   100
 73
     1
 74
     0
 75
     0
 76
     0
 77
     0
 78
     0
  0
ENDTAB
  0
TABLE
  2
LTYPE
 70
     1
  0
LTYPE
  2
CONTINUOUS
 70
    64
  3
Solid line
 72
    65
 73
     0
 40
0.0
  0
ENDTAB
  0
TABLE
  2
LAYER
 70
     5
  0
LAYER
  2
0
 70
     0
 62
     7
  6
CONTINUOUS
  0
LAYER
  2
FRAME
 70
    64
 62
     7
  6
CONTINUOUS
  0
LAYER
  2
SURVBND
 70
    64
 62
     1
  6
CONTINUOUS
  0
LAYER
  2
TEXT
 70
    64
 62
     3
  6
CONTINUOUS
  0
LAYER
  2
GEOL
 70
    64
 62
     5
  6
CONTINUOUS
  0
ENDTAB
  0
TABLE
  2
STYLE
 70
     2
  0
STYLE
  2
STANDARD
 70
     0
 40
0.25
 41
1.0
 50
0.0
 71
     0
 42
0.25
  3
complex
  4

  0
STYLE
  2
SIMPLEX
 70
    64
 40
0.0
 41
1.0
 50
0.0
 71
     0
 42
0.025
  3
simplex
  4

  0
ENDTAB
  0
TABLE
  2
VIEW
 70
     0
  0
ENDTAB
  0
TABLE
  2
UCS
 70
     0
  0
ENDTAB
  0
TABLE
  2
APPID
 70
     1
  0
APPID
  2
ACAD
 70
    64
  0
ENDTAB
  0
TABLE
  2
DIMSTYLE
 70
     0
  0
ENDTAB
  0
ENDSEC
  0
SECTION
  2
BLOCKS
  0
ENDSEC
  0
SECTION
  2
ENTITIES
  0
POLYLINE
  8
GEOL
 66
     1
 10
0.0
 20
0.0
 30
0.0
  0
VERTEX
  8
GEOL
 10
35.363
 20
91.087
 30
0.0
 42
0.003
  0
VERTEX
  8
GEOL
 10
35.363
 20
91.087
 30
0.0
 42
0.028
  0
VERTEX
  8
GEOL
 10
35.363
 20
91.087
 30
0.0
 42
0.062
  0
VERTEX
  8
GEOL
 10
35.37
 20
91.107
 30
0.0
 42
-0.026
  0
VERTEX
  8
GEOL
 10
35.383
 20
91.154
 30
0.0
 42
-0.009
  0
VERTEX
  8
GEOL
 10
35.403
 20
91.212
 30
0.0
 42
-0.056
  0
VERTEX
  8
GEOL
 10
35.407
 20
91.22
 30
0.0
 42
-0.022
  0
VERTEX
  8
GEOL
 10
35.412
 20
91.227
 30
0.0
 42
-0.003
  0
VERTEX
  8
GEOL
 10
35.447
 20
91.271
 30
0.0
 42
-0.004
  0
VERTEX
  8
GEOL
 10
35.47
 20
91.301
 30
0.0
 42
-0.003
  0
VERTEX
  8
GEOL
 10
35.502
 20
91.339
 30
0.0
 42
-0.124
  0
VERTEX
  8
GEOL
 10
35.55
 20
91.373
 30
0.0
 42
0.136
  0
VERTEX
  8
GEOL
 10
35.593
 20
91.405
 30
0.0
 42
0.094
  0
VERTEX
  8
GEOL
 10
35.607
 20
91.433
 30
0.0
 42
-0.078
  0
VERTEX
  8
GEOL
 10
35.623
 20
91.467
 30
0.0
 42
-0.088
  0
VERTEX
  8
GEOL
 10
35.642
 20
91.486
 30
0.0
 42
0.103
  0
VERTEX
  8
GEOL
 10
35.657
 20
91.504
 30
0.0
 42
0.282
  0
VERTEX
  8
GEOL
 10
35.656
 20
91.543
 30
0.0
 42
-0.239
  0
VERTEX
  8
GEOL
 10
35.652
 20
91.589
 30
0.0
 42
-0.007
  0
VERTEX
  8
GEOL
 10
35.678
 20
91.655
 30
0.0
 42
-0.007
  0
VERTEX
  8
GEOL
 10
35.705
 20
91.718
 30
0.0
 42
-0.001
  0
VERTEX
  8
GEOL
 10
35.727
 20
91.767
 30
0.0
 42
0.002
  0
VERTEX
  8
GEOL
 10
35.735
 20
91.784
 30
0.0
 42
0.007
  0
VERTEX
  8
GEOL
 10
35.742
 20
91.801
 30
0.0
 42
-0.004
  0
VERTEX
  8
GEOL
 10
35.755
 20
91.83
 30
0.0
 42
-0.06
  0
VERTEX
  8
GEOL
 10
35.782
 20
91.877
 30
0.0
 42
0.081
  0
VERTEX
  8
GEOL
 10
35.8
 20
91.912
 30
0.0
 42
0.007
  0
VERTEX
  8
GEOL
 10
35.808
 20
91.939
 30
0.0
 42
0.005
  0
VERTEX
  8
GEOL
 10
35.819
 20
91.978
 30
0.0
 42
0.003
  0
VERTEX
  8
GEOL
 10
35.834
 20
92.032
 30
0.0
 42
-0.008
  0
VERTEX
  8
GEOL
 10
35.839
 20
92.049
 30
0.0
 42
0.0
  0
VERTEX
  8
GEOL
 10
35.84
 20
92.053
 30
0.0
 42
0.0
  0
VERTEX
  8
GEOL
 10
35.853
 20
92.096
 30
0.0
 42
-0.001
  0
VERTEX
  8
GEOL
 10
35.86
 20
92.12
 30
0.0
 42
0.001
  0
VERTEX
  8
GEOL
 10
35.868
 20
92.147
 30
0.0
 42
0.207
  0
VERTEX
  8
GEOL
 10
35.865
 20
92.174
 30
0.0
 42
-0.153
  0
VERTEX
  8
GEOL
 10
35.857
 20
92.208
 30
0.0
 42
-0.138
  0
VERTEX
  8
GEOL
 10
35.868
 20
92.237
 30
0.0
 42
0.155
  0
VERTEX
  8
GEOL
 10
35.877
 20
92.263
 30
0.0
 42
0.043
  0
VERTEX
  8
GEOL
 10
35.875
 20
92.283
 30
0.0
 42
0.038
  0
VERTEX
  8
GEOL
 10
35.87
 20
92.304
 30
0.0
 42
0.119
  0
VERTEX
  8
GEOL
 10
35.847
 20
92.343
 30
0.0
 42
-0.123
  0
VERTEX
  8
GEOL
 10
35.824
 20
92.38
 30
0.0
 42
-0.023
  0
VERTEX
  8
GEOL
 10
35.818
 20
92.405
 30
0.0
 42
-0.1
  0
VERTEX
  8
GEOL
 10
35.818
 20
92.411
 30
0.0
 42
-0.007
  0
VERTEX
  8
GEOL
 10
35.82
 20
92.42
 30
0.0
 42
-0.001
  0
VERTEX
  8
GEOL
 10
35.833
 20
92.476
 30
0.0
 42
-0.007
  0
VERTEX
  8
GEOL
 10
35.844
 20
92.52
 30
0.0
 42
0.022
  0
VERTEX
  8
GEOL
 10
35.847
 20
92.533
 30
0.0
 42
0.173
  0
VERTEX
  8
GEOL
 10
35.846
 20
92.538
 30
0.0
 42
0.017
  0
VERTEX
  8
GEOL
 10
35.822
 20
92.578
 30
0.0
 42
0.013
  0
VERTEX
  8
GEOL
 10
35.798
 20
92.612
 30
0.0
 42
0.158
  0
VERTEX
  8
GEOL
 10
35.795
 20
92.614
 30
0.0
 42
0.009
  0
VERTEX
  8
GEOL
 10
35.792
 20
92.615
 30
0.0
 42
0.001
  0
VERTEX
  8
GEOL
 10
35.76
 20
92.624
 30
0.0
 42
0.001
  0
VERTEX
  8
GEOL
 10
35.708
 20
92.638
 30
0.0
 42
0.013
  0
VERTEX
  8
GEOL
 10
35.703
 20
92.639
 30
0.0
 42
0.137
  0
VERTEX
  8
GEOL
 10
35.7
 20
92.639
 30
0.0
 42
0.014
  0
VERTEX
  8
GEOL
 10
35.669
 20
92.627
 30
0.0
 42
0.021
  0
VERTEX
  8
GEOL
 10
35.618
 20
92.604
 30
0.0
 42
0.09
  0
VERTEX
  8
GEOL
 10
35.608
 20
92.596
 30
0.0
 42
0.044
  0
VERTEX
  8
GEOL
 10
35.597
 20
92.581
 30
0.0
 42
-0.03
  0
VERTEX
  8
GEOL
 10
35.582
 20
92.56
 30
0.0
 42
-0.004
  0
VERTEX
  8
GEOL
 10
35.561
 20
92.534
 30
0.0
 42
-0.007
  0
VERTEX
  8
GEOL
 10
35.548
 20
92.519
 30
0.0
 42
-0.051
  0
VERTEX
  8
GEOL
 10
35.52
 20
92.493
 30
0.0
 42
0.051
  0
VERTEX
  8
GEOL
 10
35.492
 20
92.468
 30
0.0
 42
0.014
  0
VERTEX
  8
GEOL
 10
35.48
 20
92.453
 30
0.0
 42
0.014
  0
VERTEX
  8
GEOL
 10
35.468
 20
92.437
 30
0.0
 42
0.021
  0
VERTEX
  8
GEOL
 10
35.449
 20
92.408
 30
0.0
 42
0.03
  0
VERTEX
  8
GEOL
 10
35.438
 20
92.386
 30
0.0
 42
0.011
  0
VERTEX
  8
GEOL
 10
35.431
 20
92.369
 30
0.0
 42
0.008
  0
VERTEX
  8
GEOL
 10
35.422
 20
92.345
 30
0.0
 42
0.022
  0
VERTEX
  8
GEOL
 10
35.415
 20
92.319
 30
0.0
 42
-0.027
  0
VERTEX
  8
GEOL
 10
35.408
 20
92.298
 30
0.0
 42
-0.062
  0
VERTEX
  8
GEOL
 10
35.4
 20
92.282
 30
0.0
 42
0.065
  0
VERTEX
  8
GEOL
 10
35.393
 20
92.267
 30
0.0
 42
0.028
  0
VERTEX
  8
GEOL
 10
35.385
 20
92.24
 30
0.0
 42
-0.017
  0
VERTEX
  8
GEOL
 10
35.373
 20
92.196
 30
0.0
 42
-0.009
  0
VERTEX
  8
GEOL
 10
35.368
 20
92.18
 30
0.0
 42
0.01
  0
VERTEX
  8
GEOL
 10
35.364
 20
92.165
 30
0.0
 42
0.149
  0
VERTEX
  8
GEOL
 10
35.364
 20
92.143
 30
0.0
 42
-0.144
  0
VERTEX
  8
GEOL
 10
35.364
 20
92.12
 30
0.0
 42
-0.084
  0
VERTEX
  8
GEOL
 10
35.355
 20
92.101
 30
0.0
 42
0.072
  0
VERTEX
  8
GEOL
 10
35.344
 20
92.079
 30
0.0
 42
0.018
  0
VERTEX
  8
GEOL
 10
35.339
 20
92.062
 30
0.0
 42
0.005
  0
VERTEX
  8
GEOL
 10
35.325
 20
92.002
 30
0.0
 42
0.084
  0
VERTEX
  8
GEOL
 10
35.321
 20
91.921
 30
0.0
 42
-0.148
  0
VERTEX
  8
GEOL
 10
35.312
 20
91.875
 30
0.0
 42
-0.106
  0
VERTEX
  8
GEOL
 10
35.302
 20
91.863
 30
0.0
 42
-0.096
  0
VERTEX
  8
GEOL
 10
35.286
 20
91.855
 30
0.0
 42
-0.07
  0
VERTEX
  8
GEOL
 10
35.266
 20
91.851
 30
0.0
 42
-0.043
  0
VERTEX
  8
GEOL
 10
35.231
 20
91.854
 30
0.0
 42
-0.104
  0
VERTEX
  8
GEOL
 10
35.193
 20
91.868
 30
0.0
 42
0.182
  0
VERTEX
  8
GEOL
 10
35.17
 20
91.873
 30
0.0
 42
0.008
  0
VERTEX
  8
GEOL
 10
35.15
 20
91.87
 30
0.0
 42
0.004
  0
VERTEX
  8
GEOL
 10
35.109
 20
91.863
 30
0.0
 42
0.007
  0
VERTEX
  8
GEOL
 10
35.087
 20
91.858
 30
0.0
 42
-0.018
  0
VERTEX
  8
GEOL
 10
35.079
 20
91.856
 30
0.0
 42
-0.115
  0
VERTEX
  8
GEOL
 10
35.07
 20
91.857
 30
0.0
 42
-0.04
  0
VERTEX
  8
GEOL
 10
35.048
 20
91.866
 30
0.0
 42
-0.007
  0
VERTEX
  8
GEOL
 10
35.032
 20
91.874
 30
0.0
 42
-0.005
  0
VERTEX
  8
GEOL
 10
35.011
 20
91.886
 30
0.0
 42
-0.012
  0
VERTEX
  8
GEOL
 10
34.956
 20
91.919
 30
0.0
 42
-0.037
  0
VERTEX
  8
GEOL
 10
34.94
 20
91.931
 30
0.0
 42
-0.015
  0
VERTEX
  8
GEOL
 10
34.934
 20
91.937
 30
0.0
 42
-0.017
  0
VERTEX
  8
GEOL
 10
34.929
 20
91.941
 30
0.0
 42
-0.04
  0
VERTEX
  8
GEOL
 10
34.919
 20
91.955
 30
0.0
 42
0.025
  0
VERTEX
  8
GEOL
 10
34.904
 20
91.976
 30
0.0
 42
0.023
  0
VERTEX
  8
GEOL
 10
34.88
 20
92.004
 30
0.0
 42
-0.013
  0
VERTEX
  8
GEOL
 10
34.836
 20
92.052
 30
0.0
 42
-0.043
  0
VERTEX
  8
GEOL
 10
34.815
 20
92.082
 30
0.0
 42
0.036
  0
VERTEX
  8
GEOL
 10
34.79
 20
92.117
 30
0.0
 42
0.154
  0
VERTEX
  8
GEOL
 10
34.764
 20
92.134
 30
0.0
 42
0.077
  0
VERTEX
  8
GEOL
 10
34.703
 20
92.142
 30
0.0
 42
0.181
  0
VERTEX
  8
GEOL
 10
34.648
 20
92.119
 30
0.0
 42
0.15
  0
VERTEX
  8
GEOL
 10
34.613
 20
92.058
 30
0.0
 42
-0.048
  0
VERTEX
  8
GEOL
 10
34.615
 20
92.041
 30
0.0
 42
-0.056
  0
VERTEX
  8
GEOL
 10
34.615
 20
92.026
 30
0.0
 42
-0.141
  0
VERTEX
  8
GEOL
 10
34.597
 20
91.988
 30
0.0
 42
-0.11
  0
VERTEX
  8
GEOL
 10
34.553
 20
91.957
 30
0.0
 42
-0.129
  0
VERTEX
  8
GEOL
 10
34.518
 20
91.951
 30
0.0
 42
-0.106
  0
VERTEX
  8
GEOL
 10
34.478
 20
91.964
 30
0.0
 42
0.002
  0
VERTEX
  8
GEOL
 10
34.478
 20
91.964
 30
0.0
 42
0.097
  0
VERTEX
  8
GEOL
 10
34.441
 20
91.935
 30
0.0
 42
0.021
  0
VERTEX
  8
GEOL
 10
34.42
 20
91.909
 30
0.0
 42
0.041
  0
VERTEX
  8
GEOL
 10
34.411
 20
91.894
 30
0.0
 42
0.143
  0
VERTEX
  8
GEOL
 10
34.404
 20
91.856
 30
0.0
 42
-0.124
  0
VERTEX
  8
GEOL
 10
34.398
 20
91.812
 30
0.0
 42
-0.079
  0
VERTEX
  8
GEOL
 10
34.376
 20
91.777
 30
0.0
 42
-0.155
  0
VERTEX
  8
GEOL
 10
34.358
 20
91.765
 30
0.0
 42
-0.088
  0
VERTEX
  8
GEOL
 10
34.339
 20
91.764
 30
0.0
 42
-0.05
  0
VERTEX
  8
GEOL
 10
34.307
 20
91.771
 30
0.0
 42
-0.045
  0
VERTEX
  8
GEOL
 10
34.271
 20
91.785
 30
0.0
 42
-0.069
  0
VERTEX
  8
GEOL
 10
34.25
 20
91.8
 30
0.0
 42
-0.246
  0
VERTEX
  8
GEOL
 10
34.243
 20
91.82
 30
0.0
 42
0.426
  0
VERTEX
  8
GEOL
 10
34.235
 20
91.831
 30
0.0
 42
0.031
  0
VERTEX
  8
GEOL
 10
34.23
 20
91.831
 30
0.0
 42
0.009
  0
VERTEX
  8
GEOL
 10
34.213
 20
91.83
 30
0.0
 42
0.024
  0
VERTEX
  8
GEOL
 10
34.147
 20
91.824
 30
0.0
 42
0.155
  0
VERTEX
  8
GEOL
 10
34.138
 20
91.819
 30
0.0
 42
0.041
  0
VERTEX
  8
GEOL
 10
34.13
 20
91.81
 30
0.0
 42
-0.014
  0
VERTEX
  8
GEOL
 10
34.108
 20
91.782
 30
0.0
 42
-0.008
  0
VERTEX
  8
GEOL
 10
34.062
 20
91.73
 30
0.0
 42
-0.106
  0
VERTEX
  8
GEOL
 10
34.058
 20
91.727
 30
0.0
 42
-0.221
  0
VERTEX
  8
GEOL
 10
34.054
 20
91.727
 30
0.0
 42
0.065
  0
VERTEX
  8
GEOL
 10
34.042
 20
91.731
 30
0.0
 42
0.066
  0
VERTEX
  8
GEOL
 10
33.978
 20
91.735
 30
0.0
 42
0.217
  0
VERTEX
  8
GEOL
 10
33.96
 20
91.725
 30
0.0
 42
0.02
  0
VERTEX
  8
GEOL
 10
33.95
 20
91.71
 30
0.0
 42
0.01
  0
VERTEX
  8
GEOL
 10
33.93
 20
91.678
 30
0.0
 42
0.002
  0
VERTEX
  8
GEOL
 10
33.919
 20
91.658
 30
0.0
 42
0.011
  0
VERTEX
  8
GEOL
 10
33.916
 20
91.654
 30
0.0
 42
0.159
  0
VERTEX
  8
GEOL
 10
33.913
 20
91.634
 30
0.0
 42
-0.118
  0
VERTEX
  8
GEOL
 10
33.911
 20
91.607
 30
0.0
 42
-0.016
  0
VERTEX
  8
GEOL
 10
33.897
 20
91.568
 30
0.0
 42
0.015
  0
VERTEX
  8
GEOL
 10
33.882
 20
91.525
 30
0.0
 42
0.006
  0
VERTEX
  8
GEOL
 10
33.876
 20
91.508
 30
0.0
 42
-0.007
  0
VERTEX
  8
GEOL
 10
33.872
 20
91.495
 30
0.0
 42
-0.051
  0
VERTEX
  8
GEOL
 10
33.86
 20
91.468
 30
0.0
 42
-0.047
  0
VERTEX
  8
GEOL
 10
33.842
 20
91.443
 30
0.0
 42
-0.024
  0
VERTEX
  8
GEOL
 10
33.828
 20
91.428
 30
0.0
 42
0.017
  0
VERTEX
  8
GEOL
 10
33.808
 20
91.408
 30
0.0
 42
0.028
  0
VERTEX
  8
GEOL
 10
33.793
 20
91.39
 30
0.0
 42
-0.039
  0
VERTEX
  8
GEOL
 10
33.782
 20
91.377
 30
0.0
 42
-0.106
  0
VERTEX
  8
GEOL
 10
33.767
 20
91.368
 30
0.0
 42
-0.03
  0
VERTEX
  8
GEOL
 10
33.711
 20
91.35
 30
0.0
 42
-0.045
  0
VERTEX
  8
GEOL
 10
33.673
 20
91.344
 30
0.0
 42
0.076
  0
VERTEX
  8
GEOL
 10
33.65
 20
91.339
 30
0.0
 42
0.037
  0
VERTEX
  8
GEOL
 10
33.641
 20
91.335
 30
0.0
 42
0.009
  0
VERTEX
  8
GEOL
 10
33.605
 20
91.314
 30
0.0
 42
0.034
  0
VERTEX
  8
GEOL
 10
33.573
 20
91.29
 30
0.0
 42
0.055
  0
VERTEX
  8
GEOL
 10
33.555
 20
91.272
 30
0.0
 42
0.525
  0
VERTEX
  8
GEOL
 10
33.562
 20
91.249
 30
0.0
 42
-0.507
  0
VERTEX
  8
GEOL
 10
33.57
 20
91.226
 30
0.0
 42
-0.041
  0
VERTEX
  8
GEOL
 10
33.552
 20
91.205
 30
0.0
 42
-0.014
  0
VERTEX
  8
GEOL
 10
33.496
 20
91.15
 30
0.0
 42
-0.007
  0
VERTEX
  8
GEOL
 10
33.467
 20
91.124
 30
0.0
 42
-0.032
  0
VERTEX
  8
GEOL
 10
33.46
 20
91.119
 30
0.0
 42
-0.352
  0
VERTEX
  8
GEOL
 10
33.442
 20
91.12
 30
0.0
 42
-0.111
  0
VERTEX
  8
GEOL
 10
33.414
 20
91.163
 30
0.0
 42
-0.017
  0
VERTEX
  8
GEOL
 10
33.405
 20
91.189
 30
0.0
 42
-0.046
  0
VERTEX
  8
GEOL
 10
33.403
 20
91.199
 30
0.0
 42
-0.045
  0
VERTEX
  8
GEOL
 10
33.403
 20
91.217
 30
0.0
 42
0.047
  0
VERTEX
  8
GEOL
 10
33.403
 20
91.234
 30
0.0
 42
0.084
  0
VERTEX
  8
GEOL
 10
33.394
 20
91.265
 30
0.0
 42
-0.089
  0
VERTEX
  8
GEOL
 10
33.386
 20
91.295
 30
0.0
 42
-0.028
  0
VERTEX
  8
GEOL
 10
33.386
 20
91.304
 30
0.0
 42
0.015
  0
VERTEX
  8
GEOL
 10
33.386
 20
91.321
 30
0.0
 42
0.115
  0
VERTEX
  8
GEOL
 10
33.375
 20
91.363
 30
0.0
 42
-0.121
  0
VERTEX
  8
GEOL
 10
33.364
 20
91.402
 30
0.0
 42
-0.323
  0
VERTEX
  8
GEOL
 10
33.399
 20
91.451
 30
0.0
 42
0.218
  0
VERTEX
  8
GEOL
 10
33.46
 20
91.509
 30
0.0
 42
0.034
  0
VERTEX
  8
GEOL
 10
33.469
 20
91.535
 30
0.0
 42
-0.055
  0
VERTEX
  8
GEOL
 10
33.474
 20
91.55
 30
0.0
 42
-0.128
  0
VERTEX
  8
GEOL
 10
33.497
 20
91.576
 30
0.0
 42
0.084
  0
VERTEX
  8
GEOL
 10
33.535
 20
91.612
 30
0.0
 42
0.081
  0
VERTEX
  8
GEOL
 10
33.611
 20
91.76
 30
0.0
 42
0.045
  0
VERTEX
  8
GEOL
 10
33.677
 20
92.047
 30
0.0
 42
0.004
  0
VERTEX
  8
GEOL
 10
33.685
 20
92.107
 30
0.0
 42
0.014
  0
VERTEX
  8
GEOL
 10
33.686
 20
92.123
 30
0.0
 42
0.09
  0
VERTEX
  8
GEOL
 10
33.678
 20
92.194
 30
0.0
 42
-0.115
  0
VERTEX
  8
GEOL
 10
33.674
 20
92.25
 30
0.0
 42
-0.017
  0
VERTEX
  8
GEOL
 10
33.678
 20
92.268
 30
0.0
 42
-0.013
  0
VERTEX
  8
GEOL
 10
33.684
 20
92.291
 30
0.0
 42
-0.059
  0
VERTEX
  8
GEOL
 10
33.722
 20
92.381
 30
0.0
 42
0.056
  0
VERTEX
  8
GEOL
 10
33.763
 20
92.475
 30
0.0
 42
0.011
  0
VERTEX
  8
GEOL
 10
33.778
 20
92.53
 30
0.0
 42
0.03
  0
VERTEX
  8
GEOL
 10
33.782
 20
92.551
 30
0.0
 42
0.027
  0
VERTEX
  8
GEOL
 10
33.784
 20
92.573
 30
0.0
 42
-0.016
  0
VERTEX
  8
GEOL
 10
33.786
 20
92.608
 30
0.0
 42
-0.023
  0
VERTEX
  8
GEOL
 10
33.793
 20
92.66
 30
0.0
 42
-0.041
  0
VERTEX
  8
GEOL
 10
33.801
 20
92.689
 30
0.0
 42
-0.137
  0
VERTEX
  8
GEOL
 10
33.816
 20
92.711
 30
0.0
 42
0.096
  0
VERTEX
  8
GEOL
 10
33.841
 20
92.741
 30
0.0
 42
0.033
  0
VERTEX
  8
GEOL
 10
33.854
 20
92.768
 30
0.0
 42
0.028
  0
VERTEX
  8
GEOL
 10
33.865
 20
92.802
 30
0.0
 42
0.069
  0
VERTEX
  8
GEOL
 10
33.868
 20
92.831
 30
0.0
 42
0.029
  0
VERTEX
  8
GEOL
 10
33.863
 20
92.899
 30
0.0
 42
0.095
  0
VERTEX
  8
GEOL
 10
33.836
 20
92.981
 30
0.0
 42
0.244
  0
VERTEX
  8
GEOL
 10
33.807
 20
93.0
 30
0.0
 42
0.16
  0
VERTEX
  8
GEOL
 10
33.765
 20
92.991
 30
0.0
 42
0.08
  0
VERTEX
  8
GEOL
 10
33.7
 20
92.938
 30
0.0
 42
0.003
  0
VERTEX
  8
GEOL
 10
33.67
 20
92.903
 30
0.0
 42
0.006
  0
VERTEX
  8
GEOL
 10
33.656
 20
92.886
 30
0.0
 42
0.017
  0
VERTEX
  8
GEOL
 10
33.641
 20
92.867
 30
0.0
 42
-0.012
  0
VERTEX
  8
GEOL
 10
33.62
 20
92.839
 30
0.0
 42
-0.179
  0
VERTEX
  8
GEOL
 10
33.541
 20
92.792
 30
0.0
 42
-0.459
  0
VERTEX
  8
GEOL
 10
33.508
 20
92.818
 30
0.0
 42
-0.016
  0
VERTEX
  8
GEOL
 10
33.508
 20
92.833
 30
0.0
 42
0.017
  0
VERTEX
  8
GEOL
 10
33.508
 20
92.848
 30
0.0
 42
0.011
  0
VERTEX
  8
GEOL
 10
33.507
 20
92.863
 30
0.0
 42
0.004
  0
VERTEX
  8
GEOL
 10
33.503
 20
92.905
 30
0.0
 42
0.18
  0
VERTEX
  8
GEOL
 10
33.443
 20
93.025
 30
0.0
 42
0.302
  0
VERTEX
  8
GEOL
 10
33.359
 20
93.039
 30
0.0
 42
0.001
  0
VERTEX
  8
GEOL
 10
33.326
 20
93.025
 30
0.0
 42
0.001
  0
VERTEX
  8
GEOL
 10
33.302
 20
93.014
 30
0.0
 42
0.002
  0
VERTEX
  8
GEOL
 10
33.24
 20
92.985
 30
0.0
 42
-0.005
  0
VERTEX
  8
GEOL
 10
33.212
 20
92.972
 30
0.0
 42
-0.087
  0
VERTEX
  8
GEOL
 10
33.197
 20
92.969
 30
0.0
 42
-0.014
  0
VERTEX
  8
GEOL
 10
33.11
 20
92.965
 30
0.0
 42
-0.031
  0
VERTEX
  8
GEOL
 10
33.044
 20
92.968
 30
0.0
 42
-0.128
  0
VERTEX
  8
GEOL
 10
33.028
 20
92.974
 30
0.0
 42
-0.175
  0
VERTEX
  8
GEOL
 10
33.02
 20
92.987
 30
0.0
 42
-0.097
  0
VERTEX
  8
GEOL
 10
33.018
 20
93.015
 30
0.0
 42
-0.048
  0
VERTEX
  8
GEOL
 10
33.026
 20
93.05
 30
0.0
 42
0.053
  0
VERTEX
  8
GEOL
 10
33.033
 20
93.082
 30
0.0
 42
0.014
  0
VERTEX
  8
GEOL
 10
33.037
 20
93.135
 30
0.0
 42
-0.014
  0
VERTEX
  8
GEOL
 10
33.042
 20
93.188
 30
0.0
 42
-0.012
  0
VERTEX
  8
GEOL
 10
33.056
 20
93.295
 30
0.0
 42
-0.035
  0
VERTEX
  8
GEOL
 10
33.064
 20
93.33
 30
0.0
 42
-0.016
  0
VERTEX
  8
GEOL
 10
33.074
 20
93.358
 30
0.0
 42
0.015
  0
VERTEX
  8
GEOL
 10
33.084
 20
93.387
 30
0.0
 42
0.003
  0
VERTEX
  8
GEOL
 10
33.095
 20
93.425
 30
0.0
 42
0.005
  0
VERTEX
  8
GEOL
 10
33.103
 20
93.453
 30
0.0
 42
0.012
  0
VERTEX
  8
GEOL
 10
33.113
 20
93.493
 30
0.0
 42
0.018
  0
VERTEX
  8
GEOL
 10
33.119
 20
93.52
 30
0.0
 42
0.011
  0
VERTEX
  8
GEOL
 10
33.122
 20
93.548
 30
0.0
 42
0.005
  0
VERTEX
  8
GEOL
 10
33.128
 20
93.606
 30
0.0
 42
0.005
  0
VERTEX
  8
GEOL
 10
33.129
 20
93.628
 30
0.0
 42
-0.004
  0
VERTEX
  8
GEOL
 10
33.131
 20
93.657
 30
0.0
 42
-0.052
  0
VERTEX
  8
GEOL
 10
33.14
 20
93.706
 30
0.0
 42
0.069
  0
VERTEX
  8
GEOL
 10
33.146
 20
93.744
 30
0.0
 42
0.043
  0
VERTEX
  8
GEOL
 10
33.144
 20
93.771
 30
0.0
 42
-0.027
  0
VERTEX
  8
GEOL
 10
33.139
 20
93.815
 30
0.0
 42
-0.016
  0
VERTEX
  8
GEOL
 10
33.139
 20
93.835
 30
0.0
 42
0.009
  0
VERTEX
  8
GEOL
 10
33.139
 20
93.87
 30
0.0
 42
0.168
  0
VERTEX
  8
GEOL
 10
33.118
 20
93.926
 30
0.0
 42
-0.165
  0
VERTEX
  8
GEOL
 10
33.096
 20
93.982
 30
0.0
 42
-0.78
  0
VERTEX
  8
GEOL
 10
33.159
 20
94.0
 30
0.0
 42
0.725
  0
VERTEX
  8
GEOL
 10
33.224
 20
94.014
 30
0.0
 42
0.008
  0
VERTEX
  8
GEOL
 10
33.227
 20
94.05
 30
0.0
 42
0.018
  0
VERTEX
  8
GEOL
 10
33.228
 20
94.065
 30
0.0
 42
0.008
  0
VERTEX
  8
GEOL
 10
33.227
 20
94.095
 30
0.0
 42
-0.015
  0
VERTEX
  8
GEOL
 10
33.227
 20
94.111
 30
0.0
 42
-0.032
  0
VERTEX
  8
GEOL
 10
33.228
 20
94.121
 30
0.0
 42
-0.006
  0
VERTEX
  8
GEOL
 10
33.236
 20
94.172
 30
0.0
 42
-0.048
  0
VERTEX
  8
GEOL
 10
33.252
 20
94.23
 30
0.0
 42
-0.128
  0
VERTEX
  8
GEOL
 10
33.266
 20
94.248
 30
0.0
 42
-0.309
  0
VERTEX
  8
GEOL
 10
33.305
 20
94.252
 30
0.0
 42
0.165
  0
VERTEX
  8
GEOL
 10
33.373
 20
94.24
 30
0.0
 42
0.007
  0
VERTEX
  8
GEOL
 10
33.403
 20
94.245
 30
0.0
 42
-0.02
  0
VERTEX
  8
GEOL
 10
33.414
 20
94.246
 30
0.0
 42
-0.007
  0
VERTEX
  8
GEOL
 10
33.458
 20
94.25
 30
0.0
 42
-0.009
  0
VERTEX
  8
GEOL
 10
33.49
 20
94.251
 30
0.0
 42
-0.005
  0
VERTEX
  8
GEOL
 10
33.499
 20
94.252
 30
0.0
 42
-0.002
  0
VERTEX
  8
GEOL
 10
33.53
 20
94.252
 30
0.0
 42
-0.022
  0
VERTEX
  8
GEOL
 10
33.565
 20
94.251
 30
0.0
 42
-0.011
  0
VERTEX
  8
GEOL
 10
33.638
 20
94.243
 30
0.0
 42
-0.067
  0
VERTEX
  8
GEOL
 10
33.676
 20
94.233
 30
0.0
 42
-0.067
  0
VERTEX
  8
GEOL
 10
33.709
 20
94.214
 30
0.0
 42
-0.346
  0
VERTEX
  8
GEOL
 10
33.721
 20
94.166
 30
0.0
 42
0.309
  0
VERTEX
  8
GEOL
 10
33.731
 20
94.112
 30
0.0
 42
0.005
  0
VERTEX
  8
GEOL
 10
33.754
 20
94.089
 30
0.0
 42
0.017
  0
VERTEX
  8
GEOL
 10
33.762
 20
94.082
 30
0.0
 42
0.002
  0
VERTEX
  8
GEOL
 10
33.779
 20
94.068
 30
0.0
 42
0.002
  0
VERTEX
  8
GEOL
 10
33.803
 20
94.048
 30
0.0
 42
0.038
  0
VERTEX
  8
GEOL
 10
33.851
 20
94.014
 30
0.0
 42
-0.062
  0
VERTEX
  8
GEOL
 10
33.879
 20
93.992
 30
0.0
 42
-0.059
  0
VERTEX
  8
GEOL
 10
33.89
 20
93.979
 30
0.0
 42
-0.023
  0
VERTEX
  8
GEOL
 10
33.911
 20
93.942
 30
0.0
 42
-0.017
  0
VERTEX
  8
GEOL
 10
33.924
 20
93.913
 30
0.0
 42
-0.023
  0
VERTEX
  8
GEOL
 10
33.932
 20
93.891
 30
0.0
 42
-0.103
  0
VERTEX
  8
GEOL
 10
33.935
 20
93.856
 30
0.0
 42
0.101
  0
VERTEX
  8
GEOL
 10
33.938
 20
93.82
 30
0.0
 42
0.02
  0
VERTEX
  8
GEOL
 10
33.945
 20
93.801
 30
0.0
 42
0.006
  0
VERTEX
  8
GEOL
 10
33.97
 20
93.739
 30
0.0
 42
0.018
  0
VERTEX
  8
GEOL
 10
33.99
 20
93.697
 30
0.0
 42
0.026
  0
VERTEX
  8
GEOL
 10
34.006
 20
93.668
 30
0.0
 42
0.281
  0
VERTEX
  8
GEOL
 10
34.044
 20
93.65
 30
0.0
 42
0.325
  0
VERTEX
  8
GEOL
 10
34.072
 20
93.675
 30
0.0
 42
0.023
  0
VERTEX
  8
GEOL
 10
34.077
 20
93.704
 30
0.0
 42
-0.024
  0
VERTEX
  8
GEOL
 10
34.082
 20
93.73
 30
0.0
 42
-0.001
  0
VERTEX
  8
GEOL
 10
34.094
 20
93.784
 30
0.0
 42
-0.004
  0
VERTEX
  8
GEOL
 10
34.096
 20
93.792
 30
0.0
 42
-0.01
  0
VERTEX
  8
GEOL
 10
34.1
 20
93.806
 30
0.0
 42
0.007
  0
VERTEX
  8
GEOL
 10
34.105
 20
93.828
 30
0.0
 42
0.03
  0
VERTEX
  8
GEOL
 10
34.113
 20
93.868
 30
0.0
 42
0.039
  0
VERTEX
  8
GEOL
 10
34.115
 20
93.899
 30
0.0
 42
0.027
  0
VERTEX
  8
GEOL
 10
34.113
 20
93.916
 30
0.0
 42
-0.014
  0
VERTEX
  8
GEOL
 10
34.11
 20
93.95
 30
0.0
 42
-0.017
  0
VERTEX
  8
GEOL
 10
34.108
 20
93.98
 30
0.0
 42
-0.034
  0
VERTEX
  8
GEOL
 10
34.109
 20
93.995
 30
0.0
 42
-0.365
  0
VERTEX
  8
GEOL
 10
34.128
 20
94.013
 30
0.0
 42
0.103
  0
VERTEX
  8
GEOL
 10
34.206
 20
94.033
 30
0.0
 42
0.039
  0
VERTEX
  8
GEOL
 10
34.344
 20
94.115
 30
0.0
 42
0.083
  0
VERTEX
  8
GEOL
 10
34.397
 20
94.167
 30
0.0
 42
0.121
  0
VERTEX
  8
GEOL
 10
34.421
 20
94.226
 30
0.0
 42
0.225
  0
VERTEX
  8
GEOL
 10
34.411
 20
94.259
 30
0.0
 42
0.074
  0
VERTEX
  8
GEOL
 10
34.366
 20
94.295
 30
0.0
 42
-0.058
  0
VERTEX
  8
GEOL
 10
34.308
 20
94.339
 30
0.0
 42
-0.002
  0
VERTEX
  8
GEOL
 10
34.294
 20
94.352
 30
0.0
 42
-0.024
  0
VERTEX
  8
GEOL
 10
34.293
 20
94.354
 30
0.0
 42
-0.112
  0
VERTEX
  8
GEOL
 10
34.289
 20
94.361
 30
0.0
 42
-0.03
  0
VERTEX
  8
GEOL
 10
34.282
 20
94.394
 30
0.0
 42
-0.032
  0
VERTEX
  8
GEOL
 10
34.281
 20
94.41
 30
0.0
 42
-0.034
  0
VERTEX
  8
GEOL
 10
34.282
 20
94.425
 30
0.0
 42
-0.181
  0
VERTEX
  8
GEOL
 10
34.291
 20
94.441
 30
0.0
 42
-0.111
  0
VERTEX
  8
GEOL
 10
34.316
 20
94.456
 30
0.0
 42
-0.111
  0
VERTEX
  8
GEOL
 10
34.357
 20
94.458
 30
0.0
 42
-0.091
  0
VERTEX
  8
GEOL
 10
34.404
 20
94.442
 30
0.0
 42
-0.033
  0
VERTEX
  8
GEOL
 10
34.431
 20
94.425
 30
0.0
 42
0.066
  0
VERTEX
  8
GEOL
 10
34.445
 20
94.417
 30
0.0
 42
0.003
  0
VERTEX
  8
GEOL
 10
34.458
 20
94.411
 30
0.0
 42
-0.003
  0
VERTEX
  8
GEOL
 10
34.47
 20
94.407
 30
0.0
 42
-0.006
  0
VERTEX
  8
GEOL
 10
34.486
 20
94.4
 30
0.0
 42
0.003
  0
VERTEX
  8
GEOL
 10
34.516
 20
94.387
 30
0.0
 42
0.053
  0
VERTEX
  8
GEOL
 10
34.56
 20
94.374
 30
0.0
 42
0.316
  0
VERTEX
  8
GEOL
 10
34.567
 20
94.378
 30
0.0
 42
0.095
  0
VERTEX
  8
GEOL
 10
34.57
 20
94.385
 30
0.0
 42
0.041
  0
VERTEX
  8
GEOL
 10
34.571
 20
94.404
 30
0.0
  0
VERTEX
  8
GEOL
 10
34.57
 20
94.485
 30
0.0
  0
VERTEX
  8
GEOL
 10
34.57
 20
94.516
 30
0.0
 42
0.231
  0
VERTEX
  8
GEOL
 10
34.565
 20
94.525
 30
0.0
 42
-0.075
  0
VERTEX
  8
GEOL
 10
34.545
 20
94.546
 30
0.0
 42
-0.209
  0
VERTEX
  8
GEOL
 10
34.53
 20
94.614
 30
0.0
 42
0.267
  0
VERTEX
  8
GEOL
 10
34.513
 20
94.667
 30
0.0
 42
0.317
  0
VERTEX
  8
GEOL
 10
34.454
 20
94.674
 30
0.0
 42
-0.225
  0
VERTEX
  8
GEOL
 10
34.375
 20
94.67
 30
0.0
 42
-0.063
  0
VERTEX
  8
GEOL
 10
34.29
 20
94.718
 30
0.0
 42
0.086
  0
VERTEX
  8
GEOL
 10
34.227
 20
94.749
 30
0.0
 42
0.008
  0
VERTEX
  8
GEOL
 10
34.189
 20
94.76
 30
0.0
 42
0.015
  0
VERTEX
  8
GEOL
 10
34.17
 20
94.765
 30
0.0
 42
0.072
  0
VERTEX
  8
GEOL
 10
34.096
 20
94.769
 30
0.0
 42
-0.071
  0
VERTEX
  8
GEOL
 10
34.022
 20
94.773
 30
0.0
 42
-0.018
  0
VERTEX
  8
GEOL
 10
33.993
 20
94.78
 30
0.0
 42
-0.083
  0
VERTEX
  8
GEOL
 10
33.987
 20
94.782
 30
0.0
 42
-0.03
  0
VERTEX
  8
GEOL
 10
33.983
 20
94.786
 30
0.0
 42
-0.009
  0
VERTEX
  8
GEOL
 10
33.97
 20
94.797
 30
0.0
 42
-0.024
  0
VERTEX
  8
GEOL
 10
33.953
 20
94.815
 30
0.0
 42
-0.027
  0
VERTEX
  8
GEOL
 10
33.939
 20
94.833
 30
0.0
 42
-0.113
  0
VERTEX
  8
GEOL
 10
33.93
 20
94.857
 30
0.0
 42
-0.063
  0
VERTEX
  8
GEOL
 10
33.928
 20
94.904
 30
0.0
 42
-0.05
  0
VERTEX
  8
GEOL
 10
33.943
 20
94.977
 30
0.0
 42
0.04
  0
VERTEX
  8
GEOL
 10
33.963
 20
95.067
 30
0.0
 42
0.016
  0
VERTEX
  8
GEOL
 10
33.972
 20
95.155
 30
0.0
 42
-0.016
  0
VERTEX
  8
GEOL
 10
33.981
 20
95.24
 30
0.0
 42
-0.028
  0
VERTEX
  8
GEOL
 10
34.009
 20
95.385
 30
0.0
 42
-0.02
  0
VERTEX
  8
GEOL
 10
34.068
 20
95.581
 30
0.0
 42
-0.064
  0
VERTEX
  8
GEOL
 10
34.098
 20
95.644
 30
0.0
 42
0.12
  0
VERTEX
  8
GEOL
 10
34.111
 20
95.679
 30
0.0
 42
0.098
  0
VERTEX
  8
GEOL
 10
34.108
 20
95.723
 30
0.0
 42
-0.058
  0
VERTEX
  8
GEOL
 10
34.095
 20
95.797
 30
0.0
 42
-0.032
  0
VERTEX
  8
GEOL
 10
34.096
 20
95.832
 30
0.0
 42
0.077
  0
VERTEX
  8
GEOL
 10
34.095
 20
95.847
 30
0.0
 42
0.151
  0
VERTEX
  8
GEOL
 10
34.085
 20
95.865
 30
0.0
 42
-0.104
  0
VERTEX
  8
GEOL
 10
34.068
 20
95.888
 30
0.0
 42
-0.01
  0
VERTEX
  8
GEOL
 10
34.05
 20
95.932
 30
0.0
 42
-0.021
  0
VERTEX
  8
GEOL
 10
34.042
 20
95.953
 30
0.0
 42
-0.002
  0
VERTEX
  8
GEOL
 10
34.036
 20
95.975
 30
0.0
 42
0.003
  0
VERTEX
  8
GEOL
 10
34.032
 20
95.989
 30
0.0
 42
0.004
  0
VERTEX
  8
GEOL
 10
34.024
 20
96.014
 30
0.0
 42
-0.01
  0
VERTEX
  8
GEOL
 10
34.021
 20
96.024
 30
0.0
 42
-0.01
  0
VERTEX
  8
GEOL
 10
34.02
 20
96.029
 30
0.0
 42
-0.001
  0
VERTEX
  8
GEOL
 10
34.01
 20
96.07
 30
0.0
 42
-0.001
  0
VERTEX
  8
GEOL
 10
34.0
 20
96.115
 30
0.0
 42
-0.001
  0
VERTEX
  8
GEOL
 10
33.982
 20
96.196
 30
0.0
 42
-0.011
  0
VERTEX
  8
GEOL
 10
33.977
 20
96.223
 30
0.0
 42
0.01
  0
VERTEX
  8
GEOL
 10
33.972
 20
96.253
 30
0.0
 42
0.059
  0
VERTEX
  8
GEOL
 10
33.962
 20
96.279
 30
0.0
 42
-0.028
  0
VERTEX
  8
GEOL
 10
33.94
 20
96.333
 30
0.0
 42
-0.026
  0
VERTEX
  8
GEOL
 10
33.926
 20
96.382
 30
0.0
 42
-0.076
  0
VERTEX
  8
GEOL
 10
33.925
 20
96.399
 30
0.0
 42
-0.177
  0
VERTEX
  8
GEOL
 10
33.931
 20
96.414
 30
0.0
 42
0.114
  0
VERTEX
  8
GEOL
 10
33.944
 20
96.435
 30
0.0
 42
0.034
  0
VERTEX
  8
GEOL
 10
33.953
 20
96.468
 30
0.0
 42
0.064
  0
VERTEX
  8
GEOL
 10
33.954
 20
96.486
 30
0.0
 42
0.072
  0
VERTEX
  8
GEOL
 10
33.95
 20
96.506
 30
0.0
 42
-0.056
  0
VERTEX
  8
GEOL
 10
33.943
 20
96.531
 30
0.0
 42
-0.067
  0
VERTEX
  8
GEOL
 10
33.943
 20
96.561
 30
0.0
 42
0.077
  0
VERTEX
  8
GEOL
 10
33.942
 20
96.588
 30
0.0
 42
0.069
  0
VERTEX
  8
GEOL
 10
33.932
 20
96.619
 30
0.0
 42
0.058
  0
VERTEX
  8
GEOL
 10
33.911
 20
96.653
 30
0.0
 42
0.016
  0
VERTEX
  8
GEOL
 10
33.887
 20
96.68
 30
0.0
 42
0.031
  0
VERTEX
  8
GEOL
 10
33.874
 20
96.693
 30
0.0
 42
0.007
  0
VERTEX
  8
GEOL
 10
33.87
 20
96.696
 30
0.0
 42
0.001
  0
VERTEX
  8
GEOL
 10
33.849
 20
96.713
 30
0.0
 42
0.054
  0
VERTEX
  8
GEOL
 10
33.666
 20
96.828
 30
0.0
 42
-0.058
  0
VERTEX
  8
GEOL
 10
33.495
 20
96.938
 30
0.0
 42
-0.048
  0
VERTEX
  8
GEOL
 10
33.459
 20
96.973
 30
0.0
 42
0.057
  0
VERTEX
  8
GEOL
 10
33.428
 20
97.002
 30
0.0
 42
0.064
  0
VERTEX
  8
GEOL
 10
33.402
 20
97.017
 30
0.0
 42
0.053
  0
VERTEX
  8
GEOL
 10
33.367
 20
97.028
 30
0.0
 42
0.103
  0
VERTEX
  8
GEOL
 10
33.314
 20
97.026
 30
0.0
 42
0.13
  0
VERTEX
  8
GEOL
 10
33.276
 20
97.006
 30
0.0
 42
0.001
  0
VERTEX
  8
GEOL
 10
33.241
 20
96.974
 30
0.0
 42
0.001
  0
VERTEX
  8
GEOL
 10
33.21
 20
96.944
 30
0.0
 42
0.0
  0
VERTEX
  8
GEOL
 10
33.171
 20
96.908
 30
0.0
 42
-0.001
  0
VERTEX
  8
GEOL
 10
33.155
 20
96.893
 30
0.0
 42
-0.017
  0
VERTEX
  8
GEOL
 10
33.152
 20
96.89
 30
0.0
 42
-0.001
  0
VERTEX
  8
GEOL
 10
33.105
 20
96.851
 30
0.0
 42
-0.03
  0
VERTEX
  8
GEOL
 10
32.951
 20
96.741
 30
0.0
 42
-0.125
  0
VERTEX
  8
GEOL
 10
32.908
 20
96.727
 30
0.0
 42
-0.024
  0
VERTEX
  8
GEOL
 10
32.901
 20
96.727
 30
0.0
 42
0.022
  0
VERTEX
  8
GEOL
 10
32.893
 20
96.726
 30
0.0
 42
0.105
  0
VERTEX
  8
GEOL
 10
32.841
 20
96.713
 30
0.0
 42
-0.141
  0
VERTEX
  8
GEOL
 10
32.802
 20
96.705
 30
0.0
 42
-0.01
  0
VERTEX
  8
GEOL
 10
32.771
 20
96.708
 30
0.0
 42
-0.007
  0
VERTEX
  8
GEOL
 10
32.731
 20
96.714
 30
0.0
 42
-0.001
  0
VERTEX
  8
GEOL
 10
32.659
 20
96.726
 30
0.0
 42
-0.009
  0
VERTEX
  8
GEOL
 10
32.649
 20
96.728
 30
0.0
 42
-0.005
  0
VERTEX
  8
GEOL
 10
32.621
 20
96.734
 30
0.0
 42
-0.004
  0
VERTEX
  8
GEOL
 10
32.582
 20
96.743
 30
0.0
 42
-0.002
  0
VERTEX
  8
GEOL
 10
32.571
 20
96.745
 30
0.0
 42
0.0
  0
VERTEX
  8
GEOL
 10
32.527
 20
96.756
 30
0.0
 42
-0.026
  0
VERTEX
  8
GEOL
 10
32.483
 20
96.77
 30
0.0
 42
0.049
  0
VERTEX
  8
GEOL
 10
32.459
 20
96.776
 30
0.0
 42
0.059
  0
VERTEX
  8
GEOL
 10
32.45
 20
96.776
 30
0.0
 42
0.01
  0
VERTEX
  8
GEOL
 10
32.394
 20
96.771
 30
0.0
 42
0.009
  0
VERTEX
  8
GEOL
 10
32.335
 20
96.762
 30
0.0
 42
0.042
  0
VERTEX
  8
GEOL
 10
32.323
 20
96.76
 30
0.0
 42
0.043
  0
VERTEX
  8
GEOL
 10
32.293
 20
96.747
 30
0.0
 42
-0.025
  0
VERTEX
  8
GEOL
 10
32.242
 20
96.722
 30
0.0
 42
-0.001
  0
VERTEX
  8
GEOL
 10
32.19
 20
96.7
 30
0.0
 42
-0.001
  0
VERTEX
  8
GEOL
 10
32.156
 20
96.686
 30
0.0
 42
-0.006
  0
VERTEX
  8
GEOL
 10
32.133
 20
96.677
 30
0.0
 42
0.002
  0
VERTEX
  8
GEOL
 10
32.075
 20
96.655
 30
0.0
 42
0.038
  0
VERTEX
  8
GEOL
 10
31.982
 20
96.61
 30
0.0
 42
0.091
  0
VERTEX
  8
GEOL
 10
31.949
 20
96.582
 30
0.0
 42
0.121
  0
VERTEX
  8
GEOL
 10
31.938
 20
96.558
 30
0.0
 42
0.136
  0
VERTEX
  8
GEOL
 10
31.94
 20
96.535
 30
0.0
 42
0.03
  0
VERTEX
  8
GEOL
 10
31.948
 20
96.515
 30
0.0
 42
0.056
  0
VERTEX
  8
GEOL
 10
31.955
 20
96.505
 30
0.0
 42
0.013
  0
VERTEX
  8
GEOL
 10
31.966
 20
96.491
 30
0.0
 42
-0.017
  0
VERTEX
  8
GEOL
 10
31.975
 20
96.48
 30
0.0
 42
-0.019
  0
VERTEX
  8
GEOL
 10
32.001
 20
96.445
 30
0.0
 42
0.032
  0
VERTEX
  8
GEOL
 10
32.017
 20
96.424
 30
0.0
 42
0.002
  0
VERTEX
  8
GEOL
 10
32.029
 20
96.41
 30
0.0
 42
0.002
  0
VERTEX
  8
GEOL
 10
32.043
 20
96.394
 30
0.0
 42
0.001
  0
VERTEX
  8
GEOL
 10
32.055
 20
96.381
 30
0.0
 42
0.001
  0
VERTEX
  8
GEOL
 10
32.074
 20
96.36
 30
0.0
 42
0.018
  0
VERTEX
  8
GEOL
 10
32.088
 20
96.346
 30
0.0
 42
-0.012
  0
VERTEX
  8
GEOL
 10
32.11
 20
96.324
 30
0.0
 42
-0.039
  0
VERTEX
  8
GEOL
 10
32.143
 20
96.283
 30
0.0
 42
-0.052
  0
VERTEX
  8
GEOL
 10
32.161
 20
96.249
 30
0.0
 42
-0.003
  0
VERTEX
  8
GEOL
 10
32.167
 20
96.236
 30
0.0
 42
-0.001
  0
VERTEX
  8
GEOL
 10
32.178
 20
96.208
 30
0.0
 42
-0.004
  0
VERTEX
  8
GEOL
 10
32.197
 20
96.161
 30
0.0
 42
-0.009
  0
VERTEX
  8
GEOL
 10
32.203
 20
96.142
 30
0.0
 42
-0.133
  0
VERTEX
  8
GEOL
 10
32.205
 20
96.126
 30
0.0
 42
0.089
  0
VERTEX
  8
GEOL
 10
32.204
 20
96.101
 30
0.0
 42
0.074
  0
VERTEX
  8
GEOL
 10
32.211
 20
96.078
 30
0.0
 42
-0.06
  0
VERTEX
  8
GEOL
 10
32.221
 20
96.051
 30
0.0
 42
-0.049
  0
VERTEX
  8
GEOL
 10
32.222
 20
96.037
 30
0.0
 42
-0.038
  0
VERTEX
  8
GEOL
 10
32.221
 20
96.02
 30
0.0
 42
-0.278
  0
VERTEX
  8
GEOL
 10
32.201
 20
95.996
 30
0.0
 42
-0.082
  0
VERTEX
  8
GEOL
 10
32.104
 20
95.978
 30
0.0
 42
-0.028
  0
VERTEX
  8
GEOL
 10
32.014
 20
95.981
 30
0.0
 42
-0.026
  0
VERTEX
  8
GEOL
 10
31.916
 20
95.996
 30
0.0
 42
-0.1
  0
VERTEX
  8
GEOL
 10
31.842
 20
96.027
 30
0.0
 42
0.249
  0
VERTEX
  8
GEOL
 10
31.808
 20
96.031
 30
0.0
 42
0.055
  0
VERTEX
  8
GEOL
 10
31.789
 20
96.021
 30
0.0
 42
0.026
  0
VERTEX
  8
GEOL
 10
31.754
 20
95.994
 30
0.0
 42
0.006
  0
VERTEX
  8
GEOL
 10
31.719
 20
95.964
 30
0.0
 42
0.032
  0
VERTEX
  8
GEOL
 10
31.713
 20
95.958
 30
0.0
 42
0.023
  0
VERTEX
  8
GEOL
 10
31.705
 20
95.948
 30
0.0
 42
0.008
  0
VERTEX
  8
GEOL
 10
31.683
 20
95.917
 30
0.0
 42
0.015
  0
VERTEX
  8
GEOL
 10
31.669
 20
95.894
 30
0.0
 42
0.125
  0
VERTEX
  8
GEOL
 10
31.668
 20
95.891
 30
0.0
 42
0.077
  0
VERTEX
  8
GEOL
 10
31.669
 20
95.884
 30
0.0
 42
-0.022
  0
VERTEX
  8
GEOL
 10
31.674
 20
95.86
 30
0.0
 42
-0.015
  0
VERTEX
  8
GEOL
 10
31.68
 20
95.821
 30
0.0
 42
0.019
  0
VERTEX
  8
GEOL
 10
31.685
 20
95.789
 30
0.0
 42
0.089
  0
VERTEX
  8
GEOL
 10
31.699
 20
95.755
 30
0.0
 42
0.063
  0
VERTEX
  8
GEOL
 10
31.731
 20
95.714
 30
0.0
 42
0.016
  0
VERTEX
  8
GEOL
 10
31.754
 20
95.693
 30
0.0
 42
0.016
  0
VERTEX
  8
GEOL
 10
31.778
 20
95.674
 30
0.0
 42
0.039
  0
VERTEX
  8
GEOL
 10
31.808
 20
95.655
 30
0.0
 42
-0.045
  0
VERTEX
  8
GEOL
 10
31.834
 20
95.639
 30
0.0
 42
-0.058
  0
VERTEX
  8
GEOL
 10
31.853
 20
95.619
 30
0.0
 42
-0.029
  0
VERTEX
  8
GEOL
 10
31.886
 20
95.574
 30
0.0
 42
-0.037
  0
VERTEX
  8
GEOL
 10
31.907
 20
95.534
 30
0.0
 42
-0.074
  0
VERTEX
  8
GEOL
 10
31.913
 20
95.512
 30
0.0
 42
-0.061
  0
VERTEX
  8
GEOL
 10
31.912
 20
95.499
 30
0.0
 42
-0.027
  0
VERTEX
  8
GEOL
 10
31.907
 20
95.471
 30
0.0
 42
-0.064
  0
VERTEX
  8
GEOL
 10
31.89
 20
95.426
 30
0.0
 42
-0.189
  0
VERTEX
  8
GEOL
 10
31.877
 20
95.416
 30
0.0
 42
-0.05
  0
VERTEX
  8
GEOL
 10
31.841
 20
95.407
 30
0.0
 42
0.027
  0
VERTEX
  8
GEOL
 10
31.772
 20
95.394
 30
0.0
 42
0.001
  0
VERTEX
  8
GEOL
 10
31.702
 20
95.377
 30
0.0
 42
0.002
  0
VERTEX
  8
GEOL
 10
31.685
 20
95.372
 30
0.0
 42
0.025
  0
VERTEX
  8
GEOL
 10
31.617
 20
95.351
 30
0.0
 42
-0.025
  0
VERTEX
  8
GEOL
 10
31.549
 20
95.33
 30
0.0
 42
-0.038
  0
VERTEX
  8
GEOL
 10
31.501
 20
95.321
 30
0.0
 42
0.037
  0
VERTEX
  8
GEOL
 10
31.452
 20
95.313
 30
0.0
 42
0.016
  0
VERTEX
  8
GEOL
 10
31.407
 20
95.3
 30
0.0
 42
0.034
  0
VERTEX
  8
GEOL
 10
31.387
 20
95.291
 30
0.0
 42
0.007
  0
VERTEX
  8
GEOL
 10
31.37
 20
95.283
 30
0.0
 42
0.005
  0
VERTEX
  8
GEOL
 10
31.346
 20
95.271
 30
0.0
 42
0.006
  0
VERTEX
  8
GEOL
 10
31.335
 20
95.264
 30
0.0
 42
0.004
  0
VERTEX
  8
GEOL
 10
31.32
 20
95.256
 30
0.0
 42
0.07
  0
VERTEX
  8
GEOL
 10
31.309
 20
95.247
 30
0.0
 42
0.028
  0
VERTEX
  8
GEOL
 10
31.286
 20
95.219
 30
0.0
 42
0.077
  0
VERTEX
  8
GEOL
 10
31.26
 20
95.171
 30
0.0
 42
0.064
  0
VERTEX
  8
GEOL
 10
31.247
 20
95.107
 30
0.0
 42
0.023
  0
VERTEX
  8
GEOL
 10
31.246
 20
95.08
 30
0.0
 42
0.032
  0
VERTEX
  8
GEOL
 10
31.247
 20
95.061
 30
0.0
 42
0.069
  0
VERTEX
  8
GEOL
 10
31.258
 20
95.022
 30
0.0
 42
0.058
  0
VERTEX
  8
GEOL
 10
31.283
 20
94.981
 30
0.0
 42
0.076
  0
VERTEX
  8
GEOL
 10
31.32
 20
94.945
 30
0.0
 42
-0.079
  0
VERTEX
  8
GEOL
 10
31.355
 20
94.91
 30
0.0
 42
-0.031
  0
VERTEX
  8
GEOL
 10
31.386
 20
94.863
 30
0.0
 42
0.03
  0
VERTEX
  8
GEOL
 10
31.418
 20
94.814
 30
0.0
 42
0.029
  0
VERTEX
  8
GEOL
 10
31.425
 20
94.804
 30
0.0
 42
-0.018
  0
VERTEX
  8
GEOL
 10
31.438
 20
94.789
 30
0.0
 42
-0.449
  0
VERTEX
  8
GEOL
 10
31.425
 20
94.712
 30
0.0
 42
-0.184
  0
VERTEX
  8
GEOL
 10
31.262
 20
94.68
 30
0.0
 42
-0.039
  0
VERTEX
  8
GEOL
 10
31.218
 20
94.691
 30
0.0
 42
0.077
  0
VERTEX
  8
GEOL
 10
31.195
 20
94.695
 30
0.0
 42
0.007
  0
VERTEX
  8
GEOL
 10
31.151
 20
94.695
 30
0.0
 42
0.019
  0
VERTEX
  8
GEOL
 10
31.134
 20
94.694
 30
0.0
 42
0.01
  0
VERTEX
  8
GEOL
 10
31.107
 20
94.691
 30
0.0
 42
0.011
  0
VERTEX
  8
GEOL
 10
31.084
 20
94.687
 30
0.0
 42
0.024
  0
VERTEX
  8
GEOL
 10
31.016
 20
94.672
 30
0.0
 42
0.015
  0
VERTEX
  8
GEOL
 10
30.911
 20
94.64
 30
0.0
 42
0.003
  0
VERTEX
  8
GEOL
 10
30.783
 20
94.595
 30
0.0
 42
0.002
  0
VERTEX
  8
GEOL
 10
30.598
 20
94.528
 30
0.0
 42
0.002
  0
VERTEX
  8
GEOL
 10
30.562
 20
94.515
 30
0.0
 42
0.011
  0
VERTEX
  8
GEOL
 10
30.557
 20
94.513
 30
0.0
 42
0.141
  0
VERTEX
  8
GEOL
 10
30.552
 20
94.509
 30
0.0
 42
-0.057
  0
VERTEX
  8
GEOL
 10
30.541
 20
94.497
 30
0.0
 42
-0.101
  0
VERTEX
  8
GEOL
 10
30.528
 20
94.489
 30
0.0
 42
0.117
  0
VERTEX
  8
GEOL
 10
30.517
 20
94.482
 30
0.0
 42
0.274
  0
VERTEX
  8
GEOL
 10
30.513
 20
94.466
 30
0.0
 42
0.109
  0
VERTEX
  8
GEOL
 10
30.532
 20
94.432
 30
0.0
 42
0.046
  0
VERTEX
  8
GEOL
 10
30.542
 20
94.422
 30
0.0
 42
-0.069
  0
VERTEX
  8
GEOL
 10
30.548
 20
94.416
 30
0.0
 42
-0.087
  0
VERTEX
  8
GEOL
 10
30.558
 20
94.397
 30
0.0
 42
0.041
  0
VERTEX
  8
GEOL
 10
30.574
 20
94.355
 30
0.0
 42
0.19
  0
VERTEX
  8
GEOL
 10
30.621
 20
94.312
 30
0.0
 42
-0.57
  0
VERTEX
  8
GEOL
 10
30.626
 20
94.285
 30
0.0
 42
-0.037
  0
VERTEX
  8
GEOL
 10
30.613
 20
94.276
 30
0.0
 42
-0.013
  0
VERTEX
  8
GEOL
 10
30.575
 20
94.254
 30
0.0
 42
0.0
  0
VERTEX
  8
GEOL
 10
30.517
 20
94.222
 30
0.0
 42
0.0
  0
VERTEX
  8
GEOL
 10
30.51
 20
94.218
 30
0.0
 42
0.0
  0
VERTEX
  8
GEOL
 10
30.492
 20
94.208
 30
0.0
 42
0.0
  0
VERTEX
  8
GEOL
 10
30.434
 20
94.176
 30
0.0
 42
-0.028
  0
VERTEX
  8
GEOL
 10
30.4
 20
94.16
 30
0.0
 42
0.045
  0
VERTEX
  8
GEOL
 10
30.379
 20
94.149
 30
0.0
 42
0.075
  0
VERTEX
  8
GEOL
 10
30.374
 20
94.145
 30
0.0
 42
0.012
  0
VERTEX
  8
GEOL
 10
30.349
 20
94.114
 30
0.0
 42
0.026
  0
VERTEX
  8
GEOL
 10
30.293
 20
94.033
 30
0.0
 42
0.072
  0
VERTEX
  8
GEOL
 10
30.279
 20
94.001
 30
0.0
  0
VERTEX
  8
GEOL
 10
30.254
 20
93.909
 30
0.0
  0
VERTEX
  8
GEOL
 10
30.221
 20
93.787
 30
0.0
 42
-0.104
  0
VERTEX
  8
GEOL
 10
30.201
 20
93.748
 30
0.0
 42
0.105
  0
VERTEX
  8
GEOL
 10
30.181
 20
93.709
 30
0.0
 42
0.016
  0
VERTEX
  8
GEOL
 10
30.166
 20
93.644
 30
0.0
 42
-0.01
  0
VERTEX
  8
GEOL
 10
30.143
 20
93.542
 30
0.0
 42
-0.002
  0
VERTEX
  8
GEOL
 10
30.133
 20
93.502
 30
0.0
 42
0.002
  0
VERTEX
  8
GEOL
 10
30.124
 20
93.464
 30
0.0
 42
0.065
  0
VERTEX
  8
GEOL
 10
30.119
 20
93.424
 30
0.0
 42
-0.085
  0
VERTEX
  8
GEOL
 10
30.114
 20
93.393
 30
0.0
 42
-0.114
  0
VERTEX
  8
GEOL
 10
30.1
 20
93.37
 30
0.0
 42
-0.04
  0
VERTEX
  8
GEOL
 10
30.044
 20
93.321
 30
0.0
 42
-0.008
  0
VERTEX
  8
GEOL
 10
30.009
 20
93.296
 30
0.0
 42
-0.009
  0
VERTEX
  8
GEOL
 10
29.978
 20
93.275
 30
0.0
 42
-0.078
  0
VERTEX
  8
GEOL
 10
29.923
 20
93.251
 30
0.0
 42
0.133
  0
VERTEX
  8
GEOL
 10
29.893
 20
93.233
 30
0.0
 42
0.076
  0
VERTEX
  8
GEOL
 10
29.879
 20
93.214
 30
0.0
 42
-0.035
  0
VERTEX
  8
GEOL
 10
29.853
 20
93.172
 30
0.0
 42
-0.039
  0
VERTEX
  8
GEOL
 10
29.809
 20
93.119
 30
0.0
 42
0.041
  0
VERTEX
  8
GEOL
 10
29.767
 20
93.069
 30
0.0
 42
0.205
  0
VERTEX
  8
GEOL
 10
29.757
 20
93.023
 30
0.0
 42
-0.203
  0
VERTEX
  8
GEOL
 10
29.748
 20
92.977
 30
0.0
 42
-0.241
  0
VERTEX
  8
GEOL
 10
29.704
 20
92.953
 30
0.0
 42
0.178
  0
VERTEX
  8
GEOL
 10
29.642
 20
92.929
 30
0.0
 42
0.057
  0
VERTEX
  8
GEOL
 10
29.581
 20
92.861
 30
0.0
 42
0.131
  0
VERTEX
  8
GEOL
 10
29.567
 20
92.822
 30
0.0
 42
0.015
  0
VERTEX
  8
GEOL
 10
29.564
 20
92.784
 30
0.0
 42
0.011
  0
VERTEX
  8
GEOL
 10
29.564
 20
92.731
 30
0.0
 42
0.011
  0
VERTEX
  8
GEOL
 10
29.567
 20
92.637
 30
0.0
 42
0.077
  0
VERTEX
  8
GEOL
 10
29.569
 20
92.623
 30
0.0
 42
0.075
  0
VERTEX
  8
GEOL
 10
29.585
 20
92.595
 30
0.0
 42
-0.032
  0
VERTEX
  8
GEOL
 10
29.627
 20
92.532
 30
0.0
 42
-0.02
  0
VERTEX
  8
GEOL
 10
29.679
 20
92.436
 30
0.0
 42
0.053
  0
VERTEX
  8
GEOL
 10
29.7
 20
92.401
 30
0.0
 42
0.012
  0
VERTEX
  8
GEOL
 10
29.709
 20
92.391
 30
0.0
 42
0.001
  0
VERTEX
  8
GEOL
 10
29.783
 20
92.305
 30
0.0
 42
0.004
  0
VERTEX
  8
GEOL
 10
29.799
 20
92.287
 30
0.0
 42
0.002
  0
VERTEX
  8
GEOL
 10
29.83
 20
92.253
 30
0.0
  0
VERTEX
  8
GEOL
 10
29.83
 20
92.253
 30
0.0
  0
SEQEND
  8
GEOL
  0
POLYLINE
  8
GEOL
 66
     1
 10
0.0
 20
0.0
 30
0.0
  0
VERTEX
  8
GEOL
 10
24.019
 20
96.882
 30
0.0
  0
VERTEX
  8
GEOL
 10
24.02
 20
96.884
 30
0.0
  0
VERTEX
  8
GEOL
 10
24.055
 20
96.96
 30
0.0
  0
VERTEX
  8
GEOL
 10
24.1
 20
97.007
 30
0.0
  0
VERTEX
  8
GEOL
 10
24.22
 20
97.104
 30
0.0
  0
VERTEX
  8
GEOL
 10
24.317
 20
97.172
 30
0.0
  0
VERTEX
  8
GEOL
 10
24.513
 20
97.281
 30
0.0
  0
VERTEX
  8
GEOL
 10
24.604
 20
97.339
 30
0.0
  0
VERTEX
  8
GEOL
 10
24.765
 20
97.433
 30
0.0
  0
VERTEX
  8
GEOL
 10
24.771
 20
97.433
 30
0.0
  0
VERTEX
  8
GEOL
 10
24.895
 20
97.504
 30
0.0
 42
0.006
  0
VERTEX
  8
GEOL
 10
24.901
 20
97.511
 30
0.0
 42
0.014
  0
VERTEX
  8
GEOL
 10
24.903
 20
97.514
 30
0.0
 42
0.006
  0
VERTEX
  8
GEOL
 10
24.92
 20
97.537
 30
0.0
 42
0.037
  0
VERTEX
  8
GEOL
 10
24.922
 20
97.541
 30
0.0
 42
0.0
  0
VERTEX
  8
GEOL
 10
24.925
 20
97.547
 30
0.0
 42
0.0
  0
VERTEX
  8
GEOL
 10
24.942
 20
97.579
 30
0.0
 42
0.0
  0
VERTEX
  8
GEOL
 10
24.956
 20
97.606
 30
0.0
 42
-0.001
  0
VERTEX
  8
GEOL
 10
24.962
 20
97.618
 30
0.0
 42
-0.063
  0
VERTEX
  8
GEOL
 10
24.972
 20
97.634
 30
0.0
 42
0.019
  0
VERTEX
  8
GEOL
 10
25.012
 20
97.682
 30
0.0
 42
0.004
  0
VERTEX
  8
GEOL
 10
25.046
 20
97.728
 30
0.0
 42
0.024
  0
VERTEX
  8
GEOL
 10
25.052
 20
97.736
 30
0.0
 42
0.032
  0
VERTEX
  8
GEOL
 10
25.057
 20
97.746
 30
0.0
 42
0.012
  0
VERTEX
  8
GEOL
 10
25.068
 20
97.773
 30
0.0
 42
0.006
  0
VERTEX
  8
GEOL
 10
25.082
 20
97.811
 30
0.0
 42
0.021
  0
VERTEX
  8
GEOL
 10
25.085
 20
97.823
 30
0.0
 42
0.003
  0
VERTEX
  8
GEOL
 10
25.089
 20
97.838
 30
0.0
 42
-0.002
  0
VERTEX
  8
GEOL
 10
25.096
 20
97.864
 30
0.0
 42
-0.001
  0
VERTEX
  8
GEOL
 10
25.103
 20
97.892
 30
0.0
 42
-0.006
  0
VERTEX
  8
GEOL
 10
25.105
 20
97.899
 30
0.0
 42
-0.056
  0
VERTEX
  8
GEOL
 10
25.106
 20
97.902
 30
0.0
 42
-0.005
  0
VERTEX
  8
GEOL
 10
25.125
 20
97.936
 30
0.0
 42
-0.028
  0
VERTEX
  8
GEOL
 10
25.147
 20
97.97
 30
0.0
 42
0.044
  0
VERTEX
  8
GEOL
 10
25.16
 20
97.991
 30
0.0
 42
0.087
  0
VERTEX
  8
GEOL
 10
25.169
 20
98.019
 30
0.0
 42
-0.045
  0
VERTEX
  8
GEOL
 10
25.18
 20
98.075
 30
0.0
 42
-0.01
  0
VERTEX
  8
GEOL
 10
25.196
 20
98.123
 30
0.0
 42
-0.069
  0
VERTEX
  8
GEOL
 10
25.199
 20
98.13
 30
0.0
 42
-0.015
  0
VERTEX
  8
GEOL
 10
25.208
 20
98.142
 30
0.0
 42
-0.005
  0
VERTEX
  8
GEOL
 10
25.237
 20
98.177
 30
0.0
 42
0.0
  0
VERTEX
  8
GEOL
 10
25.322
 20
98.28
 30
0.0
 42
-0.001
  0
VERTEX
  8
GEOL
 10
25.355
 20
98.319
 30
0.0
 42
-0.001
  0
VERTEX
  8
GEOL
 10
25.439
 20
98.419
 30
0.0
 42
-0.003
  0
VERTEX
  8
GEOL
 10
25.462
 20
98.446
 30
0.0
 42
-0.003
  0
VERTEX
  8
GEOL
 10
25.466
 20
98.451
 30
0.0
 42
-0.005
  0
VERTEX
  8
GEOL
 10
25.469
 20
98.455
 30
0.0
 42
-0.016
  0
VERTEX
  8
GEOL
 10
25.472
 20
98.457
 30
0.0
 42
-0.005
  0
VERTEX
  8
GEOL
 10
25.48
 20
98.465
 30
0.0
 42
-0.012
  0
VERTEX
  8
GEOL
 10
25.506
 20
98.488
 30
0.0
 42
-0.004
  0
VERTEX
  8
GEOL
 10
25.59
 20
98.558
 30
0.0
 42
-0.002
  0
VERTEX
  8
GEOL
 10
25.632
 20
98.592
 30
0.0
 42
-0.001
  0
VERTEX
  8
GEOL
 10
25.685
 20
98.634
 30
0.0
 42
-0.007
  0
VERTEX
  8
GEOL
 10
25.712
 20
98.656
 30
0.0
 42
-0.004
  0
VERTEX
  8
GEOL
 10
25.761
 20
98.692
 30
0.0
 42
-0.033
  0
VERTEX
  8
GEOL
 10
25.793
 20
98.712
 30
0.0
 42
-0.048
  0
VERTEX
  8
GEOL
 10
25.816
 20
98.722
 30
0.0
 42
-0.06
  0
VERTEX
  8
GEOL
 10
25.832
 20
98.725
 30
0.0
 42
-0.094
  0
VERTEX
  8
GEOL
 10
25.842
 20
98.724
 30
0.0
 42
-0.016
  0
VERTEX
  8
GEOL
 10
25.855
 20
98.719
 30
0.0
 42
-0.01
  0
VERTEX
  8
GEOL
 10
25.878
 20
98.71
 30
0.0
 42
-0.012
  0
VERTEX
  8
GEOL
 10
25.918
 20
98.691
 30
0.0
 42
0.031
  0
VERTEX
  8
GEOL
 10
25.934
 20
98.684
 30
0.0
 42
0.004
  0
VERTEX
  8
GEOL
 10
25.95
 20
98.679
 30
0.0
 42
-0.003
  0
VERTEX
  8
GEOL
 10
25.97
 20
98.672
 30
0.0
 42
-0.001
  0
VERTEX
  8
GEOL
 10
25.98
 20
98.669
 30
0.0
 42
-0.001
  0
VERTEX
  8
GEOL
 10
25.991
 20
98.665
 30
0.0
 42
-0.027
  0
VERTEX
  8
GEOL
 10
26.006
 20
98.658
 30
0.0
 42
-0.017
  0
VERTEX
  8
GEOL
 10
26.029
 20
98.646
 30
0.0
 42
-0.024
  0
VERTEX
  8
GEOL
 10
26.049
 20
98.634
 30
0.0
 42
-0.025
  0
VERTEX
  8
GEOL
 10
26.067
 20
98.619
 30
0.0
 42
-0.011
  0
VERTEX
  8
GEOL
 10
26.079
 20
98.609
 30
0.0
 42
-0.013
  0
VERTEX
  8
GEOL
 10
26.088
 20
98.599
 30
0.0
 42
-0.017
  0
VERTEX
  8
GEOL
 10
26.103
 20
98.583
 30
0.0
 42
-0.038
  0
VERTEX
  8
GEOL
 10
26.109
 20
98.575
 30
0.0
 42
-0.005
  0
VERTEX
  8
GEOL
 10
26.112
 20
98.569
 30
0.0
 42
-0.001
  0
VERTEX
  8
GEOL
 10
26.123
 20
98.549
 30
0.0
 42
-0.017
  0
VERTEX
  8
GEOL
 10
26.136
 20
98.524
 30
0.0
 42
0.082
  0
VERTEX
  8
GEOL
 10
26.14
 20
98.519
 30
0.0
 42
0.009
  0
VERTEX
  8
GEOL
 10
26.144
 20
98.514
 30
0.0
 42
-0.001
  0
VERTEX
  8
GEOL
 10
26.174
 20
98.486
 30
0.0
 42
0.0
  0
VERTEX
  8
GEOL
 10
26.206
 20
98.455
 30
0.0
 42
-0.003
  0
VERTEX
  8
GEOL
 10
26.207
 20
98.453
 30
0.0
 42
-0.124
  0
VERTEX
  8
GEOL
 10
26.212
 20
98.446
 30
0.0
 42
0.038
  0
VERTEX
  8
GEOL
 10
26.221
 20
98.421
 30
0.0
 42
0.005
  0
VERTEX
  8
GEOL
 10
26.231
 20
98.402
 30
0.0
 42
0.023
  0
VERTEX
  8
GEOL
 10
26.233
 20
98.398
 30
0.0
 42
0.049
  0
VERTEX
  8
GEOL
 10
26.239
 20
98.39
 30
0.0
 42
0.016
  0
VERTEX
  8
GEOL
 10
26.26
 20
98.368
 30
0.0
 42
0.003
  0
VERTEX
  8
GEOL
 10
26.291
 20
98.34
 30
0.0
 42
0.011
  0
VERTEX
  8
GEOL
 10
26.301
 20
98.332
 30
0.0
 42
0.0
  0
VERTEX
  8
GEOL
 10
26.312
 20
98.322
 30
0.0
 42
0.0
  0
VERTEX
  8
GEOL
 10
26.322
 20
98.314
 30
0.0
 42
0.0
  0
VERTEX
  8
GEOL
 10
26.339
 20
98.3
 30
0.0
 42
-0.001
  0
VERTEX
  8
GEOL
 10
26.342
 20
98.298
 30
0.0
 42
-0.028
  0
VERTEX
  8
GEOL
 10
26.347
 20
98.292
 30
0.0
 42
0.006
  0
VERTEX
  8
GEOL
 10
26.372
 20
98.267
 30
0.0
 42
0.003
  0
VERTEX
  8
GEOL
 10
26.395
 20
98.244
 30
0.0
 42
0.025
  0
VERTEX
  8
GEOL
 10
26.398
 20
98.242
 30
0.0
 42
0.052
  0
VERTEX
  8
GEOL
 10
26.4
 20
98.24
 30
0.0
 42
0.005
  0
VERTEX
  8
GEOL
 10
26.425
 20
98.228
 30
0.0
 42
0.016
  0
VERTEX
  8
GEOL
 10
26.451
 20
98.216
 30
0.0
 42
-0.047
  0
VERTEX
  8
GEOL
 10
26.459
 20
98.212
 30
0.0
 42
-0.022
  0
VERTEX
  8
GEOL
 10
26.464
 20
98.209
 30
0.0
 42
-0.003
  0
VERTEX
  8
GEOL
 10
26.494
 20
98.185
 30
0.0
 42
-0.004
  0
VERTEX
  8
GEOL
 10
26.53
 20
98.156
 30
0.0
 42
0.009
  0
VERTEX
  8
GEOL
 10
26.547
 20
98.142
 30
0.0
 42
0.01
  0
VERTEX
  8
GEOL
 10
26.553
 20
98.138
 30
0.0
 42
0.002
  0
VERTEX
  8
GEOL
 10
26.579
 20
98.119
 30
0.0
 42
0.011
  0
VERTEX
  8
GEOL
 10
26.59
 20
98.112
 30
0.0
 42
0.006
  0
VERTEX
  8
GEOL
 10
26.613
 20
98.098
 30
0.0
 42
0.078
  0
VERTEX
  8
GEOL
 10
26.633
 20
98.09
 30
0.0
 42
0.07
  0
VERTEX
  8
GEOL
 10
26.656
 20
98.088
 30
0.0
 42
0.112
  0
VERTEX
  8
GEOL
 10
26.671
 20
98.092
 30
0.0
 42
0.105
  0
VERTEX
  8
GEOL
 10
26.684
 20
98.103
 30
0.0
 42
0.084
  0
VERTEX
  8
GEOL
 10
26.693
 20
98.12
 30
0.0
 42
0.074
  0
VERTEX
  8
GEOL
 10
26.697
 20
98.141
 30
0.0
 42
0.037
  0
VERTEX
  8
GEOL
 10
26.695
 20
98.193
 30
0.0
 42
0.027
  0
VERTEX
  8
GEOL
 10
26.682
 20
98.261
 30
0.0
 42
0.002
  0
VERTEX
  8
GEOL
 10
26.667
 20
98.326
 30
0.0
 42
0.012
  0
VERTEX
  8
GEOL
 10
26.664
 20
98.336
 30
0.0
 42
0.001
  0
VERTEX
  8
GEOL
 10
26.661
 20
98.346
 30
0.0
 42
0.006
  0
VERTEX
  8
GEOL
 10
26.661
 20
98.347
 30
0.0
 42
0.007
  0
VERTEX
  8
GEOL
 10
26.656
 20
98.359
 30
0.0
 42
0.003
  0
VERTEX
  8
GEOL
 10
26.646
 20
98.389
 30
0.0
 42
0.001
  0
VERTEX
  8
GEOL
 10
26.638
 20
98.41
 30
0.0
 42
0.002
  0
VERTEX
  8
GEOL
 10
26.635
 20
98.418
 30
0.0
 42
0.002
  0
VERTEX
  8
GEOL
 10
26.633
 20
98.422
 30
0.0
 42
0.001
  0
VERTEX
  8
GEOL
 10
26.625
 20
98.444
 30
0.0
 42
0.004
  0
VERTEX
  8
GEOL
 10
26.612
 20
98.474
 30
0.0
 42
0.012
  0
VERTEX
  8
GEOL
 10
26.608
 20
98.484
 30
0.0
 42
0.012
  0
VERTEX
  8
GEOL
 10
26.607
 20
98.487
 30
0.0
 42
0.002
  0
VERTEX
  8
GEOL
 10
26.596
 20
98.507
 30
0.0
 42
0.01
  0
VERTEX
  8
GEOL
 10
26.588
 20
98.521
 30
0.0
 42
-0.007
  0
VERTEX
  8
GEOL
 10
26.577
 20
98.54
 30
0.0
 42
-0.05
  0
VERTEX
  8
GEOL
 10
26.567
 20
98.563
 30
0.0
 42
-0.039
  0
VERTEX
  8
GEOL
 10
26.56
 20
98.595
 30
0.0
 42
-0.045
  0
VERTEX
  8
GEOL
 10
26.558
 20
98.624
 30
0.0
 42
-0.07
  0
VERTEX
  8
GEOL
 10
26.561
 20
98.642
 30
0.0
 42
-0.004
  0
VERTEX
  8
GEOL
 10
26.567
 20
98.661
 30
0.0
 42
-0.003
  0
VERTEX
  8
GEOL
 10
26.576
 20
98.686
 30
0.0
 42
-0.007
  0
VERTEX
  8
GEOL
 10
26.59
 20
98.724
 30
0.0
 42
0.017
  0
VERTEX
  8
GEOL
 10
26.595
 20
98.738
 30
0.0
 42
0.032
  0
VERTEX
  8
GEOL
 10
26.599
 20
98.759
 30
0.0
 42
-0.014
  0
VERTEX
  8
GEOL
 10
26.609
 20
98.807
 30
0.0
 42
-0.003
  0
VERTEX
  8
GEOL
 10
26.618
 20
98.844
 30
0.0
 42
-0.016
  0
VERTEX
  8
GEOL
 10
26.619
 20
98.85
 30
0.0
 42
-0.019
  0
VERTEX
  8
GEOL
 10
26.622
 20
98.857
 30
0.0
 42
-0.003
  0
VERTEX
  8
GEOL
 10
26.638
 20
98.899
 30
0.0
 42
-0.014
  0
VERTEX
  8
GEOL
 10
26.664
 20
98.956
 30
0.0
 42
0.036
  0
VERTEX
  8
GEOL
 10
26.673
 20
98.979
 30
0.0
 42
0.0
  0
VERTEX
  8
GEOL
 10
26.675
 20
98.985
 30
0.0
 42
0.0
  0
VERTEX
  8
GEOL
 10
26.69
 20
99.035
 30
0.0
 42
0.0
  0
VERTEX
  8
GEOL
 10
26.7
 20
99.068
 30
0.0
 42
0.0
  0
VERTEX
  8
GEOL
 10
26.708
 20
99.091
 30
0.0
 42
-0.062
  0
VERTEX
  8
GEOL
 10
26.711
 20
99.1
 30
0.0
 42
-0.022
  0
VERTEX
  8
GEOL
 10
26.726
 20
99.122
 30
0.0
 42
-0.055
  0
VERTEX
  8
GEOL
 10
26.74
 20
99.136
 30
0.0
 42
-0.031
  0
VERTEX
  8
GEOL
 10
26.768
 20
99.157
 30
0.0
 42
-0.072
  0
VERTEX
  8
GEOL
 10
26.801
 20
99.174
 30
0.0
 42
-0.068
  0
VERTEX
  8
GEOL
 10
26.841
 20
99.18
 30
0.0
 42
-0.064
  0
VERTEX
  8
GEOL
 10
26.892
 20
99.175
 30
0.0
 42
-0.08
  0
VERTEX
  8
GEOL
 10
26.93
 20
99.16
 30
0.0
 42
0.0
  0
VERTEX
  8
GEOL
 10
26.968
 20
99.137
 30
0.0
 42
0.0
  0
VERTEX
  8
GEOL
 10
26.998
 20
99.119
 30
0.0
 42
-0.001
  0
VERTEX
  8
GEOL
 10
27.049
 20
99.088
 30
0.0
 42
0.002
  0
VERTEX
  8
GEOL
 10
27.068
 20
99.076
 30
0.0
 42
0.054
  0
VERTEX
  8
GEOL
 10
27.089
 20
99.066
 30
0.0
 42
-0.023
  0
VERTEX
  8
GEOL
 10
27.142
 20
99.045
 30
0.0
 42
-0.01
  0
VERTEX
  8
GEOL
 10
27.175
 20
99.03
 30
0.0
 42
-0.058
  0
VERTEX
  8
GEOL
 10
27.181
 20
99.026
 30
0.0
 42
-0.054
  0
VERTEX
  8
GEOL
 10
27.184
 20
99.023
 30
0.0
 42
-0.009
  0
VERTEX
  8
GEOL
 10
27.202
 20
98.999
 30
0.0
 42
-0.039
  0
VERTEX
  8
GEOL
 10
27.22
 20
98.97
 30
0.0
 42
0.101
  0
VERTEX
  8
GEOL
 10
27.228
 20
98.96
 30
0.0
 42
0.042
  0
VERTEX
  8
GEOL
 10
27.239
 20
98.952
 30
0.0
 42
-0.015
  0
VERTEX
  8
GEOL
 10
27.272
 20
98.932
 30
0.0
 42
-0.003
  0
VERTEX
  8
GEOL
 10
27.309
 20
98.907
 30
0.0
 42
-0.096
  0
VERTEX
  8
GEOL
 10
27.31
 20
98.906
 30
0.0
 42
-0.006
  0
VERTEX
  8
GEOL
 10
27.316
 20
98.897
 30
0.0
 42
0.001
  0
VERTEX
  8
GEOL
 10
27.349
 20
98.845
 30
0.0
 42
0.0
  0
VERTEX
  8
GEOL
 10
27.387
 20
98.785
 30
0.0
 42
0.015
  0
VERTEX
  8
GEOL
 10
27.387
 20
98.785
 30
0.0
 42
0.036
  0
VERTEX
  8
GEOL
 10
27.392
 20
98.78
 30
0.0
 42
-0.005
  0
VERTEX
  8
GEOL
 10
27.425
 20
98.745
 30
0.0
 42
0.0
  0
VERTEX
  8
GEOL
 10
27.449
 20
98.719
 30
0.0
 42
-0.002
  0
VERTEX
  8
GEOL
 10
27.449
 20
98.719
 30
0.0
 42
-0.001
  0
VERTEX
  8
GEOL
 10
27.456
 20
98.711
 30
0.0
 42
0.0
  0
VERTEX
  8
GEOL
 10
27.494
 20
98.67
 30
0.0
 42
0.0
  0
VERTEX
  8
GEOL
 10
27.524
 20
98.636
 30
0.0
 42
0.001
  0
VERTEX
  8
GEOL
 10
27.532
 20
98.629
 30
0.0
 42
0.021
  0
VERTEX
  8
GEOL
 10
27.543
 20
98.617
 30
0.0
 42
-0.007
  0
VERTEX
  8
GEOL
 10
27.578
 20
98.584
 30
0.0
 42
-0.002
  0
VERTEX
  8
GEOL
 10
27.61
 20
98.553
 30
0.0
 42
-0.015
  0
VERTEX
  8
GEOL
 10
27.614
 20
98.548
 30
0.0
 42
-0.009
  0
VERTEX
  8
GEOL
 10
27.617
 20
98.545
 30
0.0
 42
-0.004
  0
VERTEX
  8
GEOL
 10
27.625
 20
98.535
 30
0.0
 42
-0.003
  0
VERTEX
  8
GEOL
 10
27.638
 20
98.519
 30
0.0
 42
-0.001
  0
VERTEX
  8
GEOL
 10
27.682
 20
98.462
 30
0.0
 42
-0.003
  0
VERTEX
  8
GEOL
 10
27.718
 20
98.415
 30
0.0
 42
-0.01
  0
VERTEX
  8
GEOL
 10
27.729
 20
98.4
 30
0.0
 42
-0.018
  0
VERTEX
  8
GEOL
 10
27.732
 20
98.395
 30
0.0
 42
-0.032
  0
VERTEX
  8
GEOL
 10
27.734
 20
98.391
 30
0.0
 42
-0.029
  0
VERTEX
  8
GEOL
 10
27.734
 20
98.39
 30
0.0
 42
-0.012
  0
VERTEX
  8
GEOL
 10
27.736
 20
98.385
 30
0.0
 42
-0.026
  0
VERTEX
  8
GEOL
 10
27.74
 20
98.362
 30
0.0
 42
-0.008
  0
VERTEX
  8
GEOL
 10
27.75
 20
98.286
 30
0.0
 42
-0.001
  0
VERTEX
  8
GEOL
 10
27.755
 20
98.239
 30
0.0
 42
0.001
  0
VERTEX
  8
GEOL
 10
27.76
 20
98.186
 30
0.0
 42
0.003
  0
VERTEX
  8
GEOL
 10
27.766
 20
98.135
 30
0.0
 42
0.014
  0
VERTEX
  8
GEOL
 10
27.768
 20
98.123
 30
0.0
 42
0.061
  0
VERTEX
  8
GEOL
 10
27.77
 20
98.116
 30
0.0
 42
0.007
  0
VERTEX
  8
GEOL
 10
27.798
 20
98.056
 30
0.0
 42
0.026
  0
VERTEX
  8
GEOL
 10
27.83
 20
97.996
 30
0.0
 42
-0.065
  0
VERTEX
  8
GEOL
 10
27.841
 20
97.972
 30
0.0
 42
-0.022
  0
VERTEX
  8
GEOL
 10
27.849
 20
97.941
 30
0.0
 42
0.012
  0
VERTEX
  8
GEOL
 10
27.862
 20
97.882
 30
0.0
 42
0.001
  0
VERTEX
  8
GEOL
 10
27.877
 20
97.822
 30
0.0
 42
0.016
  0
VERTEX
  8
GEOL
 10
27.878
 20
97.82
 30
0.0
 42
0.0
  0
VERTEX
  8
GEOL
 10
27.882
 20
97.808
 30
0.0
 42
0.0
  0
VERTEX
  8
GEOL
 10
27.888
 20
97.789
 30
0.0
 42
0.0
  0
VERTEX
  8
GEOL
 10
27.909
 20
97.722
 30
0.0
 42
0.0
  0
VERTEX
  8
GEOL
 10
27.92
 20
97.688
 30
0.0
 42
0.0
  0
VERTEX
  8
GEOL
 10
27.927
 20
97.667
 30
0.0
 42
0.0
  0
VERTEX
  8
GEOL
 10
27.972
 20
97.529
 30
0.0
 42
0.001
  0
VERTEX
  8
GEOL
 10
27.975
 20
97.518
 30
0.0
 42
0.001
  0
VERTEX
  8
GEOL
 10
27.979
 20
97.506
 30
0.0
 42
0.068
  0
VERTEX
  8
GEOL
 10
27.983
 20
97.498
 30
0.0
 42
0.042
  0
VERTEX
  8
GEOL
 10
27.991
 20
97.488
 30
0.0
 42
0.048
  0
VERTEX
  8
GEOL
 10
28.009
 20
97.473
 30
0.0
 42
0.025
  0
VERTEX
  8
GEOL
 10
28.046
 20
97.45
 30
0.0
 42
0.0
  0
VERTEX
  8
GEOL
 10
28.075
 20
97.433
 30
0.0
 42
0.0
  0
VERTEX
  8
GEOL
 10
28.09
 20
97.424
 30
0.0
 42
0.0
  0
VERTEX
  8
GEOL
 10
28.133
 20
97.4
 30
0.0
 42
-0.002
  0
VERTEX
  8
GEOL
 10
28.133
 20
97.4
 30
0.0
 42
-0.005
  0
VERTEX
  8
GEOL
 10
28.134
 20
97.4
 30
0.0
 42
0.0
  0
VERTEX
  8
GEOL
 10
28.181
 20
97.371
 30
0.0
 42
-0.003
  0
VERTEX
  8
GEOL
 10
28.226
 20
97.343
 30
0.0
 42
0.024
  0
VERTEX
  8
GEOL
 10
28.231
 20
97.34
 30
0.0
 42
0.035
  0
VERTEX
  8
GEOL
 10
28.232
 20
97.34
 30
0.0
 42
0.0
  0
VERTEX
  8
GEOL
 10
28.305
 20
97.316
 30
0.0
 42
0.001
  0
VERTEX
  8
GEOL
 10
28.359
 20
97.298
 30
0.0
 42
-0.002
  0
VERTEX
  8
GEOL
 10
28.379
 20
97.291
 30
0.0
 42
-0.063
  0
VERTEX
  8
GEOL
 10
28.388
 20
97.287
 30
0.0
 42
-0.018
  0
VERTEX
  8
GEOL
 10
28.419
 20
97.265
 30
0.0
 42
-0.007
  0
VERTEX
  8
GEOL
 10
28.439
 20
97.25
 30
0.0
 42
-0.006
  0
VERTEX
  8
GEOL
 10
28.461
 20
97.232
 30
0.0
 42
-0.016
  0
VERTEX
  8
GEOL
 10
28.5
 20
97.197
 30
0.0
 42
-0.03
  0
VERTEX
  8
GEOL
 10
28.519
 20
97.176
 30
0.0
 42
-0.014
  0
VERTEX
  8
GEOL
 10
28.529
 20
97.163
 30
0.0
 42
-0.034
  0
VERTEX
  8
GEOL
 10
28.533
 20
97.157
 30
0.0
 42
0.0
  0
VERTEX
  8
GEOL
 10
28.541
 20
97.143
 30
0.0
 42
0.0
  0
VERTEX
  8
GEOL
 10
28.55
 20
97.127
 30
0.0
 42
0.0
  0
VERTEX
  8
GEOL
 10
28.572
 20
97.085
 30
0.0
 42
0.0
  0
VERTEX
  8
GEOL
 10
28.575
 20
97.08
 30
0.0
 42
0.0
  0
VERTEX
  8
GEOL
 10
28.577
 20
97.076
 30
0.0
 42
0.0
  0
VERTEX
  8
GEOL
 10
28.605
 20
97.025
 30
0.0
 42
0.0
  0
VERTEX
  8
GEOL
 10
28.624
 20
96.99
 30
0.0
 42
-0.001
  0
VERTEX
  8
GEOL
 10
28.627
 20
96.985
 30
0.0
 42
-0.059
  0
VERTEX
  8
GEOL
 10
28.63
 20
96.977
 30
0.0
 42
0.015
  0
VERTEX
  8
GEOL
 10
28.641
 20
96.942
 30
0.0
 42
0.003
  0
VERTEX
  8
GEOL
 10
28.653
 20
96.907
 30
0.0
 42
0.046
  0
VERTEX
  8
GEOL
 10
28.654
 20
96.904
 30
0.0
 42
0.012
  0
VERTEX
  8
GEOL
 10
28.656
 20
96.901
 30
0.0
 42
0.002
  0
VERTEX
  8
GEOL
 10
28.668
 20
96.883
 30
0.0
 42
0.001
  0
VERTEX
  8
GEOL
 10
28.681
 20
96.863
 30
0.0
 42
0.0
  0
VERTEX
  8
GEOL
 10
28.7
 20
96.834
 30
0.0
 42
-0.004
  0
VERTEX
  8
GEOL
 10
28.738
 20
96.776
 30
0.0
 42
-0.016
  0
VERTEX
  8
GEOL
 10
28.746
 20
96.761
 30
0.0
 42
-0.025
  0
VERTEX
  8
GEOL
 10
28.747
 20
96.76
 30
0.0
 42
-0.014
  0
VERTEX
  8
GEOL
 10
28.748
 20
96.757
 30
0.0
 42
-0.116
  0
VERTEX
  8
GEOL
 10
28.748
 20
96.752
 30
0.0
 42
-0.042
  0
VERTEX
  8
GEOL
 10
28.745
 20
96.737
 30
0.0
 42
-0.053
  0
VERTEX
  8
GEOL
 10
28.728
 20
96.694
 30
0.0
 42
0.035
  0
VERTEX
  8
GEOL
 10
28.699
 20
96.63
 30
0.0
 42
0.002
  0
VERTEX
  8
GEOL
 10
28.671
 20
96.556
 30
0.0
 42
0.011
  0
VERTEX
  8
GEOL
 10
28.666
 20
96.539
 30
0.0
 42
0.004
  0
VERTEX
  8
GEOL
 10
28.664
 20
96.535
 30
0.0
 42
0.006
  0
VERTEX
  8
GEOL
 10
28.664
 20
96.532
 30
0.0
 42
0.077
  0
VERTEX
  8
GEOL
 10
28.663
 20
96.526
 30
0.0
 42
0.022
  0
VERTEX
  8
GEOL
 10
28.665
 20
96.502
 30
0.0
 42
0.044
  0
VERTEX
  8
GEOL
 10
28.674
 20
96.462
 30
0.0
 42
-0.05
  0
VERTEX
  8
GEOL
 10
28.681
 20
96.427
 30
0.0
 42
-0.004
  0
VERTEX
  8
GEOL
 10
28.683
 20
96.401
 30
0.0
 42
-0.005
  0
VERTEX
  8
GEOL
 10
28.685
 20
96.379
 30
0.0
 42
-0.006
  0
VERTEX
  8
GEOL
 10
28.686
 20
96.359
 30
0.0
 42
-0.035
  0
VERTEX
  8
GEOL
 10
28.686
 20
96.356
 30
0.0
 42
-0.042
  0
VERTEX
  8
GEOL
 10
28.686
 20
96.353
 30
0.0
 42
-0.003
  0
VERTEX
  8
GEOL
 10
28.678
 20
96.324
 30
0.0
 42
-0.033
  0
VERTEX
  8
GEOL
 10
28.668
 20
96.295
 30
0.0
 42
0.147
  0
VERTEX
  8
GEOL
 10
28.667
 20
96.288
 30
0.0
 42
0.007
  0
VERTEX
  8
GEOL
 10
28.668
 20
96.283
 30
0.0
 42
-0.002
  0
VERTEX
  8
GEOL
 10
28.672
 20
96.261
 30
0.0
 42
0.0
  0
VERTEX
  8
GEOL
 10
28.676
 20
96.242
 30
0.0
 42
-0.001
  0
VERTEX
  8
GEOL
 10
28.678
 20
96.233
 30
0.0
 42
-0.097
  0
VERTEX
  8
GEOL
 10
28.678
 20
96.22
 30
0.0
 42
-0.041
  0
VERTEX
  8
GEOL
 10
28.669
 20
96.192
 30
0.0
 42
-0.018
  0
VERTEX
  8
GEOL
 10
28.658
 20
96.163
 30
0.0
 42
-0.028
  0
VERTEX
  8
GEOL
 10
28.648
 20
96.146
 30
0.0
 42
-0.007
  0
VERTEX
  8
GEOL
 10
28.633
 20
96.122
 30
0.0
 42
-0.01
  0
VERTEX
  8
GEOL
 10
28.622
 20
96.105
 30
0.0
 42
-0.005
  0
VERTEX
  8
GEOL
 10
28.604
 20
96.079
 30
0.0
 42
-0.007
  0
VERTEX
  8
GEOL
 10
28.588
 20
96.059
 30
0.0
 42
-0.01
  0
VERTEX
  8
GEOL
 10
28.578
 20
96.046
 30
0.0
 42
-0.004
  0
VERTEX
  8
GEOL
 10
28.55
 20
96.013
 30
0.0
 42
-0.017
  0
VERTEX
  8
GEOL
 10
28.523
 20
95.984
 30
0.0
 42
-0.057
  0
VERTEX
  8
GEOL
 10
28.514
 20
95.977
 30
0.0
 42
-0.043
  0
VERTEX
  8
GEOL
 10
28.499
 20
95.969
 30
0.0
 42
0.017
  0
VERTEX
  8
GEOL
 10
28.462
 20
95.953
 30
0.0
 42
0.005
  0
VERTEX
  8
GEOL
 10
28.419
 20
95.931
 30
0.0
 42
0.092
  0
VERTEX
  8
GEOL
 10
28.417
 20
95.929
 30
0.0
 42
0.012
  0
VERTEX
  8
GEOL
 10
28.415
 20
95.927
 30
0.0
 42
0.002
  0
VERTEX
  8
GEOL
 10
28.407
 20
95.916
 30
0.0
 42
0.007
  0
VERTEX
  8
GEOL
 10
28.396
 20
95.903
 30
0.0
 42
-0.021
  0
VERTEX
  8
GEOL
 10
28.393
 20
95.898
 30
0.0
 42
-0.049
  0
VERTEX
  8
GEOL
 10
28.386
 20
95.892
 30
0.0
 42
0.01
  0
VERTEX
  8
GEOL
 10
28.351
 20
95.864
 30
0.0
 42
0.003
  0
VERTEX
  8
GEOL
 10
28.327
 20
95.844
 30
0.0
 42
0.004
  0
VERTEX
  8
GEOL
 10
28.312
 20
95.832
 30
0.0
 42
0.106
  0
VERTEX
  8
GEOL
 10
28.304
 20
95.821
 30
0.0
 42
0.074
  0
VERTEX
  8
GEOL
 10
28.298
 20
95.801
 30
0.0
 42
0.087
  0
VERTEX
  8
GEOL
 10
28.299
 20
95.788
 30
0.0
 42
0.162
  0
VERTEX
  8
GEOL
 10
28.303
 20
95.781
 30
0.0
 42
0.069
  0
VERTEX
  8
GEOL
 10
28.311
 20
95.776
 30
0.0
 42
0.024
  0
VERTEX
  8
GEOL
 10
28.336
 20
95.766
 30
0.0
 42
0.053
  0
VERTEX
  8
GEOL
 10
28.371
 20
95.757
 30
0.0
 42
-0.127
  0
VERTEX
  8
GEOL
 10
28.385
 20
95.752
 30
0.0
 42
-0.012
  0
VERTEX
  8
GEOL
 10
28.402
 20
95.738
 30
0.0
 42
0.007
  0
VERTEX
  8
GEOL
 10
28.429
 20
95.717
 30
0.0
 42
0.0
  0
VERTEX
  8
GEOL
 10
28.456
 20
95.696
 30
0.0
 42
0.01
  0
VERTEX
  8
GEOL
 10
28.457
 20
95.696
 30
0.0
 42
0.001
  0
VERTEX
  8
GEOL
 10
28.461
 20
95.693
 30
0.0
 42
0.0
  0
VERTEX
  8
GEOL
 10
28.5
 20
95.666
 30
0.0
 42
0.0
  0
VERTEX
  8
GEOL
 10
28.523
 20
95.649
 30
0.0
 42
0.0
  0
VERTEX
  8
GEOL
 10
28.549
 20
95.632
 30
0.0
 42
-0.01
  0
VERTEX
  8
GEOL
 10
28.566
 20
95.619
 30
0.0
 42
-0.004
  0
VERTEX
  8
GEOL
 10
28.604
 20
95.59
 30
0.0
 42
-0.016
  0
VERTEX
  8
GEOL
 10
28.626
 20
95.572
 30
0.0
 42
-0.034
  0
VERTEX
  8
GEOL
 10
28.636
 20
95.562
 30
0.0
 42
-0.03
  0
VERTEX
  8
GEOL
 10
28.64
 20
95.556
 30
0.0
 42
-0.008
  0
VERTEX
  8
GEOL
 10
28.654
 20
95.534
 30
0.0
 42
-0.041
  0
VERTEX
  8
GEOL
 10
28.672
 20
95.499
 30
0.0
 42
0.071
  0
VERTEX
  8
GEOL
 10
28.683
 20
95.479
 30
0.0
 42
0.027
  0
VERTEX
  8
GEOL
 10
28.702
 20
95.458
 30
0.0
 42
-0.01
  0
VERTEX
  8
GEOL
 10
28.753
 20
95.405
 30
0.0
 42
-0.003
  0
VERTEX
  8
GEOL
 10
28.807
 20
95.345
 30
0.0
 42
-0.034
  0
VERTEX
  8
GEOL
 10
28.811
 20
95.339
 30
0.0
 42
-0.072
  0
VERTEX
  8
GEOL
 10
28.818
 20
95.324
 30
0.0
 42
0.031
  0
VERTEX
  8
GEOL
 10
28.832
 20
95.289
 30
0.0
 42
0.006
  0
VERTEX
  8
GEOL
 10
28.847
 20
95.256
 30
0.0
 42
0.069
  0
VERTEX
  8
GEOL
 10
28.849
 20
95.254
 30
0.0
 42
0.005
  0
VERTEX
  8
GEOL
 10
28.853
 20
95.249
 30
0.0
 42
0.001
  0
VERTEX
  8
GEOL
 10
28.874
 20
95.226
 30
0.0
 42
0.001
  0
VERTEX
  8
GEOL
 10
28.89
 20
95.209
 30
0.0
 42
-0.001
  0
VERTEX
  8
GEOL
 10
28.901
 20
95.198
 30
0.0
 42
-0.022
  0
VERTEX
  8
GEOL
 10
28.917
 20
95.178
 30
0.0
 42
-0.014
  0
VERTEX
  8
GEOL
 10
28.939
 20
95.148
 30
0.0
 42
-0.007
  0
VERTEX
  8
GEOL
 10
28.949
 20
95.133
 30
0.0
 42
-0.017
  0
VERTEX
  8
GEOL
 10
28.952
 20
95.127
 30
0.0
 42
-0.01
  0
VERTEX
  8
GEOL
 10
28.956
 20
95.12
 30
0.0
 42
-0.006
  0
VERTEX
  8
GEOL
 10
28.961
 20
95.109
 30
0.0
 42
-0.009
  0
VERTEX
  8
GEOL
 10
28.969
 20
95.091
 30
0.0
 42
-0.003
  0
VERTEX
  8
GEOL
 10
28.988
 20
95.046
 30
0.0
 42
-0.007
  0
VERTEX
  8
GEOL
 10
29.004
 20
95.005
 30
0.0
 42
-0.011
  0
VERTEX
  8
GEOL
 10
29.014
 20
94.978
 30
0.0
 42
-0.017
  0
VERTEX
  8
GEOL
 10
29.018
 20
94.966
 30
0.0
 42
-0.02
  0
VERTEX
  8
GEOL
 10
29.02
 20
94.955
 30
0.0
 42
-0.032
  0
VERTEX
  8
GEOL
 10
29.021
 20
94.943
 30
0.0
 42
-0.02
  0
VERTEX
  8
GEOL
 10
29.021
 20
94.925
 30
0.0
 42
-0.016
  0
VERTEX
  8
GEOL
 10
29.018
 20
94.869
 30
0.0
 42
-0.006
  0
VERTEX
  8
GEOL
 10
29.003
 20
94.731
 30
0.0
 42
0.0
  0
VERTEX
  8
GEOL
 10
28.998
 20
94.695
 30
0.0
 42
0.0
  0
VERTEX
  8
GEOL
 10
28.996
 20
94.674
 30
0.0
 42
-0.003
  0
VERTEX
  8
GEOL
 10
28.992
 20
94.646
 30
0.0
 42
-0.005
  0
VERTEX
  8
GEOL
 10
28.989
 20
94.629
 30
0.0
 42
-0.117
  0
VERTEX
  8
GEOL
 10
28.98
 20
94.607
 30
0.0
 42
0.048
  0
VERTEX
  8
GEOL
 10
28.951
 20
94.558
 30
0.0
 42
0.018
  0
VERTEX
  8
GEOL
 10
28.931
 20
94.509
 30
0.0
 42
0.142
  0
VERTEX
  8
GEOL
 10
28.93
 20
94.502
 30
0.0
 42
0.033
  0
VERTEX
  8
GEOL
 10
28.933
 20
94.493
 30
0.0
 42
-0.022
  0
VERTEX
  8
GEOL
 10
28.937
 20
94.479
 30
0.0
 42
-0.003
  0
VERTEX
  8
GEOL
 10
28.941
 20
94.463
 30
0.0
 42
-0.041
  0
VERTEX
  8
GEOL
 10
28.941
 20
94.461
 30
0.0
 42
-0.025
  0
VERTEX
  8
GEOL
 10
28.941
 20
94.458
 30
0.0
 42
-0.002
  0
VERTEX
  8
GEOL
 10
28.939
 20
94.415
 30
0.0
 42
-0.003
  0
VERTEX
  8
GEOL
 10
28.937
 20
94.367
 30
0.0
 42
0.013
  0
VERTEX
  8
GEOL
 10
28.936
 20
94.354
 30
0.0
 42
0.007
  0
VERTEX
  8
GEOL
 10
28.936
 20
94.342
 30
0.0
 42
-0.002
  0
VERTEX
  8
GEOL
 10
28.937
 20
94.302
 30
0.0
 42
-0.002
  0
VERTEX
  8
GEOL
 10
28.938
 20
94.268
 30
0.0
 42
-0.009
  0
VERTEX
  8
GEOL
 10
28.938
 20
94.262
 30
0.0
 42
-0.057
  0
VERTEX
  8
GEOL
 10
28.937
 20
94.259
 30
0.0
 42
-0.005
  0
VERTEX
  8
GEOL
 10
28.926
 20
94.217
 30
0.0
 42
-0.024
  0
VERTEX
  8
GEOL
 10
28.912
 20
94.176
 30
0.0
 42
0.065
  0
VERTEX
  8
GEOL
 10
28.908
 20
94.16
 30
0.0
 42
0.027
  0
VERTEX
  8
GEOL
 10
28.908
 20
94.154
 30
0.0
 42
0.003
  0
VERTEX
  8
GEOL
 10
28.908
 20
94.103
 30
0.0
 42
0.01
  0
VERTEX
  8
GEOL
 10
28.91
 20
94.051
 30
0.0
 42
-0.023
  0
VERTEX
  8
GEOL
 10
28.91
 20
94.028
 30
0.0
 42
-0.057
  0
VERTEX
  8
GEOL
 10
28.907
 20
94.004
 30
0.0
 42
0.025
  0
VERTEX
  8
GEOL
 10
28.895
 20
93.95
 30
0.0
 42
0.008
  0
VERTEX
  8
GEOL
 10
28.888
 20
93.903
 30
0.0
 42
0.046
  0
VERTEX
  8
GEOL
 10
28.887
 20
93.896
 30
0.0
 42
0.035
  0
VERTEX
  8
GEOL
 10
28.888
 20
93.889
 30
0.0
 42
0.008
  0
VERTEX
  8
GEOL
 10
28.894
 20
93.859
 30
0.0
 42
0.029
  0
VERTEX
  8
GEOL
 10
28.908
 20
93.808
 30
0.0
 42
-0.063
  0
VERTEX
  8
GEOL
 10
28.913
 20
93.784
 30
0.0
 42
-0.003
  0
VERTEX
  8
GEOL
 10
28.914
 20
93.779
 30
0.0
 42
0.0
  0
VERTEX
  8
GEOL
 10
28.92
 20
93.687
 30
0.0
 42
-0.003
  0
VERTEX
  8
GEOL
 10
28.924
 20
93.61
 30
0.0
 42
0.01
  0
VERTEX
  8
GEOL
 10
28.926
 20
93.587
 30
0.0
 42
0.24
  0
VERTEX
  8
GEOL
 10
28.936
 20
93.571
 30
0.0
 42
-0.055
  0
VERTEX
  8
GEOL
 10
28.999
 20
93.523
 30
0.0
 42
-0.011
  0
VERTEX
  8
GEOL
 10
29.057
 20
93.466
 30
0.0
 42
-0.147
  0
VERTEX
  8
GEOL
 10
29.06
 20
93.461
 30
0.0
 42
-0.112
  0
VERTEX
  8
GEOL
 10
29.06
 20
93.453
 30
0.0
 42
-0.011
  0
VERTEX
  8
GEOL
 10
29.038
 20
93.379
 30
0.0
 42
-0.018
  0
VERTEX
  8
GEOL
 10
29.013
 20
93.309
 30
0.0
 42
0.035
  0
VERTEX
  8
GEOL
 10
29.002
 20
93.272
 30
0.0
 42
0.103
  0
VERTEX
  8
GEOL
 10
28.999
 20
93.211
 30
0.0
 42
-0.06
  0
VERTEX
  8
GEOL
 10
29.005
 20
93.106
 30
0.0
 42
-0.011
  0
VERTEX
  8
GEOL
 10
28.998
 20
93.028
 30
0.0
 42
-0.083
  0
VERTEX
  8
GEOL
 10
28.995
 20
93.018
 30
0.0
 42
-0.001
  0
VERTEX
  8
GEOL
 10
28.988
 20
93.005
 30
0.0
 42
-0.001
  0
VERTEX
  8
GEOL
 10
28.981
 20
92.989
 30
0.0
 42
-0.001
  0
VERTEX
  8
GEOL
 10
28.972
 20
92.97
 30
0.0
 42
0.001
  0
VERTEX
  8
GEOL
 10
28.965
 20
92.957
 30
0.0
 42
0.026
  0
VERTEX
  8
GEOL
 10
28.961
 20
92.946
 30
0.0
 42
0.005
  0
VERTEX
  8
GEOL
 10
28.94
 20
92.888
 30
0.0
 42
0.02
  0
VERTEX
  8
GEOL
 10
28.918
 20
92.812
 30
0.0
 42
0.086
  0
VERTEX
  8
GEOL
 10
28.916
 20
92.793
 30
0.0
 42
0.004
  0
VERTEX
  8
GEOL
 10
28.917
 20
92.784
 30
0.0
 42
0.001
  0
VERTEX
  8
GEOL
 10
28.925
 20
92.718
 30
0.0
 42
0.005
  0
VERTEX
  8
GEOL
 10
28.933
 20
92.656
 30
0.0
 42
-0.02
  0
VERTEX
  8
GEOL
 10
28.934
 20
92.641
 30
0.0
 42
-0.152
  0
VERTEX
  8
GEOL
 10
28.934
 20
92.639
 30
0.0
 42
-0.008
  0
VERTEX
  8
GEOL
 10
28.911
 20
92.602
 30
0.0
 42
-0.045
  0
VERTEX
  8
GEOL
 10
28.885
 20
92.569
 30
0.0
 42
0.095
  0
VERTEX
  8
GEOL
 10
28.874
 20
92.553
 30
0.0
 42
0.22
  0
VERTEX
  8
GEOL
 10
28.876
 20
92.524
 30
0.0
 42
-0.065
  0
VERTEX
  8
GEOL
 10
28.909
 20
92.436
 30
0.0
 42
-0.012
  0
VERTEX
  8
GEOL
 10
28.93
 20
92.337
 30
0.0
 42
-0.191
  0
VERTEX
  8
GEOL
 10
28.928
 20
92.33
 30
0.0
 42
-0.03
  0
VERTEX
  8
GEOL
 10
28.914
 20
92.31
 30
0.0
 42
0.013
  0
VERTEX
  8
GEOL
 10
28.88
 20
92.268
 30
0.0
 42
0.0
  0
VERTEX
  8
GEOL
 10
28.843
 20
92.218
 30
0.0
 42
0.017
  0
VERTEX
  8
GEOL
 10
28.843
 20
92.217
 30
0.0
 42
0.006
  0
VERTEX
  8
GEOL
 10
28.836
 20
92.206
 30
0.0
 42
0.001
  0
VERTEX
  8
GEOL
 10
28.806
 20
92.157
 30
0.0
 42
0.0
  0
VERTEX
  8
GEOL
 10
28.799
 20
92.146
 30
0.0
 42
0.0
  0
VERTEX
  8
GEOL
 10
28.783
 20
92.119
 30
0.0
 42
0.002
  0
VERTEX
  8
GEOL
 10
28.781
 20
92.116
 30
0.0
 42
0.001
  0
VERTEX
  8
GEOL
 10
28.775
 20
92.105
 30
0.0
  0
VERTEX
  8
GEOL
 10
28.775
 20
92.105
 30
0.0
  0
SEQEND
  8
GEOL
  0
POLYLINE
  8
GEOL
 66
     1
 10
0.0
 20
0.0
 30
0.0
  0
VERTEX
  8
GEOL
 10
39.349
 20
98.449
 30
0.0
 42
0.018
  0
VERTEX
  8
GEOL
 10
39.323
 20
98.427
 30
0.0
 42
-0.036
  0
VERTEX
  8
GEOL
 10
39.304
 20
98.412
 30
0.0
 42
-0.016
  0
VERTEX
  8
GEOL
 10
39.257
 20
98.382
 30
0.0
 42
0.03
  0
VERTEX
  8
GEOL
 10
39.233
 20
98.366
 30
0.0
 42
0.021
  0
VERTEX
  8
GEOL
 10
39.2
 20
98.338
 30
0.0
 42
-0.013
  0
VERTEX
  8
GEOL
 10
39.149
 20
98.294
 30
0.0
 42
-0.018
  0
VERTEX
  8
GEOL
 10
39.064
 20
98.23
 30
0.0
 42
0.021
  0
VERTEX
  8
GEOL
 10
38.992
 20
98.174
 30
0.0
 42
0.018
  0
VERTEX
  8
GEOL
 10
38.941
 20
98.128
 30
0.0
 42
0.036
  0
VERTEX
  8
GEOL
 10
38.917
 20
98.102
 30
0.0
 42
0.009
  0
VERTEX
  8
GEOL
 10
38.899
 20
98.078
 30
0.0
 42
-0.006
  0
VERTEX
  8
GEOL
 10
38.872
 20
98.04
 30
0.0
 42
-0.009
  0
VERTEX
  8
GEOL
 10
38.824
 20
97.98
 30
0.0
 42
0.013
  0
VERTEX
  8
GEOL
 10
38.792
 20
97.938
 30
0.0
 42
0.044
  0
VERTEX
  8
GEOL
 10
38.785
 20
97.926
 30
0.0
 42
-0.022
  0
VERTEX
  8
GEOL
 10
38.772
 20
97.903
 30
0.0
 42
-0.068
  0
VERTEX
  8
GEOL
 10
38.741
 20
97.864
 30
0.0
 42
-0.161
  0
VERTEX
  8
GEOL
 10
38.722
 20
97.855
 30
0.0
 42
-0.075
  0
VERTEX
  8
GEOL
 10
38.67
 20
97.857
 30
0.0
 42
-0.896
  0
VERTEX
  8
GEOL
 10
38.671
 20
97.865
 30
0.0
 42
-0.009
  0
VERTEX
  8
GEOL
 10
38.673
 20
97.865
 30
0.0
 42
0.006
  0
VERTEX
  8
GEOL
 10
38.676
 20
97.865
 30
0.0
 42
0.644
  0
VERTEX
  8
GEOL
 10
38.696
 20
97.91
 30
0.0
 42
0.207
  0
VERTEX
  8
GEOL
 10
38.594
 20
97.955
 30
0.0
 42
0.045
  0
VERTEX
  8
GEOL
 10
38.557
 20
97.953
 30
0.0
 42
0.054
  0
VERTEX
  8
GEOL
 10
38.527
 20
97.944
 30
0.0
 42
0.031
  0
VERTEX
  8
GEOL
 10
38.487
 20
97.925
 30
0.0
 42
0.046
  0
VERTEX
  8
GEOL
 10
38.462
 20
97.909
 30
0.0
 42
0.153
  0
VERTEX
  8
GEOL
 10
38.436
 20
97.869
 30
0.0
 42
-0.181
  0
VERTEX
  8
GEOL
 10
38.412
 20
97.837
 30
0.0
 42
-0.013
  0
VERTEX
  8
GEOL
 10
38.395
 20
97.826
 30
0.0
 42
-0.012
  0
VERTEX
  8
GEOL
 10
38.376
 20
97.816
 30
0.0
 42
-0.045
  0
VERTEX
  8
GEOL
 10
38.32
 20
97.793
 30
0.0
 42
0.056
  0
VERTEX
  8
GEOL
 10
38.275
 20
97.774
 30
0.0
 42
0.075
  0
VERTEX
  8
GEOL
 10
38.254
 20
97.757
 30
0.0
 42
-0.086
  0
VERTEX
  8
GEOL
 10
38.235
 20
97.743
 30
0.0
 42
-0.061
  0
VERTEX
  8
GEOL
 10
38.195
 20
97.728
 30
0.0
 42
0.048
  0
VERTEX
  8
GEOL
 10
38.144
 20
97.711
 30
0.0
 42
0.004
  0
VERTEX
  8
GEOL
 10
38.119
 20
97.7
 30
0.0
 42
0.006
  0
VERTEX
  8
GEOL
 10
38.099
 20
97.69
 30
0.0
 42
0.027
  0
VERTEX
  8
GEOL
 10
38.054
 20
97.665
 30
0.0
 42
0.025
  0
VERTEX
  8
GEOL
 10
38.008
 20
97.632
 30
0.0
 42
0.033
  0
VERTEX
  8
GEOL
 10
37.985
 20
97.611
 30
0.0
 42
0.087
  0
VERTEX
  8
GEOL
 10
37.978
 20
97.601
 30
0.0
 42
0.034
  0
VERTEX
  8
GEOL
 10
37.968
 20
97.574
 30
0.0
 42
-0.021
  0
VERTEX
  8
GEOL
 10
37.953
 20
97.53
 30
0.0
 42
0.0
  0
VERTEX
  8
GEOL
 10
37.939
 20
97.494
 30
0.0
 42
0.001
  0
VERTEX
  8
GEOL
 10
37.929
 20
97.469
 30
0.0
 42
0.004
  0
VERTEX
  8
GEOL
 10
37.923
 20
97.453
 30
0.0
 42
-0.002
  0
VERTEX
  8
GEOL
 10
37.914
 20
97.428
 30
0.0
 42
-0.165
  0
VERTEX
  8
GEOL
 10
37.883
 20
97.39
 30
0.0
 42
0.156
  0
VERTEX
  8
GEOL
 10
37.849
 20
97.351
 30
0.0
 42
0.046
  0
VERTEX
  8
GEOL
 10
37.834
 20
97.304
 30
0.0
 42
0.057
  0
VERTEX
  8
GEOL
 10
37.83
 20
97.264
 30
0.0
 42
0.001
  0
VERTEX
  8
GEOL
 10
37.83
 20
97.261
 30
0.0
 42
-0.001
  0
VERTEX
  8
GEOL
 10
37.83
 20
97.26
 30
0.0
 42
-0.019
  0
VERTEX
  8
GEOL
 10
37.829
 20
97.222
 30
0.0
 42
0.01
  0
VERTEX
  8
GEOL
 10
37.826
 20
97.152
 30
0.0
 42
0.067
  0
VERTEX
  8
GEOL
 10
37.83
 20
97.109
 30
0.0
 42
-0.087
  0
VERTEX
  8
GEOL
 10
37.833
 20
97.076
 30
0.0
 42
-0.201
  0
VERTEX
  8
GEOL
 10
37.817
 20
97.049
 30
0.0
 42
0.124
  0
VERTEX
  8
GEOL
 10
37.787
 20
97.009
 30
0.0
 42
0.072
  0
VERTEX
  8
GEOL
 10
37.779
 20
96.981
 30
0.0
 42
-0.118
  0
VERTEX
  8
GEOL
 10
37.773
 20
96.964
 30
0.0
 42
-0.097
  0
VERTEX
  8
GEOL
 10
37.757
 20
96.948
 30
0.0
 42
-0.066
  0
VERTEX
  8
GEOL
 10
37.727
 20
96.933
 30
0.0
 42
-0.029
  0
VERTEX
  8
GEOL
 10
37.683
 20
96.92
 30
0.0
 42
0.022
  0
VERTEX
  8
GEOL
 10
37.626
 20
96.905
 30
0.0
 42
0.011
  0
VERTEX
  8
GEOL
 10
37.59
 20
96.893
 30
0.0
 42
0.011
  0
VERTEX
  8
GEOL
 10
37.555
 20
96.88
 30
0.0
 42
0.122
  0
VERTEX
  8
GEOL
 10
37.533
 20
96.864
 30
0.0
 42
0.048
  0
VERTEX
  8
GEOL
 10
37.495
 20
96.808
 30
0.0
 42
0.157
  0
VERTEX
  8
GEOL
 10
37.471
 20
96.684
 30
0.0
 42
0.453
  0
VERTEX
  8
GEOL
 10
37.513
 20
96.655
 30
0.0
 42
0.053
  0
VERTEX
  8
GEOL
 10
37.57
 20
96.676
 30
0.0
 42
0.04
  0
VERTEX
  8
GEOL
 10
37.638
 20
96.718
 30
0.0
 42
0.008
  0
VERTEX
  8
GEOL
 10
37.652
 20
96.729
 30
0.0
 42
-0.019
  0
VERTEX
  8
GEOL
 10
37.658
 20
96.733
 30
0.0
 42
-0.101
  0
VERTEX
  8
GEOL
 10
37.705
 20
96.751
 30
0.0
 42
0.065
  0
VERTEX
  8
GEOL
 10
37.78
 20
96.775
 30
0.0
 42
0.012
  0
VERTEX
  8
GEOL
 10
37.831
 20
96.8
 30
0.0
 42
0.029
  0
VERTEX
  8
GEOL
 10
37.851
 20
96.812
 30
0.0
 42
0.043
  0
VERTEX
  8
GEOL
 10
37.864
 20
96.823
 30
0.0
 42
-0.024
  0
VERTEX
  8
GEOL
 10
37.886
 20
96.843
 30
0.0
 42
-0.12
  0
VERTEX
  8
GEOL
 10
37.946
 20
96.871
 30
0.0
 42
0.167
  0
VERTEX
  8
GEOL
 10
37.987
 20
96.895
 30
0.0
 42
0.046
  0
VERTEX
  8
GEOL
 10
38.0
 20
96.913
 30
0.0
 42
0.027
  0
VERTEX
  8
GEOL
 10
38.017
 20
96.947
 30
0.0
 42
0.062
  0
VERTEX
  8
GEOL
 10
38.028
 20
96.98
 30
0.0
 42
-0.075
  0
VERTEX
  8
GEOL
 10
38.037
 20
97.008
 30
0.0
 42
-0.176
  0
VERTEX
  8
GEOL
 10
38.071
 20
97.04
 30
0.0
 42
0.154
  0
VERTEX
  8
GEOL
 10
38.112
 20
97.074
 30
0.0
 42
0.007
  0
VERTEX
  8
GEOL
 10
38.133
 20
97.109
 30
0.0
 42
0.006
  0
VERTEX
  8
GEOL
 10
38.157
 20
97.152
 30
0.0
 42
0.022
  0
VERTEX
  8
GEOL
 10
38.187
 20
97.213
 30
0.0
 42
-0.036
  0
VERTEX
  8
GEOL
 10
38.207
 20
97.249
 30
0.0
 42
-0.15
  0
VERTEX
  8
GEOL
 10
38.223
 20
97.262
 30
0.0
 42
0.166
  0
VERTEX
  8
GEOL
 10
38.237
 20
97.275
 30
0.0
 42
0.049
  0
VERTEX
  8
GEOL
 10
38.256
 20
97.321
 30
0.0
 42
-0.021
  0
VERTEX
  8
GEOL
 10
38.296
 20
97.428
 30
0.0
 42
-0.006
  0
VERTEX
  8
GEOL
 10
38.32
 20
97.486
 30
0.0
 42
0.008
  0
VERTEX
  8
GEOL
 10
38.339
 20
97.531
 30
0.0
 42
0.144
  0
VERTEX
  8
GEOL
 10
38.346
 20
97.592
 30
0.0
 42
-0.175
  0
VERTEX
  8
GEOL
 10
38.354
 20
97.643
 30
0.0
 42
-0.048
  0
VERTEX
  8
GEOL
 10
38.378
 20
97.678
 30
0.0
 42
-0.036
  0
VERTEX
  8
GEOL
 10
38.418
 20
97.719
 30
0.0
 42
-0.004
  0
VERTEX
  8
GEOL
 10
38.441
 20
97.739
 30
0.0
 42
-0.007
  0
VERTEX
  8
GEOL
 10
38.454
 20
97.75
 30
0.0
 42
-0.024
  0
VERTEX
  8
GEOL
 10
38.473
 20
97.764
 30
0.0
 42
-0.091
  0
VERTEX
  8
GEOL
 10
38.479
 20
97.766
 30
0.0
 42
-0.237
  0
VERTEX
  8
GEOL
 10
38.491
 20
97.763
 30
0.0
 42
0.087
  0
VERTEX
  8
GEOL
 10
38.52
 20
97.747
 30
0.0
 42
0.04
  0
VERTEX
  8
GEOL
 10
38.541
 20
97.74
 30
0.0
 42
-0.092
  0
VERTEX
  8
GEOL
 10
38.55
 20
97.737
 30
0.0
 42
-0.149
  0
VERTEX
  8
GEOL
 10
38.559
 20
97.726
 30
0.0
 42
0.059
  0
VERTEX
  8
GEOL
 10
38.577
 20
97.697
 30
0.0
 42
0.022
  0
VERTEX
  8
GEOL
 10
38.606
 20
97.662
 30
0.0
 42
0.043
  0
VERTEX
  8
GEOL
 10
38.623
 20
97.646
 30
0.0
 42
0.114
  0
VERTEX
  8
GEOL
 10
38.629
 20
97.643
 30
0.0
 42
0.043
  0
VERTEX
  8
GEOL
 10
38.649
 20
97.641
 30
0.0
  0
VERTEX
  8
GEOL
 10
38.649
 20
97.641
 30
0.0
 42
0.042
  0
VERTEX
  8
GEOL
 10
38.715
 20
97.652
 30
0.0
 42
0.067
  0
VERTEX
  8
GEOL
 10
38.755
 20
97.668
 30
0.0
 42
0.003
  0
VERTEX
  8
GEOL
 10
38.801
 20
97.695
 30
0.0
 42
0.009
  0
VERTEX
  8
GEOL
 10
38.815
 20
97.704
 30
0.0
 42
0.028
  0
VERTEX
  8
GEOL
 10
38.858
 20
97.735
 30
0.0
 42
-0.072
  0
VERTEX
  8
GEOL
 10
38.876
 20
97.746
 30
0.0
 42
-0.006
  0
VERTEX
  8
GEOL
 10
38.887
 20
97.75
 30
0.0
 42
-0.001
  0
VERTEX
  8
GEOL
 10
38.957
 20
97.777
 30
0.0
 42
-0.001
  0
VERTEX
  8
GEOL
 10
38.976
 20
97.784
 30
0.0
 42
0.0
  0
VERTEX
  8
GEOL
 10
39.027
 20
97.804
 30
0.0
 42
-0.05
  0
VERTEX
  8
GEOL
 10
39.136
 20
97.834
 30
0.0
 42
-0.107
  0
VERTEX
  8
GEOL
 10
39.19
 20
97.831
 30
0.0
 42
-0.075
  0
VERTEX
  8
GEOL
 10
39.219
 20
97.818
 30
0.0
 42
0.051
  0
VERTEX
  8
GEOL
 10
39.261
 20
97.797
 30
0.0
 42
0.025
  0
VERTEX
  8
GEOL
 10
39.312
 20
97.781
 30
0.0
 42
0.227
  0
VERTEX
  8
GEOL
 10
39.318
 20
97.782
 30
0.0
 42
0.068
  0
VERTEX
  8
GEOL
 10
39.325
 20
97.788
 30
0.0
 42
0.021
  0
VERTEX
  8
GEOL
 10
39.342
 20
97.813
 30
0.0
 42
0.005
  0
VERTEX
  8
GEOL
 10
39.355
 20
97.832
 30
0.0
 42
-0.008
  0
VERTEX
  8
GEOL
 10
39.362
 20
97.843
 30
0.0
 42
-0.042
  0
VERTEX
  8
GEOL
 10
39.373
 20
97.857
 30
0.0
 42
0.082
  0
VERTEX
  8
GEOL
 10
39.378
 20
97.864
 30
0.0
 42
0.052
  0
VERTEX
  8
GEOL
 10
39.384
 20
97.881
 30
0.0
 42
-0.019
  0
VERTEX
  8
GEOL
 10
39.398
 20
97.931
 30
0.0
 42
0.0
  0
VERTEX
  8
GEOL
 10
39.412
 20
97.977
 30
0.0
 42
0.0
  0
VERTEX
  8
GEOL
 10
39.421
 20
98.007
 30
0.0
 42
-0.009
  0
VERTEX
  8
GEOL
 10
39.431
 20
98.036
 30
0.0
 42
0.015
  0
VERTEX
  8
GEOL
 10
39.437
 20
98.054
 30
0.0
 42
0.115
  0
VERTEX
  8
GEOL
 10
39.438
 20
98.073
 30
0.0
 42
-0.063
  0
VERTEX
  8
GEOL
 10
39.436
 20
98.109
 30
0.0
 42
-0.005
  0
VERTEX
  8
GEOL
 10
39.439
 20
98.141
 30
0.0
 42
-0.018
  0
VERTEX
  8
GEOL
 10
39.44
 20
98.15
 30
0.0
 42
-0.008
  0
VERTEX
  8
GEOL
 10
39.443
 20
98.169
 30
0.0
 42
0.005
  0
VERTEX
  8
GEOL
 10
39.449
 20
98.201
 30
0.0
 42
0.01
  0
VERTEX
  8
GEOL
 10
39.458
 20
98.256
 30
0.0
 42
-0.015
  0
VERTEX
  8
GEOL
 10
39.464
 20
98.292
 30
0.0
 42
-0.017
  0
VERTEX
  8
GEOL
 10
39.466
 20
98.3
 30
0.0
 42
-0.001
  0
VERTEX
  8
GEOL
 10
39.488
 20
98.38
 30
0.0
 42
-0.018
  0
VERTEX
  8
GEOL
 10
39.496
 20
98.408
 30
0.0
 42
0.015
  0
VERTEX
  8
GEOL
 10
39.507
 20
98.441
 30
0.0
 42
0.09
  0
VERTEX
  8
GEOL
 10
39.508
 20
98.454
 30
0.0
  0
VERTEX
  8
GEOL
 10
39.508
 20
98.454
 30
0.0
  0
SEQEND
  8
GEOL
  0
TEXT
  8
TEXT
 10
31.336
 20
99.279
 30
0.0
 40
0.025
  1
Kscn
 50
360.0
  7
SIMPLEX
  0
TEXT
  8
TEXT
 10
37.226
 20
96.631
 30
0.0
 40
0.025
  1
Kichi
 50
360.0
  7
SIMPLEX
  0
TEXT
  8
TEXT
 10
37.94
 20
96.32
 30
0.0
 40
0.025
  1
Kichi
 50
360.0
  7
SIMPLEX
  0
TEXT
  8
TEXT
 10
30.899
 20
101.81
 30
0.0
 40
0.025
  1
Kscn
 50
360.0
  7
SIMPLEX
  0
TEXT
  8
TEXT
 10
30.78
 20
100.809
 30
0.0
 40
0.025
  1
Kscn
 50
360.0
  7
SIMPLEX
  0
TEXT
  8
TEXT
 10
30.42
 20
100.564
 30
0.0
 40
0.025
  1
Kscn
 50
360.0
  7
SIMPLEX
  0
TEXT
  8
TEXT
 10
29.779
 20
96.201
 30
0.0
 40
0.025
  1
Kscn
 50
360.0
  7
SIMPLEX
  0
TEXT
  8
TEXT
 10
30.752
 20
98.047
 30
0.0
 40
0.025
  1
Ksf
 50
360.0
  7
SIMPLEX
  0
TEXT
  8
TEXT
 10
30.021
 20
96.175
 30
0.0
 40
0.025
  1
Ksf
 50
360.0
  7
SIMPLEX
  0
POLYLINE
  8
SURVBND
 66
     1
 10
0.0
 20
0.0
 30
0.0
 70
     1
  0
VERTEX
  8
SURVBND
 10
32.702
 20
99.786
 30
0.0
  0
VERTEX
  8
SURVBND
 10
32.707
 20
99.777
 30
0.0
  0
VERTEX
  8
SURVBND
 10
32.733
 20
99.743
 30
0.0
  0
VERTEX
  8
SURVBND
 10
32.757
 20
99.723
 30
0.0
  0
VERTEX
  8
SURVBND
 10
32.794
 20
99.689
 30
0.0
  0
VERTEX
  8
SURVBND
 10
32.842
 20
99.662
 30
0.0
  0
VERTEX
  8
SURVBND
 10
32.88
 20
99.638
 30
0.0
  0
VERTEX
  8
SURVBND
 10
32.921
 20
99.6
 30
0.0
  0
VERTEX
  8
SURVBND
 10
32.955
 20
99.584
 30
0.0
  0
VERTEX
  8
SURVBND
 10
32.987
 20
99.558
 30
0.0
  0
VERTEX
  8
SURVBND
 10
33.016
 20
99.519
 30
0.0
  0
VERTEX
  8
SURVBND
 10
33.032
 20
99.492
 30
0.0
  0
VERTEX
  8
SURVBND
 10
33.068
 20
99.463
 30
0.0
  0
VERTEX
  8
SURVBND
 10
33.099
 20
99.44
 30
0.0
  0
VERTEX
  8
SURVBND
 10
33.13
 20
99.412
 30
0.0
  0
VERTEX
  8
SURVBND
 10
33.168
 20
99.385
 30
0.0
  0
VERTEX
  8
SURVBND
 10
33.209
 20
99.354
 30
0.0
  0
VERTEX
  8
SURVBND
 10
33.247
 20
99.314
 30
0.0
  0
VERTEX
  8
SURVBND
 10
33.28
 20
99.275
 30
0.0
  0
VERTEX
  8
SURVBND
 10
33.333
 20
99.226
 30
0.0
  0
VERTEX
  8
SURVBND
 10
33.378
 20
99.189
 30
0.0
  0
VERTEX
  8
SURVBND
 10
33.424
 20
99.145
 30
0.0
  0
VERTEX
  8
SURVBND
 10
33.497
 20
99.076
 30
0.0
  0
VERTEX
  8
SURVBND
 10
33.557
 20
99.034
 30
0.0
  0
VERTEX
  8
SURVBND
 10
33.605
 20
98.974
 30
0.0
  0
VERTEX
  8
SURVBND
 10
33.663
 20
98.922
 30
0.0
  0
VERTEX
  8
SURVBND
 10
33.697
 20
98.896
 30
0.0
  0
VERTEX
  8
SURVBND
 10
33.694
 20
98.887
 30
0.0
  0
VERTEX
  8
SURVBND
 10
33.707
 20
98.88
 30
0.0
  0
VERTEX
  8
SURVBND
 10
33.721
 20
98.869
 30
0.0
  0
VERTEX
  8
SURVBND
 10
33.73
 20
98.863
 30
0.0
  0
VERTEX
  8
SURVBND
 10
33.741
 20
98.852
 30
0.0
  0
VERTEX
  8
SURVBND
 10
33.752
 20
98.838
 30
0.0
  0
VERTEX
  8
SURVBND
 10
33.759
 20
98.828
 30
0.0
  0
VERTEX
  8
SURVBND
 10
33.769
 20
98.816
 30
0.0
  0
VERTEX
  8
SURVBND
 10
33.777
 20
98.81
 30
0.0
  0
VERTEX
  8
SURVBND
 10
33.784
 20
98.801
 30
0.0
  0
VERTEX
  8
SURVBND
 10
33.807
 20
98.789
 30
0.0
  0
VERTEX
  8
SURVBND
 10
33.827
 20
98.778
 30
0.0
  0
VERTEX
  8
SURVBND
 10
33.836
 20
98.77
 30
0.0
  0
VERTEX
  8
SURVBND
 10
33.842
 20
98.765
 30
0.0
  0
VERTEX
  8
SURVBND
 10
33.854
 20
98.754
 30
0.0
  0
VERTEX
  8
SURVBND
 10
33.866
 20
98.742
 30
0.0
  0
VERTEX
  8
SURVBND
 10
33.875
 20
98.734
 30
0.0
  0
VERTEX
  8
SURVBND
 10
33.883
 20
98.726
 30
0.0
  0
VERTEX
  8
SURVBND
 10
33.899
 20
98.711
 30
0.0
  0
VERTEX
  8
SURVBND
 10
33.909
 20
98.697
 30
0.0
  0
VERTEX
  8
SURVBND
 10
33.916
 20
98.692
 30
0.0
  0
VERTEX
  8
SURVBND
 10
33.945
 20
98.725
 30
0.0
  0
VERTEX
  8
SURVBND
 10
33.959
 20
98.718
 30
0.0
  0
VERTEX
  8
SURVBND
 10
33.971
 20
98.717
 30
0.0
  0
VERTEX
  8
SURVBND
 10
33.986
 20
98.715
 30
0.0
  0
VERTEX
  8
SURVBND
 10
33.989
 20
98.718
 30
0.0
  0
VERTEX
  8
SURVBND
 10
33.991
 20
98.721
 30
0.0
  0
VERTEX
  8
SURVBND
 10
34.006
 20
98.733
 30
0.0
  0
VERTEX
  8
SURVBND
 10
34.014
 20
98.744
 30
0.0
  0
VERTEX
  8
SURVBND
 10
34.029
 20
98.742
 30
0.0
  0
VERTEX
  8
SURVBND
 10
34.021
 20
98.725
 30
0.0
  0
VERTEX
  8
SURVBND
 10
34.021
 20
98.718
 30
0.0
  0
VERTEX
  8
SURVBND
 10
34.021
 20
98.703
 30
0.0
  0
VERTEX
  8
SURVBND
 10
34.021
 20
98.691
 30
0.0
  0
VERTEX
  8
SURVBND
 10
34.028
 20
98.686
 30
0.0
  0
VERTEX
  8
SURVBND
 10
34.039
 20
98.687
 30
0.0
  0
VERTEX
  8
SURVBND
 10
34.045
 20
98.693
 30
0.0
  0
VERTEX
  8
SURVBND
 10
34.048
 20
98.697
 30
0.0
  0
VERTEX
  8
SURVBND
 10
34.057
 20
98.697
 30
0.0
  0
VERTEX
  8
SURVBND
 10
34.065
 20
98.689
 30
0.0
  0
VERTEX
  8
SURVBND
 10
34.074
 20
98.68
 30
0.0
  0
VERTEX
  8
SURVBND
 10
34.083
 20
98.67
 30
0.0
  0
VERTEX
  8
SURVBND
 10
34.093
 20
98.659
 30
0.0
  0
VERTEX
  8
SURVBND
 10
34.12
 20
98.615
 30
0.0
  0
VERTEX
  8
SURVBND
 10
34.132
 20
98.601
 30
0.0
  0
VERTEX
  8
SURVBND
 10
34.141
 20
98.596
 30
0.0
  0
VERTEX
  8
SURVBND
 10
34.152
 20
98.592
 30
0.0
  0
VERTEX
  8
SURVBND
 10
34.161
 20
98.595
 30
0.0
  0
VERTEX
  8
SURVBND
 10
34.173
 20
98.601
 30
0.0
  0
VERTEX
  8
SURVBND
 10
34.179
 20
98.601
 30
0.0
  0
VERTEX
  8
SURVBND
 10
34.187
 20
98.585
 30
0.0
  0
VERTEX
  8
SURVBND
 10
34.184
 20
98.577
 30
0.0
  0
VERTEX
  8
SURVBND
 10
34.182
 20
98.567
 30
0.0
  0
VERTEX
  8
SURVBND
 10
34.19
 20
98.562
 30
0.0
  0
VERTEX
  8
SURVBND
 10
34.202
 20
98.552
 30
0.0
  0
VERTEX
  8
SURVBND
 10
34.221
 20
98.563
 30
0.0
  0
VERTEX
  8
SURVBND
 10
34.226
 20
98.564
 30
0.0
  0
VERTEX
  8
SURVBND
 10
34.234
 20
98.552
 30
0.0
  0
VERTEX
  8
SURVBND
 10
34.24
 20
98.54
 30
0.0
  0
VERTEX
  8
SURVBND
 10
34.255
 20
98.524
 30
0.0
  0
VERTEX
  8
SURVBND
 10
34.268
 20
98.519
 30
0.0
  0
VERTEX
  8
SURVBND
 10
34.276
 20
98.519
 30
0.0
  0
VERTEX
  8
SURVBND
 10
34.281
 20
98.517
 30
0.0
  0
VERTEX
  8
SURVBND
 10
34.293
 20
98.512
 30
0.0
  0
VERTEX
  8
SURVBND
 10
34.303
 20
98.502
 30
0.0
  0
VERTEX
  8
SURVBND
 10
34.311
 20
98.496
 30
0.0
  0
VERTEX
  8
SURVBND
 10
34.321
 20
98.497
 30
0.0
  0
VERTEX
  8
SURVBND
 10
34.325
 20
98.496
 30
0.0
  0
VERTEX
  8
SURVBND
 10
34.33
 20
98.488
 30
0.0
  0
VERTEX
  8
SURVBND
 10
34.329
 20
98.481
 30
0.0
  0
VERTEX
  8
SURVBND
 10
34.332
 20
98.469
 30
0.0
  0
VERTEX
  8
SURVBND
 10
34.351
 20
98.455
 30
0.0
  0
VERTEX
  8
SURVBND
 10
34.352
 20
98.456
 30
0.0
  0
VERTEX
  8
SURVBND
 10
34.36
 20
98.457
 30
0.0
  0
VERTEX
  8
SURVBND
 10
34.366
 20
98.453
 30
0.0
  0
VERTEX
  8
SURVBND
 10
34.382
 20
98.445
 30
0.0
  0
VERTEX
  8
SURVBND
 10
34.396
 20
98.446
 30
0.0
  0
VERTEX
  8
SURVBND
 10
34.412
 20
98.441
 30
0.0
  0
VERTEX
  8
SURVBND
 10
34.418
 20
98.439
 30
0.0
  0
VERTEX
  8
SURVBND
 10
34.431
 20
98.435
 30
0.0
  0
VERTEX
  8
SURVBND
 10
34.435
 20
98.427
 30
0.0
  0
VERTEX
  8
SURVBND
 10
34.44
 20
98.421
 30
0.0
  0
VERTEX
  8
SURVBND
 10
34.451
 20
98.407
 30
0.0
  0
VERTEX
  8
SURVBND
 10
34.459
 20
98.399
 30
0.0
  0
VERTEX
  8
SURVBND
 10
34.47
 20
98.398
 30
0.0
  0
VERTEX
  8
SURVBND
 10
34.471
 20
98.402
 30
0.0
  0
VERTEX
  8
SURVBND
 10
34.467
 20
98.407
 30
0.0
  0
VERTEX
  8
SURVBND
 10
34.465
 20
98.413
 30
0.0
  0
VERTEX
  8
SURVBND
 10
34.464
 20
98.422
 30
0.0
  0
VERTEX
  8
SURVBND
 10
34.467
 20
98.426
 30
0.0
  0
VERTEX
  8
SURVBND
 10
34.48
 20
98.42
 30
0.0
  0
VERTEX
  8
SURVBND
 10
34.485
 20
98.414
 30
0.0
  0
VERTEX
  8
SURVBND
 10
34.496
 20
98.407
 30
0.0
  0
VERTEX
  8
SURVBND
 10
34.505
 20
98.401
 30
0.0
  0
VERTEX
  8
SURVBND
 10
34.525
 20
98.394
 30
0.0
  0
VERTEX
  8
SURVBND
 10
34.537
 20
98.393
 30
0.0
  0
VERTEX
  8
SURVBND
 10
34.548
 20
98.39
 30
0.0
  0
VERTEX
  8
SURVBND
 10
34.554
 20
98.384
 30
0.0
  0
VERTEX
  8
SURVBND
 10
34.566
 20
98.391
 30
0.0
  0
VERTEX
  8
SURVBND
 10
34.568
 20
98.392
 30
0.0
  0
VERTEX
  8
SURVBND
 10
34.585
 20
98.384
 30
0.0
  0
VERTEX
  8
SURVBND
 10
34.599
 20
98.377
 30
0.0
  0
VERTEX
  8
SURVBND
 10
34.627
 20
98.367
 30
0.0
  0
VERTEX
  8
SURVBND
 10
34.636
 20
98.359
 30
0.0
  0
VERTEX
  8
SURVBND
 10
34.641
 20
98.35
 30
0.0
  0
VERTEX
  8
SURVBND
 10
34.651
 20
98.343
 30
0.0
  0
VERTEX
  8
SURVBND
 10
34.665
 20
98.337
 30
0.0
  0
VERTEX
  8
SURVBND
 10
34.671
 20
98.324
 30
0.0
  0
VERTEX
  8
SURVBND
 10
34.676
 20
98.316
 30
0.0
  0
VERTEX
  8
SURVBND
 10
34.682
 20
98.31
 30
0.0
  0
VERTEX
  8
SURVBND
 10
34.69
 20
98.303
 30
0.0
  0
VERTEX
  8
SURVBND
 10
34.705
 20
98.306
 30
0.0
  0
VERTEX
  8
SURVBND
 10
34.713
 20
98.308
 30
0.0
  0
VERTEX
  8
SURVBND
 10
34.719
 20
98.306
 30
0.0
  0
VERTEX
  8
SURVBND
 10
34.728
 20
98.299
 30
0.0
  0
VERTEX
  8
SURVBND
 10
34.734
 20
98.291
 30
0.0
  0
VERTEX
  8
SURVBND
 10
34.741
 20
98.288
 30
0.0
  0
VERTEX
  8
SURVBND
 10
34.75
 20
98.283
 30
0.0
  0
VERTEX
  8
SURVBND
 10
34.757
 20
98.277
 30
0.0
  0
VERTEX
  8
SURVBND
 10
34.765
 20
98.271
 30
0.0
  0
VERTEX
  8
SURVBND
 10
34.759
 20
98.264
 30
0.0
  0
VERTEX
  8
SURVBND
 10
34.773
 20
98.261
 30
0.0
  0
VERTEX
  8
SURVBND
 10
34.785
 20
98.255
 30
0.0
  0
VERTEX
  8
SURVBND
 10
34.794
 20
98.26
 30
0.0
  0
VERTEX
  8
SURVBND
 10
34.8
 20
98.256
 30
0.0
  0
VERTEX
  8
SURVBND
 10
34.811
 20
98.248
 30
0.0
  0
VERTEX
  8
SURVBND
 10
34.819
 20
98.249
 30
0.0
  0
VERTEX
  8
SURVBND
 10
34.821
 20
98.255
 30
0.0
  0
VERTEX
  8
SURVBND
 10
34.824
 20
98.257
 30
0.0
  0
VERTEX
  8
SURVBND
 10
34.828
 20
98.26
 30
0.0
  0
VERTEX
  8
SURVBND
 10
34.835
 20
98.26
 30
0.0
  0
VERTEX
  8
SURVBND
 10
34.852
 20
98.256
 30
0.0
  0
VERTEX
  8
SURVBND
 10
34.869
 20
98.251
 30
0.0
  0
VERTEX
  8
SURVBND
 10
34.883
 20
98.245
 30
0.0
  0
VERTEX
  8
SURVBND
 10
34.891
 20
98.243
 30
0.0
  0
VERTEX
  8
SURVBND
 10
34.897
 20
98.241
 30
0.0
  0
VERTEX
  8
SURVBND
 10
34.909
 20
98.24
 30
0.0
  0
VERTEX
  8
SURVBND
 10
34.92
 20
98.239
 30
0.0
  0
VERTEX
  8
SURVBND
 10
34.922
 20
98.239
 30
0.0
  0
VERTEX
  8
SURVBND
 10
34.928
 20
98.241
 30
0.0
  0
VERTEX
  8
SURVBND
 10
34.935
 20
98.245
 30
0.0
  0
VERTEX
  8
SURVBND
 10
34.94
 20
98.25
 30
0.0
  0
VERTEX
  8
SURVBND
 10
34.944
 20
98.25
 30
0.0
  0
VERTEX
  8
SURVBND
 10
35.015
 20
98.2
 30
0.0
  0
VERTEX
  8
SURVBND
 10
35.137
 20
98.22
 30
0.0
  0
VERTEX
  8
SURVBND
 10
35.137
 20
98.219
 30
0.0
  0
VERTEX
  8
SURVBND
 10
35.143
 20
98.216
 30
0.0
  0
VERTEX
  8
SURVBND
 10
35.152
 20
98.211
 30
0.0
  0
VERTEX
  8
SURVBND
 10
35.162
 20
98.208
 30
0.0
  0
VERTEX
  8
SURVBND
 10
35.169
 20
98.204
 30
0.0
  0
VERTEX
  8
SURVBND
 10
35.176
 20
98.204
 30
0.0
  0
VERTEX
  8
SURVBND
 10
35.184
 20
98.205
 30
0.0
  0
VERTEX
  8
SURVBND
 10
35.19
 20
98.197
 30
0.0
  0
VERTEX
  8
SURVBND
 10
35.194
 20
98.193
 30
0.0
  0
VERTEX
  8
SURVBND
 10
35.206
 20
98.188
 30
0.0
  0
VERTEX
  8
SURVBND
 10
35.21
 20
98.187
 30
0.0
  0
VERTEX
  8
SURVBND
 10
35.222
 20
98.187
 30
0.0
  0
VERTEX
  8
SURVBND
 10
35.224
 20
98.189
 30
0.0
  0
VERTEX
  8
SURVBND
 10
35.226
 20
98.192
 30
0.0
  0
VERTEX
  8
SURVBND
 10
35.223
 20
98.196
 30
0.0
  0
VERTEX
  8
SURVBND
 10
35.221
 20
98.199
 30
0.0
  0
VERTEX
  8
SURVBND
 10
35.219
 20
98.204
 30
0.0
  0
VERTEX
  8
SURVBND
 10
35.219
 20
98.205
 30
0.0
  0
VERTEX
  8
SURVBND
 10
35.225
 20
98.208
 30
0.0
  0
VERTEX
  8
SURVBND
 10
35.228
 20
98.206
 30
0.0
  0
VERTEX
  8
SURVBND
 10
35.24
 20
98.203
 30
0.0
  0
VERTEX
  8
SURVBND
 10
35.244
 20
98.202
 30
0.0
  0
VERTEX
  8
SURVBND
 10
35.257
 20
98.202
 30
0.0
  0
VERTEX
  8
SURVBND
 10
35.261
 20
98.202
 30
0.0
  0
VERTEX
  8
SURVBND
 10
35.261
 20
98.203
 30
0.0
  0
VERTEX
  8
SURVBND
 10
35.268
 20
98.205
 30
0.0
  0
VERTEX
  8
SURVBND
 10
35.273
 20
98.204
 30
0.0
  0
VERTEX
  8
SURVBND
 10
35.283
 20
98.201
 30
0.0
  0
VERTEX
  8
SURVBND
 10
35.295
 20
98.199
 30
0.0
  0
VERTEX
  8
SURVBND
 10
35.312
 20
98.199
 30
0.0
  0
VERTEX
  8
SURVBND
 10
35.315
 20
98.198
 30
0.0
  0
VERTEX
  8
SURVBND
 10
35.333
 20
98.201
 30
0.0
  0
VERTEX
  8
SURVBND
 10
35.341
 20
98.205
 30
0.0
  0
VERTEX
  8
SURVBND
 10
35.345
 20
98.206
 30
0.0
  0
VERTEX
  8
SURVBND
 10
35.36
 20
98.211
 30
0.0
  0
VERTEX
  8
SURVBND
 10
35.363
 20
98.212
 30
0.0
  0
VERTEX
  8
SURVBND
 10
35.375
 20
98.207
 30
0.0
  0
VERTEX
  8
SURVBND
 10
35.378
 20
98.2
 30
0.0
  0
VERTEX
  8
SURVBND
 10
35.399
 20
98.196
 30
0.0
  0
VERTEX
  8
SURVBND
 10
35.407
 20
98.198
 30
0.0
  0
VERTEX
  8
SURVBND
 10
35.416
 20
98.204
 30
0.0
  0
VERTEX
  8
SURVBND
 10
35.419
 20
98.209
 30
0.0
  0
VERTEX
  8
SURVBND
 10
35.419
 20
98.209
 30
0.0
  0
VERTEX
  8
SURVBND
 10
35.426
 20
98.206
 30
0.0
  0
VERTEX
  8
SURVBND
 10
35.44
 20
98.209
 30
0.0
  0
VERTEX
  8
SURVBND
 10
35.447
 20
98.208
 30
0.0
  0
VERTEX
  8
SURVBND
 10
35.454
 20
98.209
 30
0.0
  0
VERTEX
  8
SURVBND
 10
35.462
 20
98.211
 30
0.0
  0
VERTEX
  8
SURVBND
 10
35.477
 20
98.212
 30
0.0
  0
VERTEX
  8
SURVBND
 10
35.488
 20
98.218
 30
0.0
  0
VERTEX
  8
SURVBND
 10
35.494
 20
98.223
 30
0.0
  0
VERTEX
  8
SURVBND
 10
35.498
 20
98.229
 30
0.0
  0
VERTEX
  8
SURVBND
 10
35.5
 20
98.236
 30
0.0
  0
VERTEX
  8
SURVBND
 10
35.501
 20
98.237
 30
0.0
  0
VERTEX
  8
SURVBND
 10
35.507
 20
98.238
 30
0.0
  0
VERTEX
  8
SURVBND
 10
35.51
 20
98.235
 30
0.0
  0
VERTEX
  8
SURVBND
 10
35.516
 20
98.224
 30
0.0
  0
VERTEX
  8
SURVBND
 10
35.524
 20
98.227
 30
0.0
  0
VERTEX
  8
SURVBND
 10
35.531
 20
98.234
 30
0.0
  0
VERTEX
  8
SURVBND
 10
35.536
 20
98.24
 30
0.0
  0
VERTEX
  8
SURVBND
 10
35.547
 20
98.245
 30
0.0
  0
VERTEX
  8
SURVBND
 10
35.552
 20
98.25
 30
0.0
  0
VERTEX
  8
SURVBND
 10
35.557
 20
98.257
 30
0.0
  0
VERTEX
  8
SURVBND
 10
35.562
 20
98.262
 30
0.0
  0
VERTEX
  8
SURVBND
 10
35.576
 20
98.272
 30
0.0
  0
VERTEX
  8
SURVBND
 10
35.586
 20
98.283
 30
0.0
  0
VERTEX
  8
SURVBND
 10
35.592
 20
98.289
 30
0.0
  0
VERTEX
  8
SURVBND
 10
35.598
 20
98.29
 30
0.0
  0
VERTEX
  8
SURVBND
 10
35.596
 20
98.281
 30
0.0
  0
VERTEX
  8
SURVBND
 10
35.601
 20
98.275
 30
0.0
  0
VERTEX
  8
SURVBND
 10
35.612
 20
98.267
 30
0.0
  0
VERTEX
  8
SURVBND
 10
35.621
 20
98.268
 30
0.0
  0
VERTEX
  8
SURVBND
 10
35.638
 20
98.272
 30
0.0
  0
VERTEX
  8
SURVBND
 10
35.642
 20
98.274
 30
0.0
  0
VERTEX
  8
SURVBND
 10
35.652
 20
98.277
 30
0.0
  0
VERTEX
  8
SURVBND
 10
35.657
 20
98.279
 30
0.0
  0
VERTEX
  8
SURVBND
 10
35.664
 20
98.287
 30
0.0
  0
VERTEX
  8
SURVBND
 10
35.667
 20
98.292
 30
0.0
  0
VERTEX
  8
SURVBND
 10
35.672
 20
98.295
 30
0.0
  0
VERTEX
  8
SURVBND
 10
35.675
 20
98.29
 30
0.0
  0
VERTEX
  8
SURVBND
 10
35.68
 20
98.281
 30
0.0
  0
VERTEX
  8
SURVBND
 10
35.69
 20
98.284
 30
0.0
  0
VERTEX
  8
SURVBND
 10
35.692
 20
98.286
 30
0.0
  0
VERTEX
  8
SURVBND
 10
35.703
 20
98.293
 30
0.0
  0
VERTEX
  8
SURVBND
 10
35.709
 20
98.296
 30
0.0
  0
VERTEX
  8
SURVBND
 10
35.717
 20
98.3
 30
0.0
  0
VERTEX
  8
SURVBND
 10
35.719
 20
98.302
 30
0.0
  0
VERTEX
  8
SURVBND
 10
35.729
 20
98.304
 30
0.0
  0
VERTEX
  8
SURVBND
 10
35.734
 20
98.301
 30
0.0
  0
VERTEX
  8
SURVBND
 10
35.739
 20
98.3
 30
0.0
  0
VERTEX
  8
SURVBND
 10
35.74
 20
98.3
 30
0.0
  0
VERTEX
  8
SURVBND
 10
35.745
 20
98.301
 30
0.0
  0
VERTEX
  8
SURVBND
 10
35.746
 20
98.302
 30
0.0
  0
VERTEX
  8
SURVBND
 10
35.754
 20
98.309
 30
0.0
  0
VERTEX
  8
SURVBND
 10
35.757
 20
98.315
 30
0.0
  0
VERTEX
  8
SURVBND
 10
35.769
 20
98.32
 30
0.0
  0
VERTEX
  8
SURVBND
 10
35.787
 20
98.321
 30
0.0
  0
VERTEX
  8
SURVBND
 10
35.787
 20
98.321
 30
0.0
  0
VERTEX
  8
SURVBND
 10
35.801
 20
98.326
 30
0.0
  0
VERTEX
  8
SURVBND
 10
35.813
 20
98.333
 30
0.0
  0
VERTEX
  8
SURVBND
 10
35.829
 20
98.339
 30
0.0
  0
VERTEX
  8
SURVBND
 10
35.838
 20
98.342
 30
0.0
  0
VERTEX
  8
SURVBND
 10
35.853
 20
98.349
 30
0.0
  0
VERTEX
  8
SURVBND
 10
35.872
 20
98.356
 30
0.0
  0
VERTEX
  8
SURVBND
 10
35.876
 20
98.362
 30
0.0
  0
VERTEX
  8
SURVBND
 10
35.88
 20
98.372
 30
0.0
  0
VERTEX
  8
SURVBND
 10
35.875
 20
98.381
 30
0.0
  0
VERTEX
  8
SURVBND
 10
35.875
 20
98.387
 30
0.0
  0
VERTEX
  8
SURVBND
 10
35.885
 20
98.394
 30
0.0
  0
VERTEX
  8
SURVBND
 10
35.889
 20
98.392
 30
0.0
  0
VERTEX
  8
SURVBND
 10
35.893
 20
98.383
 30
0.0
  0
VERTEX
  8
SURVBND
 10
35.898
 20
98.377
 30
0.0
  0
VERTEX
  8
SURVBND
 10
35.91
 20
98.378
 30
0.0
  0
VERTEX
  8
SURVBND
 10
35.916
 20
98.381
 30
0.0
  0
VERTEX
  8
SURVBND
 10
35.916
 20
98.388
 30
0.0
  0
VERTEX
  8
SURVBND
 10
35.913
 20
98.395
 30
0.0
  0
VERTEX
  8
SURVBND
 10
35.914
 20
98.405
 30
0.0
  0
VERTEX
  8
SURVBND
 10
35.923
 20
98.412
 30
0.0
  0
VERTEX
  8
SURVBND
 10
35.933
 20
98.415
 30
0.0
  0
VERTEX
  8
SURVBND
 10
35.941
 20
98.417
 30
0.0
  0
VERTEX
  8
SURVBND
 10
35.954
 20
98.419
 30
0.0
  0
VERTEX
  8
SURVBND
 10
35.954
 20
98.419
 30
0.0
  0
VERTEX
  8
SURVBND
 10
35.953
 20
98.411
 30
0.0
  0
VERTEX
  8
SURVBND
 10
35.952
 20
98.403
 30
0.0
  0
VERTEX
  8
SURVBND
 10
35.96
 20
98.396
 30
0.0
  0
VERTEX
  8
SURVBND
 10
35.966
 20
98.395
 30
0.0
  0
VERTEX
  8
SURVBND
 10
35.984
 20
98.398
 30
0.0
  0
VERTEX
  8
SURVBND
 10
35.991
 20
98.401
 30
0.0
  0
VERTEX
  8
SURVBND
 10
35.999
 20
98.404
 30
0.0
  0
VERTEX
  8
SURVBND
 10
36.004
 20
98.407
 30
0.0
  0
VERTEX
  8
SURVBND
 10
36.012
 20
98.415
 30
0.0
  0
VERTEX
  8
SURVBND
 10
36.019
 20
98.424
 30
0.0
  0
VERTEX
  8
SURVBND
 10
36.024
 20
98.433
 30
0.0
  0
VERTEX
  8
SURVBND
 10
36.059
 20
98.39
 30
0.0
  0
VERTEX
  8
SURVBND
 10
36.121
 20
98.403
 30
0.0
  0
VERTEX
  8
SURVBND
 10
36.147
 20
98.421
 30
0.0
  0
VERTEX
  8
SURVBND
 10
36.188
 20
98.467
 30
0.0
  0
VERTEX
  8
SURVBND
 10
36.191
 20
98.466
 30
0.0
  0
VERTEX
  8
SURVBND
 10
36.199
 20
98.466
 30
0.0
  0
VERTEX
  8
SURVBND
 10
36.212
 20
98.468
 30
0.0
  0
VERTEX
  8
SURVBND
 10
36.214
 20
98.47
 30
0.0
  0
VERTEX
  8
SURVBND
 10
36.221
 20
98.475
 30
0.0
  0
VERTEX
  8
SURVBND
 10
36.233
 20
98.483
 30
0.0
  0
VERTEX
  8
SURVBND
 10
36.238
 20
98.488
 30
0.0
  0
VERTEX
  8
SURVBND
 10
36.241
 20
98.496
 30
0.0
  0
VERTEX
  8
SURVBND
 10
36.246
 20
98.504
 30
0.0
  0
VERTEX
  8
SURVBND
 10
36.255
 20
98.514
 30
0.0
  0
VERTEX
  8
SURVBND
 10
36.262
 20
98.52
 30
0.0
  0
VERTEX
  8
SURVBND
 10
36.272
 20
98.528
 30
0.0
  0
VERTEX
  8
SURVBND
 10
36.275
 20
98.529
 30
0.0
  0
VERTEX
  8
SURVBND
 10
36.291
 20
98.528
 30
0.0
  0
VERTEX
  8
SURVBND
 10
36.294
 20
98.528
 30
0.0
  0
VERTEX
  8
SURVBND
 10
36.3
 20
98.529
 30
0.0
  0
VERTEX
  8
SURVBND
 10
36.304
 20
98.538
 30
0.0
  0
VERTEX
  8
SURVBND
 10
36.307
 20
98.543
 30
0.0
  0
VERTEX
  8
SURVBND
 10
36.313
 20
98.547
 30
0.0
  0
VERTEX
  8
SURVBND
 10
36.319
 20
98.556
 30
0.0
  0
VERTEX
  8
SURVBND
 10
36.324
 20
98.569
 30
0.0
  0
VERTEX
  8
SURVBND
 10
36.327
 20
98.576
 30
0.0
  0
VERTEX
  8
SURVBND
 10
36.328
 20
98.583
 30
0.0
  0
VERTEX
  8
SURVBND
 10
36.327
 20
98.591
 30
0.0
  0
VERTEX
  8
SURVBND
 10
36.327
 20
98.593
 30
0.0
  0
VERTEX
  8
SURVBND
 10
36.356
 20
98.613
 30
0.0
  0
VERTEX
  8
SURVBND
 10
36.365
 20
98.618
 30
0.0
  0
VERTEX
  8
SURVBND
 10
36.363
 20
98.634
 30
0.0
  0
VERTEX
  8
SURVBND
 10
36.371
 20
98.646
 30
0.0
  0
VERTEX
  8
SURVBND
 10
36.379
 20
98.648
 30
0.0
  0
VERTEX
  8
SURVBND
 10
36.381
 20
98.643
 30
0.0
  0
VERTEX
  8
SURVBND
 10
36.388
 20
98.642
 30
0.0
  0
VERTEX
  8
SURVBND
 10
36.4
 20
98.647
 30
0.0
  0
VERTEX
  8
SURVBND
 10
36.41
 20
98.654
 30
0.0
  0
VERTEX
  8
SURVBND
 10
36.419
 20
98.66
 30
0.0
  0
VERTEX
  8
SURVBND
 10
36.424
 20
98.664
 30
0.0
  0
VERTEX
  8
SURVBND
 10
36.432
 20
98.669
 30
0.0
  0
VERTEX
  8
SURVBND
 10
36.441
 20
98.673
 30
0.0
  0
VERTEX
  8
SURVBND
 10
36.455
 20
98.681
 30
0.0
  0
VERTEX
  8
SURVBND
 10
36.458
 20
98.686
 30
0.0
  0
VERTEX
  8
SURVBND
 10
36.459
 20
98.69
 30
0.0
  0
VERTEX
  8
SURVBND
 10
36.454
 20
98.703
 30
0.0
  0
VERTEX
  8
SURVBND
 10
36.459
 20
98.706
 30
0.0
  0
VERTEX
  8
SURVBND
 10
36.48
 20
98.714
 30
0.0
  0
VERTEX
  8
SURVBND
 10
36.491
 20
98.718
 30
0.0
  0
VERTEX
  8
SURVBND
 10
36.495
 20
98.72
 30
0.0
  0
VERTEX
  8
SURVBND
 10
36.504
 20
98.725
 30
0.0
  0
VERTEX
  8
SURVBND
 10
36.508
 20
98.732
 30
0.0
  0
VERTEX
  8
SURVBND
 10
36.519
 20
98.741
 30
0.0
  0
VERTEX
  8
SURVBND
 10
36.53
 20
98.747
 30
0.0
  0
VERTEX
  8
SURVBND
 10
36.533
 20
98.748
 30
0.0
  0
VERTEX
  8
SURVBND
 10
36.539
 20
98.741
 30
0.0
  0
VERTEX
  8
SURVBND
 10
36.543
 20
98.738
 30
0.0
  0
VERTEX
  8
SURVBND
 10
36.549
 20
98.734
 30
0.0
  0
VERTEX
  8
SURVBND
 10
36.555
 20
98.73
 30
0.0
  0
VERTEX
  8
SURVBND
 10
36.559
 20
98.728
 30
0.0
  0
VERTEX
  8
SURVBND
 10
36.565
 20
98.726
 30
0.0
  0
VERTEX
  8
SURVBND
 10
36.572
 20
98.726
 30
0.0
  0
VERTEX
  8
SURVBND
 10
36.579
 20
98.731
 30
0.0
  0
VERTEX
  8
SURVBND
 10
36.58
 20
98.737
 30
0.0
  0
VERTEX
  8
SURVBND
 10
36.581
 20
98.743
 30
0.0
  0
VERTEX
  8
SURVBND
 10
36.58
 20
98.749
 30
0.0
  0
VERTEX
  8
SURVBND
 10
36.594
 20
98.763
 30
0.0
  0
VERTEX
  8
SURVBND
 10
36.608
 20
98.764
 30
0.0
  0
VERTEX
  8
SURVBND
 10
36.614
 20
98.759
 30
0.0
  0
VERTEX
  8
SURVBND
 10
36.618
 20
98.754
 30
0.0
  0
VERTEX
  8
SURVBND
 10
36.621
 20
98.749
 30
0.0
  0
VERTEX
  8
SURVBND
 10
36.629
 20
98.747
 30
0.0
  0
VERTEX
  8
SURVBND
 10
36.638
 20
98.744
 30
0.0
  0
VERTEX
  8
SURVBND
 10
36.652
 20
98.744
 30
0.0
  0
VERTEX
  8
SURVBND
 10
36.653
 20
98.745
 30
0.0
  0
VERTEX
  8
SURVBND
 10
36.66
 20
98.748
 30
0.0
  0
VERTEX
  8
SURVBND
 10
36.663
 20
98.747
 30
0.0
  0
VERTEX
  8
SURVBND
 10
36.695
 20
98.742
 30
0.0
  0
VERTEX
  8
SURVBND
 10
36.701
 20
98.738
 30
0.0
  0
VERTEX
  8
SURVBND
 10
36.71
 20
98.731
 30
0.0
  0
VERTEX
  8
SURVBND
 10
36.714
 20
98.724
 30
0.0
  0
VERTEX
  8
SURVBND
 10
36.714
 20
98.717
 30
0.0
  0
VERTEX
  8
SURVBND
 10
36.713
 20
98.709
 30
0.0
  0
VERTEX
  8
SURVBND
 10
36.716
 20
98.703
 30
0.0
  0
VERTEX
  8
SURVBND
 10
36.718
 20
98.7
 30
0.0
  0
VERTEX
  8
SURVBND
 10
36.721
 20
98.694
 30
0.0
  0
VERTEX
  8
SURVBND
 10
36.723
 20
98.69
 30
0.0
  0
VERTEX
  8
SURVBND
 10
36.721
 20
98.682
 30
0.0
  0
VERTEX
  8
SURVBND
 10
36.72
 20
98.675
 30
0.0
  0
VERTEX
  8
SURVBND
 10
36.728
 20
98.672
 30
0.0
  0
VERTEX
  8
SURVBND
 10
36.739
 20
98.671
 30
0.0
  0
VERTEX
  8
SURVBND
 10
36.749
 20
98.669
 30
0.0
  0
VERTEX
  8
SURVBND
 10
36.753
 20
98.666
 30
0.0
  0
VERTEX
  8
SURVBND
 10
36.764
 20
98.663
 30
0.0
  0
VERTEX
  8
SURVBND
 10
36.773
 20
98.663
 30
0.0
  0
VERTEX
  8
SURVBND
 10
36.781
 20
98.663
 30
0.0
  0
VERTEX
  8
SURVBND
 10
36.784
 20
98.665
 30
0.0
  0
VERTEX
  8
SURVBND
 10
36.795
 20
98.667
 30
0.0
  0
VERTEX
  8
SURVBND
 10
36.799
 20
98.67
 30
0.0
  0
VERTEX
  8
SURVBND
 10
36.809
 20
98.677
 30
0.0
  0
VERTEX
  8
SURVBND
 10
36.822
 20
98.683
 30
0.0
  0
VERTEX
  8
SURVBND
 10
36.826
 20
98.684
 30
0.0
  0
VERTEX
  8
SURVBND
 10
36.838
 20
98.681
 30
0.0
  0
VERTEX
  8
SURVBND
 10
36.839
 20
98.675
 30
0.0
  0
VERTEX
  8
SURVBND
 10
36.833
 20
98.668
 30
0.0
  0
VERTEX
  8
SURVBND
 10
36.83
 20
98.664
 30
0.0
  0
VERTEX
  8
SURVBND
 10
36.823
 20
98.656
 30
0.0
  0
VERTEX
  8
SURVBND
 10
36.815
 20
98.646
 30
0.0
  0
VERTEX
  8
SURVBND
 10
36.813
 20
98.639
 30
0.0
  0
VERTEX
  8
SURVBND
 10
36.811
 20
98.633
 30
0.0
  0
VERTEX
  8
SURVBND
 10
36.809
 20
98.626
 30
0.0
  0
VERTEX
  8
SURVBND
 10
36.809
 20
98.625
 30
0.0
  0
VERTEX
  8
SURVBND
 10
36.805
 20
98.616
 30
0.0
  0
VERTEX
  8
SURVBND
 10
36.794
 20
98.604
 30
0.0
  0
VERTEX
  8
SURVBND
 10
36.794
 20
98.599
 30
0.0
  0
VERTEX
  8
SURVBND
 10
36.79
 20
98.576
 30
0.0
  0
VERTEX
  8
SURVBND
 10
36.789
 20
98.571
 30
0.0
  0
VERTEX
  8
SURVBND
 10
36.789
 20
98.56
 30
0.0
  0
VERTEX
  8
SURVBND
 10
36.788
 20
98.556
 30
0.0
  0
VERTEX
  8
SURVBND
 10
36.791
 20
98.546
 30
0.0
  0
VERTEX
  8
SURVBND
 10
36.797
 20
98.536
 30
0.0
  0
VERTEX
  8
SURVBND
 10
36.799
 20
98.535
 30
0.0
  0
VERTEX
  8
SURVBND
 10
36.806
 20
98.533
 30
0.0
  0
VERTEX
  8
SURVBND
 10
36.818
 20
98.529
 30
0.0
  0
VERTEX
  8
SURVBND
 10
36.825
 20
98.527
 30
0.0
  0
VERTEX
  8
SURVBND
 10
36.836
 20
98.52
 30
0.0
  0
VERTEX
  8
SURVBND
 10
36.838
 20
98.511
 30
0.0
  0
VERTEX
  8
SURVBND
 10
36.837
 20
98.505
 30
0.0
  0
VERTEX
  8
SURVBND
 10
36.834
 20
98.496
 30
0.0
  0
VERTEX
  8
SURVBND
 10
36.834
 20
98.487
 30
0.0
  0
VERTEX
  8
SURVBND
 10
36.828
 20
98.466
 30
0.0
  0
VERTEX
  8
SURVBND
 10
36.829
 20
98.459
 30
0.0
  0
VERTEX
  8
SURVBND
 10
36.83
 20
98.444
 30
0.0
  0
VERTEX
  8
SURVBND
 10
36.832
 20
98.434
 30
0.0
  0
VERTEX
  8
SURVBND
 10
36.837
 20
98.419
 30
0.0
  0
VERTEX
  8
SURVBND
 10
36.84
 20
98.414
 30
0.0
  0
VERTEX
  8
SURVBND
 10
36.845
 20
98.409
 30
0.0
  0
VERTEX
  8
SURVBND
 10
36.848
 20
98.403
 30
0.0
  0
VERTEX
  8
SURVBND
 10
36.852
 20
98.389
 30
0.0
  0
VERTEX
  8
SURVBND
 10
36.854
 20
98.381
 30
0.0
  0
VERTEX
  8
SURVBND
 10
36.853
 20
98.375
 30
0.0
  0
VERTEX
  8
SURVBND
 10
36.85
 20
98.366
 30
0.0
  0
VERTEX
  8
SURVBND
 10
36.846
 20
98.357
 30
0.0
  0
VERTEX
  8
SURVBND
 10
36.845
 20
98.345
 30
0.0
  0
VERTEX
  8
SURVBND
 10
36.845
 20
98.339
 30
0.0
  0
VERTEX
  8
SURVBND
 10
36.854
 20
98.334
 30
0.0
  0
VERTEX
  8
SURVBND
 10
36.867
 20
98.33
 30
0.0
  0
VERTEX
  8
SURVBND
 10
36.877
 20
98.32
 30
0.0
  0
VERTEX
  8
SURVBND
 10
36.881
 20
98.308
 30
0.0
  0
VERTEX
  8
SURVBND
 10
36.884
 20
98.3
 30
0.0
  0
VERTEX
  8
SURVBND
 10
36.886
 20
98.29
 30
0.0
  0
VERTEX
  8
SURVBND
 10
36.887
 20
98.282
 30
0.0
  0
VERTEX
  8
SURVBND
 10
36.881
 20
98.269
 30
0.0
  0
VERTEX
  8
SURVBND
 10
36.881
 20
98.265
 30
0.0
  0
VERTEX
  8
SURVBND
 10
36.883
 20
98.259
 30
0.0
  0
VERTEX
  8
SURVBND
 10
36.877
 20
98.242
 30
0.0
  0
VERTEX
  8
SURVBND
 10
36.877
 20
98.24
 30
0.0
  0
VERTEX
  8
SURVBND
 10
36.883
 20
98.232
 30
0.0
  0
VERTEX
  8
SURVBND
 10
36.902
 20
98.225
 30
0.0
  0
VERTEX
  8
SURVBND
 10
36.906
 20
98.224
 30
0.0
  0
VERTEX
  8
SURVBND
 10
36.919
 20
98.22
 30
0.0
  0
VERTEX
  8
SURVBND
 10
36.93
 20
98.226
 30
0.0
  0
VERTEX
  8
SURVBND
 10
36.929
 20
98.231
 30
0.0
  0
VERTEX
  8
SURVBND
 10
36.924
 20
98.239
 30
0.0
  0
VERTEX
  8
SURVBND
 10
36.92
 20
98.246
 30
0.0
  0
VERTEX
  8
SURVBND
 10
36.922
 20
98.258
 30
0.0
  0
VERTEX
  8
SURVBND
 10
36.919
 20
98.268
 30
0.0
  0
VERTEX
  8
SURVBND
 10
36.92
 20
98.275
 30
0.0
  0
VERTEX
  8
SURVBND
 10
36.919
 20
98.284
 30
0.0
  0
VERTEX
  8
SURVBND
 10
36.915
 20
98.297
 30
0.0
  0
VERTEX
  8
SURVBND
 10
36.913
 20
98.303
 30
0.0
  0
VERTEX
  8
SURVBND
 10
36.917
 20
98.314
 30
0.0
  0
VERTEX
  8
SURVBND
 10
36.921
 20
98.333
 30
0.0
  0
VERTEX
  8
SURVBND
 10
36.921
 20
98.343
 30
0.0
  0
VERTEX
  8
SURVBND
 10
36.924
 20
98.35
 30
0.0
  0
VERTEX
  8
SURVBND
 10
36.927
 20
98.369
 30
0.0
  0
VERTEX
  8
SURVBND
 10
36.926
 20
98.375
 30
0.0
  0
VERTEX
  8
SURVBND
 10
36.924
 20
98.382
 30
0.0
  0
VERTEX
  8
SURVBND
 10
36.923
 20
98.4
 30
0.0
  0
VERTEX
  8
SURVBND
 10
36.922
 20
98.407
 30
0.0
  0
VERTEX
  8
SURVBND
 10
36.923
 20
98.414
 30
0.0
  0
VERTEX
  8
SURVBND
 10
36.914
 20
98.433
 30
0.0
  0
VERTEX
  8
SURVBND
 10
36.913
 20
98.435
 30
0.0
  0
VERTEX
  8
SURVBND
 10
36.906
 20
98.456
 30
0.0
  0
VERTEX
  8
SURVBND
 10
36.911
 20
98.475
 30
0.0
  0
VERTEX
  8
SURVBND
 10
36.906
 20
98.486
 30
0.0
  0
VERTEX
  8
SURVBND
 10
36.911
 20
98.495
 30
0.0
  0
VERTEX
  8
SURVBND
 10
36.925
 20
98.489
 30
0.0
  0
VERTEX
  8
SURVBND
 10
36.936
 20
98.488
 30
0.0
  0
VERTEX
  8
SURVBND
 10
36.941
 20
98.489
 30
0.0
  0
VERTEX
  8
SURVBND
 10
36.947
 20
98.485
 30
0.0
  0
VERTEX
  8
SURVBND
 10
36.95
 20
98.485
 30
0.0
  0
VERTEX
  8
SURVBND
 10
36.953
 20
98.487
 30
0.0
  0
VERTEX
  8
SURVBND
 10
36.955
 20
98.493
 30
0.0
  0
VERTEX
  8
SURVBND
 10
36.957
 20
98.497
 30
0.0
  0
VERTEX
  8
SURVBND
 10
36.967
 20
98.503
 30
0.0
  0
VERTEX
  8
SURVBND
 10
36.971
 20
98.505
 30
0.0
  0
VERTEX
  8
SURVBND
 10
36.975
 20
98.506
 30
0.0
  0
VERTEX
  8
SURVBND
 10
36.983
 20
98.502
 30
0.0
  0
VERTEX
  8
SURVBND
 10
36.986
 20
98.497
 30
0.0
  0
VERTEX
  8
SURVBND
 10
36.991
 20
98.482
 30
0.0
  0
VERTEX
  8
SURVBND
 10
36.994
 20
98.469
 30
0.0
  0
VERTEX
  8
SURVBND
 10
36.996
 20
98.453
 30
0.0
  0
VERTEX
  8
SURVBND
 10
36.998
 20
98.44
 30
0.0
  0
VERTEX
  8
SURVBND
 10
37.0
 20
98.426
 30
0.0
  0
VERTEX
  8
SURVBND
 10
37.0
 20
98.407
 30
0.0
  0
VERTEX
  8
SURVBND
 10
37.0
 20
98.398
 30
0.0
  0
VERTEX
  8
SURVBND
 10
36.999
 20
98.384
 30
0.0
  0
VERTEX
  8
SURVBND
 10
37.0
 20
98.376
 30
0.0
  0
VERTEX
  8
SURVBND
 10
37.003
 20
98.359
 30
0.0
  0
VERTEX
  8
SURVBND
 10
37.003
 20
98.346
 30
0.0
  0
VERTEX
  8
SURVBND
 10
37.004
 20
98.338
 30
0.0
  0
VERTEX
  8
SURVBND
 10
37.012
 20
98.324
 30
0.0
  0
VERTEX
  8
SURVBND
 10
37.022
 20
98.311
 30
0.0
  0
VERTEX
  8
SURVBND
 10
37.024
 20
98.295
 30
0.0
  0
VERTEX
  8
SURVBND
 10
37.023
 20
98.283
 30
0.0
  0
VERTEX
  8
SURVBND
 10
37.022
 20
98.269
 30
0.0
  0
VERTEX
  8
SURVBND
 10
37.025
 20
98.258
 30
0.0
  0
VERTEX
  8
SURVBND
 10
37.03
 20
98.244
 30
0.0
  0
VERTEX
  8
SURVBND
 10
37.03
 20
98.229
 30
0.0
  0
VERTEX
  8
SURVBND
 10
37.031
 20
98.216
 30
0.0
  0
VERTEX
  8
SURVBND
 10
37.039
 20
98.206
 30
0.0
  0
VERTEX
  8
SURVBND
 10
37.041
 20
98.186
 30
0.0
  0
VERTEX
  8
SURVBND
 10
37.037
 20
98.17
 30
0.0
  0
VERTEX
  8
SURVBND
 10
37.038
 20
98.16
 30
0.0
  0
VERTEX
  8
SURVBND
 10
37.042
 20
98.147
 30
0.0
  0
VERTEX
  8
SURVBND
 10
37.042
 20
98.133
 30
0.0
  0
VERTEX
  8
SURVBND
 10
37.042
 20
98.119
 30
0.0
  0
VERTEX
  8
SURVBND
 10
37.043
 20
98.11
 30
0.0
  0
VERTEX
  8
SURVBND
 10
37.044
 20
98.1
 30
0.0
  0
VERTEX
  8
SURVBND
 10
37.046
 20
98.089
 30
0.0
  0
VERTEX
  8
SURVBND
 10
37.047
 20
98.08
 30
0.0
  0
VERTEX
  8
SURVBND
 10
37.05
 20
98.072
 30
0.0
  0
VERTEX
  8
SURVBND
 10
37.057
 20
98.065
 30
0.0
  0
VERTEX
  8
SURVBND
 10
37.061
 20
98.055
 30
0.0
  0
VERTEX
  8
SURVBND
 10
37.063
 20
98.047
 30
0.0
  0
VERTEX
  8
SURVBND
 10
37.063
 20
98.03
 30
0.0
  0
VERTEX
  8
SURVBND
 10
37.067
 20
98.013
 30
0.0
  0
VERTEX
  8
SURVBND
 10
37.072
 20
97.998
 30
0.0
  0
VERTEX
  8
SURVBND
 10
37.078
 20
97.985
 30
0.0
  0
VERTEX
  8
SURVBND
 10
37.083
 20
97.977
 30
0.0
  0
VERTEX
  8
SURVBND
 10
37.086
 20
97.966
 30
0.0
  0
VERTEX
  8
SURVBND
 10
37.091
 20
97.955
 30
0.0
  0
VERTEX
  8
SURVBND
 10
37.093
 20
97.935
 30
0.0
  0
VERTEX
  8
SURVBND
 10
37.098
 20
97.923
 30
0.0
  0
VERTEX
  8
SURVBND
 10
37.102
 20
97.906
 30
0.0
  0
VERTEX
  8
SURVBND
 10
37.102
 20
97.895
 30
0.0
  0
VERTEX
  8
SURVBND
 10
37.101
 20
97.883
 30
0.0
  0
VERTEX
  8
SURVBND
 10
37.102
 20
97.876
 30
0.0
  0
VERTEX
  8
SURVBND
 10
37.103
 20
97.865
 30
0.0
  0
VERTEX
  8
SURVBND
 10
37.101
 20
97.857
 30
0.0
  0
VERTEX
  8
SURVBND
 10
37.099
 20
97.848
 30
0.0
  0
VERTEX
  8
SURVBND
 10
37.096
 20
97.843
 30
0.0
  0
VERTEX
  8
SURVBND
 10
37.09
 20
97.834
 30
0.0
  0
VERTEX
  8
SURVBND
 10
37.088
 20
97.826
 30
0.0
  0
VERTEX
  8
SURVBND
 10
37.083
 20
97.813
 30
0.0
  0
VERTEX
  8
SURVBND
 10
37.082
 20
97.804
 30
0.0
  0
VERTEX
  8
SURVBND
 10
37.08
 20
97.791
 30
0.0
  0
VERTEX
  8
SURVBND
 10
37.083
 20
97.776
 30
0.0
  0
VERTEX
  8
SURVBND
 10
37.089
 20
97.766
 30
0.0
  0
VERTEX
  8
SURVBND
 10
37.087
 20
97.75
 30
0.0
  0
VERTEX
  8
SURVBND
 10
37.086
 20
97.74
 30
0.0
  0
VERTEX
  8
SURVBND
 10
37.086
 20
97.725
 30
0.0
  0
VERTEX
  8
SURVBND
 10
37.078
 20
97.71
 30
0.0
  0
VERTEX
  8
SURVBND
 10
37.078
 20
97.697
 30
0.0
  0
VERTEX
  8
SURVBND
 10
37.08
 20
97.687
 30
0.0
  0
VERTEX
  8
SURVBND
 10
37.084
 20
97.674
 30
0.0
  0
VERTEX
  8
SURVBND
 10
37.091
 20
97.657
 30
0.0
  0
VERTEX
  8
SURVBND
 10
37.098
 20
97.643
 30
0.0
  0
VERTEX
  8
SURVBND
 10
37.103
 20
97.632
 30
0.0
  0
VERTEX
  8
SURVBND
 10
37.107
 20
97.625
 30
0.0
  0
VERTEX
  8
SURVBND
 10
37.108
 20
97.623
 30
0.0
  0
VERTEX
  8
SURVBND
 10
37.111
 20
97.62
 30
0.0
  0
VERTEX
  8
SURVBND
 10
37.116
 20
97.61
 30
0.0
  0
VERTEX
  8
SURVBND
 10
37.126
 20
97.608
 30
0.0
  0
VERTEX
  8
SURVBND
 10
37.135
 20
97.61
 30
0.0
  0
VERTEX
  8
SURVBND
 10
37.144
 20
97.62
 30
0.0
  0
VERTEX
  8
SURVBND
 10
37.154
 20
97.63
 30
0.0
  0
VERTEX
  8
SURVBND
 10
37.16
 20
97.636
 30
0.0
  0
VERTEX
  8
SURVBND
 10
37.169
 20
97.641
 30
0.0
  0
VERTEX
  8
SURVBND
 10
37.211
 20
97.672
 30
0.0
  0
VERTEX
  8
SURVBND
 10
37.22
 20
97.682
 30
0.0
  0
VERTEX
  8
SURVBND
 10
37.23
 20
97.686
 30
0.0
  0
VERTEX
  8
SURVBND
 10
37.234
 20
97.682
 30
0.0
  0
VERTEX
  8
SURVBND
 10
37.236
 20
97.676
 30
0.0
  0
VERTEX
  8
SURVBND
 10
37.232
 20
97.665
 30
0.0
  0
VERTEX
  8
SURVBND
 10
37.232
 20
97.661
 30
0.0
  0
VERTEX
  8
SURVBND
 10
37.231
 20
97.65
 30
0.0
  0
VERTEX
  8
SURVBND
 10
37.213
 20
97.642
 30
0.0
  0
VERTEX
  8
SURVBND
 10
37.212
 20
97.639
 30
0.0
  0
VERTEX
  8
SURVBND
 10
37.209
 20
97.628
 30
0.0
  0
VERTEX
  8
SURVBND
 10
37.21
 20
97.621
 30
0.0
  0
VERTEX
  8
SURVBND
 10
37.213
 20
97.616
 30
0.0
  0
VERTEX
  8
SURVBND
 10
37.212
 20
97.599
 30
0.0
  0
VERTEX
  8
SURVBND
 10
37.59
 20
97.609
 30
0.0
  0
VERTEX
  8
SURVBND
 10
38.329
 20
97.931
 30
0.0
  0
VERTEX
  8
SURVBND
 10
38.315
 20
98.54
 30
0.0
  0
VERTEX
  8
SURVBND
 10
38.772
 20
98.507
 30
0.0
  0
VERTEX
  8
SURVBND
 10
38.758
 20
98.435
 30
0.0
  0
VERTEX
  8
SURVBND
 10
39.221
 20
98.531
 30
0.0
  0
VERTEX
  8
SURVBND
 10
39.331
 20
98.493
 30
0.0
  0
VERTEX
  8
SURVBND
 10
39.364
 20
98.411
 30
0.0
  0
VERTEX
  8
SURVBND
 10
39.601
 20
98.483
 30
0.0
  0
VERTEX
  8
SURVBND
 10
39.594
 20
98.009
 30
0.0
  0
VERTEX
  8
SURVBND
 10
39.539
 20
97.98
 30
0.0
  0
VERTEX
  8
SURVBND
 10
39.643
 20
97.88
 30
0.0
  0
VERTEX
  8
SURVBND
 10
39.467
 20
97.629
 30
0.0
  0
VERTEX
  8
SURVBND
 10
39.482
 20
97.54
 30
0.0
  0
VERTEX
  8
SURVBND
 10
39.438
 20
97.478
 30
0.0
  0
VERTEX
  8
SURVBND
 10
39.442
 20
97.481
 30
0.0
  0
VERTEX
  8
SURVBND
 10
39.443
 20
97.481
 30
0.0
  0
VERTEX
  8
SURVBND
 10
39.445
 20
97.481
 30
0.0
  0
VERTEX
  8
SURVBND
 10
39.471
 20
97.482
 30
0.0
  0
VERTEX
  8
SURVBND
 10
39.476
 20
97.46
 30
0.0
  0
VERTEX
  8
SURVBND
 10
39.489
 20
97.46
 30
0.0
  0
VERTEX
  8
SURVBND
 10
39.504
 20
97.455
 30
0.0
  0
VERTEX
  8
SURVBND
 10
39.514
 20
97.45
 30
0.0
  0
VERTEX
  8
SURVBND
 10
39.517
 20
97.438
 30
0.0
  0
VERTEX
  8
SURVBND
 10
39.539
 20
97.442
 30
0.0
  0
VERTEX
  8
SURVBND
 10
39.541
 20
97.443
 30
0.0
  0
VERTEX
  8
SURVBND
 10
39.544
 20
97.449
 30
0.0
  0
VERTEX
  8
SURVBND
 10
39.559
 20
97.463
 30
0.0
  0
VERTEX
  8
SURVBND
 10
39.564
 20
97.471
 30
0.0
  0
VERTEX
  8
SURVBND
 10
39.579
 20
97.46
 30
0.0
  0
VERTEX
  8
SURVBND
 10
39.576
 20
97.457
 30
0.0
  0
VERTEX
  8
SURVBND
 10
39.575
 20
97.454
 30
0.0
  0
VERTEX
  8
SURVBND
 10
39.581
 20
97.445
 30
0.0
  0
VERTEX
  8
SURVBND
 10
39.588
 20
97.443
 30
0.0
  0
VERTEX
  8
SURVBND
 10
39.59
 20
97.44
 30
0.0
  0
VERTEX
  8
SURVBND
 10
39.594
 20
97.427
 30
0.0
  0
VERTEX
  8
SURVBND
 10
39.594
 20
97.426
 30
0.0
  0
VERTEX
  8
SURVBND
 10
39.599
 20
97.425
 30
0.0
  0
VERTEX
  8
SURVBND
 10
39.6
 20
97.425
 30
0.0
  0
VERTEX
  8
SURVBND
 10
39.609
 20
97.42
 30
0.0
  0
VERTEX
  8
SURVBND
 10
39.614
 20
97.412
 30
0.0
  0
VERTEX
  8
SURVBND
 10
39.619
 20
97.414
 30
0.0
  0
VERTEX
  8
SURVBND
 10
39.64
 20
97.418
 30
0.0
  0
VERTEX
  8
SURVBND
 10
39.643
 20
97.411
 30
0.0
  0
VERTEX
  8
SURVBND
 10
39.64
 20
97.398
 30
0.0
  0
VERTEX
  8
SURVBND
 10
39.639
 20
97.389
 30
0.0
  0
VERTEX
  8
SURVBND
 10
39.66
 20
97.39
 30
0.0
  0
VERTEX
  8
SURVBND
 10
39.674
 20
97.401
 30
0.0
  0
VERTEX
  8
SURVBND
 10
39.693
 20
97.392
 30
0.0
  0
VERTEX
  8
SURVBND
 10
39.702
 20
97.389
 30
0.0
  0
VERTEX
  8
SURVBND
 10
39.704
 20
97.372
 30
0.0
  0
VERTEX
  8
SURVBND
 10
39.709
 20
97.369
 30
0.0
  0
VERTEX
  8
SURVBND
 10
39.726
 20
97.365
 30
0.0
  0
VERTEX
  8
SURVBND
 10
39.729
 20
97.361
 30
0.0
  0
VERTEX
  8
SURVBND
 10
39.735
 20
97.353
 30
0.0
  0
VERTEX
  8
SURVBND
 10
39.745
 20
97.348
 30
0.0
  0
VERTEX
  8
SURVBND
 10
39.759
 20
97.35
 30
0.0
  0
VERTEX
  8
SURVBND
 10
39.771
 20
97.348
 30
0.0
  0
VERTEX
  8
SURVBND
 10
39.79
 20
97.344
 30
0.0
  0
VERTEX
  8
SURVBND
 10
39.785
 20
97.332
 30
0.0
  0
VERTEX
  8
SURVBND
 10
39.772
 20
97.323
 30
0.0
  0
VERTEX
  8
SURVBND
 10
39.778
 20
97.312
 30
0.0
  0
VERTEX
  8
SURVBND
 10
39.789
 20
97.31
 30
0.0
  0
VERTEX
  8
SURVBND
 10
39.802
 20
97.315
 30
0.0
  0
VERTEX
  8
SURVBND
 10
39.809
 20
97.318
 30
0.0
  0
VERTEX
  8
SURVBND
 10
39.821
 20
97.325
 30
0.0
  0
VERTEX
  8
SURVBND
 10
39.843
 20
97.325
 30
0.0
  0
VERTEX
  8
SURVBND
 10
39.846
 20
97.318
 30
0.0
  0
VERTEX
  8
SURVBND
 10
39.848
 20
97.31
 30
0.0
  0
VERTEX
  8
SURVBND
 10
39.853
 20
97.308
 30
0.0
  0
VERTEX
  8
SURVBND
 10
39.867
 20
97.305
 30
0.0
  0
VERTEX
  8
SURVBND
 10
39.881
 20
97.296
 30
0.0
  0
VERTEX
  8
SURVBND
 10
39.885
 20
97.292
 30
0.0
  0
VERTEX
  8
SURVBND
 10
39.897
 20
97.275
 30
0.0
  0
VERTEX
  8
SURVBND
 10
39.909
 20
97.272
 30
0.0
  0
VERTEX
  8
SURVBND
 10
39.918
 20
97.263
 30
0.0
  0
VERTEX
  8
SURVBND
 10
39.915
 20
97.247
 30
0.0
  0
VERTEX
  8
SURVBND
 10
39.927
 20
97.24
 30
0.0
  0
VERTEX
  8
SURVBND
 10
39.945
 20
97.238
 30
0.0
  0
VERTEX
  8
SURVBND
 10
39.945
 20
97.24
 30
0.0
  0
VERTEX
  8
SURVBND
 10
39.953
 20
97.243
 30
0.0
  0
VERTEX
  8
SURVBND
 10
39.959
 20
97.237
 30
0.0
  0
VERTEX
  8
SURVBND
 10
39.963
 20
97.229
 30
0.0
  0
VERTEX
  8
SURVBND
 10
39.966
 20
97.219
 30
0.0
  0
VERTEX
  8
SURVBND
 10
39.964
 20
97.211
 30
0.0
  0
VERTEX
  8
SURVBND
 10
39.955
 20
97.199
 30
0.0
  0
VERTEX
  8
SURVBND
 10
39.959
 20
97.192
 30
0.0
  0
VERTEX
  8
SURVBND
 10
39.956
 20
97.182
 30
0.0
  0
VERTEX
  8
SURVBND
 10
39.952
 20
97.163
 30
0.0
  0
VERTEX
  8
SURVBND
 10
39.953
 20
97.163
 30
0.0
  0
VERTEX
  8
SURVBND
 10
39.968
 20
97.159
 30
0.0
  0
VERTEX
  8
SURVBND
 10
39.975
 20
97.153
 30
0.0
  0
VERTEX
  8
SURVBND
 10
39.98
 20
97.145
 30
0.0
  0
VERTEX
  8
SURVBND
 10
39.982
 20
97.135
 30
0.0
  0
VERTEX
  8
SURVBND
 10
39.991
 20
97.129
 30
0.0
  0
VERTEX
  8
SURVBND
 10
40.008
 20
97.114
 30
0.0
  0
VERTEX
  8
SURVBND
 10
40.021
 20
97.103
 30
0.0
  0
VERTEX
  8
SURVBND
 10
40.022
 20
97.1
 30
0.0
  0
VERTEX
  8
SURVBND
 10
40.025
 20
97.091
 30
0.0
  0
VERTEX
  8
SURVBND
 10
40.006
 20
97.076
 30
0.0
  0
VERTEX
  8
SURVBND
 10
40.008
 20
97.059
 30
0.0
  0
VERTEX
  8
SURVBND
 10
40.019
 20
97.053
 30
0.0
  0
VERTEX
  8
SURVBND
 10
40.022
 20
97.034
 30
0.0
  0
VERTEX
  8
SURVBND
 10
40.012
 20
97.019
 30
0.0
  0
VERTEX
  8
SURVBND
 10
40.014
 20
97.005
 30
0.0
  0
VERTEX
  8
SURVBND
 10
40.024
 20
96.987
 30
0.0
  0
VERTEX
  8
SURVBND
 10
40.019
 20
96.972
 30
0.0
  0
VERTEX
  8
SURVBND
 10
40.019
 20
96.969
 30
0.0
  0
VERTEX
  8
SURVBND
 10
40.007
 20
96.931
 30
0.0
  0
VERTEX
  8
SURVBND
 10
40.018
 20
96.898
 30
0.0
  0
VERTEX
  8
SURVBND
 10
40.009
 20
96.869
 30
0.0
  0
VERTEX
  8
SURVBND
 10
40.001
 20
96.851
 30
0.0
  0
VERTEX
  8
SURVBND
 10
40.01
 20
96.829
 30
0.0
  0
VERTEX
  8
SURVBND
 10
40.028
 20
96.817
 30
0.0
  0
VERTEX
  8
SURVBND
 10
40.041
 20
96.799
 30
0.0
  0
VERTEX
  8
SURVBND
 10
40.033
 20
96.789
 30
0.0
  0
VERTEX
  8
SURVBND
 10
40.023
 20
96.78
 30
0.0
  0
VERTEX
  8
SURVBND
 10
40.016
 20
96.767
 30
0.0
  0
VERTEX
  8
SURVBND
 10
40.014
 20
96.762
 30
0.0
  0
VERTEX
  8
SURVBND
 10
40.009
 20
96.751
 30
0.0
  0
VERTEX
  8
SURVBND
 10
40.008
 20
96.741
 30
0.0
  0
VERTEX
  8
SURVBND
 10
40.008
 20
96.733
 30
0.0
  0
VERTEX
  8
SURVBND
 10
40.0
 20
96.723
 30
0.0
  0
VERTEX
  8
SURVBND
 10
39.998
 20
96.719
 30
0.0
  0
VERTEX
  8
SURVBND
 10
40.018
 20
96.72
 30
0.0
  0
VERTEX
  8
SURVBND
 10
40.015
 20
96.708
 30
0.0
  0
VERTEX
  8
SURVBND
 10
40.023
 20
96.702
 30
0.0
  0
VERTEX
  8
SURVBND
 10
40.027
 20
96.688
 30
0.0
  0
VERTEX
  8
SURVBND
 10
40.034
 20
96.677
 30
0.0
  0
VERTEX
  8
SURVBND
 10
40.031
 20
96.667
 30
0.0
  0
VERTEX
  8
SURVBND
 10
40.023
 20
96.656
 30
0.0
  0
VERTEX
  8
SURVBND
 10
40.019
 20
96.65
 30
0.0
  0
VERTEX
  8
SURVBND
 10
40.008
 20
96.64
 30
0.0
  0
VERTEX
  8
SURVBND
 10
40.001
 20
96.631
 30
0.0
  0
VERTEX
  8
SURVBND
 10
39.998
 20
96.625
 30
0.0
  0
VERTEX
  8
SURVBND
 10
40.002
 20
96.616
 30
0.0
  0
VERTEX
  8
SURVBND
 10
40.006
 20
96.608
 30
0.0
  0
VERTEX
  8
SURVBND
 10
40.013
 20
96.593
 30
0.0
  0
VERTEX
  8
SURVBND
 10
40.016
 20
96.58
 30
0.0
  0
VERTEX
  8
SURVBND
 10
40.009
 20
96.578
 30
0.0
  0
VERTEX
  8
SURVBND
 10
40.006
 20
96.577
 30
0.0
  0
VERTEX
  8
SURVBND
 10
39.998
 20
96.564
 30
0.0
  0
VERTEX
  8
SURVBND
 10
40.0
 20
96.557
 30
0.0
  0
VERTEX
  8
SURVBND
 10
39.997
 20
96.547
 30
0.0
  0
VERTEX
  8
SURVBND
 10
39.999
 20
96.544
 30
0.0
  0
VERTEX
  8
SURVBND
 10
40.009
 20
96.533
 30
0.0
  0
VERTEX
  8
SURVBND
 10
40.007
 20
96.528
 30
0.0
  0
VERTEX
  8
SURVBND
 10
40.003
 20
96.525
 30
0.0
  0
VERTEX
  8
SURVBND
 10
40.005
 20
96.515
 30
0.0
  0
VERTEX
  8
SURVBND
 10
40.016
 20
96.507
 30
0.0
  0
VERTEX
  8
SURVBND
 10
40.024
 20
96.502
 30
0.0
  0
VERTEX
  8
SURVBND
 10
40.018
 20
96.488
 30
0.0
  0
VERTEX
  8
SURVBND
 10
40.006
 20
96.488
 30
0.0
  0
VERTEX
  8
SURVBND
 10
40.003
 20
96.477
 30
0.0
  0
VERTEX
  8
SURVBND
 10
40.007
 20
96.467
 30
0.0
  0
VERTEX
  8
SURVBND
 10
40.007
 20
96.457
 30
0.0
  0
VERTEX
  8
SURVBND
 10
40.005
 20
96.447
 30
0.0
  0
VERTEX
  8
SURVBND
 10
40.003
 20
96.438
 30
0.0
  0
VERTEX
  8
SURVBND
 10
40.0
 20
96.426
 30
0.0
  0
VERTEX
  8
SURVBND
 10
39.997
 20
96.414
 30
0.0
  0
VERTEX
  8
SURVBND
 10
39.994
 20
96.408
 30
0.0
  0
VERTEX
  8
SURVBND
 10
39.991
 20
96.399
 30
0.0
  0
VERTEX
  8
SURVBND
 10
39.983
 20
96.393
 30
0.0
  0
VERTEX
  8
SURVBND
 10
39.978
 20
96.383
 30
0.0
  0
VERTEX
  8
SURVBND
 10
39.978
 20
96.377
 30
0.0
  0
VERTEX
  8
SURVBND
 10
39.987
 20
96.375
 30
0.0
  0
VERTEX
  8
SURVBND
 10
39.991
 20
96.373
 30
0.0
  0
VERTEX
  8
SURVBND
 10
39.996
 20
96.371
 30
0.0
  0
VERTEX
  8
SURVBND
 10
39.999
 20
96.358
 30
0.0
  0
VERTEX
  8
SURVBND
 10
39.998
 20
96.347
 30
0.0
  0
VERTEX
  8
SURVBND
 10
40.001
 20
96.34
 30
0.0
  0
VERTEX
  8
SURVBND
 10
40.007
 20
96.331
 30
0.0
  0
VERTEX
  8
SURVBND
 10
40.009
 20
96.326
 30
0.0
  0
VERTEX
  8
SURVBND
 10
40.009
 20
96.315
 30
0.0
  0
VERTEX
  8
SURVBND
 10
40.01
 20
96.307
 30
0.0
  0
VERTEX
  8
SURVBND
 10
40.016
 20
96.303
 30
0.0
  0
VERTEX
  8
SURVBND
 10
40.011
 20
96.286
 30
0.0
  0
VERTEX
  8
SURVBND
 10
40.006
 20
96.275
 30
0.0
  0
VERTEX
  8
SURVBND
 10
40.012
 20
96.263
 30
0.0
  0
VERTEX
  8
SURVBND
 10
40.017
 20
96.261
 30
0.0
  0
VERTEX
  8
SURVBND
 10
40.023
 20
96.25
 30
0.0
  0
VERTEX
  8
SURVBND
 10
40.026
 20
96.247
 30
0.0
  0
VERTEX
  8
SURVBND
 10
40.031
 20
96.236
 30
0.0
  0
VERTEX
  8
SURVBND
 10
40.025
 20
96.223
 30
0.0
  0
VERTEX
  8
SURVBND
 10
40.024
 20
96.221
 30
0.0
  0
VERTEX
  8
SURVBND
 10
40.016
 20
96.216
 30
0.0
  0
VERTEX
  8
SURVBND
 10
40.009
 20
96.218
 30
0.0
  0
VERTEX
  8
SURVBND
 10
40.005
 20
96.208
 30
0.0
  0
VERTEX
  8
SURVBND
 10
40.01
 20
96.203
 30
0.0
  0
VERTEX
  8
SURVBND
 10
40.014
 20
96.2
 30
0.0
  0
VERTEX
  8
SURVBND
 10
40.021
 20
96.193
 30
0.0
  0
VERTEX
  8
SURVBND
 10
40.027
 20
96.183
 30
0.0
  0
VERTEX
  8
SURVBND
 10
40.02
 20
96.165
 30
0.0
  0
VERTEX
  8
SURVBND
 10
40.01
 20
96.16
 30
0.0
  0
VERTEX
  8
SURVBND
 10
40.01
 20
96.15
 30
0.0
  0
VERTEX
  8
SURVBND
 10
40.004
 20
96.136
 30
0.0
  0
VERTEX
  8
SURVBND
 10
40.001
 20
96.13
 30
0.0
  0
VERTEX
  8
SURVBND
 10
39.999
 20
96.113
 30
0.0
  0
VERTEX
  8
SURVBND
 10
39.994
 20
96.102
 30
0.0
  0
VERTEX
  8
SURVBND
 10
39.992
 20
96.094
 30
0.0
  0
VERTEX
  8
SURVBND
 10
39.994
 20
96.089
 30
0.0
  0
VERTEX
  8
SURVBND
 10
39.996
 20
96.079
 30
0.0
  0
VERTEX
  8
SURVBND
 10
39.989
 20
96.066
 30
0.0
  0
VERTEX
  8
SURVBND
 10
39.99
 20
96.053
 30
0.0
  0
VERTEX
  8
SURVBND
 10
39.993
 20
96.043
 30
0.0
  0
VERTEX
  8
SURVBND
 10
39.994
 20
96.037
 30
0.0
  0
VERTEX
  8
SURVBND
 10
39.999
 20
96.032
 30
0.0
  0
VERTEX
  8
SURVBND
 10
39.999
 20
96.032
 30
0.0
  0
VERTEX
  8
SURVBND
 10
40.011
 20
96.02
 30
0.0
  0
VERTEX
  8
SURVBND
 10
40.015
 20
96.01
 30
0.0
  0
VERTEX
  8
SURVBND
 10
39.995
 20
95.99
 30
0.0
  0
VERTEX
  8
SURVBND
 10
39.986
 20
95.99
 30
0.0
  0
VERTEX
  8
SURVBND
 10
39.977
 20
95.984
 30
0.0
  0
VERTEX
  8
SURVBND
 10
39.971
 20
95.957
 30
0.0
  0
VERTEX
  8
SURVBND
 10
39.965
 20
95.942
 30
0.0
  0
VERTEX
  8
SURVBND
 10
39.971
 20
95.938
 30
0.0
  0
VERTEX
  8
SURVBND
 10
39.976
 20
95.949
 30
0.0
  0
VERTEX
  8
SURVBND
 10
39.993
 20
95.947
 30
0.0
  0
VERTEX
  8
SURVBND
 10
40.005
 20
95.945
 30
0.0
  0
VERTEX
  8
SURVBND
 10
40.01
 20
95.938
 30
0.0
  0
VERTEX
  8
SURVBND
 10
39.995
 20
95.927
 30
0.0
  0
VERTEX
  8
SURVBND
 10
39.992
 20
95.924
 30
0.0
  0
VERTEX
  8
SURVBND
 10
39.983
 20
95.918
 30
0.0
  0
VERTEX
  8
SURVBND
 10
39.965
 20
95.911
 30
0.0
  0
VERTEX
  8
SURVBND
 10
39.965
 20
95.91
 30
0.0
  0
VERTEX
  8
SURVBND
 10
39.96
 20
95.907
 30
0.0
  0
VERTEX
  8
SURVBND
 10
39.955
 20
95.901
 30
0.0
  0
VERTEX
  8
SURVBND
 10
39.951
 20
95.898
 30
0.0
  0
VERTEX
  8
SURVBND
 10
39.993
 20
95.882
 30
0.0
  0
VERTEX
  8
SURVBND
 10
40.019
 20
95.884
 30
0.0
  0
VERTEX
  8
SURVBND
 10
40.032
 20
95.88
 30
0.0
  0
VERTEX
  8
SURVBND
 10
40.042
 20
95.867
 30
0.0
  0
VERTEX
  8
SURVBND
 10
40.053
 20
95.859
 30
0.0
  0
VERTEX
  8
SURVBND
 10
40.059
 20
95.851
 30
0.0
  0
VERTEX
  8
SURVBND
 10
40.058
 20
95.841
 30
0.0
  0
VERTEX
  8
SURVBND
 10
40.053
 20
95.827
 30
0.0
  0
VERTEX
  8
SURVBND
 10
40.053
 20
95.807
 30
0.0
  0
VERTEX
  8
SURVBND
 10
40.033
 20
95.811
 30
0.0
  0
VERTEX
  8
SURVBND
 10
40.03
 20
95.804
 30
0.0
  0
VERTEX
  8
SURVBND
 10
40.014
 20
95.792
 30
0.0
  0
VERTEX
  8
SURVBND
 10
40.011
 20
95.78
 30
0.0
  0
VERTEX
  8
SURVBND
 10
40.009
 20
95.772
 30
0.0
  0
VERTEX
  8
SURVBND
 10
40.0
 20
95.768
 30
0.0
  0
VERTEX
  8
SURVBND
 10
39.991
 20
95.77
 30
0.0
  0
VERTEX
  8
SURVBND
 10
39.989
 20
95.772
 30
0.0
  0
VERTEX
  8
SURVBND
 10
39.988
 20
95.775
 30
0.0
  0
VERTEX
  8
SURVBND
 10
39.986
 20
95.783
 30
0.0
  0
VERTEX
  8
SURVBND
 10
39.982
 20
95.788
 30
0.0
  0
VERTEX
  8
SURVBND
 10
39.977
 20
95.793
 30
0.0
  0
VERTEX
  8
SURVBND
 10
39.97
 20
95.799
 30
0.0
  0
VERTEX
  8
SURVBND
 10
39.965
 20
95.802
 30
0.0
  0
VERTEX
  8
SURVBND
 10
39.96
 20
95.804
 30
0.0
  0
VERTEX
  8
SURVBND
 10
39.949
 20
95.801
 30
0.0
  0
VERTEX
  8
SURVBND
 10
39.938
 20
95.786
 30
0.0
  0
VERTEX
  8
SURVBND
 10
39.932
 20
95.773
 30
0.0
  0
VERTEX
  8
SURVBND
 10
39.926
 20
95.764
 30
0.0
  0
VERTEX
  8
SURVBND
 10
39.913
 20
95.755
 30
0.0
  0
VERTEX
  8
SURVBND
 10
39.901
 20
95.748
 30
0.0
  0
VERTEX
  8
SURVBND
 10
39.9
 20
95.74
 30
0.0
  0
VERTEX
  8
SURVBND
 10
39.904
 20
95.725
 30
0.0
  0
VERTEX
  8
SURVBND
 10
39.905
 20
95.715
 30
0.0
  0
VERTEX
  8
SURVBND
 10
39.905
 20
95.707
 30
0.0
  0
VERTEX
  8
SURVBND
 10
39.902
 20
95.698
 30
0.0
  0
VERTEX
  8
SURVBND
 10
39.886
 20
95.686
 30
0.0
  0
VERTEX
  8
SURVBND
 10
39.884
 20
95.683
 30
0.0
  0
VERTEX
  8
SURVBND
 10
39.89
 20
95.676
 30
0.0
  0
VERTEX
  8
SURVBND
 10
39.894
 20
95.676
 30
0.0
  0
VERTEX
  8
SURVBND
 10
39.9
 20
95.675
 30
0.0
  0
VERTEX
  8
SURVBND
 10
39.905
 20
95.672
 30
0.0
  0
VERTEX
  8
SURVBND
 10
39.909
 20
95.665
 30
0.0
  0
VERTEX
  8
SURVBND
 10
39.909
 20
95.659
 30
0.0
  0
VERTEX
  8
SURVBND
 10
39.908
 20
95.65
 30
0.0
  0
VERTEX
  8
SURVBND
 10
39.905
 20
95.641
 30
0.0
  0
VERTEX
  8
SURVBND
 10
39.904
 20
95.64
 30
0.0
  0
VERTEX
  8
SURVBND
 10
39.884
 20
95.64
 30
0.0
  0
VERTEX
  8
SURVBND
 10
39.875
 20
95.633
 30
0.0
  0
VERTEX
  8
SURVBND
 10
39.877
 20
95.618
 30
0.0
  0
VERTEX
  8
SURVBND
 10
39.888
 20
95.61
 30
0.0
  0
VERTEX
  8
SURVBND
 10
39.905
 20
95.603
 30
0.0
  0
VERTEX
  8
SURVBND
 10
39.896
 20
95.591
 30
0.0
  0
VERTEX
  8
SURVBND
 10
39.882
 20
95.583
 30
0.0
  0
VERTEX
  8
SURVBND
 10
39.875
 20
95.578
 30
0.0
  0
VERTEX
  8
SURVBND
 10
39.872
 20
95.571
 30
0.0
  0
VERTEX
  8
SURVBND
 10
39.869
 20
95.558
 30
0.0
  0
VERTEX
  8
SURVBND
 10
39.865
 20
95.549
 30
0.0
  0
VERTEX
  8
SURVBND
 10
39.863
 20
95.541
 30
0.0
  0
VERTEX
  8
SURVBND
 10
39.859
 20
95.532
 30
0.0
  0
VERTEX
  8
SURVBND
 10
39.85
 20
95.517
 30
0.0
  0
VERTEX
  8
SURVBND
 10
39.852
 20
95.511
 30
0.0
  0
VERTEX
  8
SURVBND
 10
39.861
 20
95.503
 30
0.0
  0
VERTEX
  8
SURVBND
 10
39.861
 20
95.491
 30
0.0
  0
VERTEX
  8
SURVBND
 10
39.851
 20
95.478
 30
0.0
  0
VERTEX
  8
SURVBND
 10
39.841
 20
95.468
 30
0.0
  0
VERTEX
  8
SURVBND
 10
39.837
 20
95.465
 30
0.0
  0
VERTEX
  8
SURVBND
 10
39.829
 20
95.459
 30
0.0
  0
VERTEX
  8
SURVBND
 10
39.823
 20
95.454
 30
0.0
  0
VERTEX
  8
SURVBND
 10
39.803
 20
95.444
 30
0.0
  0
VERTEX
  8
SURVBND
 10
39.794
 20
95.435
 30
0.0
  0
VERTEX
  8
SURVBND
 10
39.787
 20
95.423
 30
0.0
  0
VERTEX
  8
SURVBND
 10
39.781
 20
95.412
 30
0.0
  0
VERTEX
  8
SURVBND
 10
39.773
 20
95.4
 30
0.0
  0
VERTEX
  8
SURVBND
 10
39.767
 20
95.389
 30
0.0
  0
VERTEX
  8
SURVBND
 10
39.766
 20
95.383
 30
0.0
  0
VERTEX
  8
SURVBND
 10
39.76
 20
95.372
 30
0.0
  0
VERTEX
  8
SURVBND
 10
39.755
 20
95.355
 30
0.0
  0
VERTEX
  8
SURVBND
 10
39.746
 20
95.344
 30
0.0
  0
VERTEX
  8
SURVBND
 10
39.741
 20
95.333
 30
0.0
  0
VERTEX
  8
SURVBND
 10
39.74
 20
95.324
 30
0.0
  0
VERTEX
  8
SURVBND
 10
39.742
 20
95.315
 30
0.0
  0
VERTEX
  8
SURVBND
 10
39.746
 20
95.309
 30
0.0
  0
VERTEX
  8
SURVBND
 10
39.751
 20
95.3
 30
0.0
  0
VERTEX
  8
SURVBND
 10
39.747
 20
95.291
 30
0.0
  0
VERTEX
  8
SURVBND
 10
39.741
 20
95.287
 30
0.0
  0
VERTEX
  8
SURVBND
 10
39.728
 20
95.288
 30
0.0
  0
VERTEX
  8
SURVBND
 10
39.73
 20
95.277
 30
0.0
  0
VERTEX
  8
SURVBND
 10
39.736
 20
95.269
 30
0.0
  0
VERTEX
  8
SURVBND
 10
39.715
 20
95.256
 30
0.0
  0
VERTEX
  8
SURVBND
 10
39.713
 20
95.248
 30
0.0
  0
VERTEX
  8
SURVBND
 10
39.71
 20
95.242
 30
0.0
  0
VERTEX
  8
SURVBND
 10
39.698
 20
95.233
 30
0.0
  0
VERTEX
  8
SURVBND
 10
39.692
 20
95.225
 30
0.0
  0
VERTEX
  8
SURVBND
 10
39.696
 20
95.216
 30
0.0
  0
VERTEX
  8
SURVBND
 10
39.707
 20
95.208
 30
0.0
  0
VERTEX
  8
SURVBND
 10
39.709
 20
95.201
 30
0.0
  0
VERTEX
  8
SURVBND
 10
39.686
 20
95.189
 30
0.0
  0
VERTEX
  8
SURVBND
 10
39.661
 20
95.183
 30
0.0
  0
VERTEX
  8
SURVBND
 10
39.655
 20
95.166
 30
0.0
  0
VERTEX
  8
SURVBND
 10
39.658
 20
95.161
 30
0.0
  0
VERTEX
  8
SURVBND
 10
39.666
 20
95.154
 30
0.0
  0
VERTEX
  8
SURVBND
 10
39.679
 20
95.146
 30
0.0
  0
VERTEX
  8
SURVBND
 10
39.679
 20
95.14
 30
0.0
  0
VERTEX
  8
SURVBND
 10
39.671
 20
95.137
 30
0.0
  0
VERTEX
  8
SURVBND
 10
39.655
 20
95.137
 30
0.0
  0
VERTEX
  8
SURVBND
 10
39.648
 20
95.134
 30
0.0
  0
VERTEX
  8
SURVBND
 10
39.646
 20
95.124
 30
0.0
  0
VERTEX
  8
SURVBND
 10
39.648
 20
95.113
 30
0.0
  0
VERTEX
  8
SURVBND
 10
39.642
 20
95.101
 30
0.0
  0
VERTEX
  8
SURVBND
 10
39.633
 20
95.086
 30
0.0
  0
VERTEX
  8
SURVBND
 10
39.63
 20
95.075
 30
0.0
  0
VERTEX
  8
SURVBND
 10
39.629
 20
95.067
 30
0.0
  0
VERTEX
  8
SURVBND
 10
39.632
 20
95.065
 30
0.0
  0
VERTEX
  8
SURVBND
 10
39.639
 20
95.053
 30
0.0
  0
VERTEX
  8
SURVBND
 10
39.631
 20
95.05
 30
0.0
  0
VERTEX
  8
SURVBND
 10
39.617
 20
95.048
 30
0.0
  0
VERTEX
  8
SURVBND
 10
39.609
 20
95.044
 30
0.0
  0
VERTEX
  8
SURVBND
 10
39.59
 20
95.042
 30
0.0
  0
VERTEX
  8
SURVBND
 10
39.586
 20
95.047
 30
0.0
  0
VERTEX
  8
SURVBND
 10
39.583
 20
95.044
 30
0.0
  0
VERTEX
  8
SURVBND
 10
39.578
 20
95.039
 30
0.0
  0
VERTEX
  8
SURVBND
 10
39.55
 20
95.017
 30
0.0
  0
VERTEX
  8
SURVBND
 10
39.557
 20
95.003
 30
0.0
  0
VERTEX
  8
SURVBND
 10
39.557
 20
94.994
 30
0.0
  0
VERTEX
  8
SURVBND
 10
39.542
 20
94.991
 30
0.0
  0
VERTEX
  8
SURVBND
 10
39.539
 20
94.988
 30
0.0
  0
VERTEX
  8
SURVBND
 10
39.541
 20
94.974
 30
0.0
  0
VERTEX
  8
SURVBND
 10
39.537
 20
94.968
 30
0.0
  0
VERTEX
  8
SURVBND
 10
39.525
 20
94.957
 30
0.0
  0
VERTEX
  8
SURVBND
 10
39.519
 20
94.941
 30
0.0
  0
VERTEX
  8
SURVBND
 10
39.516
 20
94.937
 30
0.0
  0
VERTEX
  8
SURVBND
 10
39.516
 20
94.929
 30
0.0
  0
VERTEX
  8
SURVBND
 10
39.512
 20
94.919
 30
0.0
  0
VERTEX
  8
SURVBND
 10
39.513
 20
94.918
 30
0.0
  0
VERTEX
  8
SURVBND
 10
39.517
 20
94.913
 30
0.0
  0
VERTEX
  8
SURVBND
 10
39.468
 20
94.908
 30
0.0
  0
VERTEX
  8
SURVBND
 10
39.454
 20
94.878
 30
0.0
  0
VERTEX
  8
SURVBND
 10
39.454
 20
94.856
 30
0.0
  0
VERTEX
  8
SURVBND
 10
39.468
 20
94.848
 30
0.0
  0
VERTEX
  8
SURVBND
 10
39.468
 20
94.841
 30
0.0
  0
VERTEX
  8
SURVBND
 10
39.461
 20
94.833
 30
0.0
  0
VERTEX
  8
SURVBND
 10
39.446
 20
94.818
 30
0.0
  0
VERTEX
  8
SURVBND
 10
39.446
 20
94.811
 30
0.0
  0
VERTEX
  8
SURVBND
 10
39.424
 20
94.796
 30
0.0
  0
VERTEX
  8
SURVBND
 10
39.424
 20
94.789
 30
0.0
  0
VERTEX
  8
SURVBND
 10
39.431
 20
94.781
 30
0.0
  0
VERTEX
  8
SURVBND
 10
39.439
 20
94.774
 30
0.0
  0
VERTEX
  8
SURVBND
 10
39.424
 20
94.759
 30
0.0
  0
VERTEX
  8
SURVBND
 10
39.416
 20
94.751
 30
0.0
  0
VERTEX
  8
SURVBND
 10
39.409
 20
94.736
 30
0.0
  0
VERTEX
  8
SURVBND
 10
39.386
 20
94.722
 30
0.0
  0
VERTEX
  8
SURVBND
 10
39.379
 20
94.692
 30
0.0
  0
VERTEX
  8
SURVBND
 10
39.379
 20
94.654
 30
0.0
  0
VERTEX
  8
SURVBND
 10
39.379
 20
94.64
 30
0.0
  0
VERTEX
  8
SURVBND
 10
39.379
 20
94.625
 30
0.0
  0
VERTEX
  8
SURVBND
 10
39.364
 20
94.61
 30
0.0
  0
VERTEX
  8
SURVBND
 10
39.349
 20
94.595
 30
0.0
  0
VERTEX
  8
SURVBND
 10
39.334
 20
94.572
 30
0.0
  0
VERTEX
  8
SURVBND
 10
39.327
 20
94.558
 30
0.0
  0
VERTEX
  8
SURVBND
 10
39.319
 20
94.543
 30
0.0
  0
VERTEX
  8
SURVBND
 10
39.327
 20
94.52
 30
0.0
  0
VERTEX
  8
SURVBND
 10
39.334
 20
94.513
 30
0.0
  0
VERTEX
  8
SURVBND
 10
39.327
 20
94.49
 30
0.0
  0
VERTEX
  8
SURVBND
 10
39.319
 20
94.483
 30
0.0
  0
VERTEX
  8
SURVBND
 10
39.319
 20
94.483
 30
0.0
  0
VERTEX
  8
SURVBND
 10
39.304
 20
94.476
 30
0.0
  0
VERTEX
  8
SURVBND
 10
39.297
 20
94.476
 30
0.0
  0
VERTEX
  8
SURVBND
 10
39.29
 20
94.476
 30
0.0
  0
VERTEX
  8
SURVBND
 10
39.29
 20
94.483
 30
0.0
  0
VERTEX
  8
SURVBND
 10
39.282
 20
94.483
 30
0.0
  0
VERTEX
  8
SURVBND
 10
39.275
 20
94.476
 30
0.0
  0
VERTEX
  8
SURVBND
 10
39.267
 20
94.468
 30
0.0
  0
VERTEX
  8
SURVBND
 10
39.267
 20
94.461
 30
0.0
  0
VERTEX
  8
SURVBND
 10
39.267
 20
94.453
 30
0.0
  0
VERTEX
  8
SURVBND
 10
39.275
 20
94.446
 30
0.0
  0
VERTEX
  8
SURVBND
 10
39.282
 20
94.438
 30
0.0
  0
VERTEX
  8
SURVBND
 10
39.29
 20
94.438
 30
0.0
  0
VERTEX
  8
SURVBND
 10
39.282
 20
94.423
 30
0.0
  0
VERTEX
  8
SURVBND
 10
39.267
 20
94.423
 30
0.0
  0
VERTEX
  8
SURVBND
 10
39.26
 20
94.416
 30
0.0
  0
VERTEX
  8
SURVBND
 10
39.252
 20
94.408
 30
0.0
  0
VERTEX
  8
SURVBND
 10
39.252
 20
94.408
 30
0.0
  0
VERTEX
  8
SURVBND
 10
39.252
 20
94.401
 30
0.0
  0
VERTEX
  8
SURVBND
 10
39.252
 20
94.394
 30
0.0
  0
VERTEX
  8
SURVBND
 10
39.252
 20
94.386
 30
0.0
  0
VERTEX
  8
SURVBND
 10
39.237
 20
94.371
 30
0.0
  0
VERTEX
  8
SURVBND
 10
39.23
 20
94.364
 30
0.0
  0
VERTEX
  8
SURVBND
 10
39.23
 20
94.349
 30
0.0
  0
VERTEX
  8
SURVBND
 10
39.23
 20
94.341
 30
0.0
  0
VERTEX
  8
SURVBND
 10
39.222
 20
94.334
 30
0.0
  0
VERTEX
  8
SURVBND
 10
39.222
 20
94.326
 30
0.0
  0
VERTEX
  8
SURVBND
 10
39.23
 20
94.326
 30
0.0
  0
VERTEX
  8
SURVBND
 10
39.237
 20
94.319
 30
0.0
  0
VERTEX
  8
SURVBND
 10
39.23
 20
94.312
 30
0.0
  0
VERTEX
  8
SURVBND
 10
39.23
 20
94.304
 30
0.0
  0
VERTEX
  8
SURVBND
 10
39.222
 20
94.304
 30
0.0
  0
VERTEX
  8
SURVBND
 10
39.215
 20
94.297
 30
0.0
  0
VERTEX
  8
SURVBND
 10
39.208
 20
94.289
 30
0.0
  0
VERTEX
  8
SURVBND
 10
39.208
 20
94.282
 30
0.0
  0
VERTEX
  8
SURVBND
 10
39.208
 20
94.282
 30
0.0
  0
VERTEX
  8
SURVBND
 10
39.185
 20
94.274
 30
0.0
  0
VERTEX
  8
SURVBND
 10
39.185
 20
94.267
 30
0.0
  0
VERTEX
  8
SURVBND
 10
39.178
 20
94.259
 30
0.0
  0
VERTEX
  8
SURVBND
 10
39.17
 20
94.252
 30
0.0
  0
VERTEX
  8
SURVBND
 10
39.178
 20
94.252
 30
0.0
  0
VERTEX
  8
SURVBND
 10
39.178
 20
94.252
 30
0.0
  0
VERTEX
  8
SURVBND
 10
39.185
 20
94.244
 30
0.0
  0
VERTEX
  8
SURVBND
 10
39.185
 20
94.237
 30
0.0
  0
VERTEX
  8
SURVBND
 10
39.178
 20
94.23
 30
0.0
  0
VERTEX
  8
SURVBND
 10
39.17
 20
94.222
 30
0.0
  0
VERTEX
  8
SURVBND
 10
39.155
 20
94.215
 30
0.0
  0
VERTEX
  8
SURVBND
 10
39.155
 20
94.215
 30
0.0
  0
VERTEX
  8
SURVBND
 10
39.14
 20
94.207
 30
0.0
  0
VERTEX
  8
SURVBND
 10
39.14
 20
94.207
 30
0.0
  0
VERTEX
  8
SURVBND
 10
39.14
 20
94.207
 30
0.0
  0
VERTEX
  8
SURVBND
 10
39.14
 20
94.2
 30
0.0
  0
VERTEX
  8
SURVBND
 10
39.118
 20
94.148
 30
0.0
  0
VERTEX
  8
SURVBND
 10
39.103
 20
94.133
 30
0.0
  0
VERTEX
  8
SURVBND
 10
39.103
 20
94.133
 30
0.0
  0
VERTEX
  8
SURVBND
 10
39.081
 20
94.125
 30
0.0
  0
VERTEX
  8
SURVBND
 10
39.073
 20
94.125
 30
0.0
  0
VERTEX
  8
SURVBND
 10
39.058
 20
94.125
 30
0.0
  0
VERTEX
  8
SURVBND
 10
39.051
 20
94.118
 30
0.0
  0
VERTEX
  8
SURVBND
 10
39.051
 20
94.11
 30
0.0
  0
VERTEX
  8
SURVBND
 10
39.051
 20
94.103
 30
0.0
  0
VERTEX
  8
SURVBND
 10
39.066
 20
94.103
 30
0.0
  0
VERTEX
  8
SURVBND
 10
39.073
 20
94.095
 30
0.0
  0
VERTEX
  8
SURVBND
 10
39.058
 20
94.088
 30
0.0
  0
VERTEX
  8
SURVBND
 10
39.051
 20
94.073
 30
0.0
  0
VERTEX
  8
SURVBND
 10
39.036
 20
94.058
 30
0.0
  0
VERTEX
  8
SURVBND
 10
39.014
 20
94.051
 30
0.0
  0
VERTEX
  8
SURVBND
 10
38.984
 20
94.043
 30
0.0
  0
VERTEX
  8
SURVBND
 10
38.984
 20
94.028
 30
0.0
  0
VERTEX
  8
SURVBND
 10
38.976
 20
93.998
 30
0.0
  0
VERTEX
  8
SURVBND
 10
38.961
 20
93.969
 30
0.0
  0
VERTEX
  8
SURVBND
 10
38.969
 20
93.961
 30
0.0
  0
VERTEX
  8
SURVBND
 10
38.976
 20
93.954
 30
0.0
  0
VERTEX
  8
SURVBND
 10
38.984
 20
93.946
 30
0.0
  0
VERTEX
  8
SURVBND
 10
38.991
 20
93.946
 30
0.0
  0
VERTEX
  8
SURVBND
 10
39.006
 20
93.939
 30
0.0
  0
VERTEX
  8
SURVBND
 10
38.991
 20
93.931
 30
0.0
  0
VERTEX
  8
SURVBND
 10
38.984
 20
93.931
 30
0.0
  0
VERTEX
  8
SURVBND
 10
38.961
 20
93.924
 30
0.0
  0
VERTEX
  8
SURVBND
 10
38.961
 20
93.924
 30
0.0
  0
VERTEX
  8
SURVBND
 10
38.961
 20
93.916
 30
0.0
  0
VERTEX
  8
SURVBND
 10
38.961
 20
93.909
 30
0.0
  0
VERTEX
  8
SURVBND
 10
38.961
 20
93.901
 30
0.0
  0
VERTEX
  8
SURVBND
 10
38.947
 20
93.887
 30
0.0
  0
VERTEX
  8
SURVBND
 10
38.932
 20
93.879
 30
0.0
  0
VERTEX
  8
SURVBND
 10
38.894
 20
93.872
 30
0.0
  0
VERTEX
  8
SURVBND
 10
38.894
 20
93.857
 30
0.0
  0
VERTEX
  8
SURVBND
 10
38.879
 20
93.842
 30
0.0
  0
VERTEX
  8
SURVBND
 10
38.865
 20
93.819
 30
0.0
  0
VERTEX
  8
SURVBND
 10
38.865
 20
93.79
 30
0.0
  0
VERTEX
  8
SURVBND
 10
38.857
 20
93.767
 30
0.0
  0
VERTEX
  8
SURVBND
 10
38.835
 20
93.752
 30
0.0
  0
VERTEX
  8
SURVBND
 10
38.827
 20
93.745
 30
0.0
  0
VERTEX
  8
SURVBND
 10
38.805
 20
93.745
 30
0.0
  0
VERTEX
  8
SURVBND
 10
38.797
 20
93.745
 30
0.0
  0
VERTEX
  8
SURVBND
 10
38.797
 20
93.737
 30
0.0
  0
VERTEX
  8
SURVBND
 10
38.797
 20
93.73
 30
0.0
  0
VERTEX
  8
SURVBND
 10
38.79
 20
93.723
 30
0.0
  0
VERTEX
  8
SURVBND
 10
38.783
 20
93.723
 30
0.0
  0
VERTEX
  8
SURVBND
 10
38.775
 20
93.708
 30
0.0
  0
VERTEX
  8
SURVBND
 10
38.768
 20
93.7
 30
0.0
  0
VERTEX
  8
SURVBND
 10
38.738
 20
93.693
 30
0.0
  0
VERTEX
  8
SURVBND
 10
38.745
 20
93.685
 30
0.0
  0
VERTEX
  8
SURVBND
 10
38.738
 20
93.67
 30
0.0
  0
VERTEX
  8
SURVBND
 10
38.708
 20
93.663
 30
0.0
  0
VERTEX
  8
SURVBND
 10
38.708
 20
93.655
 30
0.0
  0
VERTEX
  8
SURVBND
 10
38.715
 20
93.641
 30
0.0
  0
VERTEX
  8
SURVBND
 10
38.701
 20
93.633
 30
0.0
  0
VERTEX
  8
SURVBND
 10
38.663
 20
93.618
 30
0.0
  0
VERTEX
  8
SURVBND
 10
38.671
 20
93.603
 30
0.0
  0
VERTEX
  8
SURVBND
 10
38.671
 20
93.588
 30
0.0
  0
VERTEX
  8
SURVBND
 10
38.641
 20
93.573
 30
0.0
  0
VERTEX
  8
SURVBND
 10
38.641
 20
93.559
 30
0.0
  0
VERTEX
  8
SURVBND
 10
38.648
 20
93.544
 30
0.0
  0
VERTEX
  8
SURVBND
 10
38.619
 20
93.544
 30
0.0
  0
VERTEX
  8
SURVBND
 10
38.611
 20
93.544
 30
0.0
  0
VERTEX
  8
SURVBND
 10
38.589
 20
93.529
 30
0.0
  0
VERTEX
  8
SURVBND
 10
38.581
 20
93.521
 30
0.0
  0
VERTEX
  8
SURVBND
 10
38.581
 20
93.514
 30
0.0
  0
VERTEX
  8
SURVBND
 10
38.559
 20
93.506
 30
0.0
  0
VERTEX
  8
SURVBND
 10
38.559
 20
93.499
 30
0.0
  0
VERTEX
  8
SURVBND
 10
38.551
 20
93.447
 30
0.0
  0
VERTEX
  8
SURVBND
 10
38.537
 20
93.439
 30
0.0
  0
VERTEX
  8
SURVBND
 10
38.522
 20
93.439
 30
0.0
  0
VERTEX
  8
SURVBND
 10
38.484
 20
93.432
 30
0.0
  0
VERTEX
  8
SURVBND
 10
38.477
 20
93.432
 30
0.0
  0
VERTEX
  8
SURVBND
 10
38.462
 20
93.417
 30
0.0
  0
VERTEX
  8
SURVBND
 10
38.447
 20
93.402
 30
0.0
  0
VERTEX
  8
SURVBND
 10
38.44
 20
93.402
 30
0.0
  0
VERTEX
  8
SURVBND
 10
38.395
 20
93.395
 30
0.0
  0
VERTEX
  8
SURVBND
 10
38.38
 20
93.395
 30
0.0
  0
VERTEX
  8
SURVBND
 10
38.38
 20
93.387
 30
0.0
  0
VERTEX
  8
SURVBND
 10
38.365
 20
93.38
 30
0.0
  0
VERTEX
  8
SURVBND
 10
38.328
 20
93.372
 30
0.0
  0
VERTEX
  8
SURVBND
 10
38.32
 20
93.38
 30
0.0
  0
VERTEX
  8
SURVBND
 10
38.313
 20
93.387
 30
0.0
  0
VERTEX
  8
SURVBND
 10
38.29
 20
93.38
 30
0.0
  0
VERTEX
  8
SURVBND
 10
38.283
 20
93.38
 30
0.0
  0
VERTEX
  8
SURVBND
 10
38.268
 20
93.38
 30
0.0
  0
VERTEX
  8
SURVBND
 10
38.268
 20
93.357
 30
0.0
  0
VERTEX
  8
SURVBND
 10
38.246
 20
93.335
 30
0.0
  0
VERTEX
  8
SURVBND
 10
38.223
 20
93.327
 30
0.0
  0
VERTEX
  8
SURVBND
 10
38.208
 20
93.32
 30
0.0
  0
VERTEX
  8
SURVBND
 10
38.194
 20
93.313
 30
0.0
  0
VERTEX
  8
SURVBND
 10
38.194
 20
93.29
 30
0.0
  0
VERTEX
  8
SURVBND
 10
38.171
 20
93.268
 30
0.0
  0
VERTEX
  8
SURVBND
 10
38.179
 20
93.245
 30
0.0
  0
VERTEX
  8
SURVBND
 10
38.171
 20
93.223
 30
0.0
  0
VERTEX
  8
SURVBND
 10
38.149
 20
93.208
 30
0.0
  0
VERTEX
  8
SURVBND
 10
38.126
 20
93.193
 30
0.0
  0
VERTEX
  8
SURVBND
 10
38.119
 20
93.178
 30
0.0
  0
VERTEX
  8
SURVBND
 10
38.119
 20
93.156
 30
0.0
  0
VERTEX
  8
SURVBND
 10
38.082
 20
93.134
 30
0.0
  0
VERTEX
  8
SURVBND
 10
38.067
 20
93.119
 30
0.0
  0
VERTEX
  8
SURVBND
 10
38.037
 20
93.119
 30
0.0
  0
VERTEX
  8
SURVBND
 10
38.015
 20
93.119
 30
0.0
  0
VERTEX
  8
SURVBND
 10
37.985
 20
93.096
 30
0.0
  0
VERTEX
  8
SURVBND
 10
37.962
 20
93.089
 30
0.0
  0
VERTEX
  8
SURVBND
 10
37.955
 20
93.089
 30
0.0
  0
VERTEX
  8
SURVBND
 10
37.903
 20
93.081
 30
0.0
  0
VERTEX
  8
SURVBND
 10
37.888
 20
93.074
 30
0.0
  0
VERTEX
  8
SURVBND
 10
37.873
 20
93.067
 30
0.0
  0
VERTEX
  8
SURVBND
 10
37.851
 20
93.059
 30
0.0
  0
VERTEX
  8
SURVBND
 10
37.821
 20
93.059
 30
0.0
  0
VERTEX
  8
SURVBND
 10
37.784
 20
93.067
 30
0.0
  0
VERTEX
  8
SURVBND
 10
37.776
 20
93.067
 30
0.0
  0
VERTEX
  8
SURVBND
 10
37.746
 20
93.052
 30
0.0
  0
VERTEX
  8
SURVBND
 10
37.739
 20
93.052
 30
0.0
  0
VERTEX
  8
SURVBND
 10
37.731
 20
93.037
 30
0.0
  0
VERTEX
  8
SURVBND
 10
37.716
 20
93.029
 30
0.0
  0
VERTEX
  8
SURVBND
 10
37.694
 20
93.022
 30
0.0
  0
VERTEX
  8
SURVBND
 10
37.679
 20
93.022
 30
0.0
  0
VERTEX
  8
SURVBND
 10
37.672
 20
93.029
 30
0.0
  0
VERTEX
  8
SURVBND
 10
37.649
 20
93.037
 30
0.0
  0
VERTEX
  8
SURVBND
 10
37.634
 20
93.044
 30
0.0
  0
VERTEX
  8
SURVBND
 10
37.627
 20
93.052
 30
0.0
  0
VERTEX
  8
SURVBND
 10
37.627
 20
93.052
 30
0.0
  0
VERTEX
  8
SURVBND
 10
37.612
 20
93.037
 30
0.0
  0
VERTEX
  8
SURVBND
 10
37.575
 20
93.044
 30
0.0
  0
VERTEX
  8
SURVBND
 10
37.552
 20
93.044
 30
0.0
  0
VERTEX
  8
SURVBND
 10
37.523
 20
93.044
 30
0.0
  0
VERTEX
  8
SURVBND
 10
37.498
 20
93.019
 30
0.0
  0
VERTEX
  8
SURVBND
 10
37.497
 20
93.02
 30
0.0
  0
VERTEX
  8
SURVBND
 10
37.491
 20
93.023
 30
0.0
  0
VERTEX
  8
SURVBND
 10
37.485
 20
93.029
 30
0.0
  0
VERTEX
  8
SURVBND
 10
37.48
 20
93.033
 30
0.0
  0
VERTEX
  8
SURVBND
 10
37.47
 20
93.038
 30
0.0
  0
VERTEX
  8
SURVBND
 10
37.463
 20
93.045
 30
0.0
  0
VERTEX
  8
SURVBND
 10
37.455
 20
93.053
 30
0.0
  0
VERTEX
  8
SURVBND
 10
37.451
 20
93.063
 30
0.0
  0
VERTEX
  8
SURVBND
 10
37.449
 20
93.07
 30
0.0
  0
VERTEX
  8
SURVBND
 10
37.445
 20
93.075
 30
0.0
  0
VERTEX
  8
SURVBND
 10
37.439
 20
93.08
 30
0.0
  0
VERTEX
  8
SURVBND
 10
37.43
 20
93.086
 30
0.0
  0
VERTEX
  8
SURVBND
 10
37.428
 20
93.089
 30
0.0
  0
VERTEX
  8
SURVBND
 10
37.414
 20
93.087
 30
0.0
  0
VERTEX
  8
SURVBND
 10
37.407
 20
93.069
 30
0.0
  0
VERTEX
  8
SURVBND
 10
37.392
 20
93.067
 30
0.0
  0
VERTEX
  8
SURVBND
 10
37.374
 20
93.074
 30
0.0
  0
VERTEX
  8
SURVBND
 10
37.366
 20
93.077
 30
0.0
  0
VERTEX
  8
SURVBND
 10
37.349
 20
93.087
 30
0.0
  0
VERTEX
  8
SURVBND
 10
37.332
 20
93.093
 30
0.0
  0
VERTEX
  8
SURVBND
 10
37.316
 20
93.093
 30
0.0
  0
VERTEX
  8
SURVBND
 10
37.299
 20
93.095
 30
0.0
  0
VERTEX
  8
SURVBND
 10
37.281
 20
93.1
 30
0.0
  0
VERTEX
  8
SURVBND
 10
37.282
 20
93.105
 30
0.0
  0
VERTEX
  8
SURVBND
 10
37.274
 20
93.114
 30
0.0
  0
VERTEX
  8
SURVBND
 10
37.261
 20
93.103
 30
0.0
  0
VERTEX
  8
SURVBND
 10
37.243
 20
93.107
 30
0.0
  0
VERTEX
  8
SURVBND
 10
37.24
 20
93.117
 30
0.0
  0
VERTEX
  8
SURVBND
 10
37.234
 20
93.124
 30
0.0
  0
VERTEX
  8
SURVBND
 10
37.231
 20
93.127
 30
0.0
  0
VERTEX
  8
SURVBND
 10
37.208
 20
93.143
 30
0.0
  0
VERTEX
  8
SURVBND
 10
37.192
 20
93.168
 30
0.0
  0
VERTEX
  8
SURVBND
 10
37.189
 20
93.178
 30
0.0
  0
VERTEX
  8
SURVBND
 10
37.178
 20
93.177
 30
0.0
  0
VERTEX
  8
SURVBND
 10
37.153
 20
93.192
 30
0.0
  0
VERTEX
  8
SURVBND
 10
37.145
 20
93.196
 30
0.0
  0
VERTEX
  8
SURVBND
 10
37.133
 20
93.205
 30
0.0
  0
VERTEX
  8
SURVBND
 10
37.123
 20
93.209
 30
0.0
  0
VERTEX
  8
SURVBND
 10
37.11
 20
93.213
 30
0.0
  0
VERTEX
  8
SURVBND
 10
37.1
 20
93.213
 30
0.0
  0
VERTEX
  8
SURVBND
 10
37.087
 20
93.213
 30
0.0
  0
VERTEX
  8
SURVBND
 10
37.068
 20
93.215
 30
0.0
  0
VERTEX
  8
SURVBND
 10
37.065
 20
93.22
 30
0.0
  0
VERTEX
  8
SURVBND
 10
37.061
 20
93.224
 30
0.0
  0
VERTEX
  8
SURVBND
 10
37.058
 20
93.225
 30
0.0
  0
VERTEX
  8
SURVBND
 10
37.043
 20
93.226
 30
0.0
  0
VERTEX
  8
SURVBND
 10
37.03
 20
93.228
 30
0.0
  0
VERTEX
  8
SURVBND
 10
37.012
 20
93.228
 30
0.0
  0
VERTEX
  8
SURVBND
 10
37.001
 20
93.229
 30
0.0
  0
VERTEX
  8
SURVBND
 10
36.984
 20
93.229
 30
0.0
  0
VERTEX
  8
SURVBND
 10
36.976
 20
93.228
 30
0.0
  0
VERTEX
  8
SURVBND
 10
36.953
 20
93.224
 30
0.0
  0
VERTEX
  8
SURVBND
 10
36.938
 20
93.222
 30
0.0
  0
VERTEX
  8
SURVBND
 10
36.924
 20
93.225
 30
0.0
  0
VERTEX
  8
SURVBND
 10
36.921
 20
93.226
 30
0.0
  0
VERTEX
  8
SURVBND
 10
36.918
 20
93.226
 30
0.0
  0
VERTEX
  8
SURVBND
 10
36.91
 20
93.22
 30
0.0
  0
VERTEX
  8
SURVBND
 10
36.903
 20
93.206
 30
0.0
  0
VERTEX
  8
SURVBND
 10
36.895
 20
93.187
 30
0.0
  0
VERTEX
  8
SURVBND
 10
36.886
 20
93.183
 30
0.0
  0
VERTEX
  8
SURVBND
 10
36.876
 20
93.18
 30
0.0
  0
VERTEX
  8
SURVBND
 10
36.867
 20
93.175
 30
0.0
  0
VERTEX
  8
SURVBND
 10
36.863
 20
93.17
 30
0.0
  0
VERTEX
  8
SURVBND
 10
36.854
 20
93.159
 30
0.0
  0
VERTEX
  8
SURVBND
 10
36.85
 20
93.152
 30
0.0
  0
VERTEX
  8
SURVBND
 10
36.844
 20
93.148
 30
0.0
  0
VERTEX
  8
SURVBND
 10
36.828
 20
93.137
 30
0.0
  0
VERTEX
  8
SURVBND
 10
36.819
 20
93.123
 30
0.0
  0
VERTEX
  8
SURVBND
 10
36.805
 20
93.094
 30
0.0
  0
VERTEX
  8
SURVBND
 10
36.802
 20
93.086
 30
0.0
  0
VERTEX
  8
SURVBND
 10
36.794
 20
93.082
 30
0.0
  0
VERTEX
  8
SURVBND
 10
36.777
 20
93.076
 30
0.0
  0
VERTEX
  8
SURVBND
 10
36.76
 20
93.08
 30
0.0
  0
VERTEX
  8
SURVBND
 10
36.754
 20
93.078
 30
0.0
  0
VERTEX
  8
SURVBND
 10
36.753
 20
93.063
 30
0.0
  0
VERTEX
  8
SURVBND
 10
36.745
 20
93.061
 30
0.0
  0
VERTEX
  8
SURVBND
 10
36.735
 20
93.066
 30
0.0
  0
VERTEX
  8
SURVBND
 10
36.717
 20
93.075
 30
0.0
  0
VERTEX
  8
SURVBND
 10
36.696
 20
93.079
 30
0.0
  0
VERTEX
  8
SURVBND
 10
36.676
 20
93.08
 30
0.0
  0
VERTEX
  8
SURVBND
 10
36.67
 20
93.081
 30
0.0
  0
VERTEX
  8
SURVBND
 10
36.658
 20
93.08
 30
0.0
  0
VERTEX
  8
SURVBND
 10
36.64
 20
93.07
 30
0.0
  0
VERTEX
  8
SURVBND
 10
36.632
 20
93.058
 30
0.0
  0
VERTEX
  8
SURVBND
 10
36.621
 20
93.035
 30
0.0
  0
VERTEX
  8
SURVBND
 10
36.616
 20
93.028
 30
0.0
  0
VERTEX
  8
SURVBND
 10
36.611
 20
93.017
 30
0.0
  0
VERTEX
  8
SURVBND
 10
36.605
 20
93.004
 30
0.0
  0
VERTEX
  8
SURVBND
 10
36.598
 20
92.986
 30
0.0
  0
VERTEX
  8
SURVBND
 10
36.6
 20
92.978
 30
0.0
  0
VERTEX
  8
SURVBND
 10
36.607
 20
92.968
 30
0.0
  0
VERTEX
  8
SURVBND
 10
36.61
 20
92.961
 30
0.0
  0
VERTEX
  8
SURVBND
 10
36.609
 20
92.951
 30
0.0
  0
VERTEX
  8
SURVBND
 10
36.609
 20
92.946
 30
0.0
  0
VERTEX
  8
SURVBND
 10
36.609
 20
92.931
 30
0.0
  0
VERTEX
  8
SURVBND
 10
36.651
 20
92.908
 30
0.0
  0
VERTEX
  8
SURVBND
 10
36.654
 20
92.899
 30
0.0
  0
VERTEX
  8
SURVBND
 10
36.655
 20
92.884
 30
0.0
  0
VERTEX
  8
SURVBND
 10
36.656
 20
92.858
 30
0.0
  0
VERTEX
  8
SURVBND
 10
36.656
 20
92.842
 30
0.0
  0
VERTEX
  8
SURVBND
 10
36.656
 20
92.827
 30
0.0
  0
VERTEX
  8
SURVBND
 10
36.677
 20
92.813
 30
0.0
  0
VERTEX
  8
SURVBND
 10
36.682
 20
92.802
 30
0.0
  0
VERTEX
  8
SURVBND
 10
36.698
 20
92.785
 30
0.0
  0
VERTEX
  8
SURVBND
 10
36.697
 20
92.766
 30
0.0
  0
VERTEX
  8
SURVBND
 10
36.7
 20
92.758
 30
0.0
  0
VERTEX
  8
SURVBND
 10
36.702
 20
92.75
 30
0.0
  0
VERTEX
  8
SURVBND
 10
36.702
 20
92.736
 30
0.0
  0
VERTEX
  8
SURVBND
 10
36.701
 20
92.72
 30
0.0
  0
VERTEX
  8
SURVBND
 10
36.7
 20
92.716
 30
0.0
  0
VERTEX
  8
SURVBND
 10
36.699
 20
92.707
 30
0.0
  0
VERTEX
  8
SURVBND
 10
36.701
 20
92.699
 30
0.0
  0
VERTEX
  8
SURVBND
 10
36.703
 20
92.682
 30
0.0
  0
VERTEX
  8
SURVBND
 10
36.706
 20
92.666
 30
0.0
  0
VERTEX
  8
SURVBND
 10
36.708
 20
92.648
 30
0.0
  0
VERTEX
  8
SURVBND
 10
36.707
 20
92.633
 30
0.0
  0
VERTEX
  8
SURVBND
 10
36.707
 20
92.613
 30
0.0
  0
VERTEX
  8
SURVBND
 10
36.709
 20
92.597
 30
0.0
  0
VERTEX
  8
SURVBND
 10
36.712
 20
92.585
 30
0.0
  0
VERTEX
  8
SURVBND
 10
36.726
 20
92.571
 30
0.0
  0
VERTEX
  8
SURVBND
 10
36.742
 20
92.555
 30
0.0
  0
VERTEX
  8
SURVBND
 10
36.741
 20
92.539
 30
0.0
  0
VERTEX
  8
SURVBND
 10
36.744
 20
92.476
 30
0.0
  0
VERTEX
  8
SURVBND
 10
36.741
 20
92.461
 30
0.0
  0
VERTEX
  8
SURVBND
 10
36.737
 20
92.44
 30
0.0
  0
VERTEX
  8
SURVBND
 10
36.747
 20
92.437
 30
0.0
  0
VERTEX
  8
SURVBND
 10
36.744
 20
92.424
 30
0.0
  0
VERTEX
  8
SURVBND
 10
36.746
 20
92.402
 30
0.0
  0
VERTEX
  8
SURVBND
 10
36.754
 20
92.395
 30
0.0
  0
VERTEX
  8
SURVBND
 10
36.768
 20
92.394
 30
0.0
  0
VERTEX
  8
SURVBND
 10
36.763
 20
92.384
 30
0.0
  0
VERTEX
  8
SURVBND
 10
36.752
 20
92.373
 30
0.0
  0
VERTEX
  8
SURVBND
 10
36.744
 20
92.364
 30
0.0
  0
VERTEX
  8
SURVBND
 10
36.739
 20
92.355
 30
0.0
  0
VERTEX
  8
SURVBND
 10
36.736
 20
92.346
 30
0.0
  0
VERTEX
  8
SURVBND
 10
36.727
 20
92.341
 30
0.0
  0
VERTEX
  8
SURVBND
 10
36.719
 20
92.331
 30
0.0
  0
VERTEX
  8
SURVBND
 10
36.711
 20
92.315
 30
0.0
  0
VERTEX
  8
SURVBND
 10
36.714
 20
92.299
 30
0.0
  0
VERTEX
  8
SURVBND
 10
36.712
 20
92.289
 30
0.0
  0
VERTEX
  8
SURVBND
 10
36.707
 20
92.279
 30
0.0
  0
VERTEX
  8
SURVBND
 10
36.702
 20
92.27
 30
0.0
  0
VERTEX
  8
SURVBND
 10
36.699
 20
92.258
 30
0.0
  0
VERTEX
  8
SURVBND
 10
36.684
 20
92.239
 30
0.0
  0
VERTEX
  8
SURVBND
 10
36.69
 20
92.231
 30
0.0
  0
VERTEX
  8
SURVBND
 10
36.701
 20
92.217
 30
0.0
  0
VERTEX
  8
SURVBND
 10
36.72
 20
92.204
 30
0.0
  0
VERTEX
  8
SURVBND
 10
36.728
 20
92.197
 30
0.0
  0
VERTEX
  8
SURVBND
 10
36.741
 20
92.186
 30
0.0
  0
VERTEX
  8
SURVBND
 10
36.745
 20
92.175
 30
0.0
  0
VERTEX
  8
SURVBND
 10
36.752
 20
92.162
 30
0.0
  0
VERTEX
  8
SURVBND
 10
36.764
 20
92.169
 30
0.0
  0
VERTEX
  8
SURVBND
 10
36.777
 20
92.18
 30
0.0
  0
VERTEX
  8
SURVBND
 10
36.787
 20
92.177
 30
0.0
  0
VERTEX
  8
SURVBND
 10
36.809
 20
92.168
 30
0.0
  0
VERTEX
  8
SURVBND
 10
36.816
 20
92.156
 30
0.0
  0
VERTEX
  8
SURVBND
 10
36.827
 20
92.142
 30
0.0
  0
VERTEX
  8
SURVBND
 10
36.831
 20
92.127
 30
0.0
  0
VERTEX
  8
SURVBND
 10
36.828
 20
92.112
 30
0.0
  0
VERTEX
  8
SURVBND
 10
36.823
 20
92.098
 30
0.0
  0
VERTEX
  8
SURVBND
 10
36.82
 20
92.088
 30
0.0
  0
VERTEX
  8
SURVBND
 10
36.819
 20
92.076
 30
0.0
  0
VERTEX
  8
SURVBND
 10
36.811
 20
92.066
 30
0.0
  0
VERTEX
  8
SURVBND
 10
36.811
 20
92.061
 30
0.0
  0
VERTEX
  8
SURVBND
 10
36.819
 20
92.048
 30
0.0
  0
VERTEX
  8
SURVBND
 10
36.824
 20
92.05
 30
0.0
  0
VERTEX
  8
SURVBND
 10
36.826
 20
92.039
 30
0.0
  0
VERTEX
  8
SURVBND
 10
36.827
 20
92.032
 30
0.0
  0
VERTEX
  8
SURVBND
 10
36.827
 20
92.019
 30
0.0
  0
VERTEX
  8
SURVBND
 10
36.822
 20
92.006
 30
0.0
  0
VERTEX
  8
SURVBND
 10
36.822
 20
92.0
 30
0.0
  0
VERTEX
  8
SURVBND
 10
36.827
 20
91.986
 30
0.0
  0
VERTEX
  8
SURVBND
 10
36.818
 20
91.973
 30
0.0
  0
VERTEX
  8
SURVBND
 10
36.811
 20
91.971
 30
0.0
  0
VERTEX
  8
SURVBND
 10
36.791
 20
91.975
 30
0.0
  0
VERTEX
  8
SURVBND
 10
36.775
 20
91.972
 30
0.0
  0
VERTEX
  8
SURVBND
 10
36.76
 20
91.965
 30
0.0
  0
VERTEX
  8
SURVBND
 10
36.753
 20
91.96
 30
0.0
  0
VERTEX
  8
SURVBND
 10
36.747
 20
91.954
 30
0.0
  0
VERTEX
  8
SURVBND
 10
36.724
 20
91.963
 30
0.0
  0
VERTEX
  8
SURVBND
 10
36.718
 20
91.969
 30
0.0
  0
VERTEX
  8
SURVBND
 10
36.712
 20
91.978
 30
0.0
  0
VERTEX
  8
SURVBND
 10
36.702
 20
91.987
 30
0.0
  0
VERTEX
  8
SURVBND
 10
36.697
 20
91.993
 30
0.0
  0
VERTEX
  8
SURVBND
 10
36.688
 20
92.001
 30
0.0
  0
VERTEX
  8
SURVBND
 10
36.683
 20
92.008
 30
0.0
  0
VERTEX
  8
SURVBND
 10
36.674
 20
92.015
 30
0.0
  0
VERTEX
  8
SURVBND
 10
36.667
 20
92.024
 30
0.0
  0
VERTEX
  8
SURVBND
 10
36.661
 20
92.029
 30
0.0
  0
VERTEX
  8
SURVBND
 10
36.652
 20
92.037
 30
0.0
  0
VERTEX
  8
SURVBND
 10
36.641
 20
92.041
 30
0.0
  0
VERTEX
  8
SURVBND
 10
36.627
 20
92.047
 30
0.0
  0
VERTEX
  8
SURVBND
 10
36.598
 20
92.046
 30
0.0
  0
VERTEX
  8
SURVBND
 10
36.579
 20
92.041
 30
0.0
  0
VERTEX
  8
SURVBND
 10
36.563
 20
92.035
 30
0.0
  0
VERTEX
  8
SURVBND
 10
36.548
 20
92.025
 30
0.0
  0
VERTEX
  8
SURVBND
 10
36.532
 20
92.011
 30
0.0
  0
VERTEX
  8
SURVBND
 10
36.527
 20
92.0
 30
0.0
  0
VERTEX
  8
SURVBND
 10
36.527
 20
91.994
 30
0.0
  0
VERTEX
  8
SURVBND
 10
36.506
 20
91.966
 30
0.0
  0
VERTEX
  8
SURVBND
 10
36.477
 20
91.949
 30
0.0
  0
VERTEX
  8
SURVBND
 10
36.461
 20
91.944
 30
0.0
  0
VERTEX
  8
SURVBND
 10
36.449
 20
91.943
 30
0.0
  0
VERTEX
  8
SURVBND
 10
36.436
 20
91.946
 30
0.0
  0
VERTEX
  8
SURVBND
 10
36.419
 20
91.949
 30
0.0
  0
VERTEX
  8
SURVBND
 10
36.409
 20
91.954
 30
0.0
  0
VERTEX
  8
SURVBND
 10
36.398
 20
91.959
 30
0.0
  0
VERTEX
  8
SURVBND
 10
36.377
 20
91.97
 30
0.0
  0
VERTEX
  8
SURVBND
 10
36.371
 20
91.983
 30
0.0
  0
VERTEX
  8
SURVBND
 10
36.361
 20
91.994
 30
0.0
  0
VERTEX
  8
SURVBND
 10
36.356
 20
91.997
 30
0.0
  0
VERTEX
  8
SURVBND
 10
36.352
 20
92.009
 30
0.0
  0
VERTEX
  8
SURVBND
 10
36.356
 20
92.018
 30
0.0
  0
VERTEX
  8
SURVBND
 10
36.352
 20
92.027
 30
0.0
  0
VERTEX
  8
SURVBND
 10
36.347
 20
92.033
 30
0.0
  0
VERTEX
  8
SURVBND
 10
36.335
 20
92.033
 30
0.0
  0
VERTEX
  8
SURVBND
 10
36.332
 20
92.034
 30
0.0
  0
VERTEX
  8
SURVBND
 10
36.313
 20
92.03
 30
0.0
  0
VERTEX
  8
SURVBND
 10
36.289
 20
92.046
 30
0.0
  0
VERTEX
  8
SURVBND
 10
36.281
 20
92.055
 30
0.0
  0
VERTEX
  8
SURVBND
 10
36.291
 20
92.073
 30
0.0
  0
VERTEX
  8
SURVBND
 10
36.304
 20
92.097
 30
0.0
  0
VERTEX
  8
SURVBND
 10
36.265
 20
92.087
 30
0.0
  0
VERTEX
  8
SURVBND
 10
36.22
 20
92.092
 30
0.0
  0
VERTEX
  8
SURVBND
 10
36.117
 20
91.972
 30
0.0
  0
VERTEX
  8
SURVBND
 10
36.011
 20
91.898
 30
0.0
  0
VERTEX
  8
SURVBND
 10
36.013
 20
91.895
 30
0.0
  0
VERTEX
  8
SURVBND
 10
36.004
 20
91.891
 30
0.0
  0
VERTEX
  8
SURVBND
 10
36.001
 20
91.883
 30
0.0
  0
VERTEX
  8
SURVBND
 10
35.899
 20
91.77
 30
0.0
  0
VERTEX
  8
SURVBND
 10
35.873
 20
91.661
 30
0.0
  0
VERTEX
  8
SURVBND
 10
35.817
 20
91.45
 30
0.0
  0
VERTEX
  8
SURVBND
 10
35.703
 20
91.303
 30
0.0
  0
VERTEX
  8
SURVBND
 10
35.61
 20
91.105
 30
0.0
  0
VERTEX
  8
SURVBND
 10
35.256
 20
91.071
 30
0.0
  0
VERTEX
  8
SURVBND
 10
35.009
 20
91.051
 30
0.0
  0
VERTEX
  8
SURVBND
 10
34.765
 20
91.009
 30
0.0
  0
VERTEX
  8
SURVBND
 10
34.655
 20
90.848
 30
0.0
  0
VERTEX
  8
SURVBND
 10
34.577
 20
90.746
 30
0.0
  0
VERTEX
  8
SURVBND
 10
34.553
 20
90.616
 30
0.0
  0
VERTEX
  8
SURVBND
 10
34.507
 20
90.491
 30
0.0
  0
VERTEX
  8
SURVBND
 10
34.437
 20
90.469
 30
0.0
  0
VERTEX
  8
SURVBND
 10
34.315
 20
90.428
 30
0.0
  0
VERTEX
  8
SURVBND
 10
34.229
 20
90.418
 30
0.0
  0
VERTEX
  8
SURVBND
 10
34.149
 20
90.355
 30
0.0
  0
VERTEX
  8
SURVBND
 10
34.064
 20
90.249
 30
0.0
  0
VERTEX
  8
SURVBND
 10
34.071
 20
90.23
 30
0.0
  0
VERTEX
  8
SURVBND
 10
34.058
 20
90.228
 30
0.0
  0
VERTEX
  8
SURVBND
 10
34.013
 20
90.199
 30
0.0
  0
VERTEX
  8
SURVBND
 10
33.962
 20
90.164
 30
0.0
  0
VERTEX
  8
SURVBND
 10
33.923
 20
90.161
 30
0.0
  0
VERTEX
  8
SURVBND
 10
33.89
 20
90.138
 30
0.0
  0
VERTEX
  8
SURVBND
 10
33.822
 20
90.07
 30
0.0
  0
VERTEX
  8
SURVBND
 10
33.751
 20
89.994
 30
0.0
  0
VERTEX
  8
SURVBND
 10
33.723
 20
89.943
 30
0.0
  0
VERTEX
  8
SURVBND
 10
33.702
 20
89.891
 30
0.0
  0
VERTEX
  8
SURVBND
 10
33.694
 20
89.884
 30
0.0
  0
VERTEX
  8
SURVBND
 10
33.691
 20
89.877
 30
0.0
  0
VERTEX
  8
SURVBND
 10
33.643
 20
89.852
 30
0.0
  0
VERTEX
  8
SURVBND
 10
33.577
 20
89.765
 30
0.0
  0
VERTEX
  8
SURVBND
 10
33.474
 20
89.753
 30
0.0
  0
VERTEX
  8
SURVBND
 10
33.447
 20
89.664
 30
0.0
  0
VERTEX
  8
SURVBND
 10
33.393
 20
89.575
 30
0.0
  0
VERTEX
  8
SURVBND
 10
33.361
 20
89.553
 30
0.0
  0
VERTEX
  8
SURVBND
 10
33.315
 20
89.508
 30
0.0
  0
VERTEX
  8
SURVBND
 10
33.271
 20
89.463
 30
0.0
  0
VERTEX
  8
SURVBND
 10
33.246
 20
89.414
 30
0.0
  0
VERTEX
  8
SURVBND
 10
33.219
 20
89.362
 30
0.0
  0
VERTEX
  8
SURVBND
 10
33.175
 20
89.307
 30
0.0
  0
VERTEX
  8
SURVBND
 10
33.139
 20
89.25
 30
0.0
  0
VERTEX
  8
SURVBND
 10
33.095
 20
89.207
 30
0.0
  0
VERTEX
  8
SURVBND
 10
33.061
 20
89.168
 30
0.0
  0
VERTEX
  8
SURVBND
 10
33.02
 20
89.123
 30
0.0
  0
VERTEX
  8
SURVBND
 10
32.973
 20
89.077
 30
0.0
  0
VERTEX
  8
SURVBND
 10
32.92
 20
89.009
 30
0.0
  0
VERTEX
  8
SURVBND
 10
32.878
 20
88.956
 30
0.0
  0
VERTEX
  8
SURVBND
 10
32.836
 20
88.903
 30
0.0
  0
VERTEX
  8
SURVBND
 10
32.773
 20
88.84
 30
0.0
  0
VERTEX
  8
SURVBND
 10
32.729
 20
88.79
 30
0.0
  0
VERTEX
  8
SURVBND
 10
32.673
 20
88.739
 30
0.0
  0
VERTEX
  8
SURVBND
 10
32.593
 20
88.667
 30
0.0
  0
VERTEX
  8
SURVBND
 10
32.542
 20
88.622
 30
0.0
  0
VERTEX
  8
SURVBND
 10
32.5
 20
88.586
 30
0.0
  0
VERTEX
  8
SURVBND
 10
32.453
 20
88.56
 30
0.0
  0
VERTEX
  8
SURVBND
 10
32.376
 20
88.53
 30
0.0
  0
VERTEX
  8
SURVBND
 10
32.323
 20
88.513
 30
0.0
  0
VERTEX
  8
SURVBND
 10
32.308
 20
88.498
 30
0.0
  0
VERTEX
  8
SURVBND
 10
32.293
 20
88.497
 30
0.0
  0
VERTEX
  8
SURVBND
 10
32.288
 20
88.506
 30
0.0
  0
VERTEX
  8
SURVBND
 10
32.266
 20
88.528
 30
0.0
  0
VERTEX
  8
SURVBND
 10
32.248
 20
88.539
 30
0.0
  0
VERTEX
  8
SURVBND
 10
32.225
 20
88.526
 30
0.0
  0
VERTEX
  8
SURVBND
 10
32.196
 20
88.503
 30
0.0
  0
VERTEX
  8
SURVBND
 10
32.165
 20
88.481
 30
0.0
  0
VERTEX
  8
SURVBND
 10
32.146
 20
88.449
 30
0.0
  0
VERTEX
  8
SURVBND
 10
32.124
 20
88.425
 30
0.0
  0
VERTEX
  8
SURVBND
 10
32.099
 20
88.402
 30
0.0
  0
VERTEX
  8
SURVBND
 10
32.07
 20
88.38
 30
0.0
  0
VERTEX
  8
SURVBND
 10
32.048
 20
88.359
 30
0.0
  0
VERTEX
  8
SURVBND
 10
32.028
 20
88.328
 30
0.0
  0
VERTEX
  8
SURVBND
 10
32.004
 20
88.306
 30
0.0
  0
VERTEX
  8
SURVBND
 10
31.979
 20
88.288
 30
0.0
  0
VERTEX
  8
SURVBND
 10
31.945
 20
88.271
 30
0.0
  0
VERTEX
  8
SURVBND
 10
31.921
 20
88.258
 30
0.0
  0
VERTEX
  8
SURVBND
 10
31.893
 20
88.248
 30
0.0
  0
VERTEX
  8
SURVBND
 10
31.871
 20
88.244
 30
0.0
  0
VERTEX
  8
SURVBND
 10
31.835
 20
88.238
 30
0.0
  0
VERTEX
  8
SURVBND
 10
31.799
 20
88.236
 30
0.0
  0
VERTEX
  8
SURVBND
 10
31.774
 20
88.228
 30
0.0
  0
VERTEX
  8
SURVBND
 10
31.753
 20
88.216
 30
0.0
  0
VERTEX
  8
SURVBND
 10
31.733
 20
88.2
 30
0.0
  0
VERTEX
  8
SURVBND
 10
31.715
 20
88.177
 30
0.0
  0
VERTEX
  8
SURVBND
 10
31.697
 20
88.161
 30
0.0
  0
VERTEX
  8
SURVBND
 10
31.667
 20
88.141
 30
0.0
  0
VERTEX
  8
SURVBND
 10
31.639
 20
88.117
 30
0.0
  0
VERTEX
  8
SURVBND
 10
31.624
 20
88.106
 30
0.0
  0
VERTEX
  8
SURVBND
 10
31.604
 20
88.1
 30
0.0
  0
VERTEX
  8
SURVBND
 10
31.584
 20
88.096
 30
0.0
  0
VERTEX
  8
SURVBND
 10
31.565
 20
88.095
 30
0.0
  0
VERTEX
  8
SURVBND
 10
31.535
 20
88.104
 30
0.0
  0
VERTEX
  8
SURVBND
 10
31.51
 20
88.123
 30
0.0
  0
VERTEX
  8
SURVBND
 10
31.505
 20
88.151
 30
0.0
  0
VERTEX
  8
SURVBND
 10
31.513
 20
88.182
 30
0.0
  0
VERTEX
  8
SURVBND
 10
31.527
 20
88.211
 30
0.0
  0
VERTEX
  8
SURVBND
 10
31.533
 20
88.234
 30
0.0
  0
VERTEX
  8
SURVBND
 10
31.538
 20
88.27
 30
0.0
  0
VERTEX
  8
SURVBND
 10
31.553
 20
88.306
 30
0.0
  0
VERTEX
  8
SURVBND
 10
31.544
 20
88.351
 30
0.0
  0
VERTEX
  8
SURVBND
 10
31.533
 20
88.405
 30
0.0
  0
VERTEX
  8
SURVBND
 10
31.526
 20
88.435
 30
0.0
  0
VERTEX
  8
SURVBND
 10
31.522
 20
88.462
 30
0.0
  0
VERTEX
  8
SURVBND
 10
31.516
 20
88.496
 30
0.0
  0
VERTEX
  8
SURVBND
 10
31.494
 20
88.515
 30
0.0
  0
VERTEX
  8
SURVBND
 10
31.481
 20
88.526
 30
0.0
  0
VERTEX
  8
SURVBND
 10
31.467
 20
88.533
 30
0.0
  0
VERTEX
  8
SURVBND
 10
31.448
 20
88.55
 30
0.0
  0
VERTEX
  8
SURVBND
 10
31.43
 20
88.569
 30
0.0
  0
VERTEX
  8
SURVBND
 10
31.419
 20
88.595
 30
0.0
  0
VERTEX
  8
SURVBND
 10
31.403
 20
88.625
 30
0.0
  0
VERTEX
  8
SURVBND
 10
31.39
 20
88.651
 30
0.0
  0
VERTEX
  8
SURVBND
 10
31.376
 20
88.666
 30
0.0
  0
VERTEX
  8
SURVBND
 10
31.356
 20
88.669
 30
0.0
  0
VERTEX
  8
SURVBND
 10
31.339
 20
88.673
 30
0.0
  0
VERTEX
  8
SURVBND
 10
31.312
 20
88.681
 30
0.0
  0
VERTEX
  8
SURVBND
 10
31.289
 20
88.684
 30
0.0
  0
VERTEX
  8
SURVBND
 10
31.276
 20
88.688
 30
0.0
  0
VERTEX
  8
SURVBND
 10
31.262
 20
88.687
 30
0.0
  0
VERTEX
  8
SURVBND
 10
31.251
 20
88.69
 30
0.0
  0
VERTEX
  8
SURVBND
 10
31.234
 20
88.688
 30
0.0
  0
VERTEX
  8
SURVBND
 10
31.211
 20
88.691
 30
0.0
  0
VERTEX
  8
SURVBND
 10
31.19
 20
88.698
 30
0.0
  0
VERTEX
  8
SURVBND
 10
31.175
 20
88.707
 30
0.0
  0
VERTEX
  8
SURVBND
 10
31.156
 20
88.724
 30
0.0
  0
VERTEX
  8
SURVBND
 10
31.142
 20
88.744
 30
0.0
  0
VERTEX
  8
SURVBND
 10
31.13
 20
88.766
 30
0.0
  0
VERTEX
  8
SURVBND
 10
31.12
 20
88.79
 30
0.0
  0
VERTEX
  8
SURVBND
 10
31.12
 20
88.82
 30
0.0
  0
VERTEX
  8
SURVBND
 10
31.13
 20
88.839
 30
0.0
  0
VERTEX
  8
SURVBND
 10
31.142
 20
88.863
 30
0.0
  0
VERTEX
  8
SURVBND
 10
31.161
 20
88.888
 30
0.0
  0
VERTEX
  8
SURVBND
 10
31.195
 20
88.879
 30
0.0
  0
VERTEX
  8
SURVBND
 10
31.223
 20
88.87
 30
0.0
  0
VERTEX
  8
SURVBND
 10
31.225
 20
88.885
 30
0.0
  0
VERTEX
  8
SURVBND
 10
31.224
 20
88.911
 30
0.0
  0
VERTEX
  8
SURVBND
 10
31.221
 20
88.925
 30
0.0
  0
VERTEX
  8
SURVBND
 10
31.214
 20
88.945
 30
0.0
  0
VERTEX
  8
SURVBND
 10
31.205
 20
88.968
 30
0.0
  0
VERTEX
  8
SURVBND
 10
31.196
 20
88.995
 30
0.0
  0
VERTEX
  8
SURVBND
 10
31.188
 20
89.02
 30
0.0
  0
VERTEX
  8
SURVBND
 10
31.177
 20
89.035
 30
0.0
  0
VERTEX
  8
SURVBND
 10
31.159
 20
89.059
 30
0.0
  0
VERTEX
  8
SURVBND
 10
31.149
 20
89.072
 30
0.0
  0
VERTEX
  8
SURVBND
 10
31.14
 20
89.081
 30
0.0
  0
VERTEX
  8
SURVBND
 10
31.127
 20
89.092
 30
0.0
  0
VERTEX
  8
SURVBND
 10
31.108
 20
89.103
 30
0.0
  0
VERTEX
  8
SURVBND
 10
31.093
 20
89.111
 30
0.0
  0
VERTEX
  8
SURVBND
 10
31.086
 20
89.13
 30
0.0
  0
VERTEX
  8
SURVBND
 10
31.082
 20
89.14
 30
0.0
  0
VERTEX
  8
SURVBND
 10
31.082
 20
89.153
 30
0.0
  0
VERTEX
  8
SURVBND
 10
31.083
 20
89.169
 30
0.0
  0
VERTEX
  8
SURVBND
 10
31.079
 20
89.181
 30
0.0
  0
VERTEX
  8
SURVBND
 10
31.073
 20
89.19
 30
0.0
  0
VERTEX
  8
SURVBND
 10
31.064
 20
89.205
 30
0.0
  0
VERTEX
  8
SURVBND
 10
31.05
 20
89.215
 30
0.0
  0
VERTEX
  8
SURVBND
 10
31.029
 20
89.217
 30
0.0
  0
VERTEX
  8
SURVBND
 10
31.018
 20
89.218
 30
0.0
  0
VERTEX
  8
SURVBND
 10
31.007
 20
89.229
 30
0.0
  0
VERTEX
  8
SURVBND
 10
31.006
 20
89.249
 30
0.0
  0
VERTEX
  8
SURVBND
 10
31.008
 20
89.271
 30
0.0
  0
VERTEX
  8
SURVBND
 10
31.009
 20
89.299
 30
0.0
  0
VERTEX
  8
SURVBND
 10
31.009
 20
89.324
 30
0.0
  0
VERTEX
  8
SURVBND
 10
31.012
 20
89.347
 30
0.0
  0
VERTEX
  8
SURVBND
 10
31.012
 20
89.371
 30
0.0
  0
VERTEX
  8
SURVBND
 10
31.01
 20
89.387
 30
0.0
  0
VERTEX
  8
SURVBND
 10
30.985
 20
89.422
 30
0.0
  0
VERTEX
  8
SURVBND
 10
30.968
 20
89.439
 30
0.0
  0
VERTEX
  8
SURVBND
 10
30.953
 20
89.444
 30
0.0
  0
VERTEX
  8
SURVBND
 10
30.936
 20
89.444
 30
0.0
  0
VERTEX
  8
SURVBND
 10
30.921
 20
89.44
 30
0.0
  0
VERTEX
  8
SURVBND
 10
30.894
 20
89.428
 30
0.0
  0
VERTEX
  8
SURVBND
 10
30.872
 20
89.421
 30
0.0
  0
VERTEX
  8
SURVBND
 10
30.856
 20
89.418
 30
0.0
  0
VERTEX
  8
SURVBND
 10
30.83
 20
89.421
 30
0.0
  0
VERTEX
  8
SURVBND
 10
30.808
 20
89.435
 30
0.0
  0
VERTEX
  8
SURVBND
 10
30.781
 20
89.458
 30
0.0
  0
VERTEX
  8
SURVBND
 10
30.76
 20
89.481
 30
0.0
  0
VERTEX
  8
SURVBND
 10
30.736
 20
89.503
 30
0.0
  0
VERTEX
  8
SURVBND
 10
30.711
 20
89.526
 30
0.0
  0
VERTEX
  8
SURVBND
 10
30.694
 20
89.541
 30
0.0
  0
VERTEX
  8
SURVBND
 10
30.676
 20
89.558
 30
0.0
  0
VERTEX
  8
SURVBND
 10
30.672
 20
89.58
 30
0.0
  0
VERTEX
  8
SURVBND
 10
30.682
 20
89.592
 30
0.0
  0
VERTEX
  8
SURVBND
 10
30.705
 20
89.596
 30
0.0
  0
VERTEX
  8
SURVBND
 10
30.734
 20
89.597
 30
0.0
  0
VERTEX
  8
SURVBND
 10
30.757
 20
89.601
 30
0.0
  0
VERTEX
  8
SURVBND
 10
30.785
 20
89.613
 30
0.0
  0
VERTEX
  8
SURVBND
 10
30.798
 20
89.651
 30
0.0
  0
VERTEX
  8
SURVBND
 10
30.794
 20
89.69
 30
0.0
  0
VERTEX
  8
SURVBND
 10
30.793
 20
89.71
 30
0.0
  0
VERTEX
  8
SURVBND
 10
30.779
 20
89.741
 30
0.0
  0
VERTEX
  8
SURVBND
 10
30.795
 20
89.757
 30
0.0
  0
VERTEX
  8
SURVBND
 10
30.847
 20
89.759
 30
0.0
  0
VERTEX
  8
SURVBND
 10
30.863
 20
89.785
 30
0.0
  0
VERTEX
  8
SURVBND
 10
30.877
 20
89.822
 30
0.0
  0
VERTEX
  8
SURVBND
 10
30.874
 20
89.879
 30
0.0
  0
VERTEX
  8
SURVBND
 10
30.888
 20
89.901
 30
0.0
  0
VERTEX
  8
SURVBND
 10
30.892
 20
89.912
 30
0.0
  0
VERTEX
  8
SURVBND
 10
30.895
 20
89.944
 30
0.0
  0
VERTEX
  8
SURVBND
 10
30.891
 20
89.974
 30
0.0
  0
VERTEX
  8
SURVBND
 10
30.891
 20
89.998
 30
0.0
  0
VERTEX
  8
SURVBND
 10
30.89
 20
90.024
 30
0.0
  0
VERTEX
  8
SURVBND
 10
30.897
 20
90.054
 30
0.0
  0
VERTEX
  8
SURVBND
 10
30.903
 20
90.075
 30
0.0
  0
VERTEX
  8
SURVBND
 10
30.92
 20
90.103
 30
0.0
  0
VERTEX
  8
SURVBND
 10
30.932
 20
90.122
 30
0.0
  0
VERTEX
  8
SURVBND
 10
30.948
 20
90.15
 30
0.0
  0
VERTEX
  8
SURVBND
 10
30.958
 20
90.164
 30
0.0
  0
VERTEX
  8
SURVBND
 10
30.971
 20
90.182
 30
0.0
  0
VERTEX
  8
SURVBND
 10
30.988
 20
90.206
 30
0.0
  0
VERTEX
  8
SURVBND
 10
30.998
 20
90.222
 30
0.0
  0
VERTEX
  8
SURVBND
 10
31.012
 20
90.245
 30
0.0
  0
VERTEX
  8
SURVBND
 10
31.022
 20
90.259
 30
0.0
  0
VERTEX
  8
SURVBND
 10
31.035
 20
90.276
 30
0.0
  0
VERTEX
  8
SURVBND
 10
31.046
 20
90.294
 30
0.0
  0
VERTEX
  8
SURVBND
 10
31.061
 20
90.315
 30
0.0
  0
VERTEX
  8
SURVBND
 10
31.075
 20
90.335
 30
0.0
  0
VERTEX
  8
SURVBND
 10
31.088
 20
90.351
 30
0.0
  0
VERTEX
  8
SURVBND
 10
31.116
 20
90.382
 30
0.0
  0
VERTEX
  8
SURVBND
 10
31.14
 20
90.408
 30
0.0
  0
VERTEX
  8
SURVBND
 10
31.157
 20
90.427
 30
0.0
  0
VERTEX
  8
SURVBND
 10
31.188
 20
90.462
 30
0.0
  0
VERTEX
  8
SURVBND
 10
31.213
 20
90.495
 30
0.0
  0
VERTEX
  8
SURVBND
 10
31.247
 20
90.536
 30
0.0
  0
VERTEX
  8
SURVBND
 10
31.287
 20
90.581
 30
0.0
  0
VERTEX
  8
SURVBND
 10
31.322
 20
90.63
 30
0.0
  0
VERTEX
  8
SURVBND
 10
31.358
 20
90.672
 30
0.0
  0
VERTEX
  8
SURVBND
 10
31.399
 20
90.715
 30
0.0
  0
VERTEX
  8
SURVBND
 10
31.489
 20
90.855
 30
0.0
  0
VERTEX
  8
SURVBND
 10
31.534
 20
90.923
 30
0.0
  0
VERTEX
  8
SURVBND
 10
31.574
 20
90.967
 30
0.0
  0
VERTEX
  8
SURVBND
 10
31.598
 20
90.994
 30
0.0
  0
VERTEX
  8
SURVBND
 10
31.641
 20
91.072
 30
0.0
  0
VERTEX
  8
SURVBND
 10
31.666
 20
91.116
 30
0.0
  0
VERTEX
  8
SURVBND
 10
31.691
 20
91.158
 30
0.0
  0
VERTEX
  8
SURVBND
 10
31.722
 20
91.191
 30
0.0
  0
VERTEX
  8
SURVBND
 10
31.746
 20
91.224
 30
0.0
  0
VERTEX
  8
SURVBND
 10
31.783
 20
91.27
 30
0.0
  0
VERTEX
  8
SURVBND
 10
31.796
 20
91.282
 30
0.0
  0
VERTEX
  8
SURVBND
 10
31.821
 20
91.304
 30
0.0
  0
VERTEX
  8
SURVBND
 10
31.82
 20
91.351
 30
0.0
  0
VERTEX
  8
SURVBND
 10
31.796
 20
91.407
 30
0.0
  0
VERTEX
  8
SURVBND
 10
31.786
 20
91.43
 30
0.0
  0
VERTEX
  8
SURVBND
 10
31.719
 20
91.513
 30
0.0
  0
VERTEX
  8
SURVBND
 10
31.668
 20
91.583
 30
0.0
  0
VERTEX
  8
SURVBND
 10
31.643
 20
91.623
 30
0.0
  0
VERTEX
  8
SURVBND
 10
31.624
 20
91.635
 30
0.0
  0
VERTEX
  8
SURVBND
 10
31.609
 20
91.644
 30
0.0
  0
VERTEX
  8
SURVBND
 10
31.573
 20
91.663
 30
0.0
  0
VERTEX
  8
SURVBND
 10
31.53
 20
91.659
 30
0.0
  0
VERTEX
  8
SURVBND
 10
31.537
 20
91.614
 30
0.0
  0
VERTEX
  8
SURVBND
 10
31.538
 20
91.6
 30
0.0
  0
VERTEX
  8
SURVBND
 10
31.513
 20
91.584
 30
0.0
  0
VERTEX
  8
SURVBND
 10
31.457
 20
91.581
 30
0.0
  0
VERTEX
  8
SURVBND
 10
31.4
 20
91.579
 30
0.0
  0
VERTEX
  8
SURVBND
 10
31.358
 20
91.583
 30
0.0
  0
VERTEX
  8
SURVBND
 10
31.307
 20
91.569
 30
0.0
  0
VERTEX
  8
SURVBND
 10
31.246
 20
91.551
 30
0.0
  0
VERTEX
  8
SURVBND
 10
31.19
 20
91.515
 30
0.0
  0
VERTEX
  8
SURVBND
 10
31.148
 20
91.502
 30
0.0
  0
VERTEX
  8
SURVBND
 10
31.097
 20
91.518
 30
0.0
  0
VERTEX
  8
SURVBND
 10
31.076
 20
91.524
 30
0.0
  0
VERTEX
  8
SURVBND
 10
31.032
 20
91.538
 30
0.0
  0
VERTEX
  8
SURVBND
 10
30.97
 20
91.557
 30
0.0
  0
VERTEX
  8
SURVBND
 10
30.926
 20
91.58
 30
0.0
  0
VERTEX
  8
SURVBND
 10
30.883
 20
91.597
 30
0.0
  0
VERTEX
  8
SURVBND
 10
30.84
 20
91.608
 30
0.0
  0
VERTEX
  8
SURVBND
 10
30.794
 20
91.623
 30
0.0
  0
VERTEX
  8
SURVBND
 10
30.746
 20
91.639
 30
0.0
  0
VERTEX
  8
SURVBND
 10
30.702
 20
91.645
 30
0.0
  0
VERTEX
  8
SURVBND
 10
30.658
 20
91.633
 30
0.0
  0
VERTEX
  8
SURVBND
 10
30.638
 20
91.632
 30
0.0
  0
VERTEX
  8
SURVBND
 10
30.579
 20
91.63
 30
0.0
  0
VERTEX
  8
SURVBND
 10
30.539
 20
91.635
 30
0.0
  0
VERTEX
  8
SURVBND
 10
30.484
 20
91.629
 30
0.0
  0
VERTEX
  8
SURVBND
 10
30.444
 20
91.63
 30
0.0
  0
VERTEX
  8
SURVBND
 10
30.401
 20
91.693
 30
0.0
  0
VERTEX
  8
SURVBND
 10
30.353
 20
91.756
 30
0.0
  0
VERTEX
  8
SURVBND
 10
30.299
 20
91.819
 30
0.0
  0
VERTEX
  8
SURVBND
 10
30.239
 20
91.874
 30
0.0
  0
VERTEX
  8
SURVBND
 10
30.198
 20
91.925
 30
0.0
  0
VERTEX
  8
SURVBND
 10
30.153
 20
91.97
 30
0.0
  0
VERTEX
  8
SURVBND
 10
30.048
 20
92.075
 30
0.0
  0
VERTEX
  8
SURVBND
 10
30.012
 20
92.069
 30
0.0
  0
VERTEX
  8
SURVBND
 10
29.967
 20
92.119
 30
0.0
  0
VERTEX
  8
SURVBND
 10
29.914
 20
92.193
 30
0.0
  0
VERTEX
  8
SURVBND
 10
29.859
 20
92.253
 30
0.0
  0
VERTEX
  8
SURVBND
 10
29.807
 20
92.253
 30
0.0
  0
VERTEX
  8
SURVBND
 10
29.766
 20
92.217
 30
0.0
  0
VERTEX
  8
SURVBND
 10
29.759
 20
92.205
 30
0.0
  0
VERTEX
  8
SURVBND
 10
29.732
 20
92.159
 30
0.0
  0
VERTEX
  8
SURVBND
 10
29.685
 20
92.089
 30
0.0
  0
VERTEX
  8
SURVBND
 10
29.645
 20
92.019
 30
0.0
  0
VERTEX
  8
SURVBND
 10
29.646
 20
91.963
 30
0.0
  0
VERTEX
  8
SURVBND
 10
29.641
 20
91.877
 30
0.0
  0
VERTEX
  8
SURVBND
 10
29.638
 20
91.809
 30
0.0
  0
VERTEX
  8
SURVBND
 10
29.644
 20
91.792
 30
0.0
  0
VERTEX
  8
SURVBND
 10
29.66
 20
91.747
 30
0.0
  0
VERTEX
  8
SURVBND
 10
29.668
 20
91.712
 30
0.0
  0
VERTEX
  8
SURVBND
 10
29.664
 20
91.674
 30
0.0
  0
VERTEX
  8
SURVBND
 10
29.652
 20
91.642
 30
0.0
  0
VERTEX
  8
SURVBND
 10
29.636
 20
91.609
 30
0.0
  0
VERTEX
  8
SURVBND
 10
29.617
 20
91.594
 30
0.0
  0
VERTEX
  8
SURVBND
 10
29.549
 20
91.562
 30
0.0
  0
VERTEX
  8
SURVBND
 10
29.498
 20
91.527
 30
0.0
  0
VERTEX
  8
SURVBND
 10
29.475
 20
91.503
 30
0.0
  0
VERTEX
  8
SURVBND
 10
29.427
 20
91.472
 30
0.0
  0
VERTEX
  8
SURVBND
 10
29.397
 20
91.458
 30
0.0
  0
VERTEX
  8
SURVBND
 10
29.346
 20
91.436
 30
0.0
  0
VERTEX
  8
SURVBND
 10
29.285
 20
91.411
 30
0.0
  0
VERTEX
  8
SURVBND
 10
29.237
 20
91.4
 30
0.0
  0
VERTEX
  8
SURVBND
 10
29.191
 20
91.388
 30
0.0
  0
VERTEX
  8
SURVBND
 10
29.143
 20
91.392
 30
0.0
  0
VERTEX
  8
SURVBND
 10
29.114
 20
91.425
 30
0.0
  0
VERTEX
  8
SURVBND
 10
29.074
 20
91.466
 30
0.0
  0
VERTEX
  8
SURVBND
 10
29.047
 20
91.501
 30
0.0
  0
VERTEX
  8
SURVBND
 10
29.027
 20
91.538
 30
0.0
  0
VERTEX
  8
SURVBND
 10
28.998
 20
91.583
 30
0.0
  0
VERTEX
  8
SURVBND
 10
28.954
 20
91.644
 30
0.0
  0
VERTEX
  8
SURVBND
 10
28.927
 20
91.688
 30
0.0
  0
VERTEX
  8
SURVBND
 10
28.903
 20
91.728
 30
0.0
  0
VERTEX
  8
SURVBND
 10
28.884
 20
91.763
 30
0.0
  0
VERTEX
  8
SURVBND
 10
28.866
 20
91.792
 30
0.0
  0
VERTEX
  8
SURVBND
 10
28.855
 20
91.81
 30
0.0
  0
VERTEX
  8
SURVBND
 10
28.824
 20
91.863
 30
0.0
  0
VERTEX
  8
SURVBND
 10
28.804
 20
91.9
 30
0.0
  0
VERTEX
  8
SURVBND
 10
28.781
 20
91.945
 30
0.0
  0
VERTEX
  8
SURVBND
 10
28.764
 20
91.983
 30
0.0
  0
VERTEX
  8
SURVBND
 10
28.766
 20
92.016
 30
0.0
  0
VERTEX
  8
SURVBND
 10
28.769
 20
92.035
 30
0.0
  0
VERTEX
  8
SURVBND
 10
28.773
 20
92.089
 30
0.0
  0
VERTEX
  8
SURVBND
 10
28.782
 20
92.162
 30
0.0
  0
VERTEX
  8
SURVBND
 10
28.793
 20
92.223
 30
0.0
  0
VERTEX
  8
SURVBND
 10
28.8
 20
92.273
 30
0.0
  0
VERTEX
  8
SURVBND
 10
28.8
 20
92.303
 30
0.0
  0
VERTEX
  8
SURVBND
 10
28.791
 20
92.343
 30
0.0
  0
VERTEX
  8
SURVBND
 10
28.78
 20
92.368
 30
0.0
  0
VERTEX
  8
SURVBND
 10
28.77
 20
92.409
 30
0.0
  0
VERTEX
  8
SURVBND
 10
28.764
 20
92.46
 30
0.0
  0
VERTEX
  8
SURVBND
 10
28.744
 20
92.509
 30
0.0
  0
VERTEX
  8
SURVBND
 10
28.72
 20
92.57
 30
0.0
  0
VERTEX
  8
SURVBND
 10
28.712
 20
92.594
 30
0.0
  0
VERTEX
  8
SURVBND
 10
28.704
 20
92.619
 30
0.0
  0
VERTEX
  8
SURVBND
 10
28.672
 20
92.679
 30
0.0
  0
VERTEX
  8
SURVBND
 10
28.657
 20
92.715
 30
0.0
  0
VERTEX
  8
SURVBND
 10
28.622
 20
92.75
 30
0.0
  0
VERTEX
  8
SURVBND
 10
28.587
 20
92.79
 30
0.0
  0
VERTEX
  8
SURVBND
 10
28.553
 20
92.831
 30
0.0
  0
VERTEX
  8
SURVBND
 10
28.547
 20
92.841
 30
0.0
  0
VERTEX
  8
SURVBND
 10
28.547
 20
92.906
 30
0.0
  0
VERTEX
  8
SURVBND
 10
28.474
 20
92.954
 30
0.0
  0
VERTEX
  8
SURVBND
 10
28.137
 20
93.087
 30
0.0
  0
VERTEX
  8
SURVBND
 10
28.014
 20
93.152
 30
0.0
  0
VERTEX
  8
SURVBND
 10
28.0
 20
93.208
 30
0.0
  0
VERTEX
  8
SURVBND
 10
27.957
 20
93.341
 30
0.0
  0
VERTEX
  8
SURVBND
 10
27.977
 20
93.459
 30
0.0
  0
VERTEX
  8
SURVBND
 10
27.972
 20
93.559
 30
0.0
  0
VERTEX
  8
SURVBND
 10
27.922
 20
93.666
 30
0.0
  0
VERTEX
  8
SURVBND
 10
27.832
 20
93.675
 30
0.0
  0
VERTEX
  8
SURVBND
 10
27.744
 20
93.712
 30
0.0
  0
VERTEX
  8
SURVBND
 10
27.638
 20
93.759
 30
0.0
  0
VERTEX
  8
SURVBND
 10
27.58
 20
93.831
 30
0.0
  0
VERTEX
  8
SURVBND
 10
27.46
 20
93.872
 30
0.0
  0
VERTEX
  8
SURVBND
 10
27.399
 20
93.875
 30
0.0
  0
VERTEX
  8
SURVBND
 10
27.308
 20
93.899
 30
0.0
  0
VERTEX
  8
SURVBND
 10
27.258
 20
93.923
 30
0.0
  0
VERTEX
  8
SURVBND
 10
27.197
 20
93.945
 30
0.0
  0
VERTEX
  8
SURVBND
 10
27.123
 20
93.954
 30
0.0
  0
VERTEX
  8
SURVBND
 10
27.075
 20
93.964
 30
0.0
  0
VERTEX
  8
SURVBND
 10
27.027
 20
93.975
 30
0.0
  0
VERTEX
  8
SURVBND
 10
26.971
 20
93.993
 30
0.0
  0
VERTEX
  8
SURVBND
 10
26.926
 20
94.0
 30
0.0
  0
VERTEX
  8
SURVBND
 10
26.88
 20
94.006
 30
0.0
  0
VERTEX
  8
SURVBND
 10
26.815
 20
94.018
 30
0.0
  0
VERTEX
  8
SURVBND
 10
26.77
 20
94.021
 30
0.0
  0
VERTEX
  8
SURVBND
 10
26.718
 20
94.039
 30
0.0
  0
VERTEX
  8
SURVBND
 10
26.643
 20
94.023
 30
0.0
  0
VERTEX
  8
SURVBND
 10
26.594
 20
94.002
 30
0.0
  0
VERTEX
  8
SURVBND
 10
26.54
 20
93.971
 30
0.0
  0
VERTEX
  8
SURVBND
 10
26.485
 20
93.935
 30
0.0
  0
VERTEX
  8
SURVBND
 10
26.428
 20
93.905
 30
0.0
  0
VERTEX
  8
SURVBND
 10
26.344
 20
93.866
 30
0.0
  0
VERTEX
  8
SURVBND
 10
26.262
 20
93.847
 30
0.0
  0
VERTEX
  8
SURVBND
 10
26.21
 20
93.906
 30
0.0
  0
VERTEX
  8
SURVBND
 10
26.173
 20
93.995
 30
0.0
  0
VERTEX
  8
SURVBND
 10
26.136
 20
94.07
 30
0.0
  0
VERTEX
  8
SURVBND
 10
26.104
 20
94.141
 30
0.0
  0
VERTEX
  8
SURVBND
 10
26.08
 20
94.259
 30
0.0
  0
VERTEX
  8
SURVBND
 10
26.086
 20
94.359
 30
0.0
  0
VERTEX
  8
SURVBND
 10
26.111
 20
94.449
 30
0.0
  0
VERTEX
  8
SURVBND
 10
26.146
 20
94.54
 30
0.0
  0
VERTEX
  8
SURVBND
 10
26.177
 20
94.639
 30
0.0
  0
VERTEX
  8
SURVBND
 10
26.156
 20
94.822
 30
0.0
  0
VERTEX
  8
SURVBND
 10
26.146
 20
94.863
 30
0.0
  0
VERTEX
  8
SURVBND
 10
26.036
 20
94.94
 30
0.0
  0
VERTEX
  8
SURVBND
 10
25.973
 20
94.997
 30
0.0
  0
VERTEX
  8
SURVBND
 10
25.918
 20
95.09
 30
0.0
  0
VERTEX
  8
SURVBND
 10
25.888
 20
95.17
 30
0.0
  0
VERTEX
  8
SURVBND
 10
25.905
 20
95.204
 30
0.0
  0
VERTEX
  8
SURVBND
 10
25.9
 20
95.253
 30
0.0
  0
VERTEX
  8
SURVBND
 10
25.893
 20
95.336
 30
0.0
  0
VERTEX
  8
SURVBND
 10
25.876
 20
95.433
 30
0.0
  0
VERTEX
  8
SURVBND
 10
25.883
 20
95.519
 30
0.0
  0
VERTEX
  8
SURVBND
 10
25.863
 20
95.552
 30
0.0
  0
VERTEX
  8
SURVBND
 10
25.828
 20
95.6
 30
0.0
  0
VERTEX
  8
SURVBND
 10
25.803
 20
95.676
 30
0.0
  0
VERTEX
  8
SURVBND
 10
25.758
 20
95.754
 30
0.0
  0
VERTEX
  8
SURVBND
 10
25.714
 20
95.807
 30
0.0
  0
VERTEX
  8
SURVBND
 10
25.631
 20
95.824
 30
0.0
  0
VERTEX
  8
SURVBND
 10
25.546
 20
95.836
 30
0.0
  0
VERTEX
  8
SURVBND
 10
25.463
 20
95.833
 30
0.0
  0
VERTEX
  8
SURVBND
 10
25.387
 20
95.822
 30
0.0
  0
VERTEX
  8
SURVBND
 10
25.303
 20
95.81
 30
0.0
  0
VERTEX
  8
SURVBND
 10
25.243
 20
95.855
 30
0.0
  0
VERTEX
  8
SURVBND
 10
25.156
 20
95.91
 30
0.0
  0
VERTEX
  8
SURVBND
 10
25.068
 20
95.984
 30
0.0
  0
VERTEX
  8
SURVBND
 10
25.074
 20
95.993
 30
0.0
  0
VERTEX
  8
SURVBND
 10
24.999
 20
96.049
 30
0.0
  0
VERTEX
  8
SURVBND
 10
24.944
 20
96.136
 30
0.0
  0
VERTEX
  8
SURVBND
 10
24.808
 20
96.077
 30
0.0
  0
VERTEX
  8
SURVBND
 10
24.739
 20
96.103
 30
0.0
  0
VERTEX
  8
SURVBND
 10
24.625
 20
96.142
 30
0.0
  0
VERTEX
  8
SURVBND
 10
24.531
 20
96.18
 30
0.0
  0
VERTEX
  8
SURVBND
 10
24.449
 20
96.197
 30
0.0
  0
VERTEX
  8
SURVBND
 10
24.365
 20
96.205
 30
0.0
  0
VERTEX
  8
SURVBND
 10
24.286
 20
96.196
 30
0.0
  0
VERTEX
  8
SURVBND
 10
24.204
 20
96.195
 30
0.0
  0
VERTEX
  8
SURVBND
 10
24.106
 20
96.187
 30
0.0
  0
VERTEX
  8
SURVBND
 10
24.026
 20
96.172
 30
0.0
  0
VERTEX
  8
SURVBND
 10
23.934
 20
96.19
 30
0.0
  0
VERTEX
  8
SURVBND
 10
23.819
 20
96.217
 30
0.0
  0
VERTEX
  8
SURVBND
 10
23.712
 20
96.259
 30
0.0
  0
VERTEX
  8
SURVBND
 10
23.634
 20
96.321
 30
0.0
  0
VERTEX
  8
SURVBND
 10
23.567
 20
96.402
 30
0.0
  0
VERTEX
  8
SURVBND
 10
23.607
 20
96.441
 30
0.0
  0
VERTEX
  8
SURVBND
 10
23.645
 20
96.491
 30
0.0
  0
VERTEX
  8
SURVBND
 10
23.698
 20
96.539
 30
0.0
  0
VERTEX
  8
SURVBND
 10
23.792
 20
96.614
 30
0.0
  0
VERTEX
  8
SURVBND
 10
23.896
 20
96.7
 30
0.0
  0
VERTEX
  8
SURVBND
 10
23.965
 20
96.781
 30
0.0
  0
VERTEX
  8
SURVBND
 10
24.053
 20
96.79
 30
0.0
  0
VERTEX
  8
SURVBND
 10
24.068
 20
96.792
 30
0.0
  0
VERTEX
  8
SURVBND
 10
24.079
 20
96.807
 30
0.0
  0
VERTEX
  8
SURVBND
 10
24.053
 20
96.852
 30
0.0
  0
VERTEX
  8
SURVBND
 10
24.013
 20
96.888
 30
0.0
  0
VERTEX
  8
SURVBND
 10
24.011
 20
96.891
 30
0.0
  0
VERTEX
  8
SURVBND
 10
24.017
 20
96.94
 30
0.0
  0
VERTEX
  8
SURVBND
 10
24.033
 20
96.972
 30
0.0
  0
VERTEX
  8
SURVBND
 10
24.093
 20
97.031
 30
0.0
  0
VERTEX
  8
SURVBND
 10
24.127
 20
97.075
 30
0.0
  0
VERTEX
  8
SURVBND
 10
24.146
 20
97.121
 30
0.0
  0
VERTEX
  8
SURVBND
 10
24.114
 20
97.191
 30
0.0
  0
VERTEX
  8
SURVBND
 10
24.125
 20
97.226
 30
0.0
  0
VERTEX
  8
SURVBND
 10
24.197
 20
97.272
 30
0.0
  0
VERTEX
  8
SURVBND
 10
24.229
 20
97.307
 30
0.0
  0
VERTEX
  8
SURVBND
 10
24.249
 20
97.359
 30
0.0
  0
VERTEX
  8
SURVBND
 10
24.243
 20
97.413
 30
0.0
  0
VERTEX
  8
SURVBND
 10
24.233
 20
97.458
 30
0.0
  0
VERTEX
  8
SURVBND
 10
24.185
 20
97.491
 30
0.0
  0
VERTEX
  8
SURVBND
 10
24.149
 20
97.514
 30
0.0
  0
VERTEX
  8
SURVBND
 10
24.107
 20
97.524
 30
0.0
  0
VERTEX
  8
SURVBND
 10
24.092
 20
97.532
 30
0.0
  0
VERTEX
  8
SURVBND
 10
24.103
 20
97.551
 30
0.0
  0
VERTEX
  8
SURVBND
 10
24.12
 20
97.572
 30
0.0
  0
VERTEX
  8
SURVBND
 10
24.143
 20
97.605
 30
0.0
  0
VERTEX
  8
SURVBND
 10
24.16
 20
97.626
 30
0.0
  0
VERTEX
  8
SURVBND
 10
24.184
 20
97.654
 30
0.0
  0
VERTEX
  8
SURVBND
 10
24.203
 20
97.673
 30
0.0
  0
VERTEX
  8
SURVBND
 10
24.223
 20
97.694
 30
0.0
  0
VERTEX
  8
SURVBND
 10
24.257
 20
97.723
 30
0.0
  0
VERTEX
  8
SURVBND
 10
24.292
 20
97.741
 30
0.0
  0
VERTEX
  8
SURVBND
 10
24.383
 20
97.828
 30
0.0
  0
VERTEX
  8
SURVBND
 10
24.469
 20
97.923
 30
0.0
  0
VERTEX
  8
SURVBND
 10
24.506
 20
97.966
 30
0.0
  0
VERTEX
  8
SURVBND
 10
24.54
 20
98.019
 30
0.0
  0
VERTEX
  8
SURVBND
 10
24.574
 20
98.053
 30
0.0
  0
VERTEX
  8
SURVBND
 10
24.606
 20
98.076
 30
0.0
  0
VERTEX
  8
SURVBND
 10
24.626
 20
98.115
 30
0.0
  0
VERTEX
  8
SURVBND
 10
24.632
 20
98.154
 30
0.0
  0
VERTEX
  8
SURVBND
 10
24.649
 20
98.19
 30
0.0
  0
VERTEX
  8
SURVBND
 10
24.657
 20
98.223
 30
0.0
  0
VERTEX
  8
SURVBND
 10
24.655
 20
98.264
 30
0.0
  0
VERTEX
  8
SURVBND
 10
24.667
 20
98.282
 30
0.0
  0
VERTEX
  8
SURVBND
 10
24.669
 20
98.313
 30
0.0
  0
VERTEX
  8
SURVBND
 10
24.676
 20
98.364
 30
0.0
  0
VERTEX
  8
SURVBND
 10
24.689
 20
98.411
 30
0.0
  0
VERTEX
  8
SURVBND
 10
24.697
 20
98.431
 30
0.0
  0
VERTEX
  8
SURVBND
 10
24.693
 20
98.461
 30
0.0
  0
VERTEX
  8
SURVBND
 10
24.705
 20
98.484
 30
0.0
  0
VERTEX
  8
SURVBND
 10
24.715
 20
98.509
 30
0.0
  0
VERTEX
  8
SURVBND
 10
24.726
 20
98.534
 30
0.0
  0
VERTEX
  8
SURVBND
 10
24.737
 20
98.567
 30
0.0
  0
VERTEX
  8
SURVBND
 10
24.741
 20
98.604
 30
0.0
  0
VERTEX
  8
SURVBND
 10
24.744
 20
98.63
 30
0.0
  0
VERTEX
  8
SURVBND
 10
24.755
 20
98.666
 30
0.0
  0
VERTEX
  8
SURVBND
 10
24.765
 20
98.698
 30
0.0
  0
VERTEX
  8
SURVBND
 10
24.774
 20
98.733
 30
0.0
  0
VERTEX
  8
SURVBND
 10
24.771
 20
98.774
 30
0.0
  0
VERTEX
  8
SURVBND
 10
24.783
 20
98.819
 30
0.0
  0
VERTEX
  8
SURVBND
 10
24.8
 20
98.872
 30
0.0
  0
VERTEX
  8
SURVBND
 10
24.896
 20
98.945
 30
0.0
  0
VERTEX
  8
SURVBND
 10
25.049
 20
99.055
 30
0.0
  0
VERTEX
  8
SURVBND
 10
25.066
 20
99.082
 30
0.0
  0
VERTEX
  8
SURVBND
 10
25.068
 20
99.081
 30
0.0
  0
VERTEX
  8
SURVBND
 10
25.113
 20
99.116
 30
0.0
  0
VERTEX
  8
SURVBND
 10
25.164
 20
99.154
 30
0.0
  0
VERTEX
  8
SURVBND
 10
25.196
 20
99.177
 30
0.0
  0
VERTEX
  8
SURVBND
 10
25.232
 20
99.211
 30
0.0
  0
VERTEX
  8
SURVBND
 10
25.261
 20
99.216
 30
0.0
  0
VERTEX
  8
SURVBND
 10
25.307
 20
99.222
 30
0.0
  0
VERTEX
  8
SURVBND
 10
25.399
 20
99.237
 30
0.0
  0
VERTEX
  8
SURVBND
 10
25.451
 20
99.262
 30
0.0
  0
VERTEX
  8
SURVBND
 10
25.53
 20
99.285
 30
0.0
  0
VERTEX
  8
SURVBND
 10
25.596
 20
99.319
 30
0.0
  0
VERTEX
  8
SURVBND
 10
25.657
 20
99.348
 30
0.0
  0
VERTEX
  8
SURVBND
 10
25.714
 20
99.375
 30
0.0
  0
VERTEX
  8
SURVBND
 10
25.765
 20
99.388
 30
0.0
  0
VERTEX
  8
SURVBND
 10
25.806
 20
99.412
 30
0.0
  0
VERTEX
  8
SURVBND
 10
25.852
 20
99.422
 30
0.0
  0
VERTEX
  8
SURVBND
 10
25.898
 20
99.44
 30
0.0
  0
VERTEX
  8
SURVBND
 10
25.925
 20
99.455
 30
0.0
  0
VERTEX
  8
SURVBND
 10
25.967
 20
99.455
 30
0.0
  0
VERTEX
  8
SURVBND
 10
26.042
 20
99.467
 30
0.0
  0
VERTEX
  8
SURVBND
 10
26.084
 20
99.466
 30
0.0
  0
VERTEX
  8
SURVBND
 10
26.134
 20
99.469
 30
0.0
  0
VERTEX
  8
SURVBND
 10
26.178
 20
99.481
 30
0.0
  0
VERTEX
  8
SURVBND
 10
26.219
 20
99.504
 30
0.0
  0
VERTEX
  8
SURVBND
 10
26.262
 20
99.529
 30
0.0
  0
VERTEX
  8
SURVBND
 10
26.302
 20
99.553
 30
0.0
  0
VERTEX
  8
SURVBND
 10
26.339
 20
99.581
 30
0.0
  0
VERTEX
  8
SURVBND
 10
26.376
 20
99.607
 30
0.0
  0
VERTEX
  8
SURVBND
 10
26.414
 20
99.634
 30
0.0
  0
VERTEX
  8
SURVBND
 10
26.443
 20
99.652
 30
0.0
  0
VERTEX
  8
SURVBND
 10
26.484
 20
99.683
 30
0.0
  0
VERTEX
  8
SURVBND
 10
26.514
 20
99.707
 30
0.0
  0
VERTEX
  8
SURVBND
 10
26.536
 20
99.732
 30
0.0
  0
VERTEX
  8
SURVBND
 10
26.561
 20
99.757
 30
0.0
  0
VERTEX
  8
SURVBND
 10
26.582
 20
99.784
 30
0.0
  0
VERTEX
  8
SURVBND
 10
26.613
 20
99.809
 30
0.0
  0
VERTEX
  8
SURVBND
 10
26.626
 20
99.831
 30
0.0
  0
VERTEX
  8
SURVBND
 10
26.656
 20
99.876
 30
0.0
  0
VERTEX
  8
SURVBND
 10
26.692
 20
99.89
 30
0.0
  0
VERTEX
  8
SURVBND
 10
30.094
 20
102.301
 30
0.0
  0
VERTEX
  8
SURVBND
 10
30.1
 20
102.326
 30
0.0
  0
VERTEX
  8
SURVBND
 10
30.3
 20
102.47
 30
0.0
  0
VERTEX
  8
SURVBND
 10
30.467
 20
102.582
 30
0.0
  0
VERTEX
  8
SURVBND
 10
30.654
 20
102.703
 30
0.0
  0
VERTEX
  8
SURVBND
 10
30.79
 20
102.789
 30
0.0
  0
VERTEX
  8
SURVBND
 10
30.953
 20
102.886
 30
0.0
  0
VERTEX
  8
SURVBND
 10
31.035
 20
102.946
 30
0.0
  0
VERTEX
  8
SURVBND
 10
31.077
 20
102.948
 30
0.0
  0
VERTEX
  8
SURVBND
 10
31.098
 20
102.981
 30
0.0
  0
VERTEX
  8
SURVBND
 10
30.841
 20
103.293
 30
0.0
  0
VERTEX
  8
SURVBND
 10
31.375
 20
103.602
 30
0.0
  0
VERTEX
  8
SURVBND
 10
31.813
 20
103.864
 30
0.0
  0
VERTEX
  8
SURVBND
 10
31.804
 20
103.819
 30
0.0
  0
VERTEX
  8
SURVBND
 10
31.793
 20
103.738
 30
0.0
  0
VERTEX
  8
SURVBND
 10
31.779
 20
103.677
 30
0.0
  0
VERTEX
  8
SURVBND
 10
31.769
 20
103.624
 30
0.0
  0
VERTEX
  8
SURVBND
 10
31.754
 20
103.583
 30
0.0
  0
VERTEX
  8
SURVBND
 10
31.76
 20
103.55
 30
0.0
  0
VERTEX
  8
SURVBND
 10
31.76
 20
103.527
 30
0.0
  0
VERTEX
  8
SURVBND
 10
31.744
 20
103.481
 30
0.0
  0
VERTEX
  8
SURVBND
 10
31.737
 20
103.444
 30
0.0
  0
VERTEX
  8
SURVBND
 10
31.73
 20
103.414
 30
0.0
  0
VERTEX
  8
SURVBND
 10
31.717
 20
103.389
 30
0.0
  0
VERTEX
  8
SURVBND
 10
31.719
 20
103.365
 30
0.0
  0
VERTEX
  8
SURVBND
 10
31.734
 20
103.319
 30
0.0
  0
VERTEX
  8
SURVBND
 10
31.762
 20
103.278
 30
0.0
  0
VERTEX
  8
SURVBND
 10
31.791
 20
103.248
 30
0.0
  0
VERTEX
  8
SURVBND
 10
31.815
 20
103.206
 30
0.0
  0
VERTEX
  8
SURVBND
 10
31.848
 20
103.165
 30
0.0
  0
VERTEX
  8
SURVBND
 10
31.878
 20
103.125
 30
0.0
  0
VERTEX
  8
SURVBND
 10
31.919
 20
103.074
 30
0.0
  0
VERTEX
  8
SURVBND
 10
31.932
 20
103.036
 30
0.0
  0
VERTEX
  8
SURVBND
 10
31.94
 20
102.952
 30
0.0
  0
VERTEX
  8
SURVBND
 10
31.949
 20
102.919
 30
0.0
  0
VERTEX
  8
SURVBND
 10
31.945
 20
102.915
 30
0.0
  0
VERTEX
  8
SURVBND
 10
31.946
 20
102.882
 30
0.0
  0
VERTEX
  8
SURVBND
 10
31.95
 20
102.88
 30
0.0
  0
VERTEX
  8
SURVBND
 10
31.957
 20
102.698
 30
0.0
  0
VERTEX
  8
SURVBND
 10
31.957
 20
102.581
 30
0.0
  0
VERTEX
  8
SURVBND
 10
31.968
 20
102.492
 30
0.0
  0
VERTEX
  8
SURVBND
 10
31.991
 20
102.393
 30
0.0
  0
VERTEX
  8
SURVBND
 10
32.01
 20
102.323
 30
0.0
  0
VERTEX
  8
SURVBND
 10
32.031
 20
102.265
 30
0.0
  0
VERTEX
  8
SURVBND
 10
32.071
 20
102.171
 30
0.0
  0
VERTEX
  8
SURVBND
 10
32.095
 20
102.053
 30
0.0
  0
VERTEX
  8
SURVBND
 10
32.086
 20
102.034
 30
0.0
  0
VERTEX
  8
SURVBND
 10
32.107
 20
101.841
 30
0.0
  0
VERTEX
  8
SURVBND
 10
32.111
 20
101.841
 30
0.0
  0
VERTEX
  8
SURVBND
 10
32.12
 20
101.76
 30
0.0
  0
VERTEX
  8
SURVBND
 10
32.131
 20
101.7
 30
0.0
  0
VERTEX
  8
SURVBND
 10
32.138
 20
101.631
 30
0.0
  0
VERTEX
  8
SURVBND
 10
32.147
 20
101.586
 30
0.0
  0
VERTEX
  8
SURVBND
 10
32.159
 20
101.552
 30
0.0
  0
VERTEX
  8
SURVBND
 10
32.178
 20
101.519
 30
0.0
  0
VERTEX
  8
SURVBND
 10
32.193
 20
101.483
 30
0.0
  0
VERTEX
  8
SURVBND
 10
32.199
 20
101.452
 30
0.0
  0
VERTEX
  8
SURVBND
 10
32.205
 20
101.409
 30
0.0
  0
VERTEX
  8
SURVBND
 10
32.211
 20
101.38
 30
0.0
  0
VERTEX
  8
SURVBND
 10
32.211
 20
101.339
 30
0.0
  0
VERTEX
  8
SURVBND
 10
32.217
 20
101.314
 30
0.0
  0
VERTEX
  8
SURVBND
 10
32.224
 20
101.277
 30
0.0
  0
VERTEX
  8
SURVBND
 10
32.225
 20
101.235
 30
0.0
  0
VERTEX
  8
SURVBND
 10
32.231
 20
101.195
 30
0.0
  0
VERTEX
  8
SURVBND
 10
32.23
 20
101.155
 30
0.0
  0
VERTEX
  8
SURVBND
 10
32.229
 20
101.118
 30
0.0
  0
VERTEX
  8
SURVBND
 10
32.235
 20
101.086
 30
0.0
  0
VERTEX
  8
SURVBND
 10
32.239
 20
101.04
 30
0.0
  0
VERTEX
  8
SURVBND
 10
32.246
 20
101.01
 30
0.0
  0
VERTEX
  8
SURVBND
 10
32.25
 20
100.986
 30
0.0
  0
VERTEX
  8
SURVBND
 10
32.257
 20
100.957
 30
0.0
  0
VERTEX
  8
SURVBND
 10
32.267
 20
100.925
 30
0.0
  0
VERTEX
  8
SURVBND
 10
32.269
 20
100.901
 30
0.0
  0
VERTEX
  8
SURVBND
 10
32.275
 20
100.882
 30
0.0
  0
VERTEX
  8
SURVBND
 10
32.283
 20
100.86
 30
0.0
  0
VERTEX
  8
SURVBND
 10
32.29
 20
100.814
 30
0.0
  0
VERTEX
  8
SURVBND
 10
32.306
 20
100.772
 30
0.0
  0
VERTEX
  8
SURVBND
 10
32.323
 20
100.737
 30
0.0
  0
VERTEX
  8
SURVBND
 10
32.336
 20
100.699
 30
0.0
  0
VERTEX
  8
SURVBND
 10
32.345
 20
100.674
 30
0.0
  0
VERTEX
  8
SURVBND
 10
32.355
 20
100.651
 30
0.0
  0
VERTEX
  8
SURVBND
 10
32.363
 20
100.631
 30
0.0
  0
VERTEX
  8
SURVBND
 10
32.361
 20
100.595
 30
0.0
  0
VERTEX
  8
SURVBND
 10
32.364
 20
100.557
 30
0.0
  0
VERTEX
  8
SURVBND
 10
32.372
 20
100.531
 30
0.0
  0
VERTEX
  8
SURVBND
 10
32.38
 20
100.501
 30
0.0
  0
VERTEX
  8
SURVBND
 10
32.389
 20
100.472
 30
0.0
  0
VERTEX
  8
SURVBND
 10
32.408
 20
100.443
 30
0.0
  0
VERTEX
  8
SURVBND
 10
32.431
 20
100.405
 30
0.0
  0
VERTEX
  8
SURVBND
 10
32.445
 20
100.354
 30
0.0
  0
VERTEX
  8
SURVBND
 10
32.462
 20
100.325
 30
0.0
  0
VERTEX
  8
SURVBND
 10
32.485
 20
100.291
 30
0.0
  0
VERTEX
  8
SURVBND
 10
32.499
 20
100.261
 30
0.0
  0
VERTEX
  8
SURVBND
 10
32.52
 20
100.226
 30
0.0
  0
VERTEX
  8
SURVBND
 10
32.545
 20
100.181
 30
0.0
  0
VERTEX
  8
SURVBND
 10
32.564
 20
100.156
 30
0.0
  0
VERTEX
  8
SURVBND
 10
32.573
 20
100.126
 30
0.0
  0
VERTEX
  8
SURVBND
 10
32.583
 20
100.104
 30
0.0
  0
VERTEX
  8
SURVBND
 10
32.596
 20
100.087
 30
0.0
  0
VERTEX
  8
SURVBND
 10
32.615
 20
100.076
 30
0.0
  0
VERTEX
  8
SURVBND
 10
32.632
 20
100.063
 30
0.0
  0
VERTEX
  8
SURVBND
 10
32.647
 20
100.043
 30
0.0
  0
VERTEX
  8
SURVBND
 10
32.666
 20
100.016
 30
0.0
  0
VERTEX
  8
SURVBND
 10
32.679
 20
99.993
 30
0.0
  0
VERTEX
  8
SURVBND
 10
32.689
 20
99.964
 30
0.0
  0
VERTEX
  8
SURVBND
 10
32.699
 20
99.946
 30
0.0
  0
VERTEX
  8
SURVBND
 10
32.706
 20
99.924
 30
0.0
  0
VERTEX
  8
SURVBND
 10
32.705
 20
99.905
 30
0.0
  0
VERTEX
  8
SURVBND
 10
32.708
 20
99.886
 30
0.0
  0
VERTEX
  8
SURVBND
 10
32.697
 20
99.882
 30
0.0
  0
VERTEX
  8
SURVBND
 10
32.702
 20
99.786
 30
0.0
  0
VERTEX
  8
SURVBND
 10
32.702
 20
99.786
 30
0.0
  0
SEQEND
  8
SURVBND
  0
POLYLINE
  8
FRAME
 66
     1
 10
0.0
 20
0.0
 30
0.0
 70
     1
  0
VERTEX
  8
FRAME
 10
23.5
 20
88.0
 30
0.0
  0
VERTEX
  8
FRAME
 10
23.5
 20
104.0
 30
0.0
  0
VERTEX
  8
FRAME
 10
41.0
 20
104.0
 30
0.0
  0
VERTEX
  8
FRAME
 10
41.0
 20
88.0
 30
0.0
  0
SEQEND
  8
FRAME
  0
POLYLINE
  8
GEOL
 66
     1
 10
0.0
 20
0.0
 30
0.0
 70
     3
  0
VERTEX
  8
GEOL
 10
37.212
 20
96.847
 30
0.0
 42
0.298
  0
VERTEX
  8
GEOL
 10
37.198
 20
96.84
 30
0.0
 42
0.038
 70
     1
  0
VERTEX
  8
GEOL
 10
37.152
 20
96.735
 30
0.0
 42
0.012
  0
VERTEX
  8
GEOL
 10
37.135
 20
96.682
 30
0.0
 42
-0.032
 70
     1
  0
VERTEX
  8
GEOL
 10
37.128
 20
96.663
 30
0.0
 42
-0.02
  0
VERTEX
  8
GEOL
 10
37.123
 20
96.652
 30
0.0
 42
0.023
 70
     1
  0
VERTEX
  8
GEOL
 10
37.119
 20
96.643
 30
0.0
 42
0.044
  0
VERTEX
  8
GEOL
 10
37.113
 20
96.626
 30
0.0
 42
0.015
 70
     1
  0
VERTEX
  8
GEOL
 10
37.103
 20
96.577
 30
0.0
 42
0.023
  0
VERTEX
  8
GEOL
 10
37.099
 20
96.539
 30
0.0
 42
0.068
 70
     1
  0
VERTEX
  8
GEOL
 10
37.1
 20
96.526
 30
0.0
 42
0.049
  0
VERTEX
  8
GEOL
 10
37.102
 20
96.518
 30
0.0
 42
0.013
 70
     1
  0
VERTEX
  8
GEOL
 10
37.115
 20
96.49
 30
0.0
 42
0.023
  0
VERTEX
  8
GEOL
 10
37.133
 20
96.457
 30
0.0
 42
0.06
 70
     1
  0
VERTEX
  8
GEOL
 10
37.142
 20
96.446
 30
0.0
 42
0.094
  0
VERTEX
  8
GEOL
 10
37.147
 20
96.442
 30
0.0
 42
0.02
 70
     1
  0
VERTEX
  8
GEOL
 10
37.177
 20
96.43
 30
0.0
 42
0.056
  0
VERTEX
  8
GEOL
 10
37.245
 20
96.415
 30
0.0
 42
0.08
 70
     1
  0
VERTEX
  8
GEOL
 10
37.294
 20
96.417
 30
0.0
 42
0.054
  0
VERTEX
  8
GEOL
 10
37.315
 20
96.424
 30
0.0
 42
0.039
 70
     1
  0
VERTEX
  8
GEOL
 10
37.341
 20
96.438
 30
0.0
 42
0.086
  0
VERTEX
  8
GEOL
 10
37.382
 20
96.477
 30
0.0
 42
0.14
 70
     1
  0
VERTEX
  8
GEOL
 10
37.395
 20
96.51
 30
0.0
 42
0.059
  0
VERTEX
  8
GEOL
 10
37.394
 20
96.527
 30
0.0
 42
-0.077
 70
     1
  0
VERTEX
  8
GEOL
 10
37.395
 20
96.54
 30
0.0
 42
-0.069
  0
VERTEX
  8
GEOL
 10
37.398
 20
96.553
 30
0.0
 42
0.113
 70
     1
  0
VERTEX
  8
GEOL
 10
37.4
 20
96.561
 30
0.0
 42
0.14
  0
VERTEX
  8
GEOL
 10
37.397
 20
96.571
 30
0.0
 42
-0.14
 70
     1
  0
VERTEX
  8
GEOL
 10
37.394
 20
96.581
 30
0.0
  0
VERTEX
  8
GEOL
 10
37.394
 20
96.601
 30
0.0
  0
VERTEX
  8
GEOL
 10
37.393
 20
96.626
 30
0.0
 42
0.095
  0
VERTEX
  8
GEOL
 10
37.389
 20
96.646
 30
0.0
 42
0.102
 70
     1
  0
VERTEX
  8
GEOL
 10
37.378
 20
96.662
 30
0.0
  0
VERTEX
  8
GEOL
 10
37.347
 20
96.692
 30
0.0
  0
VERTEX
  8
GEOL
 10
37.317
 20
96.722
 30
0.0
 42
-0.098
  0
VERTEX
  8
GEOL
 10
37.248
 20
96.821
 30
0.0
 42
0.28
 70
     1
  0
SEQEND
  8
GEOL
  0
POLYLINE
  8
GEOL
 66
     1
 10
0.0
 20
0.0
 30
0.0
 70
     1
  0
VERTEX
  8
GEOL
 10
37.843
 20
96.288
 30
0.0
  0
VERTEX
  8
GEOL
 10
37.863
 20
96.329
 30
0.0
  0
VERTEX
  8
GEOL
 10
37.943
 20
96.386
 30
0.0
  0
VERTEX
  8
GEOL
 10
37.983
 20
96.432
 30
0.0
  0
VERTEX
  8
GEOL
 10
38.013
 20
96.473
 30
0.0
  0
VERTEX
  8
GEOL
 10
38.058
 20
96.524
 30
0.0
  0
VERTEX
  8
GEOL
 10
38.104
 20
96.515
 30
0.0
  0
VERTEX
  8
GEOL
 10
38.125
 20
96.464
 30
0.0
  0
VERTEX
  8
GEOL
 10
38.1
 20
96.403
 30
0.0
  0
VERTEX
  8
GEOL
 10
38.08
 20
96.368
 30
0.0
  0
VERTEX
  8
GEOL
 10
38.056
 20
96.296
 30
0.0
  0
VERTEX
  8
GEOL
 10
38.061
 20
96.256
 30
0.0
  0
VERTEX
  8
GEOL
 10
38.042
 20
96.164
 30
0.0
  0
VERTEX
  8
GEOL
 10
38.002
 20
96.092
 30
0.0
  0
VERTEX
  8
GEOL
 10
37.931
 20
96.116
 30
0.0
  0
VERTEX
  8
GEOL
 10
37.9
 20
96.142
 30
0.0
  0
VERTEX
  8
GEOL
 10
37.885
 20
96.162
 30
0.0
  0
VERTEX
  8
GEOL
 10
37.875
 20
96.176
 30
0.0
  0
SEQEND
  8
GEOL
  0
TEXT
  8
TEXT
 10
38.044
 20
97.371
 30
0.0
 40
0.025
  1
Kichi
 50
360.0
  7
SIMPLEX
  0
POLYLINE
  8
GEOL
 66
     1
 10
0.0
 20
0.0
 30
0.0
 70
     3
  0
VERTEX
  8
GEOL
 10
30.723
 20
102.262
 30
0.0
 42
-0.164
  0
VERTEX
  8
GEOL
 10
30.686
 20
102.305
 30
0.0
 42
0.266
 70
     1
  0
VERTEX
  8
GEOL
 10
30.657
 20
102.327
 30
0.0
 42
0.179
  0
VERTEX
  8
GEOL
 10
30.621
 20
102.319
 30
0.0
 42
0.104
 70
     1
  0
VERTEX
  8
GEOL
 10
30.577
 20
102.275
 30
0.0
 42
0.052
  0
VERTEX
  8
GEOL
 10
30.561
 20
102.244
 30
0.0
 42
-0.101
 70
     1
  0
VERTEX
  8
GEOL
 10
30.551
 20
102.229
 30
0.0
 42
-0.023
  0
VERTEX
  8
GEOL
 10
30.522
 20
102.202
 30
0.0
 42
0.015
 70
     1
  0
VERTEX
  8
GEOL
 10
30.476
 20
102.162
 30
0.0
 42
0.007
  0
VERTEX
  8
GEOL
 10
30.424
 20
102.111
 30
0.0
 42
0.023
 70
     1
  0
VERTEX
  8
GEOL
 10
30.41
 20
102.095
 30
0.0
 42
0.115
  0
VERTEX
  8
GEOL
 10
30.398
 20
102.071
 30
0.0
 42
-0.061
 70
     1
  0
VERTEX
  8
GEOL
 10
30.381
 20
102.024
 30
0.0
 42
-0.027
  0
VERTEX
  8
GEOL
 10
30.35
 20
101.972
 30
0.0
 42
-0.043
 70
     1
  0
VERTEX
  8
GEOL
 10
30.327
 20
101.942
 30
0.0
 42
-0.094
  0
VERTEX
  8
GEOL
 10
30.299
 20
101.922
 30
0.0
 42
0.062
 70
     1
  0
VERTEX
  8
GEOL
 10
30.256
 20
101.894
 30
0.0
 42
0.049
  0
VERTEX
  8
GEOL
 10
30.213
 20
101.851
 30
0.0
 42
0.238
 70
     1
  0
VERTEX
  8
GEOL
 10
30.21
 20
101.838
 30
0.0
 42
0.045
  0
VERTEX
  8
GEOL
 10
30.215
 20
101.825
 30
0.0
 42
0.025
 70
     1
  0
VERTEX
  8
GEOL
 10
30.227
 20
101.802
 30
0.0
 42
0.004
  0
VERTEX
  8
GEOL
 10
30.234
 20
101.791
 30
0.0
 42
0.004
 70
     1
  0
VERTEX
  8
GEOL
 10
30.242
 20
101.778
 30
0.0
 42
0.046
  0
VERTEX
  8
GEOL
 10
30.268
 20
101.744
 30
0.0
 42
0.165
 70
     1
  0
VERTEX
  8
GEOL
 10
30.279
 20
101.738
 30
0.0
 42
0.091
  0
VERTEX
  8
GEOL
 10
30.301
 20
101.738
 30
0.0
 42
-0.041
 70
     1
  0
VERTEX
  8
GEOL
 10
30.35
 20
101.743
 30
0.0
 42
-0.01
  0
VERTEX
  8
GEOL
 10
30.375
 20
101.743
 30
0.0
 42
0.028
 70
     1
  0
VERTEX
  8
GEOL
 10
30.385
 20
101.743
 30
0.0
 42
0.104
  0
VERTEX
  8
GEOL
 10
30.403
 20
101.749
 30
0.0
 42
-0.069
 70
     1
  0
VERTEX
  8
GEOL
 10
30.431
 20
101.76
 30
0.0
 42
-0.01
  0
VERTEX
  8
GEOL
 10
30.467
 20
101.768
 30
0.0
 42
0.01
 70
     1
  0
VERTEX
  8
GEOL
 10
30.502
 20
101.775
 30
0.0
 42
0.008
  0
VERTEX
  8
GEOL
 10
30.532
 20
101.783
 30
0.0
 42
-0.007
 70
     1
  0
VERTEX
  8
GEOL
 10
30.567
 20
101.792
 30
0.0
 42
-0.025
  0
VERTEX
  8
GEOL
 10
30.61
 20
101.8
 30
0.0
 42
-0.029
 70
     1
  0
VERTEX
  8
GEOL
 10
30.648
 20
101.804
 30
0.0
 42
-0.056
  0
VERTEX
  8
GEOL
 10
30.687
 20
101.8
 30
0.0
 42
0.044
 70
     1
  0
VERTEX
  8
GEOL
 10
30.735
 20
101.795
 30
0.0
 42
0.019
  0
VERTEX
  8
GEOL
 10
30.742
 20
101.795
 30
0.0
 42
-0.018
 70
     1
  0
VERTEX
  8
GEOL
 10
30.75
 20
101.795
 30
0.0
 42
-0.202
  0
VERTEX
  8
GEOL
 10
30.766
 20
101.787
 30
0.0
 42
-0.067
 70
     1
  0
VERTEX
  8
GEOL
 10
30.797
 20
101.744
 30
0.0
 42
-0.065
  0
VERTEX
  8
GEOL
 10
30.815
 20
101.695
 30
0.0
 42
-0.2
 70
     1
  0
VERTEX
  8
GEOL
 10
30.813
 20
101.678
 30
0.0
 42
-0.006
  0
VERTEX
  8
GEOL
 10
30.8
 20
101.659
 30
0.0
 42
-0.004
 70
     1
  0
VERTEX
  8
GEOL
 10
30.778
 20
101.627
 30
0.0
 42
-0.003
  0
VERTEX
  8
GEOL
 10
30.756
 20
101.594
 30
0.0
 42
0.006
 70
     1
  0
VERTEX
  8
GEOL
 10
30.743
 20
101.575
 30
0.0
 42
0.063
  0
VERTEX
  8
GEOL
 10
30.73
 20
101.549
 30
0.0
 42
0.061
 70
     1
  0
VERTEX
  8
GEOL
 10
30.723
 20
101.52
 30
0.0
 42
0.027
  0
VERTEX
  8
GEOL
 10
30.723
 20
101.508
 30
0.0
 42
0.009
 70
     1
  0
VERTEX
  8
GEOL
 10
30.724
 20
101.473
 30
0.0
 42
0.029
  0
VERTEX
  8
GEOL
 10
30.73
 20
101.417
 30
0.0
 42
0.137
 70
     1
  0
VERTEX
  8
GEOL
 10
30.735
 20
101.407
 30
0.0
 42
0.069
  0
VERTEX
  8
GEOL
 10
30.74
 20
101.402
 30
0.0
 42
0.013
 70
     1
  0
VERTEX
  8
GEOL
 10
30.771
 20
101.382
 30
0.0
 42
0.052
  0
VERTEX
  8
GEOL
 10
30.806
 20
101.367
 30
0.0
 42
-0.103
 70
     1
  0
VERTEX
  8
GEOL
 10
30.823
 20
101.357
 30
0.0
 42
-0.135
  0
VERTEX
  8
GEOL
 10
30.83
 20
101.345
 30
0.0
 42
-0.086
 70
     1
  0
VERTEX
  8
GEOL
 10
30.833
 20
101.322
 30
0.0
 42
-0.011
  0
VERTEX
  8
GEOL
 10
30.832
 20
101.299
 30
0.0
 42
0.006
 70
     1
  0
VERTEX
  8
GEOL
 10
30.828
 20
101.255
 30
0.0
 42
0.006
  0
VERTEX
  8
GEOL
 10
30.826
 20
101.216
 30
0.0
 42
0.006
 70
     1
  0
VERTEX
  8
GEOL
 10
30.825
 20
101.174
 30
0.0
 42
0.273
  0
VERTEX
  8
GEOL
 10
30.854
 20
101.123
 30
0.0
 42
0.28
 70
     1
  0
VERTEX
  8
GEOL
 10
30.911
 20
101.124
 30
0.0
 42
0.117
  0
VERTEX
  8
GEOL
 10
30.953
 20
101.167
 30
0.0
 42
0.063
 70
     1
  0
VERTEX
  8
GEOL
 10
30.997
 20
101.268
 30
0.0
 42
0.015
  0
VERTEX
  8
GEOL
 10
31.009
 20
101.316
 30
0.0
 42
-0.032
 70
     1
  0
VERTEX
  8
GEOL
 10
31.016
 20
101.339
 30
0.0
 42
-0.054
  0
VERTEX
  8
GEOL
 10
31.038
 20
101.383
 30
0.0
 42
0.062
 70
     1
  0
VERTEX
  8
GEOL
 10
31.056
 20
101.421
 30
0.0
 42
0.057
  0
VERTEX
  8
GEOL
 10
31.062
 20
101.452
 30
0.0
 42
-0.043
 70
     1
  0
VERTEX
  8
GEOL
 10
31.069
 20
101.492
 30
0.0
 42
-0.088
  0
VERTEX
  8
GEOL
 10
31.102
 20
101.562
 30
0.0
 42
0.114
 70
     1
  0
VERTEX
  8
GEOL
 10
31.124
 20
101.617
 30
0.0
 42
0.008
  0
VERTEX
  8
GEOL
 10
31.13
 20
101.655
 30
0.0
 42
0.009
 70
     1
  0
VERTEX
  8
GEOL
 10
31.133
 20
101.688
 30
0.0
 42
0.004
  0
VERTEX
  8
GEOL
 10
31.138
 20
101.738
 30
0.0
 42
0.014
 70
     1
  0
VERTEX
  8
GEOL
 10
31.138
 20
101.753
 30
0.0
 42
0.034
  0
VERTEX
  8
GEOL
 10
31.137
 20
101.785
 30
0.0
 42
-0.017
 70
     1
  0
VERTEX
  8
GEOL
 10
31.131
 20
101.851
 30
0.0
 42
-0.041
  0
VERTEX
  8
GEOL
 10
31.133
 20
101.893
 30
0.0
 42
0.14
 70
     1
  0
VERTEX
  8
GEOL
 10
31.131
 20
101.906
 30
0.0
 42
0.009
  0
VERTEX
  8
GEOL
 10
31.13
 20
101.908
 30
0.0
 42
0.0
 70
     1
  0
VERTEX
  8
GEOL
 10
31.11
 20
101.946
 30
0.0
 42
0.001
  0
VERTEX
  8
GEOL
 10
31.079
 20
102.005
 30
0.0
 42
0.002
 70
     1
  0
VERTEX
  8
GEOL
 10
31.062
 20
102.037
 30
0.0
 42
0.168
  0
VERTEX
  8
GEOL
 10
31.021
 20
102.075
 30
0.0
 42
-0.087
 70
     1
  0
VERTEX
  8
GEOL
 10
30.934
 20
102.133
 30
0.0
 42
-0.056
  0
VERTEX
  8
GEOL
 10
30.895
 20
102.18
 30
0.0
 42
0.068
 70
     1
  0
VERTEX
  8
GEOL
 10
30.862
 20
102.218
 30
0.0
 42
0.176
  0
VERTEX
  8
GEOL
 10
30.805
 20
102.24
 30
0.0
 42
-0.127
 70
     1
  0
SEQEND
  8
GEOL
  0
TEXT
  8
TEXT
 10
31.495
 20
99.145
 30
0.0
 40
0.025
  1
Ksf
 50
360.0
  7
SIMPLEX
  0
TEXT
  8
TEXT
 10
32.145
 20
92.742
 30
0.0
 40
0.025
  1
Kis
 50
360.0
  7
SIMPLEX
  0
POLYLINE
  8
GEOL
 66
     1
 10
0.0
 20
0.0
 30
0.0
 70
     3
  0
VERTEX
  8
GEOL
 10
30.49
 20
100.697
 30
0.0
 42
0.32
  0
VERTEX
  8
GEOL
 10
30.46
 20
100.709
 30
0.0
 42
0.145
 70
     1
  0
VERTEX
  8
GEOL
 10
30.404
 20
100.676
 30
0.0
 42
0.003
  0
VERTEX
  8
GEOL
 10
30.377
 20
100.646
 30
0.0
 42
0.003
 70
     1
  0
VERTEX
  8
GEOL
 10
30.349
 20
100.614
 30
0.0
 42
0.003
  0
VERTEX
  8
GEOL
 10
30.316
 20
100.576
 30
0.0
 42
0.008
 70
     1
  0
VERTEX
  8
GEOL
 10
30.304
 20
100.563
 30
0.0
 42
0.175
  0
VERTEX
  8
GEOL
 10
30.3
 20
100.55
 30
0.0
 42
0.054
 70
     1
  0
VERTEX
  8
GEOL
 10
30.305
 20
100.506
 30
0.0
 42
0.094
  0
VERTEX
  8
GEOL
 10
30.325
 20
100.461
 30
0.0
 42
0.18
 70
     1
  0
VERTEX
  8
GEOL
 10
30.346
 20
100.445
 30
0.0
 42
0.091
  0
VERTEX
  8
GEOL
 10
30.371
 20
100.444
 30
0.0
 42
0.06
 70
     1
  0
VERTEX
  8
GEOL
 10
30.407
 20
100.452
 30
0.0
 42
0.032
  0
VERTEX
  8
GEOL
 10
30.452
 20
100.472
 30
0.0
 42
0.079
 70
     1
  0
VERTEX
  8
GEOL
 10
30.468
 20
100.483
 30
0.0
 42
0.033
  0
VERTEX
  8
GEOL
 10
30.483
 20
100.501
 30
0.0
 42
0.022
 70
     1
  0
VERTEX
  8
GEOL
 10
30.502
 20
100.529
 30
0.0
 42
0.024
  0
VERTEX
  8
GEOL
 10
30.522
 20
100.565
 30
0.0
 42
0.062
 70
     1
  0
VERTEX
  8
GEOL
 10
30.528
 20
100.58
 30
0.0
 42
0.057
  0
VERTEX
  8
GEOL
 10
30.529
 20
100.596
 30
0.0
 42
0.064
 70
     1
  0
VERTEX
  8
GEOL
 10
30.527
 20
100.611
 30
0.0
 42
0.016
  0
VERTEX
  8
GEOL
 10
30.525
 20
100.617
 30
0.0
 42
0.004
 70
     1
  0
VERTEX
  8
GEOL
 10
30.517
 20
100.641
 30
0.0
 42
0.024
  0
VERTEX
  8
GEOL
 10
30.503
 20
100.675
 30
0.0
 42
0.033
 70
     1
  0
SEQEND
  8
GEOL
  0
POLYLINE
  8
GEOL
 66
     1
 10
0.0
 20
0.0
 30
0.0
 70
     3
  0
VERTEX
  8
GEOL
 10
30.87
 20
98.514
 30
0.0
 42
0.056
  0
VERTEX
  8
GEOL
 10
30.84
 20
98.515
 30
0.0
 42
0.04
 70
     1
  0
VERTEX
  8
GEOL
 10
30.799
 20
98.509
 30
0.0
 42
0.072
  0
VERTEX
  8
GEOL
 10
30.716
 20
98.476
 30
0.0
 42
0.092
 70
     1
  0
VERTEX
  8
GEOL
 10
30.662
 20
98.43
 30
0.0
 42
0.072
  0
VERTEX
  8
GEOL
 10
30.637
 20
98.387
 30
0.0
 42
-0.078
 70
     1
  0
VERTEX
  8
GEOL
 10
30.612
 20
98.348
 30
0.0
 42
-0.065
  0
VERTEX
  8
GEOL
 10
30.553
 20
98.294
 30
0.0
 42
0.084
 70
     1
  0
VERTEX
  8
GEOL
 10
30.508
 20
98.251
 30
0.0
 42
0.01
  0
VERTEX
  8
GEOL
 10
30.484
 20
98.218
 30
0.0
 42
0.01
 70
     1
  0
VERTEX
  8
GEOL
 10
30.462
 20
98.183
 30
0.0
 42
0.016
  0
VERTEX
  8
GEOL
 10
30.432
 20
98.131
 30
0.0
 42
0.029
 70
     1
  0
VERTEX
  8
GEOL
 10
30.418
 20
98.102
 30
0.0
 42
0.075
  0
VERTEX
  8
GEOL
 10
30.414
 20
98.084
 30
0.0
 42
-0.034
 70
     1
  0
VERTEX
  8
GEOL
 10
30.409
 20
98.046
 30
0.0
 42
-0.163
  0
VERTEX
  8
GEOL
 10
30.365
 20
97.972
 30
0.0
 42
0.249
 70
     1
  0
VERTEX
  8
GEOL
 10
30.344
 20
97.917
 30
0.0
 42
0.059
  0
VERTEX
  8
GEOL
 10
30.353
 20
97.879
 30
0.0
 42
0.045
 70
     1
  0
VERTEX
  8
GEOL
 10
30.375
 20
97.832
 30
0.0
 42
0.005
  0
VERTEX
  8
GEOL
 10
30.401
 20
97.79
 30
0.0
 42
0.025
 70
     1
  0
VERTEX
  8
GEOL
 10
30.406
 20
97.782
 30
0.0
 42
0.008
  0
VERTEX
  8
GEOL
 10
30.413
 20
97.774
 30
0.0
 42
-0.003
 70
     1
  0
VERTEX
  8
GEOL
 10
30.427
 20
97.756
 30
0.0
 42
-0.067
  0
VERTEX
  8
GEOL
 10
30.472
 20
97.681
 30
0.0
 42
0.172
 70
     1
  0
VERTEX
  8
GEOL
 10
30.495
 20
97.655
 30
0.0
 42
0.057
  0
VERTEX
  8
GEOL
 10
30.514
 20
97.648
 30
0.0
 42
-0.03
 70
     1
  0
VERTEX
  8
GEOL
 10
30.551
 20
97.635
 30
0.0
 42
-0.003
  0
VERTEX
  8
GEOL
 10
30.554
 20
97.634
 30
0.0
 42
0.002
 70
     1
  0
VERTEX
  8
GEOL
 10
30.561
 20
97.631
 30
0.0
 42
0.196
  0
VERTEX
  8
GEOL
 10
30.701
 20
97.631
 30
0.0
 42
0.347
 70
     1
  0
VERTEX
  8
GEOL
 10
30.743
 20
97.705
 30
0.0
 42
0.036
  0
VERTEX
  8
GEOL
 10
30.733
 20
97.749
 30
0.0
 42
0.037
 70
     1
  0
VERTEX
  8
GEOL
 10
30.717
 20
97.79
 30
0.0
 42
0.097
  0
VERTEX
  8
GEOL
 10
30.693
 20
97.823
 30
0.0
 42
-0.335
 70
     1
  0
VERTEX
  8
GEOL
 10
30.69
 20
97.836
 30
0.0
 42
-0.106
  0
VERTEX
  8
GEOL
 10
30.71
 20
97.861
 30
0.0
 42
0.036
 70
     1
  0
VERTEX
  8
GEOL
 10
30.776
 20
97.923
 30
0.0
 42
0.0
  0
VERTEX
  8
GEOL
 10
30.793
 20
97.942
 30
0.0
 42
0.0
 70
     1
  0
VERTEX
  8
GEOL
 10
30.801
 20
97.95
 30
0.0
 42
0.0
  0
VERTEX
  8
GEOL
 10
30.854
 20
98.008
 30
0.0
 42
0.001
 70
     1
  0
VERTEX
  8
GEOL
 10
30.871
 20
98.026
 30
0.0
 42
0.125
  0
VERTEX
  8
GEOL
 10
30.88
 20
98.043
 30
0.0
 42
0.051
 70
     1
  0
VERTEX
  8
GEOL
 10
30.886
 20
98.087
 30
0.0
 42
0.032
  0
VERTEX
  8
GEOL
 10
30.886
 20
98.111
 30
0.0
 42
-0.044
 70
     1
  0
VERTEX
  8
GEOL
 10
30.886
 20
98.128
 30
0.0
 42
-0.024
  0
VERTEX
  8
GEOL
 10
30.888
 20
98.147
 30
0.0
 42
-0.014
 70
     1
  0
VERTEX
  8
GEOL
 10
30.895
 20
98.179
 30
0.0
 42
-0.031
  0
VERTEX
  8
GEOL
 10
30.906
 20
98.213
 30
0.0
 42
-0.019
 70
     1
  0
VERTEX
  8
GEOL
 10
30.929
 20
98.267
 30
0.0
 42
-0.108
  0
VERTEX
  8
GEOL
 10
30.952
 20
98.297
 30
0.0
 42
0.177
 70
     1
  0
VERTEX
  8
GEOL
 10
30.964
 20
98.318
 30
0.0
 42
0.075
  0
VERTEX
  8
GEOL
 10
30.965
 20
98.341
 30
0.0
 42
-0.047
 70
     1
  0
VERTEX
  8
GEOL
 10
30.964
 20
98.379
 30
0.0
 42
-0.021
  0
VERTEX
  8
GEOL
 10
30.966
 20
98.402
 30
0.0
 42
0.028
 70
     1
  0
VERTEX
  8
GEOL
 10
30.967
 20
98.42
 30
0.0
 42
0.097
  0
VERTEX
  8
GEOL
 10
30.966
 20
98.432
 30
0.0
 42
0.037
 70
     1
  0
VERTEX
  8
GEOL
 10
30.952
 20
98.46
 30
0.0
 42
0.122
  0
VERTEX
  8
GEOL
 10
30.92
 20
98.495
 30
0.0
 42
0.109
 70
     1
  0
SEQEND
  8
GEOL
  0
POLYLINE
  8
GEOL
 66
     1
 10
0.0
 20
0.0
 30
0.0
  0
VERTEX
  8
GEOL
 10
30.871
 20
98.5
 30
0.0
  0
VERTEX
  8
GEOL
 10
30.871
 20
98.5
 30
0.0
  0
VERTEX
  8
GEOL
 10
30.805
 20
98.397
 30
0.0
  0
VERTEX
  8
GEOL
 10
30.781
 20
98.316
 30
0.0
  0
VERTEX
  8
GEOL
 10
30.722
 20
98.197
 30
0.0
  0
VERTEX
  8
GEOL
 10
30.656
 20
98.11
 30
0.0
  0
VERTEX
  8
GEOL
 10
30.607
 20
98.023
 30
0.0
  0
VERTEX
  8
GEOL
 10
30.553
 20
97.93
 30
0.0
  0
VERTEX
  8
GEOL
 10
30.493
 20
97.828
 30
0.0
  0
VERTEX
  8
GEOL
 10
30.427
 20
97.756
 30
0.0
  0
SEQEND
  8
GEOL
  0
TEXT
  8
TEXT
 10
29.87
 20
95.699
 30
0.0
 40
0.025
  1
Kss
 50
360.0
  7
SIMPLEX
  0
POLYLINE
  8
GEOL
 66
     1
 10
0.0
 20
0.0
 30
0.0
 70
     1
  0
VERTEX
  8
GEOL
 10
31.542
 20
99.664
 30
0.0
  0
VERTEX
  8
GEOL
 10
31.486
 20
99.616
 30
0.0
  0
VERTEX
  8
GEOL
 10
31.447
 20
99.535
 30
0.0
  0
VERTEX
  8
GEOL
 10
31.386
 20
99.483
 30
0.0
  0
VERTEX
  8
GEOL
 10
31.332
 20
99.421
 30
0.0
  0
VERTEX
  8
GEOL
 10
31.307
 20
99.355
 30
0.0
  0
VERTEX
  8
GEOL
 10
31.247
 20
99.263
 30
0.0
  0
VERTEX
  8
GEOL
 10
31.258
 20
99.166
 30
0.0
  0
VERTEX
  8
GEOL
 10
31.229
 20
99.105
 30
0.0
  0
VERTEX
  8
GEOL
 10
31.245
 20
99.054
 30
0.0
  0
VERTEX
  8
GEOL
 10
31.26
 20
99.009
 30
0.0
  0
VERTEX
  8
GEOL
 10
31.267
 20
98.983
 30
0.0
  0
VERTEX
  8
GEOL
 10
31.328
 20
98.949
 30
0.0
  0
VERTEX
  8
GEOL
 10
31.44
 20
98.955
 30
0.0
  0
VERTEX
  8
GEOL
 10
31.51
 20
99.007
 30
0.0
  0
VERTEX
  8
GEOL
 10
31.565
 20
99.058
 30
0.0
  0
VERTEX
  8
GEOL
 10
31.574
 20
99.115
 30
0.0
  0
VERTEX
  8
GEOL
 10
31.594
 20
99.181
 30
0.0
  0
VERTEX
  8
GEOL
 10
31.603
 20
99.252
 30
0.0
  0
VERTEX
  8
GEOL
 10
31.612
 20
99.319
 30
0.0
  0
VERTEX
  8
GEOL
 10
31.611
 20
99.38
 30
0.0
  0
VERTEX
  8
GEOL
 10
31.616
 20
99.451
 30
0.0
  0
VERTEX
  8
GEOL
 10
31.62
 20
99.506
 30
0.0
  0
VERTEX
  8
GEOL
 10
31.619
 20
99.578
 30
0.0
  0
VERTEX
  8
GEOL
 10
31.624
 20
99.608
 30
0.0
  0
SEQEND
  8
GEOL
  0
POLYLINE
  8
GEOL
 66
     1
 10
0.0
 20
0.0
 30
0.0
  0
VERTEX
  8
GEOL
 10
31.62
 20
99.506
 30
0.0
  0
VERTEX
  8
GEOL
 10
31.585
 20
99.506
 30
0.0
  0
VERTEX
  8
GEOL
 10
31.53
 20
99.419
 30
0.0
  0
VERTEX
  8
GEOL
 10
31.5
 20
99.358
 30
0.0
  0
VERTEX
  8
GEOL
 10
31.49
 20
99.307
 30
0.0
  0
VERTEX
  8
GEOL
 10
31.466
 20
99.25
 30
0.0
  0
VERTEX
  8
GEOL
 10
31.441
 20
99.199
 30
0.0
  0
VERTEX
  8
GEOL
 10
31.381
 20
99.143
 30
0.0
  0
VERTEX
  8
GEOL
 10
31.316
 20
99.055
 30
0.0
  0
VERTEX
  8
GEOL
 10
31.276
 20
99.009
 30
0.0
  0
VERTEX
  8
GEOL
 10
31.263
 20
98.997
 30
0.0
  0
SEQEND
  8
GEOL
  0
TEXT
  8
TEXT
 10
31.879
 20
89.91
 30
0.0
 40
0.025
  1
Kichi
 50
360.0
  7
SIMPLEX
  0
POLYLINE
  8
GEOL
 66
     1
 10
0.0
 20
0.0
 30
0.0
  0
VERTEX
  8
GEOL
 10
28.926
 20
93.587
 30
0.0
  0
VERTEX
  8
GEOL
 10
28.886
 20
93.556
 30
0.0
  0
VERTEX
  8
GEOL
 10
28.796
 20
93.406
 30
0.0
  0
VERTEX
  8
GEOL
 10
28.713
 20
93.192
 30
0.0
  0
VERTEX
  8
GEOL
 10
28.606
 20
92.885
 30
0.0
  0
VERTEX
  8
GEOL
 10
28.586
 20
92.819
 30
0.0
  0
VERTEX
  8
GEOL
 10
28.587
 20
92.79
 30
0.0
  0
SEQEND
  8
GEOL
  0
POLYLINE
  8
GEOL
 66
     1
 10
0.0
 20
0.0
 30
0.0
  0
VERTEX
  8
GEOL
 10
28.939
 20
94.469
 30
0.0
  0
VERTEX
  8
GEOL
 10
28.921
 20
94.445
 30
0.0
  0
VERTEX
  8
GEOL
 10
28.851
 20
94.312
 30
0.0
  0
VERTEX
  8
GEOL
 10
28.793
 20
94.093
 30
0.0
  0
VERTEX
  8
GEOL
 10
28.729
 20
93.899
 30
0.0
  0
VERTEX
  8
GEOL
 10
28.685
 20
93.777
 30
0.0
  0
VERTEX
  8
GEOL
 10
28.567
 20
93.525
 30
0.0
  0
VERTEX
  8
GEOL
 10
28.508
 20
93.327
 30
0.0
  0
VERTEX
  8
GEOL
 10
28.396
 20
92.985
 30
0.0
  0
SEQEND
  8
GEOL
  0
TEXT
  8
TEXT
 10
26.883
 20
95.619
 30
0.0
 40
0.025
  1
Kscn
 50
360.0
  7
SIMPLEX
  0
TEXT
  8
TEXT
 10
28.752
 20
93.516
 30
0.0
 40
0.025
  1
Ksf
 50
360.0
  7
SIMPLEX
  0
POLYLINE
  8
GEOL
 66
     1
 10
0.0
 20
0.0
 30
0.0
 70
     2
  0
VERTEX
  8
GEOL
 10
28.804
 20
91.9
 30
0.0
 42
-0.004
  0
VERTEX
  8
GEOL
 10
28.851
 20
91.979
 30
0.0
 42
-0.006
 70
     1
  0
VERTEX
  8
GEOL
 10
28.876
 20
92.034
 30
0.0
 42
0.0
  0
VERTEX
  8
GEOL
 10
28.917
 20
92.123
 30
0.0
 42
-0.002
 70
     1
  0
VERTEX
  8
GEOL
 10
28.925
 20
92.141
 30
0.0
 42
-0.018
  0
VERTEX
  8
GEOL
 10
28.958
 20
92.206
 30
0.0
 42
-0.017
 70
     1
  0
VERTEX
  8
GEOL
 10
29.0
 20
92.274
 30
0.0
 42
-0.035
  0
VERTEX
  8
GEOL
 10
29.04
 20
92.327
 30
0.0
 42
-0.015
 70
     1
  0
VERTEX
  8
GEOL
 10
29.14
 20
92.434
 30
0.0
 42
-0.014
  0
VERTEX
  8
GEOL
 10
29.181
 20
92.473
 30
0.0
 42
-0.015
 70
     1
  0
VERTEX
  8
GEOL
 10
29.221
 20
92.507
 30
0.0
 42
-0.081
  0
VERTEX
  8
GEOL
 10
29.272
 20
92.535
 30
0.0
 42
-0.252
 70
     1
  0
VERTEX
  8
GEOL
 10
29.292
 20
92.532
 30
0.0
 42
-0.023
  0
VERTEX
  8
GEOL
 10
29.307
 20
92.52
 30
0.0
 42
-0.008
 70
     1
  0
VERTEX
  8
GEOL
 10
29.348
 20
92.482
 30
0.0
 42
-0.002
  0
VERTEX
  8
GEOL
 10
29.386
 20
92.446
 30
0.0
 42
-0.004
 70
     1
  0
VERTEX
  8
GEOL
 10
29.409
 20
92.422
 30
0.0
 42
-0.055
  0
VERTEX
  8
GEOL
 10
29.45
 20
92.371
 30
0.0
 42
-0.147
 70
     1
  0
VERTEX
  8
GEOL
 10
29.457
 20
92.347
 30
0.0
 42
-0.008
  0
VERTEX
  8
GEOL
 10
29.456
 20
92.331
 30
0.0
 42
-0.002
 70
     1
  0
VERTEX
  8
GEOL
 10
29.452
 20
92.256
 30
0.0
 42
-0.007
  0
VERTEX
  8
GEOL
 10
29.445
 20
92.154
 30
0.0
 42
0.023
 70
     1
  0
VERTEX
  8
GEOL
 10
29.444
 20
92.123
 30
0.0
 42
0.08
  0
VERTEX
  8
GEOL
 10
29.446
 20
92.108
 30
0.0
 42
0.008
 70
     1
  0
VERTEX
  8
GEOL
 10
29.497
 20
91.966
 30
0.0
 42
0.004
  0
VERTEX
  8
GEOL
 10
29.519
 20
91.908
 30
0.0
 42
0.01
 70
     1
  0
VERTEX
  8
GEOL
 10
29.528
 20
91.885
 30
0.0
 42
0.129
  0
VERTEX
  8
GEOL
 10
29.549
 20
91.859
 30
0.0
 42
-0.058
 70
     1
  0
VERTEX
  8
GEOL
 10
29.601
 20
91.81
 30
0.0
 42
-0.067
  0
VERTEX
  8
GEOL
 10
29.635
 20
91.755
 30
0.0
 42
-0.05
 70
     1
  0
VERTEX
  8
GEOL
 10
29.668
 20
91.712
 30
0.0
  0
SEQEND
  8
GEOL
  0
TEXT
  8
TEXT
 10
29.159
 20
91.856
 30
0.0
 40
0.025
  1
Kichi
 50
360.0
  7
SIMPLEX
  0
TEXT
  8
TEXT
 10
28.816
 20
92.87
 30
0.0
 40
0.025
  1
Kss
 50
360.0
  7
SIMPLEX
  0
POLYLINE
  8
GEOL
 66
     1
 10
0.0
 20
0.0
 30
0.0
 70
     1
  0
VERTEX
  8
GEOL
 10
30.446
 20
97.563
 30
0.0
  0
VERTEX
  8
GEOL
 10
30.507
 20
97.533
 30
0.0
  0
VERTEX
  8
GEOL
 10
30.589
 20
97.463
 30
0.0
  0
VERTEX
  8
GEOL
 10
30.631
 20
97.398
 30
0.0
  0
VERTEX
  8
GEOL
 10
30.606
 20
97.276
 30
0.0
  0
VERTEX
  8
GEOL
 10
30.552
 20
97.173
 30
0.0
  0
VERTEX
  8
GEOL
 10
30.497
 20
97.086
 30
0.0
  0
VERTEX
  8
GEOL
 10
30.437
 20
96.979
 30
0.0
  0
VERTEX
  8
GEOL
 10
30.388
 20
96.876
 30
0.0
  0
VERTEX
  8
GEOL
 10
30.389
 20
96.805
 30
0.0
  0
VERTEX
  8
GEOL
 10
30.31
 20
96.636
 30
0.0
  0
VERTEX
  8
GEOL
 10
30.271
 20
96.499
 30
0.0
  0
VERTEX
  8
GEOL
 10
30.221
 20
96.411
 30
0.0
  0
VERTEX
  8
GEOL
 10
30.177
 20
96.308
 30
0.0
  0
VERTEX
  8
GEOL
 10
30.168
 20
96.257
 30
0.0
  0
VERTEX
  8
GEOL
 10
30.133
 20
96.12
 30
0.0
  0
VERTEX
  8
GEOL
 10
30.15
 20
96.08
 30
0.0
  0
VERTEX
  8
GEOL
 10
30.161
 20
96.034
 30
0.0
  0
VERTEX
  8
GEOL
 10
30.146
 20
95.917
 30
0.0
  0
VERTEX
  8
GEOL
 10
30.102
 20
95.845
 30
0.0
  0
VERTEX
  8
GEOL
 10
29.936
 20
95.654
 30
0.0
  0
VERTEX
  8
GEOL
 10
29.916
 20
95.613
 30
0.0
  0
VERTEX
  8
GEOL
 10
29.867
 20
95.537
 30
0.0
  0
VERTEX
  8
GEOL
 10
29.822
 20
95.49
 30
0.0
  0
VERTEX
  8
GEOL
 10
29.736
 20
95.418
 30
0.0
  0
VERTEX
  8
GEOL
 10
29.691
 20
95.391
 30
0.0
  0
VERTEX
  8
GEOL
 10
29.671
 20
95.366
 30
0.0
  0
VERTEX
  8
GEOL
 10
29.581
 20
95.304
 30
0.0
  0
VERTEX
  8
GEOL
 10
29.534
 20
95.273
 30
0.0
  0
VERTEX
  8
GEOL
 10
29.47
 20
95.205
 30
0.0
  0
VERTEX
  8
GEOL
 10
29.465
 20
95.154
 30
0.0
  0
VERTEX
  8
GEOL
 10
29.36
 20
95.041
 30
0.0
  0
VERTEX
  8
GEOL
 10
29.232
 20
95.07
 30
0.0
  0
VERTEX
  8
GEOL
 10
29.231
 20
95.116
 30
0.0
  0
VERTEX
  8
GEOL
 10
29.256
 20
95.198
 30
0.0
  0
VERTEX
  8
GEOL
 10
29.275
 20
95.3
 30
0.0
  0
VERTEX
  8
GEOL
 10
29.315
 20
95.382
 30
0.0
  0
VERTEX
  8
GEOL
 10
29.294
 20
95.437
 30
0.0
  0
VERTEX
  8
GEOL
 10
29.282
 20
95.554
 30
0.0
  0
VERTEX
  8
GEOL
 10
29.311
 20
95.672
 30
0.0
  0
VERTEX
  8
GEOL
 10
29.341
 20
95.744
 30
0.0
  0
VERTEX
  8
GEOL
 10
29.355
 20
95.805
 30
0.0
  0
VERTEX
  8
GEOL
 10
29.384
 20
95.877
 30
0.0
  0
VERTEX
  8
GEOL
 10
29.424
 20
95.958
 30
0.0
  0
VERTEX
  8
GEOL
 10
29.524
 20
96.046
 30
0.0
  0
VERTEX
  8
GEOL
 10
29.59
 20
96.107
 30
0.0
  0
VERTEX
  8
GEOL
 10
29.64
 20
96.175
 30
0.0
  0
VERTEX
  8
GEOL
 10
29.674
 20
96.236
 30
0.0
  0
VERTEX
  8
GEOL
 10
29.714
 20
96.288
 30
0.0
  0
VERTEX
  8
GEOL
 10
29.75
 20
96.329
 30
0.0
  0
VERTEX
  8
GEOL
 10
29.805
 20
96.375
 30
0.0
  0
VERTEX
  8
GEOL
 10
29.861
 20
96.422
 30
0.0
  0
VERTEX
  8
GEOL
 10
29.895
 20
96.453
 30
0.0
  0
VERTEX
  8
GEOL
 10
29.991
 20
96.56
 30
0.0
  0
VERTEX
  8
GEOL
 10
30.041
 20
96.612
 30
0.0
  0
VERTEX
  8
GEOL
 10
30.102
 20
96.653
 30
0.0
  0
VERTEX
  8
GEOL
 10
30.125
 20
96.792
 30
0.0
  0
VERTEX
  8
GEOL
 10
30.14
 20
96.863
 30
0.0
  0
VERTEX
  8
GEOL
 10
30.199
 20
96.949
 30
0.0
  0
VERTEX
  8
GEOL
 10
30.29
 20
97.042
 30
0.0
  0
VERTEX
  8
GEOL
 10
30.322
 20
97.211
 30
0.0
  0
VERTEX
  8
GEOL
 10
30.346
 20
97.374
 30
0.0
  0
VERTEX
  8
GEOL
 10
30.38
 20
97.481
 30
0.0
  0
SEQEND
  8
GEOL
  0
POLYLINE
  8
GEOL
 66
     1
 10
0.0
 20
0.0
 30
0.0
  0
VERTEX
  8
GEOL
 10
30.16
 20
96.03
 30
0.0
  0
VERTEX
  8
GEOL
 10
30.1
 20
96.002
 30
0.0
  0
VERTEX
  8
GEOL
 10
30.03
 20
95.951
 30
0.0
  0
VERTEX
  8
GEOL
 10
29.923
 20
95.878
 30
0.0
  0
VERTEX
  8
GEOL
 10
29.859
 20
95.812
 30
0.0
  0
VERTEX
  8
GEOL
 10
29.779
 20
95.668
 30
0.0
  0
VERTEX
  8
GEOL
 10
29.669
 20
95.549
 30
0.0
  0
VERTEX
  8
GEOL
 10
29.599
 20
95.471
 30
0.0
  0
VERTEX
  8
GEOL
 10
29.538
 20
95.43
 30
0.0
  0
VERTEX
  8
GEOL
 10
29.482
 20
95.358
 30
0.0
  0
VERTEX
  8
GEOL
 10
29.452
 20
95.323
 30
0.0
  0
VERTEX
  8
GEOL
 10
29.383
 20
95.224
 30
0.0
  0
VERTEX
  8
GEOL
 10
29.359
 20
95.163
 30
0.0
  0
VERTEX
  8
GEOL
 10
29.27
 20
95.061
 30
0.0
  0
SEQEND
  8
GEOL
  0
POLYLINE
  8
GEOL
 66
     1
 10
0.0
 20
0.0
 30
0.0
 70
     2
  0
VERTEX
  8
GEOL
 10
29.294
 20
95.437
 30
0.0
 42
-0.014
  0
VERTEX
  8
GEOL
 10
29.316
 20
95.477
 30
0.0
 42
-0.052
 70
     1
  0
VERTEX
  8
GEOL
 10
29.324
 20
95.488
 30
0.0
 42
-0.046
  0
VERTEX
  8
GEOL
 10
29.416
 20
95.572
 30
0.0
 42
0.048
 70
     1
  0
VERTEX
  8
GEOL
 10
29.505
 20
95.654
 30
0.0
 42
0.007
  0
VERTEX
  8
GEOL
 10
29.562
 20
95.72
 30
0.0
 42
-0.011
 70
     1
  0
VERTEX
  8
GEOL
 10
29.595
 20
95.757
 30
0.0
 42
-0.013
  0
VERTEX
  8
GEOL
 10
29.624
 20
95.788
 30
0.0
 42
0.015
 70
     1
  0
VERTEX
  8
GEOL
 10
29.649
 20
95.813
 30
0.0
 42
0.054
  0
VERTEX
  8
GEOL
 10
29.681
 20
95.856
 30
0.0
 42
-0.043
 70
     1
  0
VERTEX
  8
GEOL
 10
29.719
 20
95.912
 30
0.0
 42
-0.012
  0
VERTEX
  8
GEOL
 10
29.756
 20
95.953
 30
0.0
 42
-0.014
 70
     1
  0
VERTEX
  8
GEOL
 10
29.789
 20
95.988
 30
0.0
 42
-0.025
  0
VERTEX
  8
GEOL
 10
29.817
 20
96.012
 30
0.0
 42
0.018
 70
     1
  0
VERTEX
  8
GEOL
 10
29.855
 20
96.046
 30
0.0
 42
0.031
  0
VERTEX
  8
GEOL
 10
29.896
 20
96.088
 30
0.0
 42
0.044
 70
     1
  0
VERTEX
  8
GEOL
 10
29.92
 20
96.122
 30
0.0
 42
0.097
  0
VERTEX
  8
GEOL
 10
29.943
 20
96.19
 30
0.0
 42
-0.055
 70
     1
  0
VERTEX
  8
GEOL
 10
29.974
 20
96.312
 30
0.0
 42
-0.008
  0
VERTEX
  8
GEOL
 10
30.008
 20
96.399
 30
0.0
 42
-0.068
 70
     1
  0
VERTEX
  8
GEOL
 10
30.013
 20
96.408
 30
0.0
 42
-0.009
  0
VERTEX
  8
GEOL
 10
30.032
 20
96.431
 30
0.0
 42
-0.004
 70
     1
  0
VERTEX
  8
GEOL
 10
30.073
 20
96.48
 30
0.0
 42
0.0
  0
VERTEX
  8
GEOL
 10
30.096
 20
96.506
 30
0.0
 42
0.0
 70
     1
  0
VERTEX
  8
GEOL
 10
30.118
 20
96.531
 30
0.0
 42
0.001
  0
VERTEX
  8
GEOL
 10
30.129
 20
96.545
 30
0.0
 42
0.001
 70
     1
  0
VERTEX
  8
GEOL
 10
30.158
 20
96.578
 30
0.0
 42
0.205
  0
VERTEX
  8
GEOL
 10
30.178
 20
96.644
 30
0.0
 42
-0.165
 70
     1
  0
VERTEX
  8
GEOL
 10
30.197
 20
96.726
 30
0.0
 42
-0.112
  0
VERTEX
  8
GEOL
 10
30.235
 20
96.765
 30
0.0
 42
0.173
 70
     1
  0
VERTEX
  8
GEOL
 10
30.257
 20
96.793
 30
0.0
 42
0.021
  0
VERTEX
  8
GEOL
 10
30.264
 20
96.819
 30
0.0
 42
-0.018
 70
     1
  0
VERTEX
  8
GEOL
 10
30.272
 20
96.849
 30
0.0
 42
-0.011
  0
VERTEX
  8
GEOL
 10
30.318
 20
96.985
 30
0.0
 42
-0.028
 70
     1
  0
VERTEX
  8
GEOL
 10
30.341
 20
97.038
 30
0.0
 42
-0.03
  0
VERTEX
  8
GEOL
 10
30.348
 20
97.051
 30
0.0
 42
0.029
 70
     1
  0
VERTEX
  8
GEOL
 10
30.355
 20
97.063
 30
0.0
 42
0.082
  0
VERTEX
  8
GEOL
 10
30.375
 20
97.13
 30
0.0
 42
-0.024
 70
     1
  0
VERTEX
  8
GEOL
 10
30.418
 20
97.359
 30
0.0
 42
-0.012
  0
VERTEX
  8
GEOL
 10
30.436
 20
97.43
 30
0.0
 42
-0.007
 70
     1
  0
VERTEX
  8
GEOL
 10
30.472
 20
97.55
 30
0.0
  0
SEQEND
  8
GEOL
  0
TEXT
  8
TEXT
 10
30.495
 20
98.106
 30
0.0
 40
0.025
  1
Kscn
 50
360.0
  7
SIMPLEX
  0
POLYLINE
  8
GEOL
 66
     1
 10
0.0
 20
0.0
 30
0.0
 70
     3
  0
VERTEX
  8
GEOL
 10
30.839
 20
100.92
 30
0.0
 42
0.199
  0
VERTEX
  8
GEOL
 10
30.811
 20
100.923
 30
0.0
 42
0.162
 70
     1
  0
VERTEX
  8
GEOL
 10
30.782
 20
100.905
 30
0.0
 42
0.053
  0
VERTEX
  8
GEOL
 10
30.765
 20
100.878
 30
0.0
 42
0.116
 70
     1
  0
VERTEX
  8
GEOL
 10
30.762
 20
100.864
 30
0.0
  0
VERTEX
  8
GEOL
 10
30.763
 20
100.792
 30
0.0
  0
VERTEX
  8
GEOL
 10
30.764
 20
100.746
 30
0.0
 42
0.144
  0
VERTEX
  8
GEOL
 10
30.771
 20
100.723
 30
0.0
 42
0.135
 70
     1
  0
VERTEX
  8
GEOL
 10
30.791
 20
100.706
 30
0.0
 42
0.225
  0
VERTEX
  8
GEOL
 10
30.805
 20
100.706
 30
0.0
 42
0.083
 70
     1
  0
VERTEX
  8
GEOL
 10
30.835
 20
100.727
 30
0.0
 42
0.15
  0
VERTEX
  8
GEOL
 10
30.864
 20
100.78
 30
0.0
 42
0.106
 70
     1
  0
VERTEX
  8
GEOL
 10
30.864
 20
100.865
 30
0.0
 42
0.054
  0
VERTEX
  8
GEOL
 10
30.849
 20
100.908
 30
0.0
 42
0.155
 70
     1
  0
SEQEND
  8
GEOL
  0
TEXT
  8
TEXT
 10
24.882
 20
96.306
 30
0.0
 40
0.025
  1
Ksgpl
 50
360.0
  7
SIMPLEX
  0
POLYLINE
  8
GEOL
 66
     1
 10
0.0
 20
0.0
 30
0.0
  0
VERTEX
  8
GEOL
 10
23.726
 20
96.254
 30
0.0
  0
VERTEX
  8
GEOL
 10
23.91
 20
96.378
 30
0.0
  0
VERTEX
  8
GEOL
 10
24.072
 20
96.482
 30
0.0
  0
VERTEX
  8
GEOL
 10
24.207
 20
96.585
 30
0.0
  0
VERTEX
  8
GEOL
 10
24.344
 20
96.689
 30
0.0
  0
VERTEX
  8
GEOL
 10
24.485
 20
96.793
 30
0.0
  0
VERTEX
  8
GEOL
 10
24.64
 20
96.896
 30
0.0
  0
VERTEX
  8
GEOL
 10
24.781
 20
96.99
 30
0.0
  0
VERTEX
  8
GEOL
 10
24.989
 20
97.12
 30
0.0
  0
VERTEX
  8
GEOL
 10
25.134
 20
97.204
 30
0.0
  0
VERTEX
  8
GEOL
 10
25.225
 20
97.25
 30
0.0
  0
VERTEX
  8
GEOL
 10
25.403
 20
97.319
 30
0.0
  0
VERTEX
  8
GEOL
 10
25.484
 20
97.324
 30
0.0
  0
VERTEX
  8
GEOL
 10
25.552
 20
97.29
 30
0.0
  0
VERTEX
  8
GEOL
 10
25.696
 20
97.154
 30
0.0
  0
VERTEX
  8
GEOL
 10
25.78
 20
96.972
 30
0.0
  0
VERTEX
  8
GEOL
 10
25.948
 20
96.568
 30
0.0
  0
VERTEX
  8
GEOL
 10
26.021
 20
96.437
 30
0.0
  0
VERTEX
  8
GEOL
 10
26.027
 20
96.31
 30
0.0
  0
VERTEX
  8
GEOL
 10
25.998
 20
96.147
 30
0.0
  0
VERTEX
  8
GEOL
 10
25.985
 20
96.029
 30
0.0
  0
VERTEX
  8
GEOL
 10
25.931
 20
95.835
 30
0.0
  0
VERTEX
  8
GEOL
 10
25.863
 20
95.552
 30
0.0
  0
SEQEND
  8
GEOL
  0
POLYLINE
  8
GEOL
 66
     1
 10
0.0
 20
0.0
 30
0.0
  0
VERTEX
  8
GEOL
 10
24.397
 20
96.202
 30
0.0
  0
VERTEX
  8
GEOL
 10
24.425
 20
96.228
 30
0.0
  0
VERTEX
  8
GEOL
 10
24.562
 20
96.326
 30
0.0
  0
VERTEX
  8
GEOL
 10
24.636
 20
96.404
 30
0.0
  0
VERTEX
  8
GEOL
 10
24.737
 20
96.497
 30
0.0
  0
VERTEX
  8
GEOL
 10
24.827
 20
96.634
 30
0.0
  0
VERTEX
  8
GEOL
 10
25.075
 20
96.77
 30
0.0
  0
VERTEX
  8
GEOL
 10
25.146
 20
96.75
 30
0.0
  0
VERTEX
  8
GEOL
 10
25.219
 20
96.645
 30
0.0
  0
VERTEX
  8
GEOL
 10
25.261
 20
96.554
 30
0.0
  0
VERTEX
  8
GEOL
 10
25.328
 20
96.525
 30
0.0
  0
VERTEX
  8
GEOL
 10
25.445
 20
96.445
 30
0.0
  0
VERTEX
  8
GEOL
 10
25.497
 20
96.379
 30
0.0
  0
VERTEX
  8
GEOL
 10
25.425
 20
96.109
 30
0.0
  0
VERTEX
  8
GEOL
 10
25.416
 20
95.991
 30
0.0
  0
VERTEX
  8
GEOL
 10
25.377
 20
95.848
 30
0.0
  0
VERTEX
  8
GEOL
 10
25.387
 20
95.822
 30
0.0
  0
SEQEND
  8
GEOL
  0
TEXT
  8
TEXT
 10
25.339
 20
96.824
 30
0.0
 40
0.025
  1
Ksgd
 50
360.0
  7
SIMPLEX
  0
POLYLINE
  8
GEOL
 66
     1
 10
0.0
 20
0.0
 30
0.0
 70
     2
  0
VERTEX
  8
GEOL
 10
33.925
 20
96.374
 30
0.0
 42
0.003
  0
VERTEX
  8
GEOL
 10
33.926
 20
96.376
 30
0.0
 42
0.006
 70
     1
  0
VERTEX
  8
GEOL
 10
33.925
 20
96.374
 30
0.0
 42
0.204
  0
VERTEX
  8
GEOL
 10
33.903
 20
96.256
 30
0.0
 42
-0.236
 70
     1
  0
VERTEX
  8
GEOL
 10
33.877
 20
96.154
 30
0.0
 42
-0.004
  0
VERTEX
  8
GEOL
 10
33.838
 20
96.11
 30
0.0
 42
0.004
 70
     1
  0
VERTEX
  8
GEOL
 10
33.801
 20
96.067
 30
0.0
 42
0.001
  0
VERTEX
  8
GEOL
 10
33.741
 20
95.997
 30
0.0
 42
0.006
 70
     1
  0
VERTEX
  8
GEOL
 10
33.731
 20
95.985
 30
0.0
 42
0.087
  0
VERTEX
  8
GEOL
 10
33.708
 20
95.944
 30
0.0
 42
-0.041
 70
     1
  0
VERTEX
  8
GEOL
 10
33.667
 20
95.852
 30
0.0
 42
-0.02
  0
VERTEX
  8
GEOL
 10
33.622
 20
95.776
 30
0.0
 42
0.023
 70
     1
  0
VERTEX
  8
GEOL
 10
33.582
 20
95.708
 30
0.0
 42
0.078
  0
VERTEX
  8
GEOL
 10
33.56
 20
95.645
 30
0.0
 42
-0.125
 70
     1
  0
VERTEX
  8
GEOL
 10
33.543
 20
95.606
 30
0.0
 42
-0.015
  0
VERTEX
  8
GEOL
 10
33.522
 20
95.582
 30
0.0
 42
0.009
 70
     1
  0
VERTEX
  8
GEOL
 10
33.488
 20
95.543
 30
0.0
 42
0.003
  0
VERTEX
  8
GEOL
 10
33.4
 20
95.435
 30
0.0
 42
0.037
 70
     1
  0
VERTEX
  8
GEOL
 10
33.393
 20
95.425
 30
0.0
 42
0.005
  0
VERTEX
  8
GEOL
 10
33.384
 20
95.41
 30
0.0
 42
0.001
 70
     1
  0
VERTEX
  8
GEOL
 10
33.343
 20
95.338
 30
0.0
 42
0.0
  0
VERTEX
  8
GEOL
 10
33.303
 20
95.266
 30
0.0
 42
0.001
 70
     1
  0
VERTEX
  8
GEOL
 10
33.283
 20
95.231
 30
0.0
 42
0.021
  0
VERTEX
  8
GEOL
 10
33.256
 20
95.176
 30
0.0
 42
-0.026
 70
     1
  0
VERTEX
  8
GEOL
 10
33.234
 20
95.133
 30
0.0
 42
-0.008
  0
VERTEX
  8
GEOL
 10
33.214
 20
95.099
 30
0.0
 42
-0.003
 70
     1
  0
VERTEX
  8
GEOL
 10
33.154
 20
95.005
 30
0.0
 42
-0.001
  0
VERTEX
  8
GEOL
 10
33.119
 20
94.95
 30
0.0
 42
-0.002
 70
     1
  0
VERTEX
  8
GEOL
 10
33.094
 20
94.913
 30
0.0
 42
-0.025
  0
VERTEX
  8
GEOL
 10
33.061
 20
94.867
 30
0.0
 42
0.028
 70
     1
  0
VERTEX
  8
GEOL
 10
33.03
 20
94.825
 30
0.0
 42
0.012
  0
VERTEX
  8
GEOL
 10
33.002
 20
94.779
 30
0.0
 42
0.006
 70
     1
  0
VERTEX
  8
GEOL
 10
32.945
 20
94.677
 30
0.0
 42
0.002
  0
VERTEX
  8
GEOL
 10
32.921
 20
94.632
 30
0.0
 42
0.002
 70
     1
  0
VERTEX
  8
GEOL
 10
32.901
 20
94.595
 30
0.0
 42
0.036
  0
VERTEX
  8
GEOL
 10
32.878
 20
94.544
 30
0.0
 42
-0.051
 70
     1
  0
VERTEX
  8
GEOL
 10
32.861
 20
94.508
 30
0.0
 42
-0.028
  0
VERTEX
  8
GEOL
 10
32.841
 20
94.478
 30
0.0
 42
0.019
 70
     1
  0
VERTEX
  8
GEOL
 10
32.812
 20
94.436
 30
0.0
 42
0.004
  0
VERTEX
  8
GEOL
 10
32.794
 20
94.408
 30
0.0
 42
-0.003
 70
     1
  0
VERTEX
  8
GEOL
 10
32.766
 20
94.364
 30
0.0
 42
-0.014
  0
VERTEX
  8
GEOL
 10
32.71
 20
94.281
 30
0.0
 42
-0.053
 70
     1
  0
VERTEX
  8
GEOL
 10
32.692
 20
94.261
 30
0.0
 42
-0.066
  0
VERTEX
  8
GEOL
 10
32.672
 20
94.248
 30
0.0
 42
0.037
 70
     1
  0
VERTEX
  8
GEOL
 10
32.636
 20
94.226
 30
0.0
 42
0.01
  0
VERTEX
  8
GEOL
 10
32.606
 20
94.203
 30
0.0
 42
0.058
 70
     1
  0
VERTEX
  8
GEOL
 10
32.601
 20
94.199
 30
0.0
 42
0.063
  0
VERTEX
  8
GEOL
 10
32.587
 20
94.177
 30
0.0
 42
-0.02
 70
     1
  0
VERTEX
  8
GEOL
 10
32.551
 20
94.107
 30
0.0
 42
-0.003
  0
VERTEX
  8
GEOL
 10
32.507
 20
94.029
 30
0.0
 42
-0.006
 70
     1
  0
VERTEX
  8
GEOL
 10
32.486
 20
93.994
 30
0.0
 42
-0.04
  0
VERTEX
  8
GEOL
 10
32.455
 20
93.951
 30
0.0
 42
-0.019
 70
     1
  0
VERTEX
  8
GEOL
 10
32.376
 20
93.866
 30
0.0
 42
-0.043
  0
VERTEX
  8
GEOL
 10
32.329
 20
93.827
 30
0.0
 42
0.052
 70
     1
  0
VERTEX
  8
GEOL
 10
32.291
 20
93.794
 30
0.0
 42
0.097
  0
VERTEX
  8
GEOL
 10
32.263
 20
93.749
 30
0.0
 42
-0.101
 70
     1
  0
VERTEX
  8
GEOL
 10
32.236
 20
93.706
 30
0.0
 42
-0.038
  0
VERTEX
  8
GEOL
 10
32.217
 20
93.69
 30
0.0
 42
0.044
 70
     1
  0
VERTEX
  8
GEOL
 10
32.201
 20
93.675
 30
0.0
 42
0.061
  0
VERTEX
  8
GEOL
 10
32.159
 20
93.616
 30
0.0
 42
-0.047
 70
     1
  0
VERTEX
  8
GEOL
 10
32.106
 20
93.537
 30
0.0
 42
-0.02
  0
VERTEX
  8
GEOL
 10
32.076
 20
93.503
 30
0.0
 42
0.028
 70
     1
  0
VERTEX
  8
GEOL
 10
32.056
 20
93.48
 30
0.0
 42
0.034
  0
VERTEX
  8
GEOL
 10
32.028
 20
93.438
 30
0.0
 42
0.019
 70
     1
  0
VERTEX
  8
GEOL
 10
31.986
 20
93.357
 30
0.0
 42
0.024
  0
VERTEX
  8
GEOL
 10
31.969
 20
93.317
 30
0.0
 42
-0.023
 70
     1
  0
VERTEX
  8
GEOL
 10
31.952
 20
93.275
 30
0.0
 42
-0.092
  0
VERTEX
  8
GEOL
 10
31.905
 20
93.209
 30
0.0
 42
0.108
 70
     1
  0
VERTEX
  8
GEOL
 10
31.867
 20
93.152
 30
0.0
 42
0.02
  0
VERTEX
  8
GEOL
 10
31.856
 20
93.122
 30
0.0
 42
-0.023
 70
     1
  0
VERTEX
  8
GEOL
 10
31.847
 20
93.096
 30
0.0
 42
-0.018
  0
VERTEX
  8
GEOL
 10
31.819
 20
93.036
 30
0.0
 42
0.02
 70
     1
  0
VERTEX
  8
GEOL
 10
31.793
 20
92.978
 30
0.0
 42
0.021
  0
VERTEX
  8
GEOL
 10
31.782
 20
92.946
 30
0.0
 42
-0.017
 70
     1
  0
VERTEX
  8
GEOL
 10
31.768
 20
92.907
 30
0.0
 42
-0.035
  0
VERTEX
  8
GEOL
 10
31.74
 20
92.847
 30
0.0
 42
-0.051
 70
     1
  0
VERTEX
  8
GEOL
 10
31.714
 20
92.81
 30
0.0
 42
-0.026
  0
VERTEX
  8
GEOL
 10
31.686
 20
92.781
 30
0.0
 42
0.019
 70
     1
  0
VERTEX
  8
GEOL
 10
31.648
 20
92.742
 30
0.0
 42
0.006
  0
VERTEX
  8
GEOL
 10
31.609
 20
92.698
 30
0.0
 42
0.006
 70
     1
  0
VERTEX
  8
GEOL
 10
31.568
 20
92.65
 30
0.0
 42
0.085
  0
VERTEX
  8
GEOL
 10
31.529
 20
92.581
 30
0.0
 42
-0.127
 70
     1
  0
VERTEX
  8
GEOL
 10
31.499
 20
92.537
 30
0.0
 42
-0.001
  0
VERTEX
  8
GEOL
 10
31.459
 20
92.503
 30
0.0
 42
0.001
 70
     1
  0
VERTEX
  8
GEOL
 10
31.408
 20
92.459
 30
0.0
 42
0.0
  0
VERTEX
  8
GEOL
 10
31.372
 20
92.427
 30
0.0
 42
0.0
 70
     1
  0
VERTEX
  8
GEOL
 10
31.343
 20
92.403
 30
0.0
 42
-0.002
  0
VERTEX
  8
GEOL
 10
31.322
 20
92.385
 30
0.0
 42
0.001
 70
     1
  0
VERTEX
  8
GEOL
 10
31.283
 20
92.351
 30
0.0
 42
0.142
  0
VERTEX
  8
GEOL
 10
31.247
 20
92.296
 30
0.0
 42
-0.144
 70
     1
  0
VERTEX
  8
GEOL
 10
31.212
 20
92.242
 30
0.0
 42
-0.169
  0
VERTEX
  8
GEOL
 10
31.165
 20
92.224
 30
0.0
 42
0.148
 70
     1
  0
VERTEX
  8
GEOL
 10
31.111
 20
92.206
 30
0.0
 42
0.069
  0
VERTEX
  8
GEOL
 10
31.044
 20
92.143
 30
0.0
 42
-0.058
 70
     1
  0
VERTEX
  8
GEOL
 10
30.966
 20
92.066
 30
0.0
 42
-0.048
  0
VERTEX
  8
GEOL
 10
30.884
 20
92.014
 30
0.0
 42
0.076
 70
     1
  0
VERTEX
  8
GEOL
 10
30.835
 20
91.979
 30
0.0
 42
0.105
  0
VERTEX
  8
GEOL
 10
30.816
 20
91.95
 30
0.0
 42
-0.127
 70
     1
  0
VERTEX
  8
GEOL
 10
30.799
 20
91.928
 30
0.0
 42
-0.091
  0
VERTEX
  8
GEOL
 10
30.768
 20
91.91
 30
0.0
 42
0.071
 70
     1
  0
VERTEX
  8
GEOL
 10
30.728
 20
91.89
 30
0.0
 42
0.022
  0
VERTEX
  8
GEOL
 10
30.687
 20
91.859
 30
0.0
 42
0.059
 70
     1
  0
VERTEX
  8
GEOL
 10
30.674
 20
91.845
 30
0.0
 42
0.033
  0
VERTEX
  8
GEOL
 10
30.659
 20
91.822
 30
0.0
 42
0.016
 70
     1
  0
VERTEX
  8
GEOL
 10
30.634
 20
91.773
 30
0.0
 42
0.016
  0
VERTEX
  8
GEOL
 10
30.629
 20
91.76
 30
0.0
 42
-0.008
 70
     1
  0
VERTEX
  8
GEOL
 10
30.619
 20
91.736
 30
0.0
 42
-0.121
  0
VERTEX
  8
GEOL
 10
30.569
 20
91.672
 30
0.0
 42
-0.101
 70
     1
  0
VERTEX
  8
GEOL
 10
30.485
 20
91.629
 30
0.0
  0
SEQEND
  8
GEOL
  0
POLYLINE
  8
GEOL
 66
     1
 10
0.0
 20
0.0
 30
0.0
 70
     2
  0
VERTEX
  8
GEOL
 10
33.359
 20
93.039
 30
0.0
 42
0.039
  0
VERTEX
  8
GEOL
 10
33.342
 20
92.99
 30
0.0
 42
0.061
 70
     1
  0
VERTEX
  8
GEOL
 10
33.319
 20
92.968
 30
0.0
 42
0.053
  0
VERTEX
  8
GEOL
 10
33.29
 20
92.923
 30
0.0
 42
-0.084
 70
     1
  0
VERTEX
  8
GEOL
 10
33.269
 20
92.896
 30
0.0
 42
-0.029
  0
VERTEX
  8
GEOL
 10
33.215
 20
92.85
 30
0.0
 42
-0.027
 70
     1
  0
VERTEX
  8
GEOL
 10
33.153
 20
92.809
 30
0.0
 42
0.0
  0
VERTEX
  8
GEOL
 10
33.087
 20
92.77
 30
0.0
 42
-0.002
 70
     1
  0
VERTEX
  8
GEOL
 10
33.072
 20
92.761
 30
0.0
 42
0.0
  0
VERTEX
  8
GEOL
 10
33.033
 20
92.738
 30
0.0
 42
0.0
 70
     1
  0
VERTEX
  8
GEOL
 10
32.957
 20
92.694
 30
0.0
 42
0.001
  0
VERTEX
  8
GEOL
 10
32.872
 20
92.645
 30
0.0
 42
0.003
 70
     1
  0
VERTEX
  8
GEOL
 10
32.84
 20
92.626
 30
0.0
 42
0.071
  0
VERTEX
  8
GEOL
 10
32.822
 20
92.611
 30
0.0
 42
0.013
 70
     1
  0
VERTEX
  8
GEOL
 10
32.735
 20
92.513
 30
0.0
 42
0.03
  0
VERTEX
  8
GEOL
 10
32.681
 20
92.439
 30
0.0
 42
-0.047
 70
     1
  0
VERTEX
  8
GEOL
 10
32.645
 20
92.394
 30
0.0
 42
-0.042
  0
VERTEX
  8
GEOL
 10
32.601
 20
92.355
 30
0.0
 42
-0.023
 70
     1
  0
VERTEX
  8
GEOL
 10
32.514
 20
92.296
 30
0.0
 42
-0.009
  0
VERTEX
  8
GEOL
 10
32.437
 20
92.25
 30
0.0
 42
-0.021
 70
     1
  0
VERTEX
  8
GEOL
 10
32.403
 20
92.234
 30
0.0
 42
-0.028
  0
VERTEX
  8
GEOL
 10
32.347
 20
92.211
 30
0.0
 42
0.031
 70
     1
  0
VERTEX
  8
GEOL
 10
32.296
 20
92.191
 30
0.0
 42
0.005
  0
VERTEX
  8
GEOL
 10
32.25
 20
92.169
 30
0.0
 42
0.008
 70
     1
  0
VERTEX
  8
GEOL
 10
32.221
 20
92.154
 30
0.0
 42
0.007
  0
VERTEX
  8
GEOL
 10
32.185
 20
92.134
 30
0.0
 42
0.004
 70
     1
  0
VERTEX
  8
GEOL
 10
32.13
 20
92.102
 30
0.0
 42
0.01
  0
VERTEX
  8
GEOL
 10
32.079
 20
92.07
 30
0.0
 42
0.025
 70
     1
  0
VERTEX
  8
GEOL
 10
32.06
 20
92.056
 30
0.0
 42
0.02
  0
VERTEX
  8
GEOL
 10
32.014
 20
92.016
 30
0.0
 42
-0.007
 70
     1
  0
VERTEX
  8
GEOL
 10
31.883
 20
91.895
 30
0.0
 42
-0.004
  0
VERTEX
  8
GEOL
 10
31.833
 20
91.851
 30
0.0
 42
0.008
 70
     1
  0
VERTEX
  8
GEOL
 10
31.809
 20
91.829
 30
0.0
 42
0.083
  0
VERTEX
  8
GEOL
 10
31.789
 20
91.803
 30
0.0
 42
-0.025
 70
     1
  0
VERTEX
  8
GEOL
 10
31.733
 20
91.71
 30
0.0
 42
-0.019
  0
VERTEX
  8
GEOL
 10
31.705
 20
91.671
 30
0.0
 42
-0.012
 70
     1
  0
VERTEX
  8
GEOL
 10
31.643
 20
91.623
 30
0.0
  0
SEQEND
  8
GEOL
  0
TEXT
  8
TEXT
 10
32.543
 20
96.105
 30
0.0
 40
0.025
  1
Kichi
 50
360.0
  7
SIMPLEX
  0
TEXT
  8
TEXT
 10
32.645
 20
97.519
 30
0.0
 40
0.025
  1
AREA SUBJECT TO INUNDATION
 50
360.0
  7
SIMPLEX
  0
ENDSEC
  0
EOF
