  0
SECTION
  2
HEADER
  9
$ACADVER
  1
AC1009
  9
$INSBASE
 10
0.0
 20
0.0
 30
0.0
  9
$EXTMIN
 10
625617.512842521071434
 20
596341.4755478192819282
 30
0.0
  9
$EXTMAX
 10
643140.0775057906284928
 20
612368.928167408099398
 30
0.0
  9
$LIMMIN
 10
23.0
 20
88.0
  9
$LIMMAX
 10
40.0
 20
104.0
  9
$ORTHOMODE
 70
     0
  9
$REGENMODE
 70
     1
  9
$FILLMODE
 70
     1
  9
$QTEXTMODE
 70
     0
  9
$MIRRTEXT
 70
     1
  9
$DRAGMODE
 70
     2
  9
$LTSCALE
 40
1.0
  9
$OSMODE
 70
    37
  9
$ATTMODE
 70
     1
  9
$TEXTSIZE
 40
0.25
  9
$TRACEWID
 40
0.05
  9
$TEXTSTYLE
  7
STANDARD
  9
$CLAYER
  8
AREAS
  9
$CELTYPE
  6
BYLAYER
  9
$CECOLOR
 62
   256
  9
$DIMSCALE
 40
1.0
  9
$DIMASZ
 40
0.18
  9
$DIMEXO
 40
0.063
  9
$DIMDLI
 40
0.38
  9
$DIMRND
 40
0.0
  9
$DIMDLE
 40
0.0
  9
$DIMEXE
 40
0.18
  9
$DIMTP
 40
0.0
  9
$DIMTM
 40
0.0
  9
$DIMTXT
 40
0.18
  9
$DIMCEN
 40
0.09
  9
$DIMTSZ
 40
0.0
  9
$DIMTOL
 70
     0
  9
$DIMLIM
 70
     0
  9
$DIMTIH
 70
     1
  9
$DIMTOH
 70
     1
  9
$DIMSE1
 70
     0
  9
$DIMSE2
 70
     0
  9
$DIMTAD
 70
     0
  9
$DIMZIN
 70
     0
  9
$DIMBLK
  1

  9
$DIMASO
 70
     1
  9
$DIMSHO
 70
     0
  9
$DIMPOST
  1

  9
$DIMAPOST
  1

  9
$DIMALT
 70
     0
  9
$DIMALTD
 70
     2
  9
$DIMALTF
 40
25.3999999999999986
  9
$DIMLFAC
 40
1.0
  9
$DIMTOFL
 70
     0
  9
$DIMTVP
 40
0.0
  9
$DIMTIX
 70
     0
  9
$DIMSOXD
 70
     0
  9
$DIMSAH
 70
     0
  9
$DIMBLK1
  1

  9
$DIMBLK2
  1

  9
$DIMSTYLE
  2
STANDARD
  9
$DIMCLRD
 70
     0
  9
$DIMCLRE
 70
     0
  9
$DIMCLRT
 70
     0
  9
$DIMTFAC
 40
1.0
  9
$DIMGAP
 40
0.09
  9
$LUNITS
 70
     2
  9
$LUPREC
 70
     4
  9
$SKETCHINC
 40
0.1
  9
$FILLETRAD
 40
0.0
  9
$AUNITS
 70
     0
  9
$AUPREC
 70
     0
  9
$MENU
  1
ACAD
  9
$ELEVATION
 40
0.0
  9
$PELEVATION
 40
0.0
  9
$THICKNESS
 40
0.0
  9
$LIMCHECK
 70
     0
  9
$BLIPMODE
 70
     0
  9
$CHAMFERA
 40
0.0
  9
$CHAMFERB
 40
0.0
  9
$SKPOLY
 70
     0
  9
$TDCREATE
 40
2450151.4731481480412185
  9
$TDUPDATE
 40
2460833.4616319448687136
  9
$TDINDWG
 40
0.012962963
  9
$TDUSRTIMER
 40
0.012962963
  9
$USRTIMER
 70
     1
  9
$ANGBASE
 50
0.0
  9
$ANGDIR
 70
     0
  9
$PDMODE
 70
     0
  9
$PDSIZE
 40
0.0
  9
$PLINEWID
 40
0.0
  9
$COORDS
 70
     1
  9
$SPLFRAME
 70
     0
  9
$SPLINETYPE
 70
     6
  9
$SPLINESEGS
 70
     8
  9
$ATTDIA
 70
     1
  9
$ATTREQ
 70
     1
  9
$HANDLING
 70
     1
  9
$HANDSEED
  5
1CF6
  9
$SURFTAB1
 70
     6
  9
$SURFTAB2
 70
     6
  9
$SURFTYPE
 70
     6
  9
$SURFU
 70
     6
  9
$SURFV
 70
     6
  9
$UCSNAME
  2

  9
$UCSORG
 10
0.0
 20
0.0
 30
0.0
  9
$UCSXDIR
 10
1.0
 20
0.0
 30
0.0
  9
$UCSYDIR
 10
0.0
 20
1.0
 30
0.0
  9
$PUCSNAME
  2

  9
$PUCSORG
 10
0.0
 20
0.0
 30
0.0
  9
$PUCSXDIR
 10
1.0
 20
0.0
 30
0.0
  9
$PUCSYDIR
 10
0.0
 20
1.0
 30
0.0
  9
$USERI1
 70
     0
  9
$USERI2
 70
     0
  9
$USERI3
 70
     0
  9
$USERI4
 70
     0
  9
$USERI5
 70
     0
  9
$USERR1
 40
0.0
  9
$USERR2
 40
0.0
  9
$USERR3
 40
0.0
  9
$USERR4
 40
0.0
  9
$USERR5
 40
0.0
  9
$WORLDVIEW
 70
     1
  9
$SHADEDGE
 70
     3
  9
$SHADEDIF
 70
    70
  9
$TILEMODE
 70
     1
  9
$MAXACTVP
 70
    16
  9
$PLIMCHECK
 70
     0
  9
$PEXTMIN
 10
1.0000000000000000E+20
 20
1.0000000000000000E+20
 30
1.0000000000000000E+20
  9
$PEXTMAX
 10
-1.0000000000000000E+20
 20
-1.0000000000000000E+20
 30
-1.0000000000000000E+20
  9
$PLIMMIN
 10
0.0
 20
0.0
  9
$PLIMMAX
 10
12.0
 20
9.0
  9
$UNITMODE
 70
     0
  9
$VISRETAIN
 70
     0
  9
$PLINEGEN
 70
     0
  9
$PSLTSCALE
 70
     0
  0
ENDSEC
  0
SECTION
  2
TABLES
  0
TABLE
  2
VPORT
 70
     1
  0
VPORT
  2
*ACTIVE
 70
     0
 10
0.0
 20
0.0
 11
1.0
 21
1.0
 12
634378.7951741558499634
 22
604355.2018576137488708
 13
0.0
 23
0.0
 14
1.0
 24
1.0
 15
0.0
 25
0.0
 16
0.0
 26
0.0
 36
1.0
 17
0.0
 27
0.0
 37
0.0
 40
16144.5838202191498567
 41
2.0097560975609752
 42
50.0
 43
0.0
 44
0.0
 50
0.0
 51
0.0
 71
     0
 72
   100
 73
     1
 74
     0
 75
     0
 76
     0
 77
     0
 78
     0
  0
ENDTAB
  0
TABLE
  2
LTYPE
 70
     1
  0
LTYPE
  2
CONTINUOUS
 70
     0
  3
Solid line
 72
    65
 73
     0
 40
0.0
  0
ENDTAB
  0
TABLE
  2
LAYER
 70
     4
  0
LAYER
  2
0
 70
     0
 62
     7
  6
CONTINUOUS
  0
LAYER
  2
AREAS
 70
     0
 62
     2
  6
CONTINUOUS
  0
LAYER
  2
SURVBND
 70
     0
 62
     1
  6
CONTINUOUS
  0
LAYER
  2
FRAME
 70
     0
 62
     7
  6
CONTINUOUS
  0
ENDTAB
  0
TABLE
  2
STYLE
 70
     3
  0
STYLE
  2
STANDARD
 70
     0
 40
0.25
 41
1.0
 50
0.0
 71
     0
 42
0.25
  3
complex
  4

  0
STYLE
  2
ANNOTATIVE
 70
     0
 40
0.0
 41
1.0
 50
0.0
 71
     0
 42
0.2
  3
txt
  4

  0
STYLE
  2
LEGEND
 70
     0
 40
0.0
 41
1.0
 50
0.0
 71
     0
 42
0.25
  3
txt
  4

  0
ENDTAB
  0
TABLE
  2
VIEW
 70
     0
  0
ENDTAB
  0
TABLE
  2
UCS
 70
     0
  0
ENDTAB
  0
TABLE
  2
APPID
 70
    10
  0
APPID
  2
ACAD
 70
     0
  0
APPID
  2
ACADANNOTATIVE
 70
     0
  0
APPID
  2
ACMAPDMDISPLAYSTYLEREGAPP
 70
     0
  0
APPID
  2
ACAD_NAV_VCDISPLAY
 70
     0
  0
APPID
  2
ADE
 70
     0
  0
APPID
  2
DCO15
 70
     0
  0
APPID
  2
MAPGWS
 70
     0
  0
APPID
  2
ADE_PROJECTION
 70
     0
  0
APPID
  2
ACAD_MLEADERVER
 70
     0
  0
APPID
  2
MapManagementAppName
 70
     0
  0
ENDTAB
  0
TABLE
  2
DIMSTYLE
 70
     2
  0
DIMSTYLE
  2
STANDARD
 70
     0
  3

  4

  5

  6

  7

 40
1.0
 41
0.18
 42
0.0625
 43
0.38
 44
0.18
 45
0.0
 46
0.0
 47
0.0
 48
0.0
140
0.18
141
0.09
142
0.0
143
25.3999999999999986
144
1.0
145
0.0
146
1.0
147
0.09
 71
     0
 72
     0
 73
     1
 74
     1
 75
     0
 76
     0
 77
     0
 78
     0
170
     0
171
     2
172
     0
173
     0
174
     0
175
     0
176
     0
177
     0
178
     0
  0
DIMSTYLE
  2
ANNOTATIVE
 70
     0
  3

  4

  5

  6

  7

 40
1.0
 41
0.18
 42
0.0625
 43
0.38
 44
0.18
 45
0.0
 46
0.0
 47
0.0
 48
0.0
140
0.18
141
0.09
142
0.0
143
25.3999999999999986
144
1.0
145
0.0
146
1.0
147
0.09
 71
     0
 72
     0
 73
     1
 74
     1
 75
     0
 76
     0
 77
     0
 78
     0
170
     0
171
     2
172
     0
173
     0
174
     0
175
     0
176
     0
177
     0
178
     0
  0
ENDTAB
  0
ENDSEC
  0
SECTION
  2
BLOCKS
  0
BLOCK
  8
0
  2
$MODEL_SPACE
 70
     0
 10
0.0
 20
0.0
 30
0.0
  3
$MODEL_SPACE
  1

  0
ENDBLK
  5
71
  8
0
  0
BLOCK
 67
     1
  8
0
  2
$PAPER_SPACE
 70
     0
 10
0.0
 20
0.0
 30
0.0
  3
$PAPER_SPACE
  1

  0
ENDBLK
  5
6D
 67
     1
  8
0
  0
ENDSEC
  0
SECTION
  2
ENTITIES
  0
POLYLINE
  5
79
  8
SURVBND
 66
     1
 10
0.0
 20
0.0
 30
0.0
 70
     1
  0
VERTEX
  5
F36
  8
SURVBND
 10
634839.3911027177236974
 20
608136.7857243708567694
 30
0.0
  0
VERTEX
  5
F37
  8
SURVBND
 10
634844.3653061484219506
 20
608127.7817902732640505
 30
0.0
  0
VERTEX
  5
F38
  8
SURVBND
 10
634870.2615748092066497
 20
608093.7500332269119099
 30
0.0
  0
VERTEX
  5
F39
  8
SURVBND
 10
634894.1928708895575255
 20
608073.7106687809573486
 30
0.0
  0
VERTEX
  5
F3A
  8
SURVBND
 10
634931.0794288365868852
 20
608039.6527774352580309
 30
0.0
  0
VERTEX
  5
F3B
  8
SURVBND
 10
634978.972906987532042
 20
608012.5625722453696653
 30
0.0
  0
VERTEX
  5
F3C
  8
SURVBND
 10
635016.8823405960574746
 20
607988.493477132753469
 30
0.0
  0
VERTEX
  5
F3D
  8
SURVBND
 10
635057.7558639927301556
 20
607950.4296135740587488
 30
0.0
  0
VERTEX
  5
F3E
  8
SURVBND
 10
635091.6878355330554768
 20
607934.3629595058737323
 30
0.0
  0
VERTEX
  5
F3F
  8
SURVBND
 10
635123.5978142040548846
 20
607908.3098850499372929
 30
0.0
  0
VERTEX
  5
F40
  8
SURVBND
 10
635152.4795552612049505
 20
607869.275414428091608
 30
0.0
  0
VERTEX
  5
F41
  8
SURVBND
 10
635168.401282761245966
 20
607842.2612362903309986
 30
0.0
  0
VERTEX
  5
F42
  8
SURVBND
 10
635204.300602727336809
 20
607813.2013068293454126
 30
0.0
  0
VERTEX
  5
F43
  8
SURVBND
 10
635235.218591726385057
 20
607790.1479598422301933
 30
0.0
  0
VERTEX
  5
F44
  8
SURVBND
 10
635266.1247014986583963
 20
607762.0990268158493564
 30
0.0
  0
VERTEX
  5
F45
  8
SURVBND
 10
635304.0270075710723177
 20
607735.0325800797436386
 30
0.0
  0
VERTEX
  5
F46
  8
SURVBND
 10
635344.9171618855325505
 20
607703.9625369760906324
 30
0.0
  0
VERTEX
  5
F47
  8
SURVBND
 10
635382.7885819680523127
 20
607663.9075665380805731
 30
0.0
  0
VERTEX
  5
F48
  8
SURVBND
 10
635415.6667918567545712
 20
607624.8635925347916782
 30
0.0
  0
VERTEX
  5
F49
  8
SURVBND
 10
635468.5035874481545761
 20
607575.7809295455226675
 30
0.0
  0
VERTEX
  5
F4A
  8
SURVBND
 10
635513.375955521943979
 20
607538.7066798134474084
 30
0.0
  0
VERTEX
  5
F4B
  8
SURVBND
 10
635559.2308098855428398
 20
607494.6362337808823213
 30
0.0
  0
VERTEX
  5
F4C
  8
SURVBND
 10
635632.0024327260907739
 20
607425.5237097272183746
 30
0.0
  0
VERTEX
  5
F4D
  8
SURVBND
 10
635691.8496796902036294
 20
607383.418236275203526
 30
0.0
  0
VERTEX
  5
F4E
  8
SURVBND
 10
635739.6647549434565008
 20
607323.3571632264647633
 30
0.0
  0
VERTEX
  5
F4F
  8
SURVBND
 10
635797.4900090380106121
 20
607271.2652693868149072
 30
0.0
  0
VERTEX
  5
F50
  8
SURVBND
 10
635831.3982221245532855
 20
607245.2074432399822399
 30
0.0
  0
VERTEX
  5
F51
  8
SURVBND
 10
635828.3794878926128149
 20
607236.2225159056251869
 30
0.0
  0
VERTEX
  5
F52
  8
SURVBND
 10
635841.3513806767296046
 20
607229.197809460805729
 30
0.0
  0
VERTEX
  5
F53
  8
SURVBND
 10
635855.3128872872330248
 20
607218.1742583392187953
 30
0.0
  0
VERTEX
  5
F54
  8
SURVBND
 10
635864.2906870854785666
 20
607212.1581724837888032
 30
0.0
  0
VERTEX
  5
F55
  8
SURVBND
 10
635875.2548420724924654
 20
607201.1417488984297961
 30
0.0
  0
VERTEX
  5
F56
  8
SURVBND
 10
635886.2118695235112682
 20
607187.1279736894648522
 30
0.0
  0
VERTEX
  5
F57
  8
SURVBND
 10
635893.1819315245375037
 20
607177.1201706932624802
 30
0.0
  0
VERTEX
  5
F58
  8
SURVBND
 10
635903.1445934581570327
 20
607165.1070057455217466
 30
0.0
  0
VERTEX
  5
F59
  8
SURVBND
 10
635911.123276048572734
 20
607159.0932957355398685
 30
0.0
  0
VERTEX
  5
F5A
  8
SURVBND
 10
635918.0957138949306682
 20
607150.0846099470509216
 30
0.0
  0
VERTEX
  5
F5B
  8
SURVBND
 10
635941.0468995306873694
 20
607138.0405590094160289
 30
0.0
  0
VERTEX
  5
F5C
  8
SURVBND
 10
635961.0031093882862478
 20
607127.0027528154896572
 30
0.0
  0
VERTEX
  5
F5D
  8
SURVBND
 10
635969.9761574956355616
 20
607118.9884325445163995
 30
0.0
  0
VERTEX
  5
F5E
  8
SURVBND
 10
635975.9589815157232806
 20
607113.9785914329113439
 30
0.0
  0
VERTEX
  5
F5F
  8
SURVBND
 10
635987.9222537105670199
 20
607102.9597920021042228
 30
0.0
  0
VERTEX
  5
F60
  8
SURVBND
 10
635999.8831500599626452
 20
607090.9418753634672612
 30
0.0
  0
VERTEX
  5
F61
  8
SURVBND
 10
636008.8561981674283743
 20
607082.9275550923775882
 30
0.0
  0
VERTEX
  5
F62
  8
SURVBND
 10
636016.8301290670642629
 20
607074.9156106665031984
 30
0.0
  0
VERTEX
  5
F63
  8
SURVBND
 10
636032.7803667117841542
 20
607059.8908390228170902
 30
0.0
  0
VERTEX
  5
F64
  8
SURVBND
 10
636042.7382769548567012
 20
607045.8794396593002602
 30
0.0
  0
VERTEX
  5
F65
  8
SURVBND
 10
636049.7202181826578453
 20
607040.867222702363506
 30
0.0
  0
VERTEX
  5
F66
  8
SURVBND
 10
636078.7730201075319201
 20
607073.7691910449648276
 30
0.0
  0
VERTEX
  5
F67
  8
SURVBND
 10
636092.7440300995949656
 20
607066.7421087549300864
 30
0.0
  0
VERTEX
  5
F68
  8
SURVBND
 10
636104.7310607482213527
 20
607065.7144814023049548
 30
0.0
  0
VERTEX
  5
F69
  8
SURVBND
 10
636119.7130671751219779
 20
607063.6806093058548868
 30
0.0
  0
VERTEX
  5
F6A
  8
SURVBND
 10
636122.717546334839426
 20
607066.6708333932328969
 30
0.0
  0
VERTEX
  5
F6B
  8
SURVBND
 10
636124.7229082866106182
 20
607069.6634333260590211
 30
0.0
  0
VERTEX
  5
F6C
  8
SURVBND
 10
636139.7381765487371013
 20
607081.6172021393431351
 30
0.0
  0
VERTEX
  5
F6D
  8
SURVBND
 10
636147.7572485107230023
 20
607092.5884846624685451
 30
0.0
  0
VERTEX
  5
F6E
  8
SURVBND
 10
636162.7392549373907968
 20
607090.5546125660184771
 30
0.0
  0
VERTEX
  5
F6F
  8
SURVBND
 10
636154.7059279032982886
 20
607073.5886267959140241
 30
0.0
  0
VERTEX
  5
F70
  8
SURVBND
 10
636154.6892969855107367
 20
607066.5948063409887254
 30
0.0
  0
VERTEX
  5
F71
  8
SURVBND
 10
636154.6536593047203496
 20
607051.6080482235411182
 30
0.0
  0
VERTEX
  5
F72
  8
SURVBND
 10
636154.6251491601578891
 20
607039.6186417293502018
 30
0.0
  0
VERTEX
  5
F73
  8
SURVBND
 10
636161.6070903880754486
 20
607034.6064247726462781
 30
0.0
  0
VERTEX
  5
F74
  8
SURVBND
 10
636172.5997555196518078
 20
607035.5794076812453568
 30
0.0
  0
VERTEX
  5
F75
  8
SURVBND
 10
636178.6087138389702886
 20
607041.5598558558849618
 30
0.0
  0
VERTEX
  5
F76
  8
SURVBND
 10
636181.6155688440194353
 20
607045.5491971510928124
 30
0.0
  0
VERTEX
  5
F77
  8
SURVBND
 10
636190.607623714604415
 20
607045.5278145426418632
 30
0.0
  0
VERTEX
  5
F78
  8
SURVBND
 10
636198.581554614356719
 20
607037.5158701168838888
 30
0.0
  0
VERTEX
  5
F79
  8
SURVBND
 10
636207.5522268762579188
 20
607028.5024326379643753
 30
0.0
  0
VERTEX
  5
F7A
  8
SURVBND
 10
636216.5205232929438353
 20
607018.489877951098606
 30
0.0
  0
VERTEX
  5
F7B
  8
SURVBND
 10
636226.4855610721278936
 20
607007.4758302110712975
 30
0.0
  0
VERTEX
  5
F7C
  8
SURVBND
 10
636253.3571884868433699
 20
606963.4505252409726381
 30
0.0
  0
VERTEX
  5
F7D
  8
SURVBND
 10
636265.3133331454591826
 20
606949.4343741866759956
 30
0.0
  0
VERTEX
  5
F7E
  8
SURVBND
 10
636274.2935087891528383
 20
606944.4174055389594287
 30
0.0
  0
VERTEX
  5
F7F
  8
SURVBND
 10
636285.2742946938378736
 20
606940.3948024085257202
 30
0.0
  0
VERTEX
  5
F80
  8
SURVBND
 10
636294.2734771006507799
 20
606943.3707714234478772
 30
0.0
  0
VERTEX
  5
F81
  8
SURVBND
 10
636306.2771386669483036
 20
606949.3369645259808749
 30
0.0
  0
VERTEX
  5
F82
  8
SURVBND
 10
636312.2718419139273465
 20
606949.322709453641437
 30
0.0
  0
VERTEX
  5
F83
  8
SURVBND
 10
636320.2267660504439846
 20
606933.3178273652447388
 30
0.0
  0
VERTEX
  5
F84
  8
SURVBND
 10
636317.2104076639516279
 20
606925.3320172386011109
 30
0.0
  0
VERTEX
  5
F85
  8
SURVBND
 10
636315.1884147943928838
 20
606915.3455968509661034
 30
0.0
  0
VERTEX
  5
F86
  8
SURVBND
 10
636323.169473230256699
 20
606910.3310040489304811
 30
0.0
  0
VERTEX
  5
F87
  8
SURVBND
 10
636335.135121270432137
 20
606900.3113218259532005
 30
0.0
  0
VERTEX
  5
F88
  8
SURVBND
 10
636354.1444825185462832
 20
606911.2564700497314334
 30
0.0
  0
VERTEX
  5
F89
  8
SURVBND
 10
636359.1424444031435996
 20
606912.2437080306699499
 30
0.0
  0
VERTEX
  5
F8A
  8
SURVBND
 10
636367.1068719213362783
 20
606900.235294773709029
 30
0.0
  0
VERTEX
  5
F8B
  8
SURVBND
 10
636373.0730650236364454
 20
606888.23163320729509
 30
0.0
  0
VERTEX
  5
F8C
  8
SURVBND
 10
636388.0218096149619669
 20
606872.2101202012272552
 30
0.0
  0
VERTEX
  5
F8D
  8
SURVBND
 10
636400.9984540898585692
 20
606867.183648171951063
 30
0.0
  0
VERTEX
  5
F8E
  8
SURVBND
 10
636408.9913917527301237
 20
606867.1646414088318124
 30
0.0
  0
VERTEX
  5
F8F
  8
SURVBND
 10
636413.9822261010995135
 20
606865.1545277662808076
 30
0.0
  0
VERTEX
  5
F90
  8
SURVBND
 10
636425.9597533682826906
 20
606860.1304315824527293
 30
0.0
  0
VERTEX
  5
F91
  8
SURVBND
 10
636435.9271669927984476
 20
606850.1155010503716767
 30
0.0
  0
VERTEX
  5
F92
  8
SURVBND
 10
636443.9058495833305642
 20
606844.1017910401569679
 30
0.0
  0
VERTEX
  5
F93
  8
SURVBND
 10
636453.8993975068442523
 20
606845.0771497943205759
 30
0.0
  0
VERTEX
  5
F94
  8
SURVBND
 10
636457.8934904929483309
 20
606844.0685292049311101
 30
0.0
  0
VERTEX
  5
F95
  8
SURVBND
 10
636462.8700697688618675
 20
606836.063712315284647
 30
0.0
  0
VERTEX
  5
F96
  8
SURVBND
 10
636461.8543216434773058
 20
606829.0722677058074623
 30
0.0
  0
VERTEX
  5
F97
  8
SURVBND
 10
636464.8231631225207821
 20
606817.0757336757378653
 30
0.0
  0
VERTEX
  5
F98
  8
SURVBND
 10
636483.7731282359454781
 20
606803.0429517036536708
 30
0.0
  0
VERTEX
  5
F99
  8
SURVBND
 10
636484.7746212891070172
 20
606804.0396930660353974
 30
0.0
  0
VERTEX
  5
F9A
  8
SURVBND
 10
636492.7699347973102704
 20
606805.0198035108624026
 30
0.0
  0
VERTEX
  5
F9B
  8
SURVBND
 10
636498.7551346628461033
 20
606801.0090796072036028
 30
0.0
  0
VERTEX
  5
F9C
  8
SURVBND
 10
636514.7220032250043005
 20
606792.9781284184427932
 30
0.0
  0
VERTEX
  5
F9D
  8
SURVBND
 10
636528.7120199801865965
 20
606793.9439837908139452
 30
0.0
  0
VERTEX
  5
F9E
  8
SURVBND
 10
636544.6860160785727203
 20
606788.9103842255426571
 30
0.0
  0
VERTEX
  5
F9F
  8
SURVBND
 10
636550.6759676350047812
 20
606786.8978947375435382
 30
0.0
  0
VERTEX
  5
FA0
  8
SURVBND
 10
636563.6549879552330822
 20
606782.8705399162136018
 30
0.0
  0
VERTEX
  5
FA1
  8
SURVBND
 10
636567.6324500235496089
 20
606774.868098872131668
 30
0.0
  0
VERTEX
  5
FA2
  8
SURVBND
 10
636572.6137809903593734
 20
606768.8615163981448859
 30
0.0
  0
VERTEX
  5
FA3
  8
SURVBND
 10
636583.5708084412617609
 20
606754.847741189179942
 30
0.0
  0
VERTEX
  5
FA4
  8
SURVBND
 10
636591.5447393408976495
 20
606746.8357967634219676
 30
0.0
  0
VERTEX
  5
FA5
  8
SURVBND
 10
636602.5326527816941962
 20
606745.8105452563613653
 30
0.0
  0
VERTEX
  5
FA6
  8
SURVBND
 10
636603.5412733712000772
 20
606749.8046382423490286
 30
0.0
  0
VERTEX
  5
FA7
  8
SURVBND
 10
636599.5566837666556239
 20
606754.8097276630578563
 30
0.0
  0
VERTEX
  5
FA8
  8
SURVBND
 10
636597.5727044233353809
 20
606760.8091826008167118
 30
0.0
  0
VERTEX
  5
FA9
  8
SURVBND
 10
636596.5949698239564896
 20
606769.8036133168498054
 30
0.0
  0
VERTEX
  5
FAA
  8
SURVBND
 10
636599.601824828889221
 20
606773.792954612057656
 30
0.0
  0
VERTEX
  5
FAB
  8
SURVBND
 10
636612.5760934584541246
 20
606767.7673653749516234
 30
0.0
  0
VERTEX
  5
FAC
  8
SURVBND
 10
636617.5574244253803045
 20
606761.7607829009648412
 30
0.0
  0
VERTEX
  5
FAD
  8
SURVBND
 10
636628.5310827938374132
 20
606754.7408281470416114
 30
0.0
  0
VERTEX
  5
FAE
  8
SURVBND
 10
636637.5088825920829549
 20
606748.724742291495204
 30
0.0
  0
VERTEX
  5
FAF
  8
SURVBND
 10
636657.4745958311250433
 20
606741.6834049288881943
 30
0.0
  0
VERTEX
  5
FB0
  8
SURVBND
 10
636669.4616264798678458
 20
606740.6557775764958933
 30
0.0
  0
VERTEX
  5
FB1
  8
SURVBND
 10
636680.4447882298845798
 20
606737.63229165377561
 30
0.0
  0
VERTEX
  5
FB2
  8
SURVBND
 10
636686.4252364046406001
 20
606731.6233333344571292
 30
0.0
  0
VERTEX
  5
FB3
  8
SURVBND
 10
636698.4312738163862377
 20
606738.5886436447035521
 30
0.0
  0
VERTEX
  5
FB4
  8
SURVBND
 10
636700.431884077261202
 20
606739.58300916175358
 30
0.0
  0
VERTEX
  5
FB5
  8
SURVBND
 10
636717.397869847714901
 20
606731.5496821275446564
 30
0.0
  0
VERTEX
  5
FB6
  8
SURVBND
 10
636731.3688798395451158
 20
606724.5225998373934999
 30
0.0
  0
VERTEX
  5
FB7
  8
SURVBND
 10
636759.3204032052308321
 20
606714.4649040884105489
 30
0.0
  0
VERTEX
  5
FB8
  8
SURVBND
 10
636768.2934513126965612
 20
606706.4505838172044605
 30
0.0
  0
VERTEX
  5
FB9
  8
SURVBND
 10
636773.2676547433948144
 20
606697.4466497197281569
 30
0.0
  0
VERTEX
  5
FBA
  8
SURVBND
 10
636783.2421959040220827
 20
606690.4290708110202104
 30
0.0
  0
VERTEX
  5
FBB
  8
SURVBND
 10
636797.2155817415332422
 20
606684.4011057288153097
 30
0.0
  0
VERTEX
  5
FBC
  8
SURVBND
 10
636803.1793989985017106
 20
606671.3983269544551149
 30
0.0
  0
VERTEX
  5
FBD
  8
SURVBND
 10
636808.1559782746480778
 20
606663.3935100648086518
 30
0.0
  0
VERTEX
  5
FBE
  8
SURVBND
 10
636814.1364264494040981
 20
606657.3845517456065863
 30
0.0
  0
VERTEX
  5
FBF
  8
SURVBND
 10
636822.1127331943716854
 20
606650.3717245274456218
 30
0.0
  0
VERTEX
  5
FC0
  8
SURVBND
 10
636837.1066188480472192
 20
606653.3334384703775868
 30
0.0
  0
VERTEX
  5
FC1
  8
SURVBND
 10
636845.104308201582171
 20
606655.3126661230344325
 30
0.0
  0
VERTEX
  5
FC2
  8
SURVBND
 10
636851.0942597577814013
 20
606653.300176635151729
 30
0.0
  0
VERTEX
  5
FC3
  8
SURVBND
 10
636860.0696837106952444
 20
606646.2849735716590658
 30
0.0
  0
VERTEX
  5
FC4
  8
SURVBND
 10
636866.045380194671452
 20
606638.277780836680904
 30
0.0
  0
VERTEX
  5
FC5
  8
SURVBND
 10
636873.0320731133688241
 20
606635.263798295520246
 30
0.0
  0
VERTEX
  5
FC6
  8
SURVBND
 10
636882.0122487569460645
 20
606630.2468296480365098
 30
0.0
  0
VERTEX
  5
FC7
  8
SURVBND
 10
636888.9918141396483406
 20
606624.235495483269915
 30
0.0
  0
VERTEX
  5
FC8
  8
SURVBND
 10
636896.9704967299476266
 20
606618.2217854730552062
 30
0.0
  0
VERTEX
  5
FC9
  8
SURVBND
 10
636890.9591625650646165
 20
606611.2422200905857608
 30
0.0
  0
VERTEX
  5
FCA
  8
SURVBND
 10
636904.9396759388037026
 20
606608.2116066317539662
 30
0.0
  0
VERTEX
  5
FCB
  8
SURVBND
 10
636916.9148273606551811
 20
606602.1883932400960475
 30
0.0
  0
VERTEX
  5
FCC
  8
SURVBND
 10
636925.9187614581314847
 20
606607.1625966707943007
 30
0.0
  0
VERTEX
  5
FCD
  8
SURVBND
 10
636931.903961323434487
 20
606603.1518727672519162
 30
0.0
  0
VERTEX
  5
FCE
  8
SURVBND
 10
636942.8752438465598971
 20
606595.1328008052660152
 30
0.0
  0
VERTEX
  5
FCF
  8
SURVBND
 10
636950.8705573546467349
 20
606596.1129112499766052
 30
0.0
  0
VERTEX
  5
FD0
  8
SURVBND
 10
636952.8830468426458538
 20
606602.1028628062922508
 30
0.0
  0
VERTEX
  5
FD1
  8
SURVBND
 10
636955.8851501569151878
 20
606604.0939696859568357
 30
0.0
  0
VERTEX
  5
FD2
  8
SURVBND
 10
636959.8887465244624764
 20
606607.0818179276539013
 30
0.0
  0
VERTEX
  5
FD3
  8
SURVBND
 10
636966.8825669792713597
 20
606607.06518701009918
 30
0.0
  0
VERTEX
  5
FD4
  8
SURVBND
 10
636983.8580561310518533
 20
606603.028328807442449
 30
0.0
  0
VERTEX
  5
FD5
  8
SURVBND
 10
637000.8311694372678176
 20
606597.9923533966066316
 30
0.0
  0
VERTEX
  5
FD6
  8
SURVBND
 10
637014.8045552745461464
 20
606591.9643883141689003
 30
0.0
  0
VERTEX
  5
FD7
  8
SURVBND
 10
637022.7927412467543036
 20
606589.9471471353899688
 30
0.0
  0
VERTEX
  5
FD8
  8
SURVBND
 10
637028.7826928028371185
 20
606587.9346576475072652
 30
0.0
  0
VERTEX
  5
FD9
  8
SURVBND
 10
637040.7697234514635056
 20
606586.9070302952313796
 30
0.0
  0
VERTEX
  5
FDA
  8
SURVBND
 10
637051.7576368923764676
 20
606585.8817787880543619
 30
0.0
  0
VERTEX
  5
FDB
  8
SURVBND
 10
637053.7558713081525639
 20
606585.8770270972745493
 30
0.0
  0
VERTEX
  5
FDC
  8
SURVBND
 10
637059.7553262459114194
 20
606587.8610064405947924
 30
0.0
  0
VERTEX
  5
FDD
  8
SURVBND
 10
637066.7586500821635127
 20
606591.8408443542430177
 30
0.0
  0
VERTEX
  5
FDE
  8
SURVBND
 10
637071.7661153483204544
 20
606596.8245511665008962
 30
0.0
  0
VERTEX
  5
FDF
  8
SURVBND
 10
637075.7625841797562316
 20
606596.8150477850576863
 30
0.0
  0
VERTEX
  5
FE0
  8
SURVBND
 10
637146.5811136668780819
 20
606546.6905023709405214
 30
0.0
  0
VERTEX
  5
FE1
  8
SURVBND
 10
637268.5209299306152388
 20
606566.3829933910164982
 30
0.0
  0
VERTEX
  5
FE2
  8
SURVBND
 10
637268.5185540852835402
 20
606565.3838761831866577
 30
0.0
  0
VERTEX
  5
FE3
  8
SURVBND
 10
637274.5061297961510718
 20
606562.3722694873576984
 30
0.0
  0
VERTEX
  5
FE4
  8
SURVBND
 10
637283.4863054397283122
 20
606557.3553008397575468
 30
0.0
  0
VERTEX
  5
FE5
  8
SURVBND
 10
637293.4703499819152057
 20
606554.3341907622525468
 30
0.0
  0
VERTEX
  5
FE6
  8
SURVBND
 10
637300.4546670553972945
 20
606550.3210910133784637
 30
0.0
  0
VERTEX
  5
FE7
  8
SURVBND
 10
637307.4484875102061778
 20
606550.3044600958237424
 30
0.0
  0
VERTEX
  5
FE8
  8
SURVBND
 10
637315.4438010181766003
 20
606551.2845705405343324
 30
0.0
  0
VERTEX
  5
FE9
  8
SURVBND
 10
637321.419497502152808
 20
606543.2773778055561706
 30
0.0
  0
VERTEX
  5
FEA
  8
SURVBND
 10
637325.40646295202896
 20
606539.2714055925607681
 30
0.0
  0
VERTEX
  5
FEB
  8
SURVBND
 10
637337.3839902190957218
 20
606534.2473094088491052
 30
0.0
  0
VERTEX
  5
FEC
  8
SURVBND
 10
637341.3780832050833851
 20
606533.2386888193432242
 30
0.0
  0
VERTEX
  5
FED
  8
SURVBND
 10
637353.3674896991578862
 20
606533.210178674897179
 30
0.0
  0
VERTEX
  5
FEE
  8
SURVBND
 10
637355.3704758055973798
 20
606535.203661399660632
 30
0.0
  0
VERTEX
  5
FEF
  8
SURVBND
 10
637357.3758377573685721
 20
606538.1962613324867561
 30
0.0
  0
VERTEX
  5
FF0
  8
SURVBND
 10
637354.3879895155550912
 20
606542.19985770015046
 30
0.0
  0
VERTEX
  5
FF1
  8
SURVBND
 10
637352.3968826358905062
 20
606545.2019610143033788
 30
0.0
  0
VERTEX
  5
FF2
  8
SURVBND
 10
637350.4105274471221492
 20
606550.2022987442323938
 30
0.0
  0
VERTEX
  5
FF3
  8
SURVBND
 10
637350.4129032926866785
 20
606551.2014159520622343
 30
0.0
  0
VERTEX
  5
FF4
  8
SURVBND
 10
637356.4147340756608173
 20
606554.1845125033287331
 30
0.0
  0
VERTEX
  5
FF5
  8
SURVBND
 10
637359.4073340084869415
 20
606552.1791505514411256
 30
0.0
  0
VERTEX
  5
FF6
  8
SURVBND
 10
637371.3896129664499313
 20
606549.1532887833891436
 30
0.0
  0
VERTEX
  5
FF7
  8
SURVBND
 10
637375.3837059523211792
 20
606548.1446681939996779
 30
0.0
  0
VERTEX
  5
FF8
  8
SURVBND
 10
637388.3722296541091055
 20
606548.1137822039891034
 30
0.0
  0
VERTEX
  5
FF9
  8
SURVBND
 10
637392.3686984855448827
 20
606548.1042788224294782
 30
0.0
  0
VERTEX
  5
FFA
  8
SURVBND
 10
637392.3710743308765814
 20
606549.1033960301429033
 30
0.0
  0
VERTEX
  5
FFB
  8
SURVBND
 10
637399.3696464765816927
 20
606551.0849995282478631
 30
0.0
  0
VERTEX
  5
FFC
  8
SURVBND
 10
637404.3628566702827811
 20
606550.074003093643114
 30
0.0
  0
VERTEX
  5
FFD
  8
SURVBND
 10
637414.34690121258609
 20
606547.0528930162545294
 30
0.0
  0
VERTEX
  5
FFE
  8
SURVBND
 10
637426.3315560158807784
 20
606545.0261484560323879
 30
0.0
  0
VERTEX
  5
FFF
  8
SURVBND
 10
637443.3165485489880666
 20
606544.9857590844621882
 30
0.0
  0
VERTEX
  5
1000
  8
SURVBND
 10
637446.3115243271458894
 20
606543.9795143404044211
 30
0.0
  0
VERTEX
  5
1001
  8
SURVBND
 10
637464.3027616045437753
 20
606546.9341007471084595
 30
0.0
  0
VERTEX
  5
1002
  8
SURVBND
 10
637472.3052026486257091
 20
606550.9115628153085709
 30
0.0
  0
VERTEX
  5
1003
  8
SURVBND
 10
637476.304047325393185
 20
606551.9011766416952014
 30
0.0
  0
VERTEX
  5
1004
  8
SURVBND
 10
637491.3026846698485315
 20
606556.8611250000540167
 30
0.0
  0
VERTEX
  5
1005
  8
SURVBND
 10
637494.3024121386697516
 20
606557.8531146717723459
 30
0.0
  0
VERTEX
  5
1006
  8
SURVBND
 10
637506.2799394058529288
 20
606552.829018488060683
 30
0.0
  0
VERTEX
  5
1007
  8
SURVBND
 10
637509.2606601116713136
 20
606545.828070497023873
 30
0.0
  0
VERTEX
  5
1008
  8
SURVBND
 10
637530.2326180946547538
 20
606541.7817089126911014
 30
0.0
  0
VERTEX
  5
1009
  8
SURVBND
 10
637538.2303074481897056
 20
606543.7609365652315319
 30
0.0
  0
VERTEX
  5
100A
  8
SURVBND
 10
637547.2366173909977078
 20
606549.7342572036432102
 30
0.0
  0
VERTEX
  5
100B
  8
SURVBND
 10
637550.2458482413785532
 20
606554.7227157067973167
 30
0.0
  0
VERTEX
  5
100C
  8
SURVBND
 10
637550.2458482413785532
 20
606554.7227157067973167
 30
0.0
  0
VERTEX
  5
100D
  8
SURVBND
 10
637557.2325411600759253
 20
606551.7087331656366587
 30
0.0
  0
VERTEX
  5
100E
  8
SURVBND
 10
637571.2273096059216186
 20
606554.672822953783907
 30
0.0
  0
VERTEX
  5
100F
  8
SURVBND
 10
637578.2187542153988034
 20
606553.65707482828293
 30
0.0
  0
VERTEX
  5
1010
  8
SURVBND
 10
637585.2149505156558007
 20
606554.6395611185580492
 30
0.0
  0
VERTEX
  5
1011
  8
SURVBND
 10
637593.2126398691907525
 20
606556.6187887710984796
 30
0.0
  0
VERTEX
  5
1012
  8
SURVBND
 10
637608.2017738320864737
 20
606557.5822682982543483
 30
0.0
  0
VERTEX
  5
1013
  8
SURVBND
 10
637619.2063181905541569
 20
606563.5508372460026294
 30
0.0
  0
VERTEX
  5
1014
  8
SURVBND
 10
637625.2129006646573544
 20
606568.5321682128123939
 30
0.0
  0
VERTEX
  5
1015
  8
SURVBND
 10
637629.2236245680833235
 20
606574.5173680783482268
 30
0.0
  0
VERTEX
  5
1016
  8
SURVBND
 10
637631.2384899016469717
 20
606581.5064368424937129
 30
0.0
  0
VERTEX
  5
1017
  8
SURVBND
 10
637632.2399829546920955
 20
606582.5031782048754394
 30
0.0
  0
VERTEX
  5
1018
  8
SURVBND
 10
637638.2370620472356677
 20
606583.488040340365842
 30
0.0
  0
VERTEX
  5
1019
  8
SURVBND
 10
637641.2272861344972625
 20
606580.4835611807648093
 30
0.0
  0
VERTEX
  5
101A
  8
SURVBND
 10
637647.1958550823619589
 20
606569.4790168221807107
 30
0.0
  0
VERTEX
  5
101B
  8
SURVBND
 10
637655.1959202811121941
 20
606572.457361682667397
 30
0.0
  0
VERTEX
  5
101C
  8
SURVBND
 10
637662.2063716538250446
 20
606579.4345512199215591
 30
0.0
  0
VERTEX
  5
101D
  8
SURVBND
 10
637667.2162127651972696
 20
606585.4173752400092781
 30
0.0
  0
VERTEX
  5
101E
  8
SURVBND
 10
637678.2183812784496695
 20
606590.3868269799277186
 30
0.0
  0
VERTEX
  5
101F
  8
SURVBND
 10
637683.2258465443737805
 20
606595.3705337921855971
 30
0.0
  0
VERTEX
  5
1020
  8
SURVBND
 10
637688.2380635011941195
 20
606602.3524750202195719
 30
0.0
  0
VERTEX
  5
1021
  8
SURVBND
 10
637693.2455287673510611
 20
606607.3361818324774504
 30
0.0
  0
VERTEX
  5
1022
  8
SURVBND
 10
637707.256928130867891
 20
606617.2940920754335821
 30
0.0
  0
VERTEX
  5
1023
  8
SURVBND
 10
637717.274234508513473
 20
606628.2606229077791795
 30
0.0
  0
VERTEX
  5
1024
  8
SURVBND
 10
637723.2831928278319538
 20
606634.2410710825351998
 30
0.0
  0
VERTEX
  5
1025
  8
SURVBND
 10
637729.2802719201426953
 20
606635.2259332181420177
 30
0.0
  0
VERTEX
  5
1026
  8
SURVBND
 10
637727.2606548960320652
 20
606626.2386300383368507
 30
0.0
  0
VERTEX
  5
1027
  8
SURVBND
 10
637732.241985862958245
 20
606620.2320475643500686
 30
0.0
  0
VERTEX
  5
1028
  8
SURVBND
 10
637743.2132683859672397
 20
606612.2129756024805829
 30
0.0
  0
VERTEX
  5
1029
  8
SURVBND
 10
637752.2076991020003334
 20
606613.1907102017430589
 30
0.0
  0
VERTEX
  5
102A
  8
SURVBND
 10
637769.2021950167836621
 20
606617.146789661841467
 30
0.0
  0
VERTEX
  5
102B
  8
SURVBND
 10
637773.2034155388828367
 20
606619.1355206958251074
 30
0.0
  0
VERTEX
  5
102C
  8
SURVBND
 10
637783.2017151535255834
 20
606622.1091138656483963
 30
0.0
  0
VERTEX
  5
102D
  8
SURVBND
 10
637788.2020528833381832
 20
606624.095469054300338
 30
0.0
  0
VERTEX
  5
102E
  8
SURVBND
 10
637795.2148801012663171
 20
606632.07177579915151
 30
0.0
  0
VERTEX
  5
102F
  8
SURVBND
 10
637798.2241109516471624
 20
606637.0602343024220318
 30
0.0
  0
VERTEX
  5
1030
  8
SURVBND
 10
637803.2268245270242915
 20
606640.0457066990202293
 30
0.0
  0
VERTEX
  5
1031
  8
SURVBND
 10
637806.212296923622489
 20
606635.0429931236431003
 30
0.0
  0
VERTEX
  5
1032
  8
SURVBND
 10
637811.1865003543207422
 20
606626.0390590261667967
 30
0.0
  0
VERTEX
  5
1033
  8
SURVBND
 10
637821.1847999688470736
 20
606629.0126521958736703
 30
0.0
  0
VERTEX
  5
1034
  8
SURVBND
 10
637823.1877860752865672
 20
606631.0061349207535386
 30
0.0
  0
VERTEX
  5
1035
  8
SURVBND
 10
637834.1947062793187797
 20
606637.9738210764480755
 30
0.0
  0
VERTEX
  5
1036
  8
SURVBND
 10
637840.1965370624093339
 20
606640.956917627598159
 30
0.0
  0
VERTEX
  5
1037
  8
SURVBND
 10
637848.198978106607683
 20
606644.934379696031101
 30
0.0
  0
VERTEX
  5
1038
  8
SURVBND
 10
637850.2019642130471766
 20
606646.9278624207945541
 30
0.0
  0
VERTEX
  5
1039
  8
SURVBND
 10
637860.197887982125394
 20
606648.9023383826715872
 30
0.0
  0
VERTEX
  5
103A
  8
SURVBND
 10
637865.1863464851630852
 20
606645.8931075321743265
 30
0.0
  0
VERTEX
  5
103B
  8
SURVBND
 10
637870.1795566789805889
 20
606644.8821110974531621
 30
0.0
  0
VERTEX
  5
103C
  8
SURVBND
 10
637871.1786738868104294
 20
606644.8797352521214634
 30
0.0
  0
VERTEX
  5
103D
  8
SURVBND
 10
637876.1766357714077458
 20
606645.8669732329435647
 30
0.0
  0
VERTEX
  5
103E
  8
SURVBND
 10
637877.1781288245692849
 20
606646.8637145955581218
 30
0.0
  0
VERTEX
  5
103F
  8
SURVBND
 10
637885.1876974049955606
 20
606653.8385282872477546
 30
0.0
  0
VERTEX
  5
1040
  8
SURVBND
 10
637888.1993041009409353
 20
606659.8261039981152862
 30
0.0
  0
VERTEX
  5
1041
  8
SURVBND
 10
637900.200589821790345
 20
606664.7931798927020282
 30
0.0
  0
VERTEX
  5
1042
  8
SURVBND
 10
637918.1870754081755877
 20
606665.7495318836299703
 30
0.0
  0
VERTEX
  5
1043
  8
SURVBND
 10
637918.1870754081755877
 20
606665.7495318836299703
 30
0.0
  0
VERTEX
  5
1044
  8
SURVBND
 10
637932.1865955448010936
 20
606670.7118560874368995
 30
0.0
  0
VERTEX
  5
1045
  8
SURVBND
 10
637944.1926329565467313
 20
606677.6771663976833224
 30
0.0
  0
VERTEX
  5
1046
  8
SURVBND
 10
637960.1927633542800322
 20
606683.6338561186566949
 30
0.0
  0
VERTEX
  5
1047
  8
SURVBND
 10
637969.1919457608601078
 20
606686.6098251336952671
 30
0.0
  0
VERTEX
  5
1048
  8
SURVBND
 10
637984.1953347963280976
 20
606693.5680079079465941
 30
0.0
  0
VERTEX
  5
1049
  8
SURVBND
 10
638003.1951926627662033
 20
606700.5166873005218804
 30
0.0
  0
VERTEX
  5
104A
  8
SURVBND
 10
638007.2059165665414184
 20
606706.5018871660577133
 30
0.0
  0
VERTEX
  5
104B
  8
SURVBND
 10
638011.2261438515270129
 20
606716.4835558626800776
 30
0.0
  0
VERTEX
  5
104C
  8
SURVBND
 10
638006.251940420945175
 20
606725.4874899601563811
 30
0.0
  0
VERTEX
  5
104D
  8
SURVBND
 10
638006.2661954931681976
 20
606731.4821932072518393
 30
0.0
  0
VERTEX
  5
104E
  8
SURVBND
 10
638016.2739984892541543
 20
606738.4522552081616595
 30
0.0
  0
VERTEX
  5
104F
  8
SURVBND
 10
638020.2657156297937036
 20
606736.4445174110587686
 30
0.0
  0
VERTEX
  5
1050
  8
SURVBND
 10
638024.2408018526621163
 20
606727.442959159030579
 30
0.0
  0
VERTEX
  5
1051
  8
SURVBND
 10
638029.2221328195882961
 20
606721.4363766850437969
 30
0.0
  0
VERTEX
  5
1052
  8
SURVBND
 10
638041.2139151589944959
 20
606722.4069837483111769
 30
0.0
  0
VERTEX
  5
1053
  8
SURVBND
 10
638047.21574594208505
 20
606725.3900802994612604
 30
0.0
  0
VERTEX
  5
1054
  8
SURVBND
 10
638047.2323768597561866
 20
606732.3839007542701438
 30
0.0
  0
VERTEX
  5
1055
  8
SURVBND
 10
638044.251656154054217
 20
606739.3848487453069538
 30
0.0
  0
VERTEX
  5
1056
  8
SURVBND
 10
638045.2745318156667054
 20
606749.3736449782736599
 30
0.0
  0
VERTEX
  5
1057
  8
SURVBND
 10
638054.2832176038064063
 20
606756.3460828247480094
 30
0.0
  0
VERTEX
  5
1058
  8
SURVBND
 10
638064.2815172183327377
 20
606759.319675994454883
 30
0.0
  0
VERTEX
  5
1059
  8
SURVBND
 10
638072.2792065718676895
 20
606761.2989036469953135
 30
0.0
  0
VERTEX
  5
105A
  8
SURVBND
 10
638085.2724819645518437
 20
606763.2662520727608353
 30
0.0
  0
VERTEX
  5
105B
  8
SURVBND
 10
638085.2724819645518437
 20
606763.2662520727608353
 30
0.0
  0
VERTEX
  5
105C
  8
SURVBND
 10
638084.2543579936027527
 20
606755.2756902554538101
 30
0.0
  0
VERTEX
  5
105D
  8
SURVBND
 10
638083.2362340226536617
 20
606747.2851284381467849
 30
0.0
  0
VERTEX
  5
105E
  8
SURVBND
 10
638091.2125407678540796
 20
606740.272301220218651
 30
0.0
  0
VERTEX
  5
105F
  8
SURVBND
 10
638097.2048681693850085
 20
606739.2589289400493726
 30
0.0
  0
VERTEX
  5
1060
  8
SURVBND
 10
638115.1961054465500638
 20
606742.213515346753411
 30
0.0
  0
VERTEX
  5
1061
  8
SURVBND
 10
638122.1970534375868738
 20
606745.1942360524553806
 30
0.0
  0
VERTEX
  5
1062
  8
SURVBND
 10
638130.1971186364535242
 20
606748.1725809129420668
 30
0.0
  0
VERTEX
  5
1063
  8
SURVBND
 10
638135.1998322117142379
 20
606751.1580533095402643
 30
0.0
  0
VERTEX
  5
1064
  8
SURVBND
 10
638143.2117766374722123
 20
606759.1319842091761529
 30
0.0
  0
VERTEX
  5
1065
  8
SURVBND
 10
638150.2269797008484602
 20
606768.1074081619735807
 30
0.0
  0
VERTEX
  5
1066
  8
SURVBND
 10
638155.2439483484486118
 20
606777.0875838056672364
 30
0.0
  0
VERTEX
  5
1067
  8
SURVBND
 10
638190.110889271250926
 20
606734.042389280279167
 30
0.0
  0
VERTEX
  5
1068
  8
SURVBND
 10
638252.0870421470608562
 20
606746.8836105683585629
 30
0.0
  0
VERTEX
  5
1069
  8
SURVBND
 10
638278.1068547677714378
 20
606764.8059483295073733
 30
0.0
  0
VERTEX
  5
106A
  8
SURVBND
 10
638319.1799491767305881
 20
606810.6679302293341607
 30
0.0
  0
VERTEX
  5
106B
  8
SURVBND
 10
638322.1749249547719955
 20
606809.6616854852763936
 30
0.0
  0
VERTEX
  5
106C
  8
SURVBND
 10
638330.16786261764355
 20
606809.6426787222735584
 30
0.0
  0
VERTEX
  5
106D
  8
SURVBND
 10
638343.1611380100948736
 20
606811.6100271479226649
 30
0.0
  0
VERTEX
  5
106E
  8
SURVBND
 10
638345.1641241165343672
 20
606813.6035098728025332
 30
0.0
  0
VERTEX
  5
106F
  8
SURVBND
 10
638352.1698237983509898
 20
606818.5824649943970144
 30
0.0
  0
VERTEX
  5
1070
  8
SURVBND
 10
638364.1782370554283261
 20
606826.5468925124732777
 30
0.0
  0
VERTEX
  5
1071
  8
SURVBND
 10
638369.1857023215852678
 20
606831.5305993248475716
 30
0.0
  0
VERTEX
  5
1072
  8
SURVBND
 10
638372.2020607080776244
 20
606839.5164094512583688
 30
0.0
  0
VERTEX
  5
1073
  8
SURVBND
 10
638377.2166535103460774
 20
606847.497467887122184
 30
0.0
  0
VERTEX
  5
1074
  8
SURVBND
 10
638386.2324668347137049
 20
606857.4672573569696397
 30
0.0
  0
VERTEX
  5
1075
  8
SURVBND
 10
638393.2405423617456108
 20
606863.445329686277546
 30
0.0
  0
VERTEX
  5
1076
  8
SURVBND
 10
638403.2507212032796815
 20
606871.414508895133622
 30
0.0
  0
VERTEX
  5
1077
  8
SURVBND
 10
638406.2504486722173169
 20
606872.4064985668519512
 30
0.0
  0
VERTEX
  5
1078
  8
SURVBND
 10
638422.233948152163066
 20
606871.369367832900025
 30
0.0
  0
VERTEX
  5
1079
  8
SURVBND
 10
638425.2312997757690027
 20
606871.3622402967885137
 30
0.0
  0
VERTEX
  5
107A
  8
SURVBND
 10
638431.228378867963329
 20
606872.3471024322789162
 30
0.0
  0
VERTEX
  5
107B
  8
SURVBND
 10
638435.2462303079664707
 20
606881.3296539214206859
 30
0.0
  0
VERTEX
  5
107C
  8
SURVBND
 10
638438.2554611583473161
 20
606886.3181124243419617
 30
0.0
  0
VERTEX
  5
107D
  8
SURVBND
 10
638444.2596677868859842
 20
606890.3003261834383011
 30
0.0
  0
VERTEX
  5
107E
  8
SURVBND
 10
638450.2757536424323916
 20
606899.2781259814510122
 30
0.0
  0
VERTEX
  5
107F
  8
SURVBND
 10
638455.3022256714757532
 20
606912.2547704565804452
 30
0.0
  0
VERTEX
  5
1080
  8
SURVBND
 10
638458.3162082127528265
 20
606919.2414633752778172
 30
0.0
  0
VERTEX
  5
1081
  8
SURVBND
 10
638459.3319563382538036
 20
606926.232907984755002
 30
0.0
  0
VERTEX
  5
1082
  8
SURVBND
 10
638458.3518458935432136
 20
606934.2282214928418398
 30
0.0
  0
VERTEX
  5
1083
  8
SURVBND
 10
638458.3565975842066109
 20
606936.2264559085015208
 30
0.0
  0
VERTEX
  5
1084
  8
SURVBND
 10
638487.3785135191865265
 20
606956.1399005490820855
 30
0.0
  0
VERTEX
  5
1085
  8
SURVBND
 10
638496.3824476165464148
 20
606961.114103979896754
 30
0.0
  0
VERTEX
  5
1086
  8
SURVBND
 10
638494.4222267271252349
 20
606977.1047309960704297
 30
0.0
  0
VERTEX
  5
1087
  8
SURVBND
 10
638502.4436745343264192
 20
606989.0751307270256802
 30
0.0
  0
VERTEX
  5
1088
  8
SURVBND
 10
638510.4413638877449557
 20
606991.0543583794496953
 30
0.0
  0
VERTEX
  5
1089
  8
SURVBND
 10
638512.4277190765133128
 20
606986.0540206496370956
 30
0.0
  0
VERTEX
  5
108A
  8
SURVBND
 10
638519.4191636859904975
 20
606985.0382725242525339
 30
0.0
  0
VERTEX
  5
108B
  8
SURVBND
 10
638531.4204494069563225
 20
606990.0053484187228605
 30
0.0
  0
VERTEX
  5
108C
  8
SURVBND
 10
638541.4282524030422792
 20
606996.975410419749096
 30
0.0
  0
VERTEX
  5
108D
  8
SURVBND
 10
638550.4345623458502814
 20
607002.9487310582771897
 30
0.0
  0
VERTEX
  5
108E
  8
SURVBND
 10
638555.4396517664426938
 20
607006.9333206628216431
 30
0.0
  0
VERTEX
  5
108F
  8
SURVBND
 10
638563.4444686562055722
 20
607011.9098999388515949
 30
0.0
  0
VERTEX
  5
1090
  8
SURVBND
 10
638572.4460269083501771
 20
607015.8849861617200077
 30
0.0
  0
VERTEX
  5
1091
  8
SURVBND
 10
638586.4526745809707791
 20
607023.8446619891328737
 30
0.0
  0
VERTEX
  5
1092
  8
SURVBND
 10
638589.4619054314680398
 20
607028.8331204920541495
 30
0.0
  0
VERTEX
  5
1093
  8
SURVBND
 10
638590.4705260208575055
 20
607032.8272134781582281
 30
0.0
  0
VERTEX
  5
1094
  8
SURVBND
 10
638585.5058259716024622
 20
607045.8276164069538936
 30
0.0
  0
VERTEX
  5
1095
  8
SURVBND
 10
638590.5085395469795913
 20
607048.8130888035520911
 30
0.0
  0
VERTEX
  5
1096
  8
SURVBND
 10
638611.5090076746419072
 20
607056.75613371306099
 30
0.0
  0
VERTEX
  5
1097
  8
SURVBND
 10
638622.5088003424461931
 20
607060.7264682452660054
 30
0.0
  0
VERTEX
  5
1098
  8
SURVBND
 10
638626.5100208644289523
 20
607062.7151992794824764
 30
0.0
  0
VERTEX
  5
1099
  8
SURVBND
 10
638635.5139549619052559
 20
607067.6894027100643143
 30
0.0
  0
VERTEX
  5
109A
  8
SURVBND
 10
638639.5270547108957544
 20
607074.6737197835464031
 30
0.0
  0
VERTEX
  5
109B
  8
SURVBND
 10
638650.5387266055913642
 20
607083.6396403547842056
 30
0.0
  0
VERTEX
  5
109C
  8
SURVBND
 10
638661.5432709640590474
 20
607089.6082093026489019
 30
0.0
  0
VERTEX
  5
109D
  8
SURVBND
 10
638664.5429984328802675
 20
607090.6001989743672311
 30
0.0
  0
VERTEX
  5
109E
  8
SURVBND
 10
638670.5210707623045892
 20
607083.5921234472189099
 30
0.0
  0
VERTEX
  5
109F
  8
SURVBND
 10
638674.5104120575124398
 20
607080.5852684421697631
 30
0.0
  0
VERTEX
  5
10A0
  8
SURVBND
 10
638680.4956119229318574
 20
607076.5745445385109633
 30
0.0
  0
VERTEX
  5
10A1
  8
SURVBND
 10
638686.480811788351275
 20
607072.5638206348521635
 30
0.0
  0
VERTEX
  5
10A2
  8
SURVBND
 10
638690.472528929123655
 20
607070.5560828376328573
 30
0.0
  0
VERTEX
  5
10A3
  8
SURVBND
 10
638696.4624804853228852
 20
607068.5435933497501537
 30
0.0
  0
VERTEX
  5
10A4
  8
SURVBND
 10
638703.4563009401317686
 20
607068.5269624319626018
 30
0.0
  0
VERTEX
  5
10A5
  8
SURVBND
 10
638710.4620006219483912
 20
607073.505917553557083
 30
0.0
  0
VERTEX
  5
10A6
  8
SURVBND
 10
638711.4753729021176696
 20
607079.4982449552044272
 30
0.0
  0
VERTEX
  5
10A7
  8
SURVBND
 10
638712.4887451821705326
 20
607085.4905723567353562
 30
0.0
  0
VERTEX
  5
10A8
  8
SURVBND
 10
638711.5038830466801301
 20
607091.487651449162513
 30
0.0
  0
VERTEX
  5
10A9
  8
SURVBND
 10
638725.5247857917565852
 20
607105.442030523554422
 30
0.0
  0
VERTEX
  5
10AA
  8
SURVBND
 10
638739.514802546822466
 20
607106.4078858960419893
 30
0.0
  0
VERTEX
  5
10AB
  8
SURVBND
 10
638745.4976265669101849
 20
607101.398044784553349
 30
0.0
  0
VERTEX
  5
10AC
  8
SURVBND
 10
638749.4822161714546382
 20
607096.3929553638445213
 30
0.0
  0
VERTEX
  5
10AD
  8
SURVBND
 10
638752.4676885679364204
 20
607091.3902417884673923
 30
0.0
  0
VERTEX
  5
10AE
  8
SURVBND
 10
638760.455874539911747
 20
607089.3730006098048761
 30
0.0
  0
VERTEX
  5
10AF
  8
SURVBND
 10
638769.4408018741523847
 20
607086.3542663777479902
 30
0.0
  0
VERTEX
  5
10B0
  8
SURVBND
 10
638783.4284427840029821
 20
607086.3210045424057171
 30
0.0
  0
VERTEX
  5
10B1
  8
SURVBND
 10
638784.4299358371645212
 20
607087.3177459047874436
 30
0.0
  0
VERTEX
  5
10B2
  8
SURVBND
 10
638791.4308838283177465
 20
607090.2984666108386591
 30
0.0
  0
VERTEX
  5
10B3
  8
SURVBND
 10
638794.425859606359154
 20
607089.292221866780892
 30
0.0
  0
VERTEX
  5
10B4
  8
SURVBND
 10
638826.3857310302555561
 20
607084.2206087752711028
 30
0.0
  0
VERTEX
  5
10B5
  8
SURVBND
 10
638832.3709308956749737
 20
607080.209884871612303
 30
0.0
  0
VERTEX
  5
10B6
  8
SURVBND
 10
638841.3463548485888168
 20
607073.1946818083524704
 30
0.0
  0
VERTEX
  5
10B7
  8
SURVBND
 10
638845.3261927622370422
 20
607066.1913579718675464
 30
0.0
  0
VERTEX
  5
10B8
  8
SURVBND
 10
638845.3095618445659056
 20
607059.1975375170586631
 30
0.0
  0
VERTEX
  5
10B9
  8
SURVBND
 10
638844.2914378736168146
 20
607051.2069756997516379
 30
0.0
  0
VERTEX
  5
10BA
  8
SURVBND
 10
638847.2745344248833135
 20
607045.2051449165446684
 30
0.0
  0
VERTEX
  5
10BB
  8
SURVBND
 10
638849.2656413043150678
 20
607042.2030416022753343
 30
0.0
  0
VERTEX
  5
10BC
  8
SURVBND
 10
638852.2487378555815667
 20
607036.2012108191847801
 30
0.0
  0
VERTEX
  5
10BD
  8
SURVBND
 10
638854.2374688895652071
 20
607032.1999902970856056
 30
0.0
  0
VERTEX
  5
10BE
  8
SURVBND
 10
638852.2202277110191062
 20
607024.211804325110279
 30
0.0
  0
VERTEX
  5
10BF
  8
SURVBND
 10
638851.2044795854017138
 20
607017.2203597156330943
 30
0.0
  0
VERTEX
  5
10C0
  8
SURVBND
 10
638859.1902897120453417
 20
607014.2040013291407377
 30
0.0
  0
VERTEX
  5
10C1
  8
SURVBND
 10
638870.1782031528418884
 20
607013.1787498220801353
 30
0.0
  0
VERTEX
  5
10C2
  8
SURVBND
 10
638880.1646235404768959
 20
607011.1567569526378065
 30
0.0
  0
VERTEX
  5
10C3
  8
SURVBND
 10
638884.1539648356847465
 20
607008.1499019474722445
 30
0.0
  0
VERTEX
  5
10C4
  8
SURVBND
 10
638895.1371265857014805
 20
607005.1264160247519612
 30
0.0
  0
VERTEX
  5
10C5
  8
SURVBND
 10
638904.1291814561700448
 20
607005.105033416301012
 30
0.0
  0
VERTEX
  5
10C6
  8
SURVBND
 10
638912.1221191190415993
 20
607005.0860266531817615
 30
0.0
  0
VERTEX
  5
10C7
  8
SURVBND
 10
638915.1242224333109334
 20
607007.0771335327299312
 30
0.0
  0
VERTEX
  5
10C8
  8
SURVBND
 10
638926.119263410102576
 20
607009.0492336492752656
 30
0.0
  0
VERTEX
  5
10C9
  8
SURVBND
 10
638930.1228597776498646
 20
607012.0370818912051618
 30
0.0
  0
VERTEX
  5
10CA
  8
SURVBND
 10
638940.1306627737358212
 20
607019.0071438922313973
 30
0.0
  0
VERTEX
  5
10CB
  8
SURVBND
 10
638953.1334415478631854
 20
607024.9709611493162811
 30
0.0
  0
VERTEX
  5
10CC
  8
SURVBND
 10
638957.1322862247470766
 20
607025.9605749755864963
 30
0.0
  0
VERTEX
  5
10CD
  8
SURVBND
 10
638969.1145651824772358
 20
607022.934713207418099
 30
0.0
  0
VERTEX
  5
10CE
  8
SURVBND
 10
638970.0994273180840537
 20
607016.9376341151073575
 30
0.0
  0
VERTEX
  5
10CF
  8
SURVBND
 10
638964.0880931533174589
 20
607009.9580687325214967
 30
0.0
  0
VERTEX
  5
10D0
  8
SURVBND
 10
638961.0812381482683122
 20
607005.9687274373136461
 30
0.0
  0
VERTEX
  5
10D1
  8
SURVBND
 10
638954.0684109303401783
 20
606997.9924206923460588
 30
0.0
  0
VERTEX
  5
10D2
  8
SURVBND
 10
638946.0517148138023913
 20
606988.0202553770504892
 30
0.0
  0
VERTEX
  5
10D3
  8
SURVBND
 10
638944.0368494804715738
 20
606981.0311866129050031
 30
0.0
  0
VERTEX
  5
10D4
  8
SURVBND
 10
638942.0243599924724549
 20
606975.0412350567057729
 30
0.0
  0
VERTEX
  5
10D5
  8
SURVBND
 10
638940.0094946592580527
 20
606968.0521662925602868
 30
0.0
  0
VERTEX
  5
10D6
  8
SURVBND
 10
638940.0071188138099387
 20
606967.0530490848468617
 30
0.0
  0
VERTEX
  5
10D7
  8
SURVBND
 10
638935.9892673740396276
 20
606958.070497595705092
 30
0.0
  0
VERTEX
  5
10D8
  8
SURVBND
 10
638924.9704679432325065
 20
606946.1072254008613527
 30
0.0
  0
VERTEX
  5
10D9
  8
SURVBND
 10
638924.9585887164575979
 20
606941.1116393617121503
 30
0.0
  0
VERTEX
  5
10DA
  8
SURVBND
 10
638920.907475441112183
 20
606918.1414469629526138
 30
0.0
  0
VERTEX
  5
10DB
  8
SURVBND
 10
638919.896479006507434
 20
606913.1482367692515254
 30
0.0
  0
VERTEX
  5
10DC
  8
SURVBND
 10
638919.8703447070438415
 20
606902.1579474831232801
 30
0.0
  0
VERTEX
  5
10DD
  8
SURVBND
 10
638918.8617241177707911
 20
606898.1638544970192015
 30
0.0
  0
VERTEX
  5
10DE
  8
SURVBND
 10
638921.8353172874776646
 20
606888.1655548824928701
 30
0.0
  0
VERTEX
  5
10DF
  8
SURVBND
 10
638927.8062620806740597
 20
606878.1601277318550274
 30
0.0
  0
VERTEX
  5
10E0
  8
SURVBND
 10
638929.802120651002042
 20
606877.1562588332453743
 30
0.0
  0
VERTEX
  5
10E1
  8
SURVBND
 10
638936.7911894151475281
 20
606875.1413934999145567
 30
0.0
  0
VERTEX
  5
10E2
  8
SURVBND
 10
638948.7710925275459886
 20
606871.1164145240327343
 30
0.0
  0
VERTEX
  5
10E3
  8
SURVBND
 10
638955.7601612916914746
 20
606869.1015491905855015
 30
0.0
  0
VERTEX
  5
10E4
  8
SURVBND
 10
638966.7338196601485834
 20
606862.0815944365458563
 30
0.0
  0
VERTEX
  5
10E5
  8
SURVBND
 10
638968.7106714673573151
 20
606853.084787875181064
 30
0.0
  0
VERTEX
  5
10E6
  8
SURVBND
 10
638967.6972991873044521
 20
606847.0924604735337198
 30
0.0
  0
VERTEX
  5
10E7
  8
SURVBND
 10
638964.6785649553639814
 20
606838.1075331391766667
 30
0.0
  0
VERTEX
  5
10E8
  8
SURVBND
 10
638964.6571823469130322
 20
606829.1154782688245177
 30
0.0
  0
VERTEX
  5
10E9
  8
SURVBND
 10
638958.6125863468041644
 20
606808.1482719763880596
 30
0.0
  0
VERTEX
  5
10EA
  8
SURVBND
 10
638959.5950726369628683
 20
606801.1520756762474775
 30
0.0
  0
VERTEX
  5
10EB
  8
SURVBND
 10
638960.5585521642351523
 20
606786.1629417133517563
 30
0.0
  0
VERTEX
  5
10EC
  8
SURVBND
 10
638962.5330281257629395
 20
606776.1670179440407082
 30
0.0
  0
VERTEX
  5
10ED
  8
SURVBND
 10
638967.4929764843545854
 20
606761.1683805995853618
 30
0.0
  0
VERTEX
  5
10EE
  8
SURVBND
 10
638970.4784488809527829
 20
606756.1656670243246481
 30
0.0
  0
VERTEX
  5
10EF
  8
SURVBND
 10
638975.4621556932106614
 20
606751.1582017581677064
 30
0.0
  0
VERTEX
  5
10F0
  8
SURVBND
 10
638978.445252244360745
 20
606745.1563709750771523
 30
0.0
  0
VERTEX
  5
10F1
  8
SURVBND
 10
638982.4084592404542491
 20
606731.1592266837833449
 30
0.0
  0
VERTEX
  5
10F2
  8
SURVBND
 10
638984.3876868929946795
 20
606723.1615373303648084
 30
0.0
  0
VERTEX
  5
10F3
  8
SURVBND
 10
638983.3743146129418164
 20
606717.1692099287174642
 30
0.0
  0
VERTEX
  5
10F4
  8
SURVBND
 10
638980.3555803807685152
 20
606708.1842825943604112
 30
0.0
  0
VERTEX
  5
10F5
  8
SURVBND
 10
638976.3377289412310347
 20
606699.2017311053350568
 30
0.0
  0
VERTEX
  5
10F6
  8
SURVBND
 10
638975.3101015887223184
 20
606687.2147004567086697
 30
0.0
  0
VERTEX
  5
10F7
  8
SURVBND
 10
638975.2958465163828805
 20
606681.2199972097296268
 30
0.0
  0
VERTEX
  5
10F8
  8
SURVBND
 10
638984.2760221600765362
 20
606676.2030285620130599
 30
0.0
  0
VERTEX
  5
10F9
  8
SURVBND
 10
638997.2550424804212525
 20
606672.1756737407995388
 30
0.0
  0
VERTEX
  5
10FA
  8
SURVBND
 10
639007.2224561049370095
 20
606662.1607432084856555
 30
0.0
  0
VERTEX
  5
10FB
  8
SURVBND
 10
639011.190414791693911
 20
606650.1618333328515291
 30
0.0
  0
VERTEX
  5
10FC
  8
SURVBND
 10
639014.1687596520641819
 20
606642.161768134101294
 30
0.0
  0
VERTEX
  5
10FD
  8
SURVBND
 10
639016.1432356140576303
 20
606632.1658443649066612
 30
0.0
  0
VERTEX
  5
10FE
  8
SURVBND
 10
639017.1233460587682202
 20
606624.1705308568198234
 30
0.0
  0
VERTEX
  5
10FF
  8
SURVBND
 10
639011.0977568217786029
 20
606611.1962622272549197
 30
0.0
  0
VERTEX
  5
1100
  8
SURVBND
 10
639011.0882534402189776
 20
606607.1997933960519731
 30
0.0
  0
VERTEX
  5
1101
  8
SURVBND
 10
639013.0722327835392207
 20
606601.2003384581767023
 30
0.0
  0
VERTEX
  5
1102
  8
SURVBND
 10
639007.0371401649899781
 20
606584.2296009971760213
 30
0.0
  0
VERTEX
  5
1103
  8
SURVBND
 10
639007.0323884743265808
 20
606582.2313665815163404
 30
0.0
  0
VERTEX
  5
1104
  8
SURVBND
 10
639013.0080849581863731
 20
606574.2241738465381786
 30
0.0
  0
VERTEX
  5
1105
  8
SURVBND
 10
639031.9746809895150363
 20
606567.1852123293792829
 30
0.0
  0
VERTEX
  5
1106
  8
SURVBND
 10
639035.9687739753862843
 20
606566.1765917401062325
 30
0.0
  0
VERTEX
  5
1107
  8
SURVBND
 10
639048.9477942957310006
 20
606562.1492369186598808
 30
0.0
  0
VERTEX
  5
1108
  8
SURVBND
 10
639059.9523386543150991
 20
606568.1178058666409925
 30
0.0
  0
VERTEX
  5
1109
  8
SURVBND
 10
639058.9651006734929979
 20
606573.1157677511218935
 30
0.0
  0
VERTEX
  5
110A
  8
SURVBND
 10
639053.9885213972302154
 20
606581.1205846406519413
 30
0.0
  0
VERTEX
  5
110B
  8
SURVBND
 10
639050.00868348358199
 20
606588.1239084771368653
 30
0.0
  0
VERTEX
  5
110C
  8
SURVBND
 10
639052.0354280439205468
 20
606600.1085632803151384
 30
0.0
  0
VERTEX
  5
110D
  8
SURVBND
 10
639049.0618348740972579
 20
606610.1068628949578851
 30
0.0
  0
VERTEX
  5
110E
  8
SURVBND
 10
639050.0775829997146502
 20
606617.0983075043186545
 30
0.0
  0
VERTEX
  5
110F
  8
SURVBND
 10
639049.0998484004521742
 20
606626.0927382202353328
 30
0.0
  0
VERTEX
  5
1110
  8
SURVBND
 10
639045.1342655589105561
 20
606639.0907653036992997
 30
0.0
  0
VERTEX
  5
1111
  8
SURVBND
 10
639043.1502862154738978
 20
606645.0902202414581552
 30
0.0
  0
VERTEX
  5
1112
  8
SURVBND
 10
639047.1728893462568521
 20
606656.0710061461431906
 30
0.0
  0
VERTEX
  5
1113
  8
SURVBND
 10
639051.2144992396933958
 20
606675.0447297134669498
 30
0.0
  0
VERTEX
  5
1114
  8
SURVBND
 10
639051.238257693592459
 20
606685.0359017918817699
 30
0.0
  0
VERTEX
  5
1115
  8
SURVBND
 10
639054.252240234753117
 20
606692.022594710579142
 30
0.0
  0
VERTEX
  5
1116
  8
SURVBND
 10
639057.2947329204762354
 20
606710.9986941233510152
 30
0.0
  0
VERTEX
  5
1117
  8
SURVBND
 10
639056.3098707849858329
 20
606716.995773215778172
 30
0.0
  0
VERTEX
  5
1118
  8
SURVBND
 10
639054.3282672869972885
 20
606723.994345361366868
 30
0.0
  0
VERTEX
  5
1119
  8
SURVBND
 10
639053.3719152960693464
 20
606741.980830947868526
 30
0.0
  0
VERTEX
  5
111A
  8
SURVBND
 10
639052.3894290059106424
 20
606748.977027248009108
 30
0.0
  0
VERTEX
  5
111B
  8
SURVBND
 10
639053.4051771314116195
 20
606755.9684718574862927
 30
0.0
  0
VERTEX
  5
111C
  8
SURVBND
 10
639044.4582633231766522
 20
606774.9730814148206264
 30
0.0
  0
VERTEX
  5
111D
  8
SURVBND
 10
639043.4638978061266243
 20
606776.9736916759284213
 30
0.0
  0
VERTEX
  5
111E
  8
SURVBND
 10
639036.5199701043311507
 20
606797.9717839581426233
 30
0.0
  0
VERTEX
  5
111F
  8
SURVBND
 10
639041.5606972057139501
 20
606816.9431316801346838
 30
0.0
  0
VERTEX
  5
1120
  8
SURVBND
 10
639036.5912454656790942
 20
606827.9453001932706684
 30
0.0
  0
VERTEX
  5
1121
  8
SURVBND
 10
639041.6082141133956611
 20
606836.9254758368479088
 30
0.0
  0
VERTEX
  5
1122
  8
SURVBND
 10
639055.5815999507904053
 20
606830.8975107545265928
 30
0.0
  0
VERTEX
  5
1123
  8
SURVBND
 10
639066.5695133915869519
 20
606829.8722592474659905
 30
0.0
  0
VERTEX
  5
1124
  8
SURVBND
 10
639071.5674752761842683
 20
606830.859497228404507
 30
0.0
  0
VERTEX
  5
1125
  8
SURVBND
 10
639077.5526751418365166
 20
606826.8487733247457072
 30
0.0
  0
VERTEX
  5
1126
  8
SURVBND
 10
639080.550026765326038
 20
606826.8416457886341959
 30
0.0
  0
VERTEX
  5
1127
  8
SURVBND
 10
639083.5521300794789568
 20
606828.8327526680659503
 30
0.0
  0
VERTEX
  5
1128
  8
SURVBND
 10
639085.5646195673616603
 20
606834.8227042242651805
 30
0.0
  0
VERTEX
  5
1129
  8
SURVBND
 10
639087.5723573645809665
 20
606838.8144213649211451
 30
0.0
  0
VERTEX
  5
112A
  8
SURVBND
 10
639097.5777845153352246
 20
606844.7853661581175402
 30
0.0
  0
VERTEX
  5
112B
  8
SURVBND
 10
639101.5790050374343991
 20
606846.7740971923340112
 30
0.0
  0
VERTEX
  5
112C
  8
SURVBND
 10
639105.5778497140854597
 20
606847.7637110186042264
 30
0.0
  0
VERTEX
  5
112D
  8
SURVBND
 10
639113.5612839952809736
 20
606843.7482354241656139
 30
0.0
  0
VERTEX
  5
112E
  8
SURVBND
 10
639116.5467563918791711
 20
606838.7455218489049003
 30
0.0
  0
VERTEX
  5
112F
  8
SURVBND
 10
639121.5067047503544018
 20
606823.7468845044495538
 30
0.0
  0
VERTEX
  5
1130
  8
SURVBND
 10
639124.4731703839497641
 20
606810.7512332663172856
 30
0.0
  0
VERTEX
  5
1131
  8
SURVBND
 10
639126.433391273370944
 20
606794.7606062502600253
 30
0.0
  0
VERTEX
  5
1132
  8
SURVBND
 10
639128.4007396992528811
 20
606781.7673308575758711
 30
0.0
  0
VERTEX
  5
1133
  8
SURVBND
 10
639130.3657122794538736
 20
606767.7749382570618764
 30
0.0
  0
VERTEX
  5
1134
  8
SURVBND
 10
639130.3205712171038613
 20
606748.7917113081784919
 30
0.0
  0
VERTEX
  5
1135
  8
SURVBND
 10
639130.2991886086529121
 20
606739.7996564375935122
 30
0.0
  0
VERTEX
  5
1136
  8
SURVBND
 10
639129.2668095654807985
 20
606725.8143913733074442
 30
0.0
  0
VERTEX
  5
1137
  8
SURVBND
 10
639130.2469200103078038
 20
606717.8190778652206063
 30
0.0
  0
VERTEX
  5
1138
  8
SURVBND
 10
639133.2038822622271255
 20
606700.8269577958853915
 30
0.0
  0
VERTEX
  5
1139
  8
SURVBND
 10
639133.1729962724493816
 20
606687.83843409398105
 30
0.0
  0
VERTEX
  5
113A
  8
SURVBND
 10
639134.1531067170435563
 20
606679.8431205858942121
 30
0.0
  0
VERTEX
  5
113B
  8
SURVBND
 10
639142.1127825444564223
 20
606665.8364729131571949
 30
0.0
  0
VERTEX
  5
113C
  8
SURVBND
 10
639152.0730686327442527
 20
606652.8241907574702054
 30
0.0
  0
VERTEX
  5
113D
  8
SURVBND
 10
639154.0332895225146785
 20
606636.8335637412965298
 30
0.0
  0
VERTEX
  5
113E
  8
SURVBND
 10
639153.0056621698895469
 20
606624.8465330926701427
 30
0.0
  0
VERTEX
  5
113F
  8
SURVBND
 10
639151.9732831267174333
 20
606610.8612680282676592
 30
0.0
  0
VERTEX
  5
1140
  8
SURVBND
 10
639154.944500450976193
 20
606599.8638512059114873
 30
0.0
  0
VERTEX
  5
1141
  8
SURVBND
 10
639159.9068246548995376
 20
606585.8643310694023967
 30
0.0
  0
VERTEX
  5
1142
  8
SURVBND
 10
639159.8711869741091505
 20
606570.8775729517219588
 30
0.0
  0
VERTEX
  5
1143
  8
SURVBND
 10
639160.8394181919284165
 20
606557.8866734044859186
 30
0.0
  0
VERTEX
  5
1144
  8
SURVBND
 10
639168.8085974007844925
 20
606547.8764945629518479
 30
0.0
  0
VERTEX
  5
1145
  8
SURVBND
 10
639170.7593149088788778
 20
606527.8893987155752257
 30
0.0
  0
VERTEX
  5
1146
  8
SURVBND
 10
639166.7248325513210148
 20
606511.9130267717409879
 30
0.0
  0
VERTEX
  5
1147
  8
SURVBND
 10
639167.7001913053682074
 20
606501.9194788478780538
 30
0.0
  0
VERTEX
  5
1148
  8
SURVBND
 10
639171.6657741469098255
 20
606488.9214517645305023
 30
0.0
  0
VERTEX
  5
1149
  8
SURVBND
 10
639171.6325123113347217
 20
606474.9338108547963202
 30
0.0
  0
VERTEX
  5
114A
  8
SURVBND
 10
639171.5992504759924486
 20
606460.9461699450621381
 30
0.0
  0
VERTEX
  5
114B
  8
SURVBND
 10
639172.5769850753713399
 20
606451.9517392291454598
 30
0.0
  0
VERTEX
  5
114C
  8
SURVBND
 10
639173.5523438295349479
 20
606441.958191305398941
 30
0.0
  0
VERTEX
  5
114D
  8
SURVBND
 10
639175.5244439458474517
 20
606430.9631503283744678
 30
0.0
  0
VERTEX
  5
114E
  8
SURVBND
 10
639176.502178545226343
 20
606421.9687196125742048
 30
0.0
  0
VERTEX
  5
114F
  8
SURVBND
 10
639179.4805234058294445
 20
606413.9686544137075543
 30
0.0
  0
VERTEX
  5
1150
  8
SURVBND
 10
639186.457712942850776
 20
606406.9582030413439497
 30
0.0
  0
VERTEX
  5
1151
  8
SURVBND
 10
639190.4304233203874901
 20
606396.957527581253089
 30
0.0
  0
VERTEX
  5
1152
  8
SURVBND
 10
639192.4096509730443358
 20
606388.9598382278345525
 30
0.0
  0
VERTEX
  5
1153
  8
SURVBND
 10
639192.3692616014741361
 20
606371.974845694610849
 30
0.0
  0
VERTEX
  5
1154
  8
SURVBND
 10
639196.3253410613397136
 20
606354.9803497799439356
 30
0.0
  0
VERTEX
  5
1155
  8
SURVBND
 10
639201.2852894199313596
 20
606339.9817124353721738
 30
0.0
  0
VERTEX
  5
1156
  8
SURVBND
 10
639207.2491066767834127
 20
606326.9789336612448096
 30
0.0
  0
VERTEX
  5
1157
  8
SURVBND
 10
639212.2256859529297799
 20
606318.9741167715983465
 30
0.0
  0
VERTEX
  5
1158
  8
SURVBND
 10
639215.1969032774213701
 20
606307.9766999492421746
 30
0.0
  0
VERTEX
  5
1159
  8
SURVBND
 10
639220.1663550173398107
 20
606296.9745314362226054
 30
0.0
  0
VERTEX
  5
115A
  8
SURVBND
 10
639222.1170725252013654
 20
606276.9874355886131525
 30
0.0
  0
VERTEX
  5
115B
  8
SURVBND
 10
639227.0841484197881073
 20
606264.9861498676473275
 30
0.0
  0
VERTEX
  5
115C
  8
SURVBND
 10
639231.0402278796536848
 20
606247.991653952980414
 30
0.0
  0
VERTEX
  5
115D
  8
SURVBND
 10
639231.0140935805393383
 20
606237.0013646667357534
 30
0.0
  0
VERTEX
  5
115E
  8
SURVBND
 10
639229.986466228030622
 20
606225.014334017992951
 30
0.0
  0
VERTEX
  5
115F
  8
SURVBND
 10
639230.9689525181893259
 20
606218.018137717852369
 30
0.0
  0
VERTEX
  5
1160
  8
SURVBND
 10
639231.9419354269048199
 20
606207.0254725861595944
 30
0.0
  0
VERTEX
  5
1161
  8
SURVBND
 10
639229.9246942481258884
 20
606199.0372866143006831
 30
0.0
  0
VERTEX
  5
1162
  8
SURVBND
 10
639227.9050772238988429
 20
606190.0499834344955161
 30
0.0
  0
VERTEX
  5
1163
  8
SURVBND
 10
639224.8958463735179976
 20
606185.061524931457825
 30
0.0
  0
VERTEX
  5
1164
  8
SURVBND
 10
639218.8797605180880055
 20
606176.0837251332122833
 30
0.0
  0
VERTEX
  5
1165
  8
SURVBND
 10
639216.862519339309074
 20
606168.095539161353372
 30
0.0
  0
VERTEX
  5
1166
  8
SURVBND
 10
639211.8360473101492971
 20
606155.1188946864567697
 30
0.0
  0
VERTEX
  5
1167
  8
SURVBND
 10
639210.8155474938685074
 20
606146.1292156612034887
 30
0.0
  0
VERTEX
  5
1168
  8
SURVBND
 10
639208.786427088198252
 20
606133.1454436500789598
 30
0.0
  0
VERTEX
  5
1169
  8
SURVBND
 10
639211.7481410310138017
 20
606118.1515579962870106
 30
0.0
  0
VERTEX
  5
116A
  8
SURVBND
 10
639217.7190858242101967
 20
606108.1461308456491679
 30
0.0
  0
VERTEX
  5
116B
  8
SURVBND
 10
639215.6828378825448453
 20
606092.1650072111515328
 30
0.0
  0
VERTEX
  5
116C
  8
SURVBND
 10
639214.6599622208159417
 20
606082.1762109780684114
 30
0.0
  0
VERTEX
  5
116D
  8
SURVBND
 10
639214.6243245401419699
 20
606067.1894528606208041
 30
0.0
  0
VERTEX
  5
116E
  8
SURVBND
 10
639206.5957491965964437
 20
606052.2217015060596168
 30
0.0
  0
VERTEX
  5
116F
  8
SURVBND
 10
639206.5648632064694539
 20
606039.2331778041552752
 30
0.0
  0
VERTEX
  5
1170
  8
SURVBND
 10
639208.5393391684629023
 20
606029.2372540350770578
 30
0.0
  0
VERTEX
  5
1171
  8
SURVBND
 10
639212.5049220097716898
 20
606016.2392269516130909
 30
0.0
  0
VERTEX
  5
1172
  8
SURVBND
 10
639219.4583530931267887
 20
605999.2376035007182509
 30
0.0
  0
VERTEX
  5
1173
  8
SURVBND
 10
639226.418911712593399
 20
605985.2333316733129323
 30
0.0
  0
VERTEX
  5
1174
  8
SURVBND
 10
639231.3883634527446702
 20
605974.231163160293363
 30
0.0
  0
VERTEX
  5
1175
  8
SURVBND
 10
639235.3682013662764803
 20
605967.2278393239248544
 30
0.0
  0
VERTEX
  5
1176
  8
SURVBND
 10
639236.3625668833265081
 20
605965.2272290628170595
 30
0.0
  0
VERTEX
  5
1177
  8
SURVBND
 10
639239.3527909707045183
 20
605962.2227499030996114
 30
0.0
  0
VERTEX
  5
1178
  8
SURVBND
 10
639244.3246185559546575
 20
605952.2196985979098827
 30
0.0
  0
VERTEX
  5
1179
  8
SURVBND
 10
639254.3110389437060803
 20
605950.1977057283511385
 30
0.0
  0
VERTEX
  5
117A
  8
SURVBND
 10
639263.3078455049544573
 20
605952.1745575355598703
 30
0.0
  0
VERTEX
  5
117B
  8
SURVBND
 10
639272.3236588294385001
 20
605962.1443470056401566
 30
0.0
  0
VERTEX
  5
117C
  8
SURVBND
 10
639282.3385893615195528
 20
605972.1117606301559135
 30
0.0
  0
VERTEX
  5
117D
  8
SURVBND
 10
639288.3475476809544489
 20
605978.0922088047955185
 30
0.0
  0
VERTEX
  5
117E
  8
SURVBND
 10
639297.3514817783143371
 20
605983.0664122354937717
 30
0.0
  0
VERTEX
  5
117F
  8
SURVBND
 10
639339.3880557144293562
 20
606013.9392601724248379
 30
0.0
  0
VERTEX
  5
1180
  8
SURVBND
 10
639348.4038690386805683
 20
606023.9090496422722936
 30
0.0
  0
VERTEX
  5
1181
  8
SURVBND
 10
639358.4045444986550137
 20
606027.881760019925423
 30
0.0
  0
VERTEX
  5
1182
  8
SURVBND
 10
639362.3915099484147504
 20
606023.8757878069300205
 30
0.0
  0
VERTEX
  5
1183
  8
SURVBND
 10
639364.3754892917349935
 20
606017.8763328691711649
 30
0.0
  0
VERTEX
  5
1184
  8
SURVBND
 10
639360.3528861610684544
 20
606006.8955469644861296
 30
0.0
  0
VERTEX
  5
1185
  8
SURVBND
 10
639360.3433827796252444
 20
606002.8990781331667677
 30
0.0
  0
VERTEX
  5
1186
  8
SURVBND
 10
639359.3181312725646421
 20
605991.911164692370221
 30
0.0
  0
VERTEX
  5
1187
  8
SURVBND
 10
639341.3150147686246783
 20
605983.9609922466333956
 30
0.0
  0
VERTEX
  5
1188
  8
SURVBND
 10
639340.3087700244504958
 20
605980.9660164683591574
 30
0.0
  0
VERTEX
  5
1189
  8
SURVBND
 10
639337.2852841018466279
 20
605969.9828547183424234
 30
0.0
  0
VERTEX
  5
118A
  8
SURVBND
 10
639338.2677703918889165
 20
605962.9866584180854261
 30
0.0
  0
VERTEX
  5
118B
  8
SURVBND
 10
639341.253242788487114
 20
605957.9839448428247124
 30
0.0
  0
VERTEX
  5
118C
  8
SURVBND
 10
639340.2137362092034891
 20
605941.0013281549327075
 30
0.0
  0
VERTEX
  5
118D
  8
SURVBND
 10
639717.9037992253433913
 20
605950.0944306785240769
 30
0.0
  0
VERTEX
  5
118E
  8
SURVBND
 10
640457.0164380300557241
 20
606270.0544218639843166
 30
0.0
  0
VERTEX
  5
118F
  8
SURVBND
 10
640444.4756869584089145
 20
606878.550063272123225
 30
0.0
  0
VERTEX
  5
1190
  8
SURVBND
 10
640900.993848042213358
 20
606844.4934340734034777
 30
0.0
  0
VERTEX
  5
1191
  8
SURVBND
 10
640886.8351462649879977
 20
606772.5902569446479902
 30
0.0
  0
VERTEX
  5
1192
  8
SURVBND
 10
641349.6544946500798687
 20
606867.4054924845695496
 30
0.0
  0
VERTEX
  5
1193
  8
SURVBND
 10
641459.4671053875936195
 20
606829.177695594727993
 30
0.0
  0
VERTEX
  5
1194
  8
SURVBND
 10
641492.24315392493736
 20
606747.1716816545231268
 30
0.0
  0
VERTEX
  5
1195
  8
SURVBND
 10
641729.2049930498469621
 20
606818.5450452629011124
 30
0.0
  0
VERTEX
  5
1196
  8
SURVBND
 10
641721.0850218832492828
 20
606344.9801196659682319
 30
0.0
  0
VERTEX
  5
1197
  8
SURVBND
 10
641666.0646759362425655
 20
606316.1363921348238364
 30
0.0
  0
VERTEX
  5
1198
  8
SURVBND
 10
641769.7352810129523277
 20
606215.9775834312895313
 30
0.0
  0
VERTEX
  5
1199
  8
SURVBND
 10
641593.2943152425577864
 20
605965.6173130515962839
 30
0.0
  0
VERTEX
  5
119A
  8
SURVBND
 10
641608.069623121060431
 20
605876.6602438732516021
 30
0.0
  0
VERTEX
  5
119B
  8
SURVBND
 10
641563.9611635624896735
 20
605814.8195141843752936
 30
0.0
  0
VERTEX
  5
119C
  8
SURVBND
 10
641567.9647599301533774
 20
605817.8073624263051897
 30
0.0
  0
VERTEX
  5
119D
  8
SURVBND
 10
641568.9638771378668025
 20
605817.8049865808570758
 30
0.0
  0
VERTEX
  5
119E
  8
SURVBND
 10
641570.9621115536428988
 20
605817.8002348903100938
 30
0.0
  0
VERTEX
  5
119F
  8
SURVBND
 10
641596.9415348026668653
 20
605818.7375801182352006
 30
0.0
  0
VERTEX
  5
11A0
  8
SURVBND
 10
641601.884852243354544
 20
605796.7451223188545555
 30
0.0
  0
VERTEX
  5
11A1
  8
SURVBND
 10
641614.8733759451424703
 20
605796.7142363287275657
 30
0.0
  0
VERTEX
  5
11A2
  8
SURVBND
 10
641629.8482548359315842
 20
605791.6830126087879762
 30
0.0
  0
VERTEX
  5
11A3
  8
SURVBND
 10
641639.8275476874550804
 20
605786.663668115856126
 30
0.0
  0
VERTEX
  5
11A4
  8
SURVBND
 10
641642.7963891662657261
 20
605774.6671340856701136
 30
0.0
  0
VERTEX
  5
11A5
  8
SURVBND
 10
641664.7864711203146726
 20
605778.6113343185279518
 30
0.0
  0
VERTEX
  5
11A6
  8
SURVBND
 10
641666.7870813814224675
 20
605779.6056998354615644
 30
0.0
  0
VERTEX
  5
11A7
  8
SURVBND
 10
641669.7986880771350116
 20
605785.5932755464455113
 30
0.0
  0
VERTEX
  5
11A8
  8
SURVBND
 10
641684.8187080301577225
 20
605799.5452787755057216
 30
0.0
  0
VERTEX
  5
11A9
  8
SURVBND
 10
641689.8333008321933448
 20
605807.5263372112531215
 30
0.0
  0
VERTEX
  5
11AA
  8
SURVBND
 10
641704.7939246505266055
 20
605796.5004102443344891
 30
0.0
  0
VERTEX
  5
11AB
  8
SURVBND
 10
641701.7894454909255728
 20
605793.510186156956479
 30
0.0
  0
VERTEX
  5
11AC
  8
SURVBND
 10
641700.783200746984221
 20
605790.5152103787986562
 30
0.0
  0
VERTEX
  5
11AD
  8
SURVBND
 10
641706.7565213855123147
 20
605781.5089004359906539
 30
0.0
  0
VERTEX
  5
11AE
  8
SURVBND
 10
641713.7455901496578008
 20
605779.4940351025434211
 30
0.0
  0
VERTEX
  5
11AF
  8
SURVBND
 10
641715.7366970290895551
 20
605776.4919317883905023
 30
0.0
  0
VERTEX
  5
11B0
  8
SURVBND
 10
641719.7022798706311733
 20
605763.4939047050429508
 30
0.0
  0
VERTEX
  5
11B1
  8
SURVBND
 10
641719.699904025066644
 20
605762.494787497096695
 30
0.0
  0
VERTEX
  5
11B2
  8
SURVBND
 10
641724.6931142188841477
 20
605761.4837910623755306
 30
0.0
  0
VERTEX
  5
11B3
  8
SURVBND
 10
641725.6922314267139882
 20
605761.4814152170438319
 30
0.0
  0
VERTEX
  5
11B4
  8
SURVBND
 10
641734.6724070704076439
 20
605756.464446569327265
 30
0.0
  0
VERTEX
  5
11B5
  8
SURVBND
 10
641739.6489863465540111
 20
605748.4596296799136326
 30
0.0
  0
VERTEX
  5
11B6
  8
SURVBND
 10
641744.6493240763666108
 20
605750.445984868449159
 30
0.0
  0
VERTEX
  5
11B7
  8
SURVBND
 10
641765.6402888225857168
 20
605754.3925609467551112
 30
0.0
  0
VERTEX
  5
11B8
  8
SURVBND
 10
641768.6210095284041017
 20
605747.3916129559511319
 30
0.0
  0
VERTEX
  5
11B9
  8
SURVBND
 10
641765.5927719149040058
 20
605734.4102167900418863
 30
0.0
  0
VERTEX
  5
11BA
  8
SURVBND
 10
641764.5722720987396315
 20
605725.4205377649050206
 30
0.0
  0
VERTEX
  5
11BB
  8
SURVBND
 10
641785.5561093086143956
 20
605726.3697622197214514
 30
0.0
  0
VERTEX
  5
11BC
  8
SURVBND
 10
641799.5698845173465088
 20
605737.3267896706238389
 30
0.0
  0
VERTEX
  5
11BD
  8
SURVBND
 10
641818.5317288578953594
 20
605728.2895937379216775
 30
0.0
  0
VERTEX
  5
11BE
  8
SURVBND
 10
641827.5166561922524124
 20
605725.2708595057483763
 30
0.0
  0
VERTEX
  5
11BF
  8
SURVBND
 10
641829.474501236458309
 20
605708.2811152817448601
 30
0.0
  0
VERTEX
  5
11C0
  8
SURVBND
 10
641834.4629597394960001
 20
605705.2718844313640147
 30
0.0
  0
VERTEX
  5
11C1
  8
SURVBND
 10
641851.4384488911600783
 20
605701.2350262284744531
 30
0.0
  0
VERTEX
  5
11C2
  8
SURVBND
 10
641854.4262971332063898
 20
605697.2314298610435799
 30
0.0
  0
VERTEX
  5
11C3
  8
SURVBND
 10
641860.4019936171825975
 20
605689.2242371260654181
 30
0.0
  0
VERTEX
  5
11C4
  8
SURVBND
 10
641870.3812864685896784
 20
605684.2048926331335679
 30
0.0
  0
VERTEX
  5
11C5
  8
SURVBND
 10
641884.3736790691036731
 20
605686.1698652133345604
 30
0.0
  0
VERTEX
  5
11C6
  8
SURVBND
 10
641896.3583338723983616
 20
605684.1431206532288343
 30
0.0
  0
VERTEX
  5
11C7
  8
SURVBND
 10
641915.3320574398385361
 20
605680.1015107594430447
 30
0.0
  0
VERTEX
  5
11C8
  8
SURVBND
 10
641910.3079612557776272
 20
605668.1239834923762828
 30
0.0
  0
VERTEX
  5
11C9
  8
SURVBND
 10
641897.2980549456551671
 20
605659.1628146119182929
 30
0.0
  0
VERTEX
  5
11CA
  8
SURVBND
 10
641903.2666238932870328
 20
605648.1582702534506097
 30
0.0
  0
VERTEX
  5
11CB
  8
SURVBND
 10
641914.2521614887518808
 20
605646.1339015384437516
 30
0.0
  0
VERTEX
  5
11CC
  8
SURVBND
 10
641927.252564417780377
 20
605651.0986015875823796
 30
0.0
  0
VERTEX
  5
11CD
  8
SURVBND
 10
641934.2535124087007716
 20
605654.0793222934007645
 30
0.0
  0
VERTEX
  5
11CE
  8
SURVBND
 10
641946.2595498202135786
 20
605661.0446326036471874
 30
0.0
  0
VERTEX
  5
11CF
  8
SURVBND
 10
641968.2401283928193152
 20
605660.992364005302079
 30
0.0
  0
VERTEX
  5
11D0
  8
SURVBND
 10
641971.2208490986377001
 20
605653.991416014265269
 30
0.0
  0
VERTEX
  5
11D1
  8
SURVBND
 10
641973.2000767511781305
 20
605645.9937266608467326
 30
0.0
  0
VERTEX
  5
11D2
  8
SURVBND
 10
641978.1909110995475203
 20
605643.9836130181793123
 30
0.0
  0
VERTEX
  5
11D3
  8
SURVBND
 10
641992.1714244732866064
 20
605640.9529995593475178
 30
0.0
  0
VERTEX
  5
11D4
  8
SURVBND
 10
642006.1376827744534239
 20
605631.9276828535366803
 30
0.0
  0
VERTEX
  5
11D5
  8
SURVBND
 10
642010.1246482244459912
 20
605627.9217106405412778
 30
0.0
  0
VERTEX
  5
11D6
  8
SURVBND
 10
642022.0736653468338773
 20
605610.9082079627551138
 30
0.0
  0
VERTEX
  5
11D7
  8
SURVBND
 10
642034.0559443045640364
 20
605607.8823461947031319
 30
0.0
  0
VERTEX
  5
11D8
  8
SURVBND
 10
642043.0266165668144822
 20
605598.8689087156672031
 30
0.0
  0
VERTEX
  5
11D9
  8
SURVBND
 10
642039.991251417202875
 20
605582.8901609263848513
 30
0.0
  0
VERTEX
  5
11DA
  8
SURVBND
 10
642051.9640269936062396
 20
605575.8678303270135075
 30
0.0
  0
VERTEX
  5
11DB
  8
SURVBND
 10
642069.9433850438799709
 20
605573.8268306944519281
 30
0.0
  0
VERTEX
  5
11DC
  8
SURVBND
 10
642069.9481367345433682
 20
605575.8250651101116091
 30
0.0
  0
VERTEX
  5
11DD
  8
SURVBND
 10
642077.9482019334100187
 20
605578.80340997048188
 30
0.0
  0
VERTEX
  5
11DE
  8
SURVBND
 10
642083.928650108166039
 20
605572.7944516511633992
 30
0.0
  0
VERTEX
  5
11DF
  8
SURVBND
 10
642087.9061121764825657
 20
605564.7920106069650501
 30
0.0
  0
VERTEX
  5
11E0
  8
SURVBND
 10
642090.879705346073024
 20
605554.7937109924387187
 30
0.0
  0
VERTEX
  5
11E1
  8
SURVBND
 10
642088.8624641674105078
 20
605546.8055250205798075
 30
0.0
  0
VERTEX
  5
11E2
  8
SURVBND
 10
642079.8418991521466523
 20
605534.8375011349562556
 30
0.0
  0
VERTEX
  5
11E3
  8
SURVBND
 10
642083.821737065911293
 20
605527.8341772985877469
 30
0.0
  0
VERTEX
  5
11E4
  8
SURVBND
 10
642080.8006269886391237
 20
605517.8501327564008534
 30
0.0
  0
VERTEX
  5
11E5
  8
SURVBND
 10
642076.7590170949697495
 20
605498.8764091889606789
 30
0.0
  0
VERTEX
  5
11E6
  8
SURVBND
 10
642077.7581343029160053
 20
605498.8740333435125649
 30
0.0
  0
VERTEX
  5
11E7
  8
SURVBND
 10
642092.7353890388039872
 20
605494.8419268315192312
 30
0.0
  0
VERTEX
  5
11E8
  8
SURVBND
 10
642099.7149544215062633
 20
605488.8305926667526364
 30
0.0
  0
VERTEX
  5
11E9
  8
SURVBND
 10
642104.6915336976526305
 20
605480.8257757772225887
 30
0.0
  0
VERTEX
  5
11EA
  8
SURVBND
 10
642106.6660096595296636
 20
605470.8298520080279559
 30
0.0
  0
VERTEX
  5
11EB
  8
SURVBND
 10
642115.6438094575423747
 20
605464.8137661525979638
 30
0.0
  0
VERTEX
  5
11EC
  8
SURVBND
 10
642132.5931643099756911
 20
605449.7866186634637415
 30
0.0
  0
VERTEX
  5
11ED
  8
SURVBND
 10
642145.5555537127656862
 20
605438.7654433874413371
 30
0.0
  0
VERTEX
  5
11EE
  8
SURVBND
 10
642146.5475433843676001
 20
605435.765715918620117
 30
0.0
  0
VERTEX
  5
11EF
  8
SURVBND
 10
642149.523512399639003
 20
605426.7665335118072107
 30
0.0
  0
VERTEX
  5
11F0
  8
SURVBND
 10
642130.5046477698488161
 20
605411.8249164564767852
 30
0.0
  0
VERTEX
  5
11F1
  8
SURVBND
 10
642132.4624928140547127
 20
605394.8351722325896844
 30
0.0
  0
VERTEX
  5
11F2
  8
SURVBND
 10
642143.4385270279599354
 20
605388.8143346862634644
 30
0.0
  0
VERTEX
  5
11F3
  8
SURVBND
 10
642146.3907375890994444
 20
605369.8239802012685686
 30
0.0
  0
VERTEX
  5
11F4
  8
SURVBND
 10
642136.3639278300106525
 20
605354.8609805374871939
 30
0.0
  0
VERTEX
  5
11F5
  8
SURVBND
 10
642138.3289004103280604
 20
605340.8685879369731992
 30
0.0
  0
VERTEX
  5
11F6
  8
SURVBND
 10
642148.2773072719573975
 20
605322.8607197421370074
 30
0.0
  0
VERTEX
  5
11F7
  8
SURVBND
 10
642143.246083552017808
 20
605307.8858408514643088
 30
0.0
  0
VERTEX
  5
11F8
  8
SURVBND
 10
642143.2389560157898813
 20
605304.8884892279747874
 30
0.0
  0
VERTEX
  5
11F9
  8
SURVBND
 10
642131.1592673972481862
 20
605266.9505454747704789
 30
0.0
  0
VERTEX
  5
11FA
  8
SURVBND
 10
642142.071153785684146
 20
605233.9535433169221506
 30
0.0
  0
VERTEX
  5
11FB
  8
SURVBND
 10
642133.0101993990829214
 20
605205.0005268980748951
 30
0.0
  0
VERTEX
  5
11FC
  8
SURVBND
 10
642124.9744965195422992
 20
605187.035423920257017
 30
0.0
  0
VERTEX
  5
11FD
  8
SURVBND
 10
642133.9142827916657552
 20
605165.0334627393167466
 30
0.0
  0
VERTEX
  5
11FE
  8
SURVBND
 10
642151.8698823881568387
 20
605153.0012910284567624
 30
0.0
  0
VERTEX
  5
11FF
  8
SURVBND
 10
642164.8156408730428666
 20
605134.9862952972762287
 30
0.0
  0
VERTEX
  5
1200
  8
SURVBND
 10
642156.7989447566214949
 20
605125.0141299819806591
 30
0.0
  0
VERTEX
  5
1201
  8
SURVBND
 10
642146.7863900697557256
 20
605116.0458335652947426
 30
0.0
  0
VERTEX
  5
1202
  8
SURVBND
 10
642139.7616836249362677
 20
605103.0739407811779529
 30
0.0
  0
VERTEX
  5
1203
  8
SURVBND
 10
642137.7515699821524322
 20
605098.0831064326921478
 30
0.0
  0
VERTEX
  5
1204
  8
SURVBND
 10
642132.7298496438888833
 20
605087.1046963734552264
 30
0.0
  0
VERTEX
  5
1205
  8
SURVBND
 10
642131.7069739821599796
 20
605077.1159001403721049
 30
0.0
  0
VERTEX
  5
1206
  8
SURVBND
 10
642131.6879672191571444
 20
605069.1229624778497964
 30
0.0
  0
VERTEX
  5
1207
  8
SURVBND
 10
642123.6712711027357727
 20
605059.1507971624378115
 30
0.0
  0
VERTEX
  5
1208
  8
SURVBND
 10
642121.6635333056328818
 20
605055.1590800217818469
 30
0.0
  0
VERTEX
  5
1209
  8
SURVBND
 10
642141.6482533074449748
 20
605056.1106803220463917
 30
0.0
  0
VERTEX
  5
120A
  8
SURVBND
 10
642138.6223915395094082
 20
605044.1284013640834019
 30
0.0
  0
VERTEX
  5
120B
  8
SURVBND
 10
642146.6010741299251094
 20
605038.1146913541015238
 30
0.0
  0
VERTEX
  5
120C
  8
SURVBND
 10
642150.5642811259021983
 20
605024.1175470628077164
 30
0.0
  0
VERTEX
  5
120D
  8
SURVBND
 10
642157.5319672814803198
 20
605013.1106268588919193
 30
0.0
  0
VERTEX
  5
120E
  8
SURVBND
 10
642154.5108572042081505
 20
605003.1265823167050257
 30
0.0
  0
VERTEX
  5
120F
  8
SURVBND
 10
642146.4917852422222495
 20
604992.1552997935796157
 30
0.0
  0
VERTEX
  5
1210
  8
SURVBND
 10
642142.481061338679865
 20
604986.1700999280437827
 30
0.0
  0
VERTEX
  5
1211
  8
SURVBND
 10
642131.4670135986525565
 20
604976.2050621487433091
 30
0.0
  0
VERTEX
  5
1212
  8
SURVBND
 10
642124.4518105352763087
 20
604967.2296381959458813
 30
0.0
  0
VERTEX
  5
1213
  8
SURVBND
 10
642121.4402038394473493
 20
604961.242062485194765
 30
0.0
  0
VERTEX
  5
1214
  8
SURVBND
 10
642125.415290062315762
 20
604952.2405042330501601
 30
0.0
  0
VERTEX
  5
1215
  8
SURVBND
 10
642129.3927521306322888
 20
604944.238063188851811
 30
0.0
  0
VERTEX
  5
1216
  8
SURVBND
 10
642136.3509349047672004
 20
604929.2346741537330672
 30
0.0
  0
VERTEX
  5
1217
  8
SURVBND
 10
642139.3174005382461473
 20
604916.239022915600799
 30
0.0
  0
VERTEX
  5
1218
  8
SURVBND
 10
642132.3188283926574513
 20
604914.2574194176122546
 30
0.0
  0
VERTEX
  5
1219
  8
SURVBND
 10
642129.3191009239526466
 20
604913.2654297458939254
 30
0.0
  0
VERTEX
  5
121A
  8
SURVBND
 10
642121.2952772710705176
 20
604900.2959128071088344
 30
0.0
  0
VERTEX
  5
121B
  8
SURVBND
 10
642123.276880769059062
 20
604893.2973406615201384
 30
0.0
  0
VERTEX
  5
121C
  8
SURVBND
 10
642120.2557706917868927
 20
604883.3132961194496602
 30
0.0
  0
VERTEX
  5
121D
  8
SURVBND
 10
642122.2468775714514777
 20
604880.3111928050639108
 30
0.0
  0
VERTEX
  5
121E
  8
SURVBND
 10
642132.2119153504027054
 20
604869.297145064920187
 30
0.0
  0
VERTEX
  5
121F
  8
SURVBND
 10
642130.2018017078517005
 20
604864.3063107165507972
 30
0.0
  0
VERTEX
  5
1220
  8
SURVBND
 10
642126.1982053405372426
 20
604861.3184624747373164
 30
0.0
  0
VERTEX
  5
1221
  8
SURVBND
 10
642128.1726813021814451
 20
604851.3225387054262683
 30
0.0
  0
VERTEX
  5
1222
  8
SURVBND
 10
642139.1439638253068551
 20
604843.3034667435567826
 30
0.0
  0
VERTEX
  5
1223
  8
SURVBND
 10
642147.1250222611706704
 20
604838.2888739412883297
 30
0.0
  0
VERTEX
  5
1224
  8
SURVBND
 10
642141.0970571788493544
 20
604824.3154881037771702
 30
0.0
  0
VERTEX
  5
1225
  8
SURVBND
 10
642129.107650684658438
 20
604824.343998248456046
 30
0.0
  0
VERTEX
  5
1226
  8
SURVBND
 10
642126.08416476205457
 20
604813.3608364985557273
 30
0.0
  0
VERTEX
  5
1227
  8
SURVBND
 10
642130.0568751394748688
 20
604803.3601610385812819
 30
0.0
  0
VERTEX
  5
1228
  8
SURVBND
 10
642130.0331166856922209
 20
604793.3689889601664618
 30
0.0
  0
VERTEX
  5
1229
  8
SURVBND
 10
642128.0111238161334768
 20
604783.3825685725314543
 30
0.0
  0
VERTEX
  5
122A
  8
SURVBND
 10
642125.991506792139262
 20
604774.3952653927262872
 30
0.0
  0
VERTEX
  5
122B
  8
SURVBND
 10
642122.9656450239708647
 20
604762.4129864348797128
 30
0.0
  0
VERTEX
  5
122C
  8
SURVBND
 10
642119.9397832558024675
 20
604750.4307074770331383
 30
0.0
  0
VERTEX
  5
122D
  8
SURVBND
 10
642116.9281765600899234
 20
604744.4431317660491914
 30
0.0
  0
VERTEX
  5
122E
  8
SURVBND
 10
642113.9094423280330375
 20
604735.4582044316921383
 30
0.0
  0
VERTEX
  5
122F
  8
SURVBND
 10
642105.9022495930548757
 20
604729.4825079479487613
 30
0.0
  0
VERTEX
  5
1230
  8
SURVBND
 10
642100.8829051001230255
 20
604719.5032150963088498
 30
0.0
  0
VERTEX
  5
1231
  8
SURVBND
 10
642100.8686500277835876
 20
604713.5085118494462222
 30
0.0
  0
VERTEX
  5
1232
  8
SURVBND
 10
642109.8559532075887546
 20
604711.488894825335592
 30
0.0
  0
VERTEX
  5
1233
  8
SURVBND
 10
642113.8476703482447192
 20
604709.4811570279998705
 30
0.0
  0
VERTEX
  5
1234
  8
SURVBND
 10
642118.8385046963812783
 20
604707.4710433854488656
 30
0.0
  0
VERTEX
  5
1235
  8
SURVBND
 10
642121.8049703302094713
 20
604694.475392147549428
 30
0.0
  0
VERTEX
  5
1236
  8
SURVBND
 10
642120.7797188230324537
 20
604683.4874787066364661
 30
0.0
  0
VERTEX
  5
1237
  8
SURVBND
 10
642123.7604395288508385
 20
604676.4865307157160714
 30
0.0
  0
VERTEX
  5
1238
  8
SURVBND
 10
642129.7337601672625169
 20
604667.4802207726752385
 30
0.0
  0
VERTEX
  5
1239
  8
SURVBND
 10
642131.7201153561472893
 20
604662.4798830427462235
 30
0.0
  0
VERTEX
  5
123A
  8
SURVBND
 10
642131.6939810570329428
 20
604651.4895937566179782
 30
0.0
  0
VERTEX
  5
123B
  8
SURVBND
 10
642132.6740915017435327
 20
604643.4942802485311404
 30
0.0
  0
VERTEX
  5
123C
  8
SURVBND
 10
642138.6592913672793657
 20
604639.4835563448723406
 30
0.0
  0
VERTEX
  5
123D
  8
SURVBND
 10
642133.6233159565599635
 20
604622.510443038539961
 30
0.0
  0
VERTEX
  5
123E
  8
SURVBND
 10
642128.6015956182964146
 20
604611.5320329791866243
 30
0.0
  0
VERTEX
  5
123F
  8
SURVBND
 10
642134.5677887205965817
 20
604599.5283714128891006
 30
0.0
  0
VERTEX
  5
1240
  8
SURVBND
 10
642139.5586230690823868
 20
604597.5182577703380957
 30
0.0
  0
VERTEX
  5
1241
  8
SURVBND
 10
642145.5271920169470832
 20
604586.5137134117539972
 30
0.0
  0
VERTEX
  5
1242
  8
SURVBND
 10
642148.5174161040922627
 20
604583.5092342521529645
 30
0.0
  0
VERTEX
  5
1243
  8
SURVBND
 10
642153.4868678441271186
 20
604572.5070657390169799
 30
0.0
  0
VERTEX
  5
1244
  8
SURVBND
 10
642147.4612786072539166
 20
604559.5327971094520763
 30
0.0
  0
VERTEX
  5
1245
  8
SURVBND
 10
642146.4574097085278481
 20
604557.5369385391240939
 30
0.0
  0
VERTEX
  5
1246
  8
SURVBND
 10
642138.452592818881385
 20
604552.5603592630941421
 30
0.0
  0
VERTEX
  5
1247
  8
SURVBND
 10
642131.4635240548523143
 20
604554.5752245964249596
 30
0.0
  0
VERTEX
  5
1248
  8
SURVBND
 10
642127.4432967696338892
 20
604544.5935558995697647
 30
0.0
  0
VERTEX
  5
1249
  8
SURVBND
 10
642132.4270035818917677
 20
604539.5860906334128231
 30
0.0
  0
VERTEX
  5
124A
  8
SURVBND
 10
642136.4163448770996183
 20
604536.5792356284800917
 30
0.0
  0
VERTEX
  5
124B
  8
SURVBND
 10
642143.3935344143537804
 20
604529.5687842558836564
 30
0.0
  0
VERTEX
  5
124C
  8
SURVBND
 10
642149.3644792075501755
 20
604519.5633571052458137
 30
0.0
  0
VERTEX
  5
124D
  8
SURVBND
 10
642142.3278935357229784
 20
604501.5958782818634063
 30
0.0
  0
VERTEX
  5
124E
  8
SURVBND
 10
642132.3248422304168344
 20
604496.6240506964968517
 30
0.0
  0
VERTEX
  5
124F
  8
SURVBND
 10
642132.3010837767506018
 20
604486.6328786180820316
 30
0.0
  0
VERTEX
  5
1250
  8
SURVBND
 10
642126.2731186944292858
 20
604472.6594927806872874
 30
0.0
  0
VERTEX
  5
1251
  8
SURVBND
 10
642123.2615119983674958
 20
604466.6719170699361712
 30
0.0
  0
VERTEX
  5
1252
  8
SURVBND
 10
642121.2228882112540305
 20
604449.6916762272594497
 30
0.0
  0
VERTEX
  5
1253
  8
SURVBND
 10
642116.2011678727576509
 20
604438.7132661681389436
 30
0.0
  0
VERTEX
  5
1254
  8
SURVBND
 10
642114.1839266940951347
 20
604430.7250801961636171
 30
0.0
  0
VERTEX
  5
1255
  8
SURVBND
 10
642116.1702818827470765
 20
604425.724742466234602
 30
0.0
  0
VERTEX
  5
1256
  8
SURVBND
 10
642118.1447578447405249
 20
604415.7288186971563846
 30
0.0
  0
VERTEX
  5
1257
  8
SURVBND
 10
642111.1200513999210671
 20
604402.7569259129231796
 30
0.0
  0
VERTEX
  5
1258
  8
SURVBND
 10
642112.0882826177403331
 20
604389.766026365570724
 30
0.0
  0
VERTEX
  5
1259
  8
SURVBND
 10
642115.0618757874472067
 20
604379.7677267510443926
 30
0.0
  0
VERTEX
  5
125A
  8
SURVBND
 10
642116.0467379229376093
 20
604373.770647658733651
 30
0.0
  0
VERTEX
  5
125B
  8
SURVBND
 10
642121.0304447353119031
 20
604368.7631823925767094
 30
0.0
  0
VERTEX
  5
125C
  8
SURVBND
 10
642121.0304447353119031
 20
604368.7631823925767094
 30
0.0
  0
VERTEX
  5
125D
  8
SURVBND
 10
642132.9913410847075284
 20
604356.7452657540561631
 30
0.0
  0
VERTEX
  5
125E
  8
SURVBND
 10
642136.9640514622442424
 20
604346.7445902939653024
 30
0.0
  0
VERTEX
  5
125F
  8
SURVBND
 10
642116.9341903978493065
 20
604326.8097630449337885
 30
0.0
  0
VERTEX
  5
1260
  8
SURVBND
 10
642107.9421355272643268
 20
604326.8311456533847377
 30
0.0
  0
VERTEX
  5
1261
  8
SURVBND
 10
642098.9358255844563246
 20
604320.857825014856644
 30
0.0
  0
VERTEX
  5
1262
  8
SURVBND
 10
642092.8769745121244341
 20
604293.8959154755575582
 30
0.0
  0
VERTEX
  5
1263
  8
SURVBND
 10
642086.8466335843550041
 20
604278.9234124303329736
 30
0.0
  0
VERTEX
  5
1264
  8
SURVBND
 10
642092.8318334500072524
 20
604274.9126885266741738
 30
0.0
  0
VERTEX
  5
1265
  8
SURVBND
 10
642097.8535537882708013
 20
604285.8910985859110951
 30
0.0
  0
VERTEX
  5
1266
  8
SURVBND
 10
642114.8337946307146922
 20
604283.8524747987976298
 30
0.0
  0
VERTEX
  5
1267
  8
SURVBND
 10
642126.818449434125796
 20
604281.825730238459073
 30
0.0
  0
VERTEX
  5
1268
  8
SURVBND
 10
642131.7974045556038618
 20
604274.8200305567588657
 30
0.0
  0
VERTEX
  5
1269
  8
SURVBND
 10
642116.7845121386926621
 20
604263.8653789513045922
 30
0.0
  0
VERTEX
  5
126A
  8
SURVBND
 10
642113.7800329790916294
 20
604260.875154863926582
 30
0.0
  0
VERTEX
  5
126B
  8
SURVBND
 10
642104.7737230362836272
 20
604254.901834225282073
 30
0.0
  0
VERTEX
  5
126C
  8
SURVBND
 10
642086.7729823774425313
 20
604247.950778987375088
 30
0.0
  0
VERTEX
  5
126D
  8
SURVBND
 10
642086.770606532227248
 20
604246.9516617795452476
 30
0.0
  0
VERTEX
  5
126E
  8
SURVBND
 10
642081.7678929568501189
 20
604243.96618938294705
 30
0.0
  0
VERTEX
  5
126F
  8
SURVBND
 10
642076.7580518452450633
 20
604237.9833653628593311
 30
0.0
  0
VERTEX
  5
1270
  8
SURVBND
 10
642072.7544554778141901
 20
604234.9955171208130196
 30
0.0
  0
VERTEX
  5
1271
  8
SURVBND
 10
642114.6793646807782352
 20
604218.9098562893923372
 30
0.0
  0
VERTEX
  5
1272
  8
SURVBND
 10
642140.6611637752503157
 20
604220.8463187250308692
 30
0.0
  0
VERTEX
  5
1273
  8
SURVBND
 10
642153.6401840957114473
 20
604216.8189639038173482
 30
0.0
  0
VERTEX
  5
1274
  8
SURVBND
 10
642163.600470184115693
 20
604203.8066817481303588
 30
0.0
  0
VERTEX
  5
1275
  8
SURVBND
 10
642174.5717527072411031
 20
604195.7876097861444578
 30
0.0
  0
VERTEX
  5
1276
  8
SURVBND
 10
642180.5474491911008954
 20
604187.7804170510498807
 30
0.0
  0
VERTEX
  5
1277
  8
SURVBND
 10
642179.5245735294884071
 20
604177.7916208181995898
 30
0.0
  0
VERTEX
  5
1278
  8
SURVBND
 10
642174.4957256548805162
 20
604163.8158591353567317
 30
0.0
  0
VERTEX
  5
1279
  8
SURVBND
 10
642174.4482087473152205
 20
604143.8335149786435068
 30
0.0
  0
VERTEX
  5
127A
  8
SURVBND
 10
642154.4753679721616209
 20
604147.8775007176445797
 30
0.0
  0
VERTEX
  5
127B
  8
SURVBND
 10
642151.4613854308845475
 20
604140.8908077989472076
 30
0.0
  0
VERTEX
  5
127C
  8
SURVBND
 10
642135.446999960928224
 20
604128.9394148311112076
 30
0.0
  0
VERTEX
  5
127D
  8
SURVBND
 10
642132.4211381927598268
 20
604116.9571358731482178
 30
0.0
  0
VERTEX
  5
127E
  8
SURVBND
 10
642130.4038970140973106
 20
604108.9689499011728913
 30
0.0
  0
VERTEX
  5
127F
  8
SURVBND
 10
642121.402338762069121
 20
604104.9938636783044785
 30
0.0
  0
VERTEX
  5
1280
  8
SURVBND
 10
642112.4150355821475387
 20
604107.013480702531524
 30
0.0
  0
VERTEX
  5
1281
  8
SURVBND
 10
642110.4215528573840857
 20
604109.0164668088546023
 30
0.0
  0
VERTEX
  5
1282
  8
SURVBND
 10
642109.4295631856657565
 20
604112.0161942777922377
 30
0.0
  0
VERTEX
  5
1283
  8
SURVBND
 10
642107.450335533125326
 20
604120.0138836313271895
 30
0.0
  0
VERTEX
  5
1284
  8
SURVBND
 10
642103.4657459285808727
 20
604125.0189730519196019
 30
0.0
  0
VERTEX
  5
1285
  8
SURVBND
 10
642098.4820391163229942
 20
604130.0264383178437129
 30
0.0
  0
VERTEX
  5
1286
  8
SURVBND
 10
642091.5024737337371334
 20
604136.0377724828431383
 30
0.0
  0
VERTEX
  5
1287
  8
SURVBND
 10
642086.5140152306994423
 20
604139.0470033331075683
 30
0.0
  0
VERTEX
  5
1288
  8
SURVBND
 10
642081.5231808823300526
 20
604141.0571169757749885
 30
0.0
  0
VERTEX
  5
1289
  8
SURVBND
 10
642070.5257640599738806
 20
604138.0858996515162289
 30
0.0
  0
VERTEX
  5
128A
  8
SURVBND
 10
642059.4998370930552483
 20
604123.1252758330665529
 30
0.0
  0
VERTEX
  5
128B
  8
SURVBND
 10
642053.4742478561820462
 20
604110.1510072035016492
 30
0.0
  0
VERTEX
  5
128C
  8
SURVBND
 10
642047.4581620005192235
 20
604101.1732074052561074
 30
0.0
  0
VERTEX
  5
128D
  8
SURVBND
 10
642034.4482556902803481
 20
604092.2120385245652869
 30
0.0
  0
VERTEX
  5
128E
  8
SURVBND
 10
642022.4422182785347104
 20
604085.2467282144352794
 30
0.0
  0
VERTEX
  5
128F
  8
SURVBND
 10
642021.4240943075856194
 20
604077.2561663971282542
 30
0.0
  0
VERTEX
  5
1290
  8
SURVBND
 10
642025.3849254582310095
 20
604062.2599048981210217
 30
0.0
  0
VERTEX
  5
1291
  8
SURVBND
 10
642026.3602842122782022
 20
604052.2663569743745029
 30
0.0
  0
VERTEX
  5
1292
  8
SURVBND
 10
642026.3412774491589516
 20
604044.273419311735779
 30
0.0
  0
VERTEX
  5
1293
  8
SURVBND
 10
642023.3225432173348963
 20
604035.2884919772623107
 30
0.0
  0
VERTEX
  5
1294
  8
SURVBND
 10
642007.3081577473785728
 20
604023.3370990094263107
 30
0.0
  0
VERTEX
  5
1295
  8
SURVBND
 10
642005.3027957953745499
 20
604020.3444990766001865
 30
0.0
  0
VERTEX
  5
1296
  8
SURVBND
 10
642011.2808681249152869
 20
604013.3364235494518653
 30
0.0
  0
VERTEX
  5
1297
  8
SURVBND
 10
642015.2773369562346488
 20
604013.32692016789224
 30
0.0
  0
VERTEX
  5
1298
  8
SURVBND
 10
642021.2696643577655777
 20
604012.3135478878393769
 30
0.0
  0
VERTEX
  5
1299
  8
SURVBND
 10
642026.2581228609196842
 20
604009.3043170373421162
 30
0.0
  0
VERTEX
  5
129A
  8
SURVBND
 10
642030.2379607744514942
 20
604002.3009932009736076
 30
0.0
  0
VERTEX
  5
129B
  8
SURVBND
 10
642030.2237057021120563
 20
603996.3062899538781494
 30
0.0
  0
VERTEX
  5
129C
  8
SURVBND
 10
642029.203205885947682
 20
603987.316610928857699
 30
0.0
  0
VERTEX
  5
129D
  8
SURVBND
 10
642026.184471653890796
 20
603978.3316835943842307
 30
0.0
  0
VERTEX
  5
129E
  8
SURVBND
 10
642025.1829786008456722
 20
603977.3349422320025042
 30
0.0
  0
VERTEX
  5
129F
  8
SURVBND
 10
642005.2006344437832013
 20
603977.3824591395677999
 30
0.0
  0
VERTEX
  5
12A0
  8
SURVBND
 10
641996.1919486556435004
 20
603970.4100212932098657
 30
0.0
  0
VERTEX
  5
12A1
  8
SURVBND
 10
641998.1545453906292096
 20
603955.4185114847496152
 30
0.0
  0
VERTEX
  5
12A2
  8
SURVBND
 10
642009.1258279137546197
 20
603947.3994395229965448
 30
0.0
  0
VERTEX
  5
12A3
  8
SURVBND
 10
642026.0941895293071866
 20
603940.3652296966174617
 30
0.0
  0
VERTEX
  5
12A4
  8
SURVBND
 10
642017.0736245142761618
 20
603928.3972058109939098
 30
0.0
  0
VERTEX
  5
12A5
  8
SURVBND
 10
642003.0669768414227292
 20
603920.4375299838138744
 30
0.0
  0
VERTEX
  5
12A6
  8
SURVBND
 10
641996.0612771598389372
 20
603915.4585748622193933
 30
0.0
  0
VERTEX
  5
12A7
  8
SURVBND
 10
641993.0472946184454486
 20
603908.4718819435220212
 30
0.0
  0
VERTEX
  5
12A8
  8
SURVBND
 10
641990.0190570049453527
 20
603895.4904857778456062
 30
0.0
  0
VERTEX
  5
12A9
  8
SURVBND
 10
641986.0012055651750416
 20
603886.5079342887038365
 30
0.0
  0
VERTEX
  5
12AA
  8
SURVBND
 10
641983.9839643865125254
 20
603878.5197483168449253
 30
0.0
  0
VERTEX
  5
12AB
  8
SURVBND
 10
641979.9661129466257989
 20
603869.5371968278195709
 30
0.0
  0
VERTEX
  5
12AC
  8
SURVBND
 10
641970.9384203953668475
 20
603854.5718213187064976
 30
0.0
  0
VERTEX
  5
12AD
  8
SURVBND
 10
641972.9223997386870906
 20
603848.572366380947642
 30
0.0
  0
VERTEX
  5
12AE
  8
SURVBND
 10
641981.8954478461528197
 20
603840.558046109857969
 30
0.0
  0
VERTEX
  5
12AF
  8
SURVBND
 10
641981.8669377017067745
 20
603828.5686396156670526
 30
0.0
  0
VERTEX
  5
12B0
  8
SURVBND
 10
641971.8448796332813799
 20
603815.6038743676617742
 30
0.0
  0
VERTEX
  5
12B1
  8
SURVBND
 10
641961.8299491012003273
 20
603805.6364607431460172
 30
0.0
  0
VERTEX
  5
12B2
  8
SURVBND
 10
641957.8263527337694541
 20
603802.648612501216121
 30
0.0
  0
VERTEX
  5
12B3
  8
SURVBND
 10
641949.8191599985584617
 20
603796.6729160173563287
 30
0.0
  0
VERTEX
  5
12B4
  8
SURVBND
 10
641943.8125775246880949
 20
603791.6915850503137335
 30
0.0
  0
VERTEX
  5
12B5
  8
SURVBND
 10
641923.8064749140758067
 20
603781.7479298795806244
 30
0.0
  0
VERTEX
  5
12B6
  8
SURVBND
 10
641914.7930374351562932
 20
603772.7772576174465939
 30
0.0
  0
VERTEX
  5
12B7
  8
SURVBND
 10
641907.770706835668534
 20
603760.8044820411596447
 30
0.0
  0
VERTEX
  5
12B8
  8
SURVBND
 10
641901.7498692894587293
 20
603749.828447827254422
 30
0.0
  0
VERTEX
  5
12B9
  8
SURVBND
 10
641893.728421482257545
 20
603737.8580480964155868
 30
0.0
  0
VERTEX
  5
12BA
  8
SURVBND
 10
641887.7075839360477403
 20
603726.8820138823939487
 30
0.0
  0
VERTEX
  5
12BB
  8
SURVBND
 10
641886.6942116557620466
 20
603720.8896864807466045
 30
0.0
  0
VERTEX
  5
12BC
  8
SURVBND
 10
641880.6733741095522419
 20
603709.9136522669577971
 30
0.0
  0
VERTEX
  5
12BD
  8
SURVBND
 10
641875.637398698949255
 20
603692.9405389606254175
 30
0.0
  0
VERTEX
  5
12BE
  8
SURVBND
 10
641866.6192095291335136
 20
603681.9716322828317061
 30
0.0
  0
VERTEX
  5
12BF
  8
SURVBND
 10
641861.5974891907535493
 20
603670.9932222234783694
 30
0.0
  0
VERTEX
  5
12C0
  8
SURVBND
 10
641860.5769893743563443
 20
603662.0035431983415037
 30
0.0
  0
VERTEX
  5
12C1
  8
SURVBND
 10
641862.5538411815650761
 20
603653.0067366370931268
 30
0.0
  0
VERTEX
  5
12C2
  8
SURVBND
 10
641866.5360549407778308
 20
603647.0025300085544586
 30
0.0
  0
VERTEX
  5
12C3
  8
SURVBND
 10
641871.510258371476084
 20
603637.998595911078155
 30
0.0
  0
VERTEX
  5
12C4
  8
SURVBND
 10
641867.4924069318221882
 20
603629.0160444220528007
 30
0.0
  0
VERTEX
  5
12C5
  8
SURVBND
 10
641861.48820030328352
 20
603625.0338306629564613
 30
0.0
  0
VERTEX
  5
12C6
  8
SURVBND
 10
641848.5020524465944618
 20
603626.0638338607968763
 30
0.0
  0
VERTEX
  5
12C7
  8
SURVBND
 10
641850.4741525632562116
 20
603615.068792883772403
 30
0.0
  0
VERTEX
  5
12C8
  8
SURVBND
 10
641856.4498490469995886
 20
603607.0616001487942412
 30
0.0
  0
VERTEX
  5
12C9
  8
SURVBND
 10
641835.4375016924459487
 20
603594.1229692000197247
 30
0.0
  0
VERTEX
  5
12CA
  8
SURVBND
 10
641833.4202605136670172
 20
603586.1347832280443981
 30
0.0
  0
VERTEX
  5
12CB
  8
SURVBND
 10
641830.4086538179544732
 20
603580.1472075171768665
 30
0.0
  0
VERTEX
  5
12CC
  8
SURVBND
 10
641818.3978647154290229
 20
603571.1836627912707627
 30
0.0
  0
VERTEX
  5
12CD
  8
SURVBND
 10
641812.3841547053307295
 20
603563.2049802008550614
 30
0.0
  0
VERTEX
  5
12CE
  8
SURVBND
 10
641816.3592409283155575
 20
603554.2034219488268718
 30
0.0
  0
VERTEX
  5
12CF
  8
SURVBND
 10
641827.3305234514409676
 20
603546.1843499869573861
 30
0.0
  0
VERTEX
  5
12D0
  8
SURVBND
 10
641829.312126949429512
 20
603539.1857778412522748
 30
0.0
  0
VERTEX
  5
12D1
  8
SURVBND
 10
641806.3039210245478898
 20
603527.2510157910874113
 30
0.0
  0
VERTEX
  5
12D2
  8
SURVBND
 10
641781.3117357563460246
 20
603521.3157086785649881
 30
0.0
  0
VERTEX
  5
12D3
  8
SURVBND
 10
641775.276643137796782
 20
603504.3449712175643072
 30
0.0
  0
VERTEX
  5
12D4
  8
SURVBND
 10
641778.2621155342785642
 20
603499.3422576423035935
 30
0.0
  0
VERTEX
  5
12D5
  8
SURVBND
 10
641786.2384222794789821
 20
603492.3294304243754596
 30
0.0
  0
VERTEX
  5
12D6
  8
SURVBND
 10
641799.2079392181476578
 20
603484.3056067717261612
 30
0.0
  0
VERTEX
  5
12D7
  8
SURVBND
 10
641799.1936841460410506
 20
603478.3109035247471184
 30
0.0
  0
VERTEX
  5
12D8
  8
SURVBND
 10
641791.1936189471744001
 20
603475.3325586642604321
 30
0.0
  0
VERTEX
  5
12D9
  8
SURVBND
 10
641775.2077436217805371
 20
603475.3705721903825179
 30
0.0
  0
VERTEX
  5
12DA
  8
SURVBND
 10
641768.2067956307437271
 20
603472.389851484564133
 30
0.0
  0
VERTEX
  5
12DB
  8
SURVBND
 10
641766.184802761184983
 20
603462.4034310970455408
 30
0.0
  0
VERTEX
  5
12DC
  8
SURVBND
 10
641768.1569028778467327
 20
603451.4083901200210676
 30
0.0
  0
VERTEX
  5
12DD
  8
SURVBND
 10
641762.1336894859559834
 20
603439.4332386982860044
 30
0.0
  0
VERTEX
  5
12DE
  8
SURVBND
 10
641753.1059969348134473
 20
603424.4678631892893463
 30
0.0
  0
VERTEX
  5
12DF
  8
SURVBND
 10
641750.082511012093164
 20
603413.4847014390397817
 30
0.0
  0
VERTEX
  5
12E0
  8
SURVBND
 10
641749.064387041144073
 20
603405.4941396218491718
 30
0.0
  0
VERTEX
  5
12E1
  8
SURVBND
 10
641752.0569869738537818
 20
603403.4887776699615642
 30
0.0
  0
VERTEX
  5
12E2
  8
SURVBND
 10
641759.02229728421662
 20
603391.4827402583323419
 30
0.0
  0
VERTEX
  5
12E3
  8
SURVBND
 10
641751.0222320853499696
 20
603388.5043953978456557
 30
0.0
  0
VERTEX
  5
12E4
  8
SURVBND
 10
641737.0298394849523902
 20
603386.5394228175282478
 30
0.0
  0
VERTEX
  5
12E5
  8
SURVBND
 10
641729.0273984406376258
 20
603382.5619607492117211
 30
0.0
  0
VERTEX
  5
12E6
  8
SURVBND
 10
641710.0394198009744287
 20
603380.6088673959020525
 30
0.0
  0
VERTEX
  5
12E7
  8
SURVBND
 10
641706.0548301965463907
 20
603385.6139568164944649
 30
0.0
  0
VERTEX
  5
12E8
  8
SURVBND
 10
641703.0503510368289426
 20
603382.6237327291164547
 30
0.0
  0
VERTEX
  5
12E9
  8
SURVBND
 10
641698.0428857709048316
 20
603377.6400259168585762
 30
0.0
  0
VERTEX
  5
12EA
  8
SURVBND
 10
641670.0153353529749438
 20
603355.7259710151702166
 30
0.0
  0
VERTEX
  5
12EB
  8
SURVBND
 10
641676.9758939725579694
 20
603341.7216991877648979
 30
0.0
  0
VERTEX
  5
12EC
  8
SURVBND
 10
641676.9545113638741896
 20
603332.7296443172963336
 30
0.0
  0
VERTEX
  5
12ED
  8
SURVBND
 10
641661.960625710315071
 20
603329.7679303744807839
 30
0.0
  0
VERTEX
  5
12EE
  8
SURVBND
 10
641658.956146550597623
 20
603326.7777062871027738
 30
0.0
  0
VERTEX
  5
12EF
  8
SURVBND
 10
641660.9211191309150308
 20
603312.7853136865887791
 30
0.0
  0
VERTEX
  5
12F0
  8
SURVBND
 10
641656.910395227256231
 20
603306.8001138211693615
 30
0.0
  0
VERTEX
  5
12F1
  8
SURVBND
 10
641644.8948544340673834
 20
603295.8383346796035767
 30
0.0
  0
VERTEX
  5
12F2
  8
SURVBND
 10
641638.8621376608498394
 20
603279.8667144264327362
 30
0.0
  0
VERTEX
  5
12F3
  8
SURVBND
 10
641635.8552826558006927
 20
603275.8773731313413009
 30
0.0
  0
VERTEX
  5
12F4
  8
SURVBND
 10
641635.8362758929142728
 20
603267.8844354685861617
 30
0.0
  0
VERTEX
  5
12F5
  8
SURVBND
 10
641631.8160486076958477
 20
603257.9027667718473822
 30
0.0
  0
VERTEX
  5
12F6
  8
SURVBND
 10
641632.8127899699611589
 20
603256.9012737184530124
 30
0.0
  0
VERTEX
  5
12F7
  8
SURVBND
 10
641636.7973795745056123
 20
603251.8961842977441847
 30
0.0
  0
VERTEX
  5
12F8
  8
SURVBND
 10
641587.8287571636028588
 20
603247.0170146822929382
 30
0.0
  0
VERTEX
  5
12F9
  8
SURVBND
 10
641573.7698408924043179
 20
603217.0767602827399969
 30
0.0
  0
VERTEX
  5
12FA
  8
SURVBND
 10
641573.7175722939427942
 20
603195.0961817102506757
 30
0.0
  0
VERTEX
  5
12FB
  8
SURVBND
 10
641587.6862064405577257
 20
603187.0699822121532634
 30
0.0
  0
VERTEX
  5
12FC
  8
SURVBND
 10
641587.6695755228865892
 20
603180.07616175734438
 30
0.0
  0
VERTEX
  5
12FD
  8
SURVBND
 10
641580.6567483048420399
 20
603172.0998550122603774
 30
0.0
  0
VERTEX
  5
12FE
  8
SURVBND
 10
641565.6343525068368763
 20
603157.148734575486742
 30
0.0
  0
VERTEX
  5
12FF
  8
SURVBND
 10
641565.6177215890493244
 20
603150.1549141206778586
 30
0.0
  0
VERTEX
  5
1300
  8
SURVBND
 10
641543.6015053358860314
 20
603135.2204246014589444
 30
0.0
  0
VERTEX
  5
1301
  8
SURVBND
 10
641543.5848744182148948
 20
603128.226604146650061
 30
0.0
  0
VERTEX
  5
1302
  8
SURVBND
 10
641550.559688110020943
 20
603120.2170355662237853
 30
0.0
  0
VERTEX
  5
1303
  8
SURVBND
 10
641558.5359948549885303
 20
603113.2042083484120667
 30
0.0
  0
VERTEX
  5
1304
  8
SURVBND
 10
641543.513599056750536
 20
603098.2530879115220159
 30
0.0
  0
VERTEX
  5
1305
  8
SURVBND
 10
641535.5016546309925616
 20
603090.2791570118861273
 30
0.0
  0
VERTEX
  5
1306
  8
SURVBND
 10
641528.4721964955097064
 20
603075.309029811876826
 30
0.0
  0
VERTEX
  5
1307
  8
SURVBND
 10
641505.4592388798482716
 20
603061.3760333461686969
 30
0.0
  0
VERTEX
  5
1308
  8
SURVBND
 10
641498.3941430633421987
 20
603031.4191480287117884
 30
0.0
  0
VERTEX
  5
1309
  8
SURVBND
 10
641498.3038609388750046
 20
602993.4526941309450194
 30
0.0
  0
VERTEX
  5
130A
  8
SURVBND
 10
641498.2705991035327315
 20
602979.4650532212108374
 30
0.0
  0
VERTEX
  5
130B
  8
SURVBND
 10
641498.2349614227423444
 20
602964.4782951036468148
 30
0.0
  0
VERTEX
  5
130C
  8
SURVBND
 10
641483.2125656245043501
 20
602949.5271746668731794
 30
0.0
  0
VERTEX
  5
130D
  8
SURVBND
 10
641468.1901698261499405
 20
602934.5760542299831286
 30
0.0
  0
VERTEX
  5
130E
  8
SURVBND
 10
641453.148767264909111
 20
602911.6319961305707693
 30
0.0
  0
VERTEX
  5
130F
  8
SURVBND
 10
641446.1216849746415392
 20
602897.6609861385077238
 30
0.0
  0
VERTEX
  5
1310
  8
SURVBND
 10
641438.0931096309795976
 20
602882.6932347839465365
 30
0.0
  0
VERTEX
  5
1311
  8
SURVBND
 10
641446.0314028500579298
 20
602859.6945322408573702
 30
0.0
  0
VERTEX
  5
1312
  8
SURVBND
 10
641453.0085923870792612
 20
602852.6840808681445196
 30
0.0
  0
VERTEX
  5
1313
  8
SURVBND
 10
641445.9601274885935709
 20
602829.7210160056129098
 30
0.0
  0
VERTEX
  5
1314
  8
SURVBND
 10
641437.9505589080508798
 20
602822.746202313923277
 30
0.0
  0
VERTEX
  5
1315
  8
SURVBND
 10
641437.9505589080508798
 20
602822.746202313923277
 30
0.0
  0
VERTEX
  5
1316
  8
SURVBND
 10
641422.9471698729321361
 20
602815.78801953967195
 30
0.0
  0
VERTEX
  5
1317
  8
SURVBND
 10
641415.9533494181232527
 20
602815.8046504573430866
 30
0.0
  0
VERTEX
  5
1318
  8
SURVBND
 10
641408.9595289633143693
 20
602815.8212813750142232
 30
0.0
  0
VERTEX
  5
1319
  8
SURVBND
 10
641408.9761598808690906
 20
602822.8151018298231065
 30
0.0
  0
VERTEX
  5
131A
  8
SURVBND
 10
641400.983222218346782
 20
602822.8341085929423571
 30
0.0
  0
VERTEX
  5
131B
  8
SURVBND
 10
641393.9727708457503468
 20
602815.8569190559210256
 30
0.0
  0
VERTEX
  5
131C
  8
SURVBND
 10
641385.9608264199923724
 20
602807.8829881561687216
 30
0.0
  0
VERTEX
  5
131D
  8
SURVBND
 10
641385.9441955023212358
 20
602800.8891677012434229
 30
0.0
  0
VERTEX
  5
131E
  8
SURVBND
 10
641385.9251887392019853
 20
602792.8962300386046991
 30
0.0
  0
VERTEX
  5
131F
  8
SURVBND
 10
641393.9014954840531573
 20
602785.8834028206765652
 30
0.0
  0
VERTEX
  5
1320
  8
SURVBND
 10
641400.8763091760920361
 20
602777.8738342402502894
 30
0.0
  0
VERTEX
  5
1321
  8
SURVBND
 10
641408.8692468387307599
 20
602777.8548274772474542
 30
0.0
  0
VERTEX
  5
1322
  8
SURVBND
 10
641400.8406714951852337
 20
602762.8870761228026822
 30
0.0
  0
VERTEX
  5
1323
  8
SURVBND
 10
641385.8539133777376264
 20
602762.922713803476654
 30
0.0
  0
VERTEX
  5
1324
  8
SURVBND
 10
641378.8434620052576065
 20
602755.9455242664553225
 30
0.0
  0
VERTEX
  5
1325
  8
SURVBND
 10
641370.8315175792668015
 20
602747.9715933667030185
 30
0.0
  0
VERTEX
  5
1326
  8
SURVBND
 10
641370.8315175792668015
 20
602747.9715933667030185
 30
0.0
  0
VERTEX
  5
1327
  8
SURVBND
 10
641370.8148866617120802
 20
602740.9777729117777199
 30
0.0
  0
VERTEX
  5
1328
  8
SURVBND
 10
641370.7982557440409437
 20
602733.9839524569688365
 30
0.0
  0
VERTEX
  5
1329
  8
SURVBND
 10
641370.7792489809216931
 20
602725.9910147943301126
 30
0.0
  0
VERTEX
  5
132A
  8
SURVBND
 10
641355.7568531826836988
 20
602711.0398943574400619
 30
0.0
  0
VERTEX
  5
132B
  8
SURVBND
 10
641348.7464018100872636
 20
602704.0627048203023151
 30
0.0
  0
VERTEX
  5
132C
  8
SURVBND
 10
641348.7107641294132918
 20
602689.0759467027382925
 30
0.0
  0
VERTEX
  5
132D
  8
SURVBND
 10
641348.6917573662940413
 20
602681.0830090400995687
 30
0.0
  0
VERTEX
  5
132E
  8
SURVBND
 10
641340.6821887859841809
 20
602674.1081953482935205
 30
0.0
  0
VERTEX
  5
132F
  8
SURVBND
 10
641340.6631820228649303
 20
602666.1152576855383813
 30
0.0
  0
VERTEX
  5
1330
  8
SURVBND
 10
641348.6561196856200695
 20
602666.0962509225355461
 30
0.0
  0
VERTEX
  5
1331
  8
SURVBND
 10
641355.6333092227578163
 20
602659.0857995500555262
 30
0.0
  0
VERTEX
  5
1332
  8
SURVBND
 10
641348.6228578502777964
 20
602652.1086100128013641
 30
0.0
  0
VERTEX
  5
1333
  8
SURVBND
 10
641348.6038510871585459
 20
602644.1156723501626402
 30
0.0
  0
VERTEX
  5
1334
  8
SURVBND
 10
641340.6109134246362373
 20
602644.1346791130490601
 30
0.0
  0
VERTEX
  5
1335
  8
SURVBND
 10
641333.6004620520398021
 20
602637.1574895761441439
 30
0.0
  0
VERTEX
  5
1336
  8
SURVBND
 10
641326.5876348339952528
 20
602629.181182830943726
 30
0.0
  0
VERTEX
  5
1337
  8
SURVBND
 10
641326.5710039164405316
 20
602622.1873623761348426
 30
0.0
  0
VERTEX
  5
1338
  8
SURVBND
 10
641326.5710039164405316
 20
602622.1873623761348426
 30
0.0
  0
VERTEX
  5
1339
  8
SURVBND
 10
641303.5723013731185347
 20
602614.2490691572893411
 30
0.0
  0
VERTEX
  5
133A
  8
SURVBND
 10
641303.5556704554473981
 20
602607.2552487023640424
 30
0.0
  0
VERTEX
  5
133B
  8
SURVBND
 10
641296.5428432375192642
 20
602599.2789419572800398
 30
0.0
  0
VERTEX
  5
133C
  8
SURVBND
 10
641288.5332746569765732
 20
602592.304128265590407
 30
0.0
  0
VERTEX
  5
133D
  8
SURVBND
 10
641296.5262123198481277
 20
602592.2851215024711564
 30
0.0
  0
VERTEX
  5
133E
  8
SURVBND
 10
641296.5262123198481277
 20
602592.2851215024711564
 30
0.0
  0
VERTEX
  5
133F
  8
SURVBND
 10
641303.5010260116541758
 20
602584.275552922161296
 30
0.0
  0
VERTEX
  5
1340
  8
SURVBND
 10
641303.4843950938666239
 20
602577.2817324672359973
 30
0.0
  0
VERTEX
  5
1341
  8
SURVBND
 10
641296.4739437212701887
 20
602570.3045429302146658
 30
0.0
  0
VERTEX
  5
1342
  8
SURVBND
 10
641288.4619992955122143
 20
602562.3306120304623619
 30
0.0
  0
VERTEX
  5
1343
  8
SURVBND
 10
641273.4586102602770552
 20
602555.3724292564438656
 30
0.0
  0
VERTEX
  5
1344
  8
SURVBND
 10
641273.4586102602770552
 20
602555.3724292564438656
 30
0.0
  0
VERTEX
  5
1345
  8
SURVBND
 10
641258.4528453797101974
 20
602547.4151292743626982
 30
0.0
  0
VERTEX
  5
1346
  8
SURVBND
 10
641258.4528453797101974
 20
602547.4151292743626982
 30
0.0
  0
VERTEX
  5
1347
  8
SURVBND
 10
641258.4528453797101974
 20
602547.4151292743626982
 30
0.0
  0
VERTEX
  5
1348
  8
SURVBND
 10
641258.4362144620390609
 20
602540.4213088195538148
 30
0.0
  0
VERTEX
  5
1349
  8
SURVBND
 10
641236.3320919297402725
 20
602488.5194826103979722
 30
0.0
  0
VERTEX
  5
134A
  8
SURVBND
 10
641221.3096961313858628
 20
602473.5683621736243367
 30
0.0
  0
VERTEX
  5
134B
  8
SURVBND
 10
641221.3096961313858628
 20
602473.5683621736243367
 30
0.0
  0
VERTEX
  5
134C
  8
SURVBND
 10
641199.3101107958937064
 20
602465.6276931093307212
 30
0.0
  0
VERTEX
  5
134D
  8
SURVBND
 10
641191.3171731332549825
 20
602465.6466998724499717
 30
0.0
  0
VERTEX
  5
134E
  8
SURVBND
 10
641176.3304150158073753
 20
602465.6823375533567742
 30
0.0
  0
VERTEX
  5
134F
  8
SURVBND
 10
641169.3199636433273554
 20
602458.7051480159861967
 30
0.0
  0
VERTEX
  5
1350
  8
SURVBND
 10
641169.3009568802081048
 20
602450.7122103532310575
 30
0.0
  0
VERTEX
  5
1351
  8
SURVBND
 10
641169.284325962420553
 20
602443.7183898984221742
 30
0.0
  0
VERTEX
  5
1352
  8
SURVBND
 10
641184.2710840799845755
 20
602443.6827522176317871
 30
0.0
  0
VERTEX
  5
1353
  8
SURVBND
 10
641191.2458977717906237
 20
602435.6731836373219267
 30
0.0
  0
VERTEX
  5
1354
  8
SURVBND
 10
641176.2425087365554646
 20
602428.7150008631870151
 30
0.0
  0
VERTEX
  5
1355
  8
SURVBND
 10
641169.2130506009561941
 20
602413.7448736632941291
 30
0.0
  0
VERTEX
  5
1356
  8
SURVBND
 10
641154.1906548027181998
 20
602398.7937532266369089
 30
0.0
  0
VERTEX
  5
1357
  8
SURVBND
 10
641132.193445312557742
 20
602391.8522013700567186
 30
0.0
  0
VERTEX
  5
1358
  8
SURVBND
 10
641102.2009223144268617
 20
602383.9305390688823536
 30
0.0
  0
VERTEX
  5
1359
  8
SURVBND
 10
641102.1652846336364746
 20
602368.9437809514347464
 30
0.0
  0
VERTEX
  5
135A
  8
SURVBND
 10
641094.1010716094169766
 20
602338.9892714793095365
 30
0.0
  0
VERTEX
  5
135B
  8
SURVBND
 10
641079.0454139759531245
 20
602310.0505101329181343
 30
0.0
  0
VERTEX
  5
135C
  8
SURVBND
 10
641087.0193448754725978
 20
602302.0385657070437446
 30
0.0
  0
VERTEX
  5
135D
  8
SURVBND
 10
641093.9965344126103446
 20
602295.0281143344473094
 30
0.0
  0
VERTEX
  5
135E
  8
SURVBND
 10
641101.9704653122462332
 20
602287.0161699088057503
 30
0.0
  0
VERTEX
  5
135F
  8
SURVBND
 10
641108.9642857670551166
 20
602286.9995389910181984
 30
0.0
  0
VERTEX
  5
1360
  8
SURVBND
 10
641123.9344129669480026
 20
602279.9700808555353433
 30
0.0
  0
VERTEX
  5
1361
  8
SURVBND
 10
641108.9286480864975601
 20
602272.0127808734541759
 30
0.0
  0
VERTEX
  5
1362
  8
SURVBND
 10
641101.9348276314558461
 20
602272.0294117911253124
 30
0.0
  0
VERTEX
  5
1363
  8
SURVBND
 10
641078.9385009335819632
 20
602265.0902357801096514
 30
0.0
  0
VERTEX
  5
1364
  8
SURVBND
 10
641078.9385009335819632
 20
602265.0902357801096514
 30
0.0
  0
VERTEX
  5
1365
  8
SURVBND
 10
641078.9194941704627126
 20
602257.0972981173545122
 30
0.0
  0
VERTEX
  5
1366
  8
SURVBND
 10
641078.9028632527915761
 20
602250.1034776625456288
 30
0.0
  0
VERTEX
  5
1367
  8
SURVBND
 10
641078.8838564896723256
 20
602242.110539999906905
 30
0.0
  0
VERTEX
  5
1368
  8
SURVBND
 10
641064.862953744828701
 20
602228.1561609255149961
 30
0.0
  0
VERTEX
  5
1369
  8
SURVBND
 10
641049.8571888641454279
 20
602220.198860943550244
 30
0.0
  0
VERTEX
  5
136A
  8
SURVBND
 10
641011.8741040485911071
 20
602213.29532261332497
 30
0.0
  0
VERTEX
  5
136B
  8
SURVBND
 10
641011.8384663679171354
 20
602198.3085644957609475
 30
0.0
  0
VERTEX
  5
136C
  8
SURVBND
 10
640996.8160705695627257
 20
602183.3574440588708967
 30
0.0
  0
VERTEX
  5
136D
  8
SURVBND
 10
640982.7737852160353214
 20
602160.4110101140104234
 30
0.0
  0
VERTEX
  5
136E
  8
SURVBND
 10
640982.7048857000190765
 20
602131.4366110868286341
 30
0.0
  0
VERTEX
  5
136F
  8
SURVBND
 10
640974.657303593470715
 20
602108.4759220697451383
 30
0.0
  0
VERTEX
  5
1370
  8
SURVBND
 10
640952.641087340307422
 20
602093.5414325504098088
 30
0.0
  0
VERTEX
  5
1371
  8
SURVBND
 10
640944.6315187597647309
 20
602086.5666188586037606
 30
0.0
  0
VERTEX
  5
1372
  8
SURVBND
 10
640922.6509401875082403
 20
602086.6188874569488689
 30
0.0
  0
VERTEX
  5
1373
  8
SURVBND
 10
640914.6580025247531012
 20
602086.6378942200681195
 30
0.0
  0
VERTEX
  5
1374
  8
SURVBND
 10
640914.638995761750266
 20
602078.6449565575458109
 30
0.0
  0
VERTEX
  5
1375
  8
SURVBND
 10
640914.6223648440791294
 20
602071.6511361026205122
 30
0.0
  0
VERTEX
  5
1376
  8
SURVBND
 10
640907.6119134715991095
 20
602064.6739465653663501
 30
0.0
  0
VERTEX
  5
1377
  8
SURVBND
 10
640900.6180930166738108
 20
602064.690577483153902
 30
0.0
  0
VERTEX
  5
1378
  8
SURVBND
 10
640892.5895176732446998
 20
602049.7228261285927147
 30
0.0
  0
VERTEX
  5
1379
  8
SURVBND
 10
640885.5766904553165659
 20
602041.7465193837415427
 30
0.0
  0
VERTEX
  5
137A
  8
SURVBND
 10
640855.5865433026337996
 20
602034.8239742901641876
 30
0.0
  0
VERTEX
  5
137B
  8
SURVBND
 10
640862.5613569943234324
 20
602026.8144057098543271
 30
0.0
  0
VERTEX
  5
137C
  8
SURVBND
 10
640855.531898858724162
 20
602011.8442785099614412
 30
0.0
  0
VERTEX
  5
137D
  8
SURVBND
 10
640825.5417517060413957
 20
602004.9217334166169167
 30
0.0
  0
VERTEX
  5
137E
  8
SURVBND
 10
640825.5227449429221451
 20
601996.9287957538617775
 30
0.0
  0
VERTEX
  5
137F
  8
SURVBND
 10
640832.4833035623887554
 20
601982.9245239264564589
 30
0.0
  0
VERTEX
  5
1380
  8
SURVBND
 10
640818.4766558895353228
 20
601974.9648480991600081
 30
0.0
  0
VERTEX
  5
1381
  8
SURVBND
 10
640780.4745643110945821
 20
601960.068372106179595
 30
0.0
  0
VERTEX
  5
1382
  8
SURVBND
 10
640788.4318642930593342
 20
601945.0626072256127372
 30
0.0
  0
VERTEX
  5
1383
  8
SURVBND
 10
640788.3962266122689471
 20
601930.0758491080487147
 30
0.0
  0
VERTEX
  5
1384
  8
SURVBND
 10
640758.3870726964669302
 20
601915.160366351949051
 30
0.0
  0
VERTEX
  5
1385
  8
SURVBND
 10
640758.3538108610082418
 20
601901.172725442214869
 30
0.0
  0
VERTEX
  5
1386
  8
SURVBND
 10
640765.3119936351431534
 20
601886.1693364069797099
 30
0.0
  0
VERTEX
  5
1387
  8
SURVBND
 10
640736.3375946078449488
 20
601886.2382359231123701
 30
0.0
  0
VERTEX
  5
1388
  8
SURVBND
 10
640728.3446569453226402
 20
601886.2572426861152053
 30
0.0
  0
VERTEX
  5
1389
  8
SURVBND
 10
640706.3284406920429319
 20
601871.3227531670127064
 30
0.0
  0
VERTEX
  5
138A
  8
SURVBND
 10
640698.3164962664013728
 20
601863.3488222673768178
 30
0.0
  0
VERTEX
  5
138B
  8
SURVBND
 10
640698.2998653487302363
 20
601856.3550018125679344
 30
0.0
  0
VERTEX
  5
138C
  8
SURVBND
 10
640676.3002800132380798
 20
601848.4143327483907342
 30
0.0
  0
VERTEX
  5
138D
  8
SURVBND
 10
640676.283649095450528
 20
601841.4205122934654355
 30
0.0
  0
VERTEX
  5
138E
  8
SURVBND
 10
640668.1671674728859216
 20
601789.4854242489673197
 30
0.0
  0
VERTEX
  5
138F
  8
SURVBND
 10
640654.160519800032489
 20
601781.525748421670869
 30
0.0
  0
VERTEX
  5
1390
  8
SURVBND
 10
640639.1737616825848818
 20
601781.5613861023448408
 30
0.0
  0
VERTEX
  5
1391
  8
SURVBND
 10
640601.190676867030561
 20
601774.6578477721195668
 30
0.0
  0
VERTEX
  5
1392
  8
SURVBND
 10
640594.1968564123380929
 20
601774.6744786897907034
 30
0.0
  0
VERTEX
  5
1393
  8
SURVBND
 10
640579.1744606139836833
 20
601759.7233582529006526
 30
0.0
  0
VERTEX
  5
1394
  8
SURVBND
 10
640564.1520648156292737
 20
601744.7722378161270171
 30
0.0
  0
VERTEX
  5
1395
  8
SURVBND
 10
640557.1582443608203903
 20
601744.7888687337981537
 30
0.0
  0
VERTEX
  5
1396
  8
SURVBND
 10
640512.1813390904571861
 20
601737.9019613212440163
 30
0.0
  0
VERTEX
  5
1397
  8
SURVBND
 10
640497.1945809727767482
 20
601737.9375990019179881
 30
0.0
  0
VERTEX
  5
1398
  8
SURVBND
 10
640497.1755742096574977
 20
601729.9446613391628489
 30
0.0
  0
VERTEX
  5
1399
  8
SURVBND
 10
640482.1721851745387539
 20
601722.9864785651443526
 30
0.0
  0
VERTEX
  5
139A
  8
SURVBND
 10
640445.1858417217154056
 20
601715.0814471817575395
 30
0.0
  0
VERTEX
  5
139B
  8
SURVBND
 10
640437.2119108219631016
 20
601723.0933916072826833
 30
0.0
  0
VERTEX
  5
139C
  8
SURVBND
 10
640430.2347212847089395
 20
601730.1038429798791185
 30
0.0
  0
VERTEX
  5
139D
  8
SURVBND
 10
640407.2383945869514719
 20
601723.1646669688634574
 30
0.0
  0
VERTEX
  5
139E
  8
SURVBND
 10
640400.2445741319097579
 20
601723.1812978866510093
 30
0.0
  0
VERTEX
  5
139F
  8
SURVBND
 10
640385.2578160143457353
 20
601723.2169355672085658
 30
0.0
  0
VERTEX
  5
13A0
  8
SURVBND
 10
640385.2031715706689283
 20
601700.2372397870058194
 30
0.0
  0
VERTEX
  5
13A1
  8
SURVBND
 10
640363.1703243998344988
 20
601678.3089298128616065
 30
0.0
  0
VERTEX
  5
13A2
  8
SURVBND
 10
640340.1716218565125018
 20
601670.3706365941325203
 30
0.0
  0
VERTEX
  5
13A3
  8
SURVBND
 10
640325.1682328211609274
 20
601663.4124538199976087
 30
0.0
  0
VERTEX
  5
13A4
  8
SURVBND
 10
640311.1639609938720241
 20
601656.4518952005309984
 30
0.0
  0
VERTEX
  5
13A5
  8
SURVBND
 10
640311.1093165500788018
 20
601633.472199420328252
 30
0.0
  0
VERTEX
  5
13A6
  8
SURVBND
 10
640288.0773521712981164
 20
601611.5462652916321531
 30
0.0
  0
VERTEX
  5
13A7
  8
SURVBND
 10
640296.0156453903764486
 20
601588.5475627484265715
 30
0.0
  0
VERTEX
  5
13A8
  8
SURVBND
 10
640287.9704391291597858
 20
601566.5859909390565008
 30
0.0
  0
VERTEX
  5
13A9
  8
SURVBND
 10
640265.9542228759964928
 20
601551.6515014199540019
 30
0.0
  0
VERTEX
  5
13AA
  8
SURVBND
 10
640242.9388894150033593
 20
601536.7193877461832017
 30
0.0
  0
VERTEX
  5
13AB
  8
SURVBND
 10
640235.9094312794040889
 20
601521.7492605462903157
 30
0.0
  0
VERTEX
  5
13AC
  8
SURVBND
 10
640235.8571626809425652
 20
601499.7686819739174098
 30
0.0
  0
VERTEX
  5
13AD
  8
SURVBND
 10
640198.8375573925441131
 20
601477.8760096806799993
 30
0.0
  0
VERTEX
  5
13AE
  8
SURVBND
 10
640183.8151615944225341
 20
601462.9248892437899485
 30
0.0
  0
VERTEX
  5
13AF
  8
SURVBND
 10
640153.8416453591780737
 20
601462.9961646052543074
 30
0.0
  0
VERTEX
  5
13B0
  8
SURVBND
 10
640131.8610667869215831
 20
601463.048433203715831
 30
0.0
  0
VERTEX
  5
13B1
  8
SURVBND
 10
640101.8329061080003157
 20
601440.1400127849774435
 30
0.0
  0
VERTEX
  5
13B2
  8
SURVBND
 10
640078.8365794098936021
 20
601433.2008367739617825
 30
0.0
  0
VERTEX
  5
13B3
  8
SURVBND
 10
640071.8427589550847188
 20
601433.217467691632919
 30
0.0
  0
VERTEX
  5
13B4
  8
SURVBND
 10
640019.8696573844645172
 20
601425.3480739888036624
 30
0.0
  0
VERTEX
  5
13B5
  8
SURVBND
 10
640004.8662683492293581
 20
601418.3898912146687508
 30
0.0
  0
VERTEX
  5
13B6
  8
SURVBND
 10
639989.862879313994199
 20
601411.4317084406502545
 30
0.0
  0
VERTEX
  5
13B7
  8
SURVBND
 10
639967.8632939786184579
 20
601403.491039376356639
 30
0.0
  0
VERTEX
  5
13B8
  8
SURVBND
 10
639937.8897777434904128
 20
601403.5623147378209978
 30
0.0
  0
VERTEX
  5
13B9
  8
SURVBND
 10
639900.9414478165563196
 20
601411.6431586797116324
 30
0.0
  0
VERTEX
  5
13BA
  8
SURVBND
 10
639892.9485101540340111
 20
601411.6621654427144676
 30
0.0
  0
VERTEX
  5
13BB
  8
SURVBND
 10
639862.9393562379991636
 20
601396.746682686614804
 30
0.0
  0
VERTEX
  5
13BC
  8
SURVBND
 10
639855.9455357831902802
 20
601396.7633136044023558
 30
0.0
  0
VERTEX
  5
13BD
  8
SURVBND
 10
639847.9169604397611693
 20
601381.7955622498411685
 30
0.0
  0
VERTEX
  5
13BE
  8
SURVBND
 10
639832.9111955589614809
 20
601373.8382622678764164
 30
0.0
  0
VERTEX
  5
13BF
  8
SURVBND
 10
639810.9139860690338537
 20
601366.8967104115290567
 30
0.0
  0
VERTEX
  5
13C0
  8
SURVBND
 10
639795.9272279513534158
 20
601366.9323480922030285
 30
0.0
  0
VERTEX
  5
13C1
  8
SURVBND
 10
639788.9500384144484997
 20
601373.9427994647994637
 30
0.0
  0
VERTEX
  5
13C2
  8
SURVBND
 10
639765.9893493972485885
 20
601381.9903815712314099
 30
0.0
  0
VERTEX
  5
13C3
  8
SURVBND
 10
639751.0192221973557025
 20
601389.0198397068306804
 30
0.0
  0
VERTEX
  5
13C4
  8
SURVBND
 10
639744.0444085055496544
 20
601397.0294082872569561
 30
0.0
  0
VERTEX
  5
13C5
  8
SURVBND
 10
639744.0444085055496544
 20
601397.0294082872569561
 30
0.0
  0
VERTEX
  5
13C6
  8
SURVBND
 10
639729.0220127071952447
 20
601382.0782878503669053
 30
0.0
  0
VERTEX
  5
13C7
  8
SURVBND
 10
639692.0713069349294528
 20
601389.1600145845441148
 30
0.0
  0
VERTEX
  5
13C8
  8
SURVBND
 10
639669.0916111547267064
 20
601389.2146590283373371
 30
0.0
  0
VERTEX
  5
13C9
  8
SURVBND
 10
639640.1172121275449172
 20
601389.283558544353582
 30
0.0
  0
VERTEX
  5
13CA
  8
SURVBND
 10
639615.0798857968766242
 20
601364.3650244830641896
 30
0.0
  0
VERTEX
  5
13CB
  8
SURVBND
 10
639614.0831444343784824
 20
601365.3665175362257287
 30
0.0
  0
VERTEX
  5
13CC
  8
SURVBND
 10
639608.0955687235109508
 20
601368.378124232054688
 30
0.0
  0
VERTEX
  5
13CD
  8
SURVBND
 10
639602.1151205488713458
 20
601374.3870825513731688
 30
0.0
  0
VERTEX
  5
13CE
  8
SURVBND
 10
639597.1290378911653534
 20
601378.3954306095838547
 30
0.0
  0
VERTEX
  5
13CF
  8
SURVBND
 10
639587.1497450396418571
 20
601383.4147751026321203
 30
0.0
  0
VERTEX
  5
13D0
  8
SURVBND
 10
639580.1725555025041103
 20
601390.4252264751121402
 30
0.0
  0
VERTEX
  5
13D1
  8
SURVBND
 10
639572.1986246028682217
 20
601398.4371709008701146
 30
0.0
  0
VERTEX
  5
13D2
  8
SURVBND
 10
639568.2259142254479229
 20
601408.43784636084456
 30
0.0
  0
VERTEX
  5
13D3
  8
SURVBND
 10
639566.2443107273429632
 20
601415.436418506433256
 30
0.0
  0
VERTEX
  5
13D4
  8
SURVBND
 10
639562.2597211229149252
 20
601420.4415079271420836
 30
0.0
  0
VERTEX
  5
13D5
  8
SURVBND
 10
639556.2768971029436216
 20
601425.451349038630724
 30
0.0
  0
VERTEX
  5
13D6
  8
SURVBND
 10
639547.2990973045816645
 20
601431.467434894060716
 30
0.0
  0
VERTEX
  5
13D7
  8
SURVBND
 10
639545.3079904251499102
 20
601434.4695382083300501
 30
0.0
  0
VERTEX
  5
13D8
  8
SURVBND
 10
639531.3155978247523308
 20
601432.5045656280126423
 30
0.0
  0
VERTEX
  5
13D9
  8
SURVBND
 10
639524.2790121529251337
 20
601414.5370868046302348
 30
0.0
  0
VERTEX
  5
13DA
  8
SURVBND
 10
639509.2875023445812985
 20
601412.574490069760941
 30
0.0
  0
VERTEX
  5
13DB
  8
SURVBND
 10
639491.3200235211988911
 20
601419.6110757413553074
 30
0.0
  0
VERTEX
  5
13DC
  8
SURVBND
 10
639483.3342133946716785
 20
601422.6274341280804947
 30
0.0
  0
VERTEX
  5
13DD
  8
SURVBND
 10
639466.3729793152306229
 20
601432.6589955779490992
 30
0.0
  0
VERTEX
  5
13DE
  8
SURVBND
 10
639449.4022418543463573
 20
601438.6940881966147572
 30
0.0
  0
VERTEX
  5
13DF
  8
SURVBND
 10
639433.4163665289524943
 20
601438.7321017227368429
 30
0.0
  0
VERTEX
  5
13E0
  8
SURVBND
 10
639416.4361256863921881
 20
601440.7707255098503083
 30
0.0
  0
VERTEX
  5
13E1
  8
SURVBND
 10
639398.4638951723463833
 20
601445.8090767659014091
 30
0.0
  0
VERTEX
  5
13E2
  8
SURVBND
 10
639399.4748916070675477
 20
601450.8022869597189128
 30
0.0
  0
VERTEX
  5
13E3
  8
SURVBND
 10
639391.5033365526469424
 20
601459.8133485933067277
 30
0.0
  0
VERTEX
  5
13E4
  8
SURVBND
 10
639378.4886785517446697
 20
601448.8539452970726416
 30
0.0
  0
VERTEX
  5
13E5
  8
SURVBND
 10
639360.514072192250751
 20
601452.8931793452939019
 30
0.0
  0
VERTEX
  5
13E6
  8
SURVBND
 10
639357.5404790225438774
 20
601462.8914789598202333
 30
0.0
  0
VERTEX
  5
13E7
  8
SURVBND
 10
639351.562406693235971
 20
601469.8995544869685546
 30
0.0
  0
VERTEX
  5
13E8
  8
SURVBND
 10
639348.5721826058579609
 20
601472.904033646453172
 30
0.0
  0
VERTEX
  5
13E9
  8
SURVBND
 10
639325.6305003516608849
 20
601488.9445534157566726
 30
0.0
  0
VERTEX
  5
13EA
  8
SURVBND
 10
639309.7040211609564722
 20
601513.960497137857601
 30
0.0
  0
VERTEX
  5
13EB
  8
SURVBND
 10
639306.7304279911331832
 20
601523.9587967523839325
 30
0.0
  0
VERTEX
  5
13EC
  8
SURVBND
 10
639295.737762859556824
 20
601522.9858138437848538
 30
0.0
  0
VERTEX
  5
13ED
  8
SURVBND
 10
639270.7954703442519531
 20
601538.031968095805496
 30
0.0
  0
VERTEX
  5
13EE
  8
SURVBND
 10
639262.8120360632892698
 20
601542.0474436902441084
 30
0.0
  0
VERTEX
  5
13EF
  8
SURVBND
 10
639250.8440121775493026
 20
601551.0680087053915486
 30
0.0
  0
VERTEX
  5
13F0
  8
SURVBND
 10
639240.862343480810523
 20
601555.088235990726389
 30
0.0
  0
VERTEX
  5
13F1
  8
SURVBND
 10
639227.8833231604658067
 20
601559.1155908119399101
 30
0.0
  0
VERTEX
  5
13F2
  8
SURVBND
 10
639217.8921510821674019
 20
601559.1393492657225579
 30
0.0
  0
VERTEX
  5
13F3
  8
SURVBND
 10
639204.9036273802630603
 20
601559.1702352558495477
 30
0.0
  0
VERTEX
  5
13F4
  8
SURVBND
 10
639185.9251521220430732
 20
601561.2136107336264104
 30
0.0
  0
VERTEX
  5
13F5
  8
SURVBND
 10
639182.9396797254448757
 20
601566.2163243090035394
 30
0.0
  0
VERTEX
  5
13F6
  8
SURVBND
 10
639178.952714275685139
 20
601570.2222965218825266
 30
0.0
  0
VERTEX
  5
13F7
  8
SURVBND
 10
639175.9577384975273162
 20
601571.2285412658238783
 30
0.0
  0
VERTEX
  5
13F8
  8
SURVBND
 10
639160.973356225527823
 20
601572.2632961544441059
 30
0.0
  0
VERTEX
  5
13F9
  8
SURVBND
 10
639147.9895842142868787
 20
601574.2924165601143613
 30
0.0
  0
VERTEX
  5
13FA
  8
SURVBND
 10
639130.0054744732333347
 20
601574.3351817768998444
 30
0.0
  0
VERTEX
  5
13FB
  8
SURVBND
 10
639119.0175610325532034
 20
601575.3604332838440314
 30
0.0
  0
VERTEX
  5
13FC
  8
SURVBND
 10
639102.0325684992130846
 20
601575.4008226555306464
 30
0.0
  0
VERTEX
  5
13FD
  8
SURVBND
 10
639094.0372549912426621
 20
601574.4207122107036412
 30
0.0
  0
VERTEX
  5
13FE
  8
SURVBND
 10
639071.0480558292474598
 20
601570.4788878231775016
 30
0.0
  0
VERTEX
  5
13FF
  8
SURVBND
 10
639056.0565460210200399
 20
601568.516291088424623
 30
0.0
  0
VERTEX
  5
1400
  8
SURVBND
 10
639042.0760326473973691
 20
601571.5469045471400023
 30
0.0
  0
VERTEX
  5
1401
  8
SURVBND
 10
639039.0810568693559617
 20
601572.553149291081354
 30
0.0
  0
VERTEX
  5
1402
  8
SURVBND
 10
639036.0837052457500249
 20
601572.560276827425696
 30
0.0
  0
VERTEX
  5
1403
  8
SURVBND
 10
639028.0765125107718632
 20
601566.584580343333073
 30
0.0
  0
VERTEX
  5
1404
  8
SURVBND
 10
639021.0494302206207067
 20
601552.6135703512700275
 30
0.0
  0
VERTEX
  5
1405
  8
SURVBND
 10
639013.0113514956319705
 20
601533.6493501656223089
 30
0.0
  0
VERTEX
  5
1406
  8
SURVBND
 10
639004.0097932437201962
 20
601529.6742639425210655
 30
0.0
  0
VERTEX
  5
1407
  8
SURVBND
 10
638994.0114936289610341
 20
601526.7006707730470225
 30
0.0
  0
VERTEX
  5
1408
  8
SURVBND
 10
638985.0075595316011459
 20
601521.7264673421159387
 30
0.0
  0
VERTEX
  5
1409
  8
SURVBND
 10
638980.99921147339046
 20
601516.7403846845263615
 30
0.0
  0
VERTEX
  5
140A
  8
SURVBND
 10
638971.9810223035747185
 20
601505.7714780067326501
 30
0.0
  0
VERTEX
  5
140B
  8
SURVBND
 10
638967.9679225547006354
 20
601498.7871609333669767
 30
0.0
  0
VERTEX
  5
140C
  8
SURVBND
 10
638961.9637159260455519
 20
601494.8049471743870527
 30
0.0
  0
VERTEX
  5
140D
  8
SURVBND
 10
638945.9517063015373424
 20
601483.8526714142644778
 30
0.0
  0
VERTEX
  5
140E
  8
SURVBND
 10
638936.9263895954936743
 20
601469.8864131129812449
 30
0.0
  0
VERTEX
  5
140F
  8
SURVBND
 10
638922.8698491697432473
 20
601440.9452759212581441
 30
0.0
  0
VERTEX
  5
1410
  8
SURVBND
 10
638919.8534907832508907
 20
601432.9594657944981009
 30
0.0
  0
VERTEX
  5
1411
  8
SURVBND
 10
638911.8510497389361262
 20
601428.9820037262979895
 30
0.0
  0
VERTEX
  5
1412
  8
SURVBND
 10
638894.8518021333729848
 20
601423.027689850772731
 30
0.0
  0
VERTEX
  5
1413
  8
SURVBND
 10
638877.8763129817089066
 20
601427.0645480536622927
 30
0.0
  0
VERTEX
  5
1414
  8
SURVBND
 10
638871.8768580439500511
 20
601425.0805687102256343
 30
0.0
  0
VERTEX
  5
1415
  8
SURVBND
 10
638870.8421031553298235
 20
601410.0961864381097257
 30
0.0
  0
VERTEX
  5
1416
  8
SURVBND
 10
638862.844413801911287
 20
601408.11695878545288
 30
0.0
  0
VERTEX
  5
1417
  8
SURVBND
 10
638852.8651209503877908
 20
601413.1363032785011455
 30
0.0
  0
VERTEX
  5
1418
  8
SURVBND
 10
638834.902393817785196
 20
601422.1711233658716083
 30
0.0
  0
VERTEX
  5
1419
  8
SURVBND
 10
638813.9304358348017558
 20
601426.2174849504372105
 30
0.0
  0
VERTEX
  5
141A
  8
SURVBND
 10
638793.9504675234202296
 20
601427.2641190658323467
 30
0.0
  0
VERTEX
  5
141B
  8
SURVBND
 10
638787.9581401217728853
 20
601428.2774913458852097
 30
0.0
  0
VERTEX
  5
141C
  8
SURVBND
 10
638775.9663577823666856
 20
601427.3068842826178297
 30
0.0
  0
VERTEX
  5
141D
  8
SURVBND
 10
638757.9584895874140784
 20
601417.3584774212213233
 30
0.0
  0
VERTEX
  5
141E
  8
SURVBND
 10
638749.9370417803293094
 20
601405.3880776901496574
 30
0.0
  0
VERTEX
  5
141F
  8
SURVBND
 10
638738.8921080501750112
 20
601382.4345162091776729
 30
0.0
  0
VERTEX
  5
1420
  8
SURVBND
 10
638733.8798910932382569
 20
601375.4525749812601134
 30
0.0
  0
VERTEX
  5
1421
  8
SURVBND
 10
638728.8581707548582926
 20
601364.474164922023192
 30
0.0
  0
VERTEX
  5
1422
  8
SURVBND
 10
638722.8325815178686753
 20
601351.499896292341873
 30
0.0
  0
VERTEX
  5
1423
  8
SURVBND
 10
638715.7959958461578935
 20
601333.5324174689594656
 30
0.0
  0
VERTEX
  5
1424
  8
SURVBND
 10
638717.775223498698324
 20
601325.5347281155409291
 30
0.0
  0
VERTEX
  5
1425
  8
SURVBND
 10
638724.7452854999573901
 20
601315.5269251194549724
 30
0.0
  0
VERTEX
  5
1426
  8
SURVBND
 10
638727.7260062056593597
 20
601308.5259771284181625
 30
0.0
  0
VERTEX
  5
1427
  8
SURVBND
 10
638726.7031305440468714
 20
601298.5371808954514563
 30
0.0
  0
VERTEX
  5
1428
  8
SURVBND
 10
638726.6912513171555474
 20
601293.5415948564186692
 30
0.0
  0
VERTEX
  5
1429
  8
SURVBND
 10
638726.655613636248745
 20
601278.5548367387382314
 30
0.0
  0
VERTEX
  5
142A
  8
SURVBND
 10
638768.5638919216580689
 20
601255.4753554525086656
 30
0.0
  0
VERTEX
  5
142B
  8
SURVBND
 10
638771.5398609366966411
 20
601246.4761730458121747
 30
0.0
  0
VERTEX
  5
142C
  8
SURVBND
 10
638772.5033404638525099
 20
601231.4870390828000382
 30
0.0
  0
VERTEX
  5
142D
  8
SURVBND
 10
638773.4406856916612014
 20
601205.507615833543241
 30
0.0
  0
VERTEX
  5
142E
  8
SURVBND
 10
638773.402672165655531
 20
601189.5217405082657933
 30
0.0
  0
VERTEX
  5
142F
  8
SURVBND
 10
638773.3670344847487286
 20
601174.5349823907017708
 30
0.0
  0
VERTEX
  5
1430
  8
SURVBND
 10
638794.3152340140659362
 20
601160.497448727954179
 30
0.0
  0
VERTEX
  5
1431
  8
SURVBND
 10
638799.2846857539843768
 20
601149.4952802149346098
 30
0.0
  0
VERTEX
  5
1432
  8
SURVBND
 10
638815.2301717079244554
 20
601132.4722741554724053
 30
0.0
  0
VERTEX
  5
1433
  8
SURVBND
 10
638814.1859134377446026
 20
601113.4914230520371348
 30
0.0
  0
VERTEX
  5
1434
  8
SURVBND
 10
638817.1642582983477041
 20
601105.4913578531704843
 30
0.0
  0
VERTEX
  5
1435
  8
SURVBND
 10
638819.1434859507717192
 20
601097.4936684997519478
 30
0.0
  0
VERTEX
  5
1436
  8
SURVBND
 10
638819.1102241155458614
 20
601083.5060275900177658
 30
0.0
  0
VERTEX
  5
1437
  8
SURVBND
 10
638818.0730933813611045
 20
601067.5225281099556014
 30
0.0
  0
VERTEX
  5
1438
  8
SURVBND
 10
638817.0644727920880541
 20
601063.5284351239679381
 30
0.0
  0
VERTEX
  5
1439
  8
SURVBND
 10
638816.0439729759236798
 20
601054.5387560989474878
 30
0.0
  0
VERTEX
  5
143A
  8
SURVBND
 10
638818.0232006283476949
 20
601046.541066745412536
 30
0.0
  0
VERTEX
  5
143B
  8
SURVBND
 10
638819.9810456726700068
 20
601029.5513225214090198
 30
0.0
  0
VERTEX
  5
143C
  8
SURVBND
 10
638822.9403837700374424
 20
601013.5583196600200608
 30
0.0
  0
VERTEX
  5
143D
  8
SURVBND
 10
638824.895852968795225
 20
600995.5694582280702889
 30
0.0
  0
VERTEX
  5
143E
  8
SURVBND
 10
638823.8610980801749974
 20
600980.585075955837965
 30
0.0
  0
VERTEX
  5
143F
  8
SURVBND
 10
638823.8135811724932864
 20
600960.6027317992411554
 30
0.0
  0
VERTEX
  5
1440
  8
SURVBND
 10
638825.7738020620308816
 20
600944.6121047829510644
 30
0.0
  0
VERTEX
  5
1441
  8
SURVBND
 10
638828.7426435409579426
 20
600932.615570752765052
 30
0.0
  0
VERTEX
  5
1442
  8
SURVBND
 10
638842.6970226153498515
 20
600918.5946680075721815
 30
0.0
  0
VERTEX
  5
1443
  8
SURVBND
 10
638858.6448844146216288
 20
600902.5707791561726481
 30
0.0
  0
VERTEX
  5
1444
  8
SURVBND
 10
638857.6077536806697026
 20
600886.587279676226899
 30
0.0
  0
VERTEX
  5
1445
  8
SURVBND
 10
638860.4554270450025797
 20
600823.6357680463697761
 30
0.0
  0
VERTEX
  5
1446
  8
SURVBND
 10
638857.4224377409555018
 20
600808.6561374650336802
 30
0.0
  0
VERTEX
  5
1447
  8
SURVBND
 10
638853.3760761563898996
 20
600787.68417948205024
 30
0.0
  0
VERTEX
  5
1448
  8
SURVBND
 10
638863.3601206985767931
 20
600784.6630694045452401
 30
0.0
  0
VERTEX
  5
1449
  8
SURVBND
 10
638860.3318830853095278
 20
600771.6816732387524098
 30
0.0
  0
VERTEX
  5
144A
  8
SURVBND
 10
638862.2778489025076851
 20
600749.6963429755996913
 30
0.0
  0
VERTEX
  5
144B
  8
SURVBND
 10
638870.2541556472424418
 20
600742.6835157577879727
 30
0.0
  0
VERTEX
  5
144C
  8
SURVBND
 10
638884.2394207116449252
 20
600741.6511367146158591
 30
0.0
  0
VERTEX
  5
144D
  8
SURVBND
 10
638879.2200762187130749
 20
600731.6718438630923629
 30
0.0
  0
VERTEX
  5
144E
  8
SURVBND
 10
638868.2036526333540678
 20
600720.7076888760784641
 30
0.0
  0
VERTEX
  5
144F
  8
SURVBND
 10
638860.1893323621479794
 20
600711.734640768612735
 30
0.0
  0
VERTEX
  5
1450
  8
SURVBND
 10
638855.1723637145478278
 20
600702.7544651251519099
 30
0.0
  0
VERTEX
  5
1451
  8
SURVBND
 10
638852.1536294827237725
 20
600693.7695377906784415
 30
0.0
  0
VERTEX
  5
1452
  8
SURVBND
 10
638843.1496953852474689
 20
600688.795334359863773
 30
0.0
  0
VERTEX
  5
1453
  8
SURVBND
 10
638835.1329992685932666
 20
600678.8231690445682034
 30
0.0
  0
VERTEX
  5
1454
  8
SURVBND
 10
638827.102048079832457
 20
600662.8563004824100062
 30
0.0
  0
VERTEX
  5
1455
  8
SURVBND
 10
638830.061386177316308
 20
600646.8632976206718013
 30
0.0
  0
VERTEX
  5
1456
  8
SURVBND
 10
638828.0393933077575639
 20
600636.8768772331532091
 30
0.0
  0
VERTEX
  5
1457
  8
SURVBND
 10
638823.0200488147092983
 20
600626.8975843816297129
 30
0.0
  0
VERTEX
  5
1458
  8
SURVBND
 10
638818.0030801669927314
 20
600617.9174087380524725
 30
0.0
  0
VERTEX
  5
1459
  8
SURVBND
 10
638814.9772183989407495
 20
600605.9351297800894827
 30
0.0
  0
VERTEX
  5
145A
  8
SURVBND
 10
638799.9453192191431299
 20
600586.9875405119964853
 30
0.0
  0
VERTEX
  5
145B
  8
SURVBND
 10
638805.9210157030029222
 20
600578.9803477771347389
 30
0.0
  0
VERTEX
  5
145C
  8
SURVBND
 10
638816.8780431539053097
 20
600564.9665725680533797
 30
0.0
  0
VERTEX
  5
145D
  8
SURVBND
 10
638835.8303841127781197
 20
600551.932907803915441
 30
0.0
  0
VERTEX
  5
145E
  8
SURVBND
 10
638843.806690857745707
 20
600544.9200805859873071
 30
0.0
  0
VERTEX
  5
145F
  8
SURVBND
 10
638856.7690802606521174
 20
600533.8989053098484874
 30
0.0
  0
VERTEX
  5
1460
  8
SURVBND
 10
638860.7394147927407175
 20
600522.8991126420442015
 30
0.0
  0
VERTEX
  5
1461
  8
SURVBND
 10
638867.7023492576554418
 20
600509.8939580225851387
 30
0.0
  0
VERTEX
  5
1462
  8
SURVBND
 10
638879.7083866692846641
 20
600516.8592683329479769
 30
0.0
  0
VERTEX
  5
1463
  8
SURVBND
 10
638892.7230446704197675
 20
600527.8186716289492324
 30
0.0
  0
VERTEX
  5
1464
  8
SURVBND
 10
638902.7070892124902457
 20
600524.7975615516770631
 30
0.0
  0
VERTEX
  5
1465
  8
SURVBND
 10
638924.6662851765286177
 20
600515.7532380827469751
 30
0.0
  0
VERTEX
  5
1466
  8
SURVBND
 10
638931.6315954867750406
 20
600503.7472006710013375
 30
0.0
  0
VERTEX
  5
1467
  8
SURVBND
 10
638942.5886229375610128
 20
600489.7334254621528089
 30
0.0
  0
VERTEX
  5
1468
  8
SURVBND
 10
638946.549454088206403
 20
600474.7371639631455764
 30
0.0
  0
VERTEX
  5
1469
  8
SURVBND
 10
638943.5164647840429097
 20
600459.7575333815766498
 30
0.0
  0
VERTEX
  5
146A
  8
SURVBND
 10
638938.4876169095514342
 20
600445.7817716987337917
 30
0.0
  0
VERTEX
  5
146B
  8
SURVBND
 10
638935.4665068320464343
 20
600435.7977271565468982
 30
0.0
  0
VERTEX
  5
146C
  8
SURVBND
 10
638934.4388794796541333
 20
600423.8106965079205111
 30
0.0
  0
VERTEX
  5
146D
  8
SURVBND
 10
638926.4221833631163463
 20
600413.8385311926249415
 30
0.0
  0
VERTEX
  5
146E
  8
SURVBND
 10
638926.4103041362250224
 20
600408.8429451534757391
 30
0.0
  0
VERTEX
  5
146F
  8
SURVBND
 10
638934.3723558089695871
 20
600395.8354146884521469
 30
0.0
  0
VERTEX
  5
1470
  8
SURVBND
 10
638939.3726935388986021
 20
600397.821769877220504
 30
0.0
  0
VERTEX
  5
1471
  8
SURVBND
 10
638941.3447936553275213
 20
600386.8267289004288614
 30
0.0
  0
VERTEX
  5
1472
  8
SURVBND
 10
638942.3272799453698099
 20
600379.8305326000554487
 30
0.0
  0
VERTEX
  5
1473
  8
SURVBND
 10
638942.2963939554756507
 20
600366.8420088981511071
 30
0.0
  0
VERTEX
  5
1474
  8
SURVBND
 10
638937.2699219263158739
 20
600353.8653644232545048
 30
0.0
  0
VERTEX
  5
1475
  8
SURVBND
 10
638937.2556668540928513
 20
600347.8706611761590466
 30
0.0
  0
VERTEX
  5
1476
  8
SURVBND
 10
638942.2179910578997806
 20
600333.8711410396499559
 30
0.0
  0
VERTEX
  5
1477
  8
SURVBND
 10
638933.1950501975370571
 20
600320.9039999460801482
 30
0.0
  0
VERTEX
  5
1478
  8
SURVBND
 10
638926.1964780517155305
 20
600318.9223964480916038
 30
0.0
  0
VERTEX
  5
1479
  8
SURVBND
 10
638906.2236372764455155
 20
600322.9663821870926768
 30
0.0
  0
VERTEX
  5
147A
  8
SURVBND
 10
638890.2306344150565565
 20
600320.0070440897252411
 30
0.0
  0
VERTEX
  5
147B
  8
SURVBND
 10
638875.2272453799378127
 20
600313.0488613155903295
 30
0.0
  0
VERTEX
  5
147C
  8
SURVBND
 10
638868.2215456981211901
 20
600308.0699061941122636
 30
0.0
  0
VERTEX
  5
147D
  8
SURVBND
 10
638862.212587378686294
 20
600302.0894580193562433
 30
0.0
  0
VERTEX
  5
147E
  8
SURVBND
 10
638839.2542742070509121
 20
600311.1361573338508606
 30
0.0
  0
VERTEX
  5
147F
  8
SURVBND
 10
638833.2738260321784765
 20
600317.1451156530529261
 30
0.0
  0
VERTEX
  5
1480
  8
SURVBND
 10
638827.3005053935339674
 20
600326.1514255958609283
 30
0.0
  0
VERTEX
  5
1481
  8
SURVBND
 10
638817.3307159236865118
 20
600335.1672389203449711
 30
0.0
  0
VERTEX
  5
1482
  8
SURVBND
 10
638812.349384956760332
 20
600341.1738213940989226
 30
0.0
  0
VERTEX
  5
1483
  8
SURVBND
 10
638803.3763368492946029
 20
600349.188141665305011
 30
0.0
  0
VERTEX
  5
1484
  8
SURVBND
 10
638798.397381727816537
 20
600356.1938413471216336
 30
0.0
  0
VERTEX
  5
1485
  8
SURVBND
 10
638789.4219577750191092
 20
600363.2090444103814662
 30
0.0
  0
VERTEX
  5
1486
  8
SURVBND
 10
638782.4495199285447598
 20
600372.2177301987539977
 30
0.0
  0
VERTEX
  5
1487
  8
SURVBND
 10
638776.4666959084570408
 20
600377.2275713101262227
 30
0.0
  0
VERTEX
  5
1488
  8
SURVBND
 10
638767.4936478009913117
 20
600385.2418915812158957
 30
0.0
  0
VERTEX
  5
1489
  8
SURVBND
 10
638756.5128618963062763
 20
600389.2644947117660195
 30
0.0
  0
VERTEX
  5
148A
  8
SURVBND
 10
638742.5394760589115322
 20
600395.2924597943201661
 30
0.0
  0
VERTEX
  5
148B
  8
SURVBND
 10
638713.5627011862816289
 20
600394.3622421023901552
 30
0.0
  0
VERTEX
  5
148C
  8
SURVBND
 10
638694.5675950103905052
 20
600389.4117971254745498
 30
0.0
  0
VERTEX
  5
148D
  8
SURVBND
 10
638678.5674646127736196
 20
600383.4551074046175927
 30
0.0
  0
VERTEX
  5
148E
  8
SURVBND
 10
638663.5569480413105339
 20
600373.4995730069931597
 30
0.0
  0
VERTEX
  5
148F
  8
SURVBND
 10
638647.5378108805743977
 20
600359.5499456233810633
 30
0.0
  0
VERTEX
  5
1490
  8
SURVBND
 10
638642.5160905421944335
 20
600348.571535564144142
 30
0.0
  0
VERTEX
  5
1491
  8
SURVBND
 10
638642.5018354699714109
 20
600342.5768323170486838
 30
0.0
  0
VERTEX
  5
1492
  8
SURVBND
 10
638621.4538504347437993
 20
600314.65144325082656
 30
0.0
  0
VERTEX
  5
1493
  8
SURVBND
 10
638592.4390620358753949
 20
600297.7353502337355167
 30
0.0
  0
VERTEX
  5
1494
  8
SURVBND
 10
638576.441307483590208
 20
600292.7777777204755694
 30
0.0
  0
VERTEX
  5
1495
  8
SURVBND
 10
638564.4495251439511776
 20
600291.80717065744102
 30
0.0
  0
VERTEX
  5
1496
  8
SURVBND
 10
638551.468128978391178
 20
600294.8354082708247006
 30
0.0
  0
VERTEX
  5
1497
  8
SURVBND
 10
638534.4902639812789857
 20
600297.8731492657680064
 30
0.0
  0
VERTEX
  5
1498
  8
SURVBND
 10
638524.5109711297554895
 20
600302.892493758816272
 30
0.0
  0
VERTEX
  5
1499
  8
SURVBND
 10
638513.5325610705185682
 20
600307.9142140971962363
 30
0.0
  0
VERTEX
  5
149A
  8
SURVBND
 10
638492.5772340053226799
 20
600318.9543961364543065
 30
0.0
  0
VERTEX
  5
149B
  8
SURVBND
 10
638486.6134167481213808
 20
600331.9571749105816707
 30
0.0
  0
VERTEX
  5
149C
  8
SURVBND
 10
638476.6483789690537378
 20
600342.9712226506089792
 30
0.0
  0
VERTEX
  5
149D
  8
SURVBND
 10
638471.659920466132462
 20
600345.9804535012226552
 30
0.0
  0
VERTEX
  5
149E
  8
SURVBND
 10
638467.6919617792591453
 20
600357.9793633766239509
 30
0.0
  0
VERTEX
  5
149F
  8
SURVBND
 10
638471.7098132191458717
 20
600366.9619148656493053
 30
0.0
  0
VERTEX
  5
14A0
  8
SURVBND
 10
638467.7347269961610436
 20
600375.9634731176774949
 30
0.0
  0
VERTEX
  5
14A1
  8
SURVBND
 10
638462.7533960292348638
 20
600381.970055591664277
 30
0.0
  0
VERTEX
  5
14A2
  8
SURVBND
 10
638450.7639895350439474
 20
600381.9985657362267375
 30
0.0
  0
VERTEX
  5
14A3
  8
SURVBND
 10
638447.7690137572353706
 20
600383.0048104801680893
 30
0.0
  0
VERTEX
  5
14A4
  8
SURVBND
 10
638428.7762834266759455
 20
600379.0534827111987397
 30
0.0
  0
VERTEX
  5
14A5
  8
SURVBND
 10
638404.8354839646490291
 20
600395.0963783257175237
 30
0.0
  0
VERTEX
  5
14A6
  8
SURVBND
 10
638396.8639289103448391
 20
600404.1074399594217539
 30
0.0
  0
VERTEX
  5
14A7
  8
SURVBND
 10
638406.8978662056615576
 20
600422.0677912465762347
 30
0.0
  0
VERTEX
  5
14A8
  8
SURVBND
 10
638419.9434101969236508
 20
600446.0157182447146624
 30
0.0
  0
VERTEX
  5
14A9
  8
SURVBND
 10
638380.9540806374279782
 20
600436.1172041362151504
 30
0.0
  0
VERTEX
  5
14AA
  8
SURVBND
 10
638336.0056855115108192
 20
600441.2197032176190987
 30
0.0
  0
VERTEX
  5
14AB
  8
SURVBND
 10
638232.8115116583649069
 20
600321.5703503516269848
 30
0.0
  0
VERTEX
  5
14AC
  8
SURVBND
 10
638126.7292750695487484
 20
600247.8875165823847055
 30
0.0
  0
VERTEX
  5
14AD
  8
SURVBND
 10
638128.7203819488640875
 20
600244.8854132682317868
 30
0.0
  0
VERTEX
  5
14AE
  8
SURVBND
 10
638119.7188236969523132
 20
600240.9103270451305434
 30
0.0
  0
VERTEX
  5
14AF
  8
SURVBND
 10
638116.7024653102271259
 20
600232.9245169186033309
 30
0.0
  0
VERTEX
  5
14B0
  8
SURVBND
 10
638014.524039582698606
 20
600120.2666086620884016
 30
0.0
  0
VERTEX
  5
14B1
  8
SURVBND
 10
637988.2880250321468338
 20
600011.4246049878420308
 30
0.0
  0
VERTEX
  5
14B2
  8
SURVBND
 10
637931.8361580175114796
 20
599800.7439214757177979
 30
0.0
  0
VERTEX
  5
14B3
  8
SURVBND
 10
637817.5875470528844744
 20
599654.1445382974343374
 30
0.0
  0
VERTEX
  5
14B4
  8
SURVBND
 10
637724.1992293382063508
 20
599456.5402847663499415
 30
0.0
  0
VERTEX
  5
14B5
  8
SURVBND
 10
637370.4309590209741145
 20
599423.4113489652518183
 30
0.0
  0
VERTEX
  5
14B6
  8
SURVBND
 10
637123.6014917775755748
 20
599404.0158386182738468
 30
0.0
  0
VERTEX
  5
14B7
  8
SURVBND
 10
636879.7171075595542789
 20
599362.6326221625786275
 30
0.0
  0
VERTEX
  5
14B8
  8
SURVBND
 10
636769.4317035906715319
 20
599202.0360946928849444
 30
0.0
  0
VERTEX
  5
14B9
  8
SURVBND
 10
636691.2582251504063606
 20
599100.3114554333733395
 30
0.0
  0
VERTEX
  5
14BA
  8
SURVBND
 10
636666.9705522625008598
 20
598970.4832387038040906
 30
0.0
  0
VERTEX
  5
14BB
  8
SURVBND
 10
636620.714180029113777
 20
598845.7028766118455678
 30
0.0
  0
VERTEX
  5
14BC
  8
SURVBND
 10
636550.7237068822141737
 20
598823.8886072164168581
 30
0.0
  0
VERTEX
  5
14BD
  8
SURVBND
 10
636428.7339978653471917
 20
598783.2146548316814005
 30
0.0
  0
VERTEX
  5
14BE
  8
SURVBND
 10
636342.7861595376161858
 20
598773.4278054563328624
 30
0.0
  0
VERTEX
  5
14BF
  8
SURVBND
 10
636262.7071046514902264
 20
598710.6734889931976795
 30
0.0
  0
VERTEX
  5
14C0
  8
SURVBND
 10
636177.5303023748565465
 20
598604.9690118200378492
 30
0.0
  0
VERTEX
  5
14C1
  8
SURVBND
 10
636184.4789817674318328
 20
598585.9691539533669129
 30
0.0
  0
VERTEX
  5
14C2
  8
SURVBND
 10
636171.4857063747476786
 20
598584.0018055277178064
 30
0.0
  0
VERTEX
  5
14C3
  8
SURVBND
 10
636126.4565325061557814
 20
598555.1343195426743478
 30
0.0
  0
VERTEX
  5
14C4
  8
SURVBND
 10
636075.4184003178961575
 20
598520.2863853828748688
 30
0.0
  0
VERTEX
  5
14C5
  8
SURVBND
 10
636036.4457016761880368
 20
598517.3816917293006554
 30
0.0
  0
VERTEX
  5
14C6
  8
SURVBND
 10
636003.420189373777248
 20
598494.4803988466737792
 30
0.0
  0
VERTEX
  5
14C7
  8
SURVBND
 10
635935.318661754950881
 20
598426.7019861999433488
 30
0.0
  0
VERTEX
  5
14C8
  8
SURVBND
 10
635864.2007757491664961
 20
598350.9377634264528751
 30
0.0
  0
VERTEX
  5
14C9
  8
SURVBND
 10
635836.1043258153367788
 20
598300.0493094974663109
 30
0.0
  0
VERTEX
  5
14CA
  8
SURVBND
 10
635814.9993204908678308
 20
598248.1451074430951849
 30
0.0
  0
VERTEX
  5
14CB
  8
SURVBND
 10
635806.9897519104415551
 20
598241.1702937510563061
 30
0.0
  0
VERTEX
  5
14CC
  8
SURVBND
 10
635803.9757693692808971
 20
598234.1836008324753493
 30
0.0
  0
VERTEX
  5
14CD
  8
SURVBND
 10
635755.9587472586426884
 20
598209.3197112149791792
 30
0.0
  0
VERTEX
  5
14CE
  8
SURVBND
 10
635689.8103129930095747
 20
598122.5533199284691364
 30
0.0
  0
VERTEX
  5
14CF
  8
SURVBND
 10
635586.8727304412750527
 20
598110.8086255087982863
 30
0.0
  0
VERTEX
  5
14D0
  8
SURVBND
 10
635559.6851155905751511
 20
598021.9513418368296698
 30
0.0
  0
VERTEX
  5
14D1
  8
SURVBND
 10
635505.5213361282367259
 20
597933.1582059899810702
 30
0.0
  0
VERTEX
  5
14D2
  8
SURVBND
 10
635473.4973168792203069
 20
597911.2536544697359204
 30
0.0
  0
VERTEX
  5
14D3
  8
SURVBND
 10
635427.4310122764436528
 20
597866.4026690047467127
 30
0.0
  0
VERTEX
  5
14D4
  8
SURVBND
 10
635383.3629420893266797
 20
597821.5469318487448618
 30
0.0
  0
VERTEX
  5
14D5
  8
SURVBND
 10
635358.2685954696498811
 20
597772.6495847996557131
 30
0.0
  0
VERTEX
  5
14D6
  8
SURVBND
 10
635331.168886898085475
 20
597720.7596378172747791
 30
0.0
  0
VERTEX
  5
14D7
  8
SURVBND
 10
635287.0770582573022693
 20
597665.9127285830909386
 30
0.0
  0
VERTEX
  5
14D8
  8
SURVBND
 10
635250.9734155882615596
 20
597609.048578170244582
 30
0.0
  0
VERTEX
  5
14D9
  8
SURVBND
 10
635206.9100970921572298
 20
597566.1910754301352426
 30
0.0
  0
VERTEX
  5
14DA
  8
SURVBND
 10
635172.8474540556780994
 20
597527.306283067446202
 30
0.0
  0
VERTEX
  5
14DB
  8
SURVBND
 10
635131.7767354921670631
 20
597482.4434183754492551
 30
0.0
  0
VERTEX
  5
14DC
  8
SURVBND
 10
635084.7089378362288699
 20
597436.5956915479619056
 30
0.0
  0
VERTEX
  5
14DD
  8
SURVBND
 10
635031.5941683348501101
 20
597368.7816412205575034
 30
0.0
  0
VERTEX
  5
14DE
  8
SURVBND
 10
634989.5053258003899828
 20
597315.928214711137116
 30
0.0
  0
VERTEX
  5
14DF
  8
SURVBND
 10
634947.4164832660462707
 20
597263.0747882019495592
 30
0.0
  0
VERTEX
  5
14E0
  8
SURVBND
 10
634884.3224209130275995
 20
597200.2800823672441766
 30
0.0
  0
VERTEX
  5
14E1
  8
SURVBND
 10
634840.2424714992521331
 20
597150.4287591724423692
 30
0.0
  0
VERTEX
  5
14E2
  8
SURVBND
 10
634784.170739745721221
 20
597099.6068289140239358
 30
0.0
  0
VERTEX
  5
14E3
  8
SURVBND
 10
634704.0703022512607276
 20
597027.8604575804201886
 30
0.0
  0
VERTEX
  5
14E4
  8
SURVBND
 10
634653.0084116094512865
 20
596983.0213513423223048
 30
0.0
  0
VERTEX
  5
14E5
  8
SURVBND
 10
634610.9599584464449435
 20
596947.1529173662420362
 30
0.0
  0
VERTEX
  5
14E6
  8
SURVBND
 10
634563.939677698072046
 20
596921.2875346953514963
 30
0.0
  0
VERTEX
  5
14E7
  8
SURVBND
 10
634486.9363773331278935
 20
596891.4969585549551994
 30
0.0
  0
VERTEX
  5
14E8
  8
SURVBND
 10
634433.9427759463433176
 20
596874.637885826989077
 30
0.0
  0
VERTEX
  5
14E9
  8
SURVBND
 10
634418.920380147988908
 20
596859.6867653900990263
 30
0.0
  0
VERTEX
  5
14EA
  8
SURVBND
 10
634403.9312461850931868
 20
596858.7232858630595729
 30
0.0
  0
VERTEX
  5
14EB
  8
SURVBND
 10
634398.9570427543949336
 20
596867.7272199606522918
 30
0.0
  0
VERTEX
  5
14EC
  8
SURVBND
 10
634377.028732780367136
 20
596889.760067131370306
 30
0.0
  0
VERTEX
  5
14ED
  8
SURVBND
 10
634359.0707573385443538
 20
596900.7931216344004497
 30
0.0
  0
VERTEX
  5
14EE
  8
SURVBND
 10
634336.0601755684474483
 20
596887.8592423764057457
 30
0.0
  0
VERTEX
  5
14EF
  8
SURVBND
 10
634307.0311320972396061
 20
596864.9484461122192442
 30
0.0
  0
VERTEX
  5
14F0
  8
SURVBND
 10
634276.0062300559366122
 20
596843.0415187466423959
 30
0.0
  0
VERTEX
  5
14F1
  8
SURVBND
 10
634256.9469760546926409
 20
596811.1149091583210975
 30
0.0
  0
VERTEX
  5
14F2
  8
SURVBND
 10
634234.9093771930783987
 20
596787.1883647685172036
 30
0.0
  0
VERTEX
  5
14F3
  8
SURVBND
 10
634209.876802553422749
 20
596764.2680651228874922
 30
0.0
  0
VERTEX
  5
14F4
  8
SURVBND
 10
634180.8501349276630208
 20
596742.3563860665308312
 30
0.0
  0
VERTEX
  5
14F5
  8
SURVBND
 10
634158.8196636022767052
 20
596721.4271933003328741
 30
0.0
  0
VERTEX
  5
14F6
  8
SURVBND
 10
634138.7636682386510074
 20
596690.5020767650566995
 30
0.0
  0
VERTEX
  5
14F7
  8
SURVBND
 10
634114.7325866521568969
 20
596668.5785184819251299
 30
0.0
  0
VERTEX
  5
14F8
  8
SURVBND
 10
634089.7118912392761558
 20
596650.6538048754446208
 30
0.0
  0
VERTEX
  5
14F9
  8
SURVBND
 10
634055.7015168012585491
 20
596633.7495910852449015
 30
0.0
  0
VERTEX
  5
14FA
  8
SURVBND
 10
634031.6918178234482184
 20
596620.8180876724654809
 30
0.0
  0
VERTEX
  5
14FB
  8
SURVBND
 10
634003.6927775500807911
 20
596610.8934392648516223
 30
0.0
  0
VERTEX
  5
14FC
  8
SURVBND
 10
633981.7026955961482599
 20
596606.9492390318773687
 30
0.0
  0
VERTEX
  5
14FD
  8
SURVBND
 10
633945.7202210417017341
 20
596601.0400662187021226
 30
0.0
  0
VERTEX
  5
14FE
  8
SURVBND
 10
633909.7472498688148335
 20
596599.1273622368462384
 30
0.0
  0
VERTEX
  5
14FF
  8
SURVBND
 10
633884.7503129098331556
 20
596591.1938207086641341
 30
0.0
  0
VERTEX
  5
1500
  8
SURVBND
 10
633863.7403414006112143
 20
596579.2543069678358734
 30
0.0
  0
VERTEX
  5
1501
  8
SURVBND
 10
633843.7199837177759036
 20
596563.315948550007306
 30
0.0
  0
VERTEX
  5
1502
  8
SURVBND
 10
633825.6812295330455527
 20
596540.3790179865900427
 30
0.0
  0
VERTEX
  5
1503
  8
SURVBND
 10
633807.6591062657535076
 20
596524.4359078780980781
 30
0.0
  0
VERTEX
  5
1504
  8
SURVBND
 10
633777.6380731229437515
 20
596504.524839082849212
 30
0.0
  0
VERTEX
  5
1505
  8
SURVBND
 10
633749.6057710143504664
 20
596480.6125497656175867
 30
0.0
  0
VERTEX
  5
1506
  8
SURVBND
 10
633734.5928785975556821
 20
596469.6578981600468978
 30
0.0
  0
VERTEX
  5
1507
  8
SURVBND
 10
633714.5962793685030192
 20
596463.710711820749566
 30
0.0
  0
VERTEX
  5
1508
  8
SURVBND
 10
633694.6044318303465843
 20
596459.7617598969954997
 30
0.0
  0
VERTEX
  5
1509
  8
SURVBND
 10
633675.6188290360150859
 20
596458.8077837515156716
 30
0.0
  0
VERTEX
  5
150A
  8
SURVBND
 10
633645.66669540933799
 20
596467.8711139834485948
 30
0.0
  0
VERTEX
  5
150B
  8
SURVBND
 10
633620.7339062757091597
 20
596486.9137370669050142
 30
0.0
  0
VERTEX
  5
150C
  8
SURVBND
 10
633615.8048439072445035
 20
596514.9008981132647023
 30
0.0
  0
VERTEX
  5
150D
  8
SURVBND
 10
633623.8714327767957002
 20
596545.8545247931033373
 30
0.0
  0
VERTEX
  5
150E
  8
SURVBND
 10
633637.9279732026625425
 20
596574.7956619850592688
 30
0.0
  0
VERTEX
  5
150F
  8
SURVBND
 10
633643.9773208934348077
 20
596597.7611026930389926
 30
0.0
  0
VERTEX
  5
1510
  8
SURVBND
 10
633649.0584373663878068
 20
596633.7174429481383413
 30
0.0
  0
VERTEX
  5
1511
  8
SURVBND
 10
633664.1307259177556261
 20
596669.6500247495714575
 30
0.0
  0
VERTEX
  5
1512
  8
SURVBND
 10
633655.2455840894253924
 20
596714.6316817107144743
 30
0.0
  0
VERTEX
  5
1513
  8
SURVBND
 10
633644.383590453886427
 20
596768.6101452331058681
 30
0.0
  0
VERTEX
  5
1514
  8
SURVBND
 10
633637.4610453605419025
 20
596798.6002923857886344
 30
0.0
  0
VERTEX
  5
1515
  8
SURVBND
 10
633633.5287243545753881
 20
596825.5859603789867833
 30
0.0
  0
VERTEX
  5
1516
  8
SURVBND
 10
633627.6147998505039141
 20
596859.5702005177736282
 30
0.0
  0
VERTEX
  5
1517
  8
SURVBND
 10
633605.6793623403646052
 20
596878.6056960651185364
 30
0.0
  0
VERTEX
  5
1518
  8
SURVBND
 10
633592.7169729376910254
 20
596889.6268713412573561
 30
0.0
  0
VERTEX
  5
1519
  8
SURVBND
 10
633578.7459629457443953
 20
596896.6539536314085126
 30
0.0
  0
VERTEX
  5
151A
  8
SURVBND
 10
633559.8031253684312105
 20
596913.6840872269822285
 30
0.0
  0
VERTEX
  5
151B
  8
SURVBND
 10
633541.8641566896112636
 20
596932.7100793927675113
 30
0.0
  0
VERTEX
  5
151C
  8
SURVBND
 10
633530.9356393832713366
 20
596958.713261095690541
 30
0.0
  0
VERTEX
  5
151D
  8
SURVBND
 10
633515.0210394193418324
 20
596988.7247908570570871
 30
0.0
  0
VERTEX
  5
151E
  8
SURVBND
 10
633502.0942876974586397
 20
597014.7327242506435141
 30
0.0
  0
VERTEX
  5
151F
  8
SURVBND
 10
633488.1422844685148448
 20
597029.7527442035498098
 30
0.0
  0
VERTEX
  5
1520
  8
SURVBND
 10
633468.1670678479131311
 20
597032.7976127348374575
 30
0.0
  0
VERTEX
  5
1521
  8
SURVBND
 10
633451.1915786962490529
 20
597036.8344709377270192
 30
0.0
  0
VERTEX
  5
1522
  8
SURVBND
 10
633424.2344208477297798
 20
597044.8915564256021753
 30
0.0
  0
VERTEX
  5
1523
  8
SURVBND
 10
633401.26185260375496
 20
597047.9435524930013344
 30
0.0
  0
VERTEX
  5
1524
  8
SURVBND
 10
633388.2828322832938284
 20
597051.9709073142148554
 30
0.0
  0
VERTEX
  5
1525
  8
SURVBND
 10
633374.2928155281115323
 20
597051.0050519418437034
 30
0.0
  0
VERTEX
  5
1526
  8
SURVBND
 10
633363.3096537780947983
 20
597054.0285378645639867
 30
0.0
  0
VERTEX
  5
1527
  8
SURVBND
 10
633346.3199095540912822
 20
597052.0706928203580901
 30
0.0
  0
VERTEX
  5
1528
  8
SURVBND
 10
633323.3473413100000471
 20
597055.1226888876408339
 30
0.0
  0
VERTEX
  5
1529
  8
SURVBND
 10
633302.3825108631281182
 20
597062.1664020955795422
 30
0.0
  0
VERTEX
  5
152A
  8
SURVBND
 10
633287.4171353541314602
 20
597071.1940946468384936
 30
0.0
  0
VERTEX
  5
152B
  8
SURVBND
 10
633268.4742977765854448
 20
597088.2242282422957942
 30
0.0
  0
VERTEX
  5
152C
  8
SURVBND
 10
633254.5341737745329738
 20
597108.2398342344677076
 30
0.0
  0
VERTEX
  5
152D
  8
SURVBND
 10
633242.5970358789199963
 20
597130.2489229515194893
 30
0.0
  0
VERTEX
  5
152E
  8
SURVBND
 10
633232.6628840897465125
 20
597154.2514943934511393
 30
0.0
  0
VERTEX
  5
152F
  8
SURVBND
 10
633232.7341594512108713
 20
597184.2250106283463538
 30
0.0
  0
VERTEX
  5
1530
  8
SURVBND
 10
633242.7704725918592885
 20
597203.1844791235635057
 30
0.0
  0
VERTEX
  5
1531
  8
SURVBND
 10
633254.8168993750587106
 20
597227.1347819670336321
 30
0.0
  0
VERTEX
  5
1532
  8
SURVBND
 10
633273.8595224586315453
 20
597252.0675711006624624
 30
0.0
  0
VERTEX
  5
1533
  8
SURVBND
 10
633307.8081249166280031
 20
597242.9947374870534986
 30
0.0
  0
VERTEX
  5
1534
  8
SURVBND
 10
633335.762024127645418
 20
597233.9361589459003881
 30
0.0
  0
VERTEX
  5
1535
  8
SURVBND
 10
633337.7958962239790708
 20
597248.918165372684598
 30
0.0
  0
VERTEX
  5
1536
  8
SURVBND
 10
633336.8585509960539639
 20
597274.8975886219413951
 30
0.0
  0
VERTEX
  5
1537
  8
SURVBND
 10
633333.8944612079067156
 20
597288.8923570676706731
 30
0.0
  0
VERTEX
  5
1538
  8
SURVBND
 10
633326.9481576607795432
 20
597308.8913321420550346
 30
0.0
  0
VERTEX
  5
1539
  8
SURVBND
 10
633318.0107472339877859
 20
597331.8924105307087302
 30
0.0
  0
VERTEX
  5
153A
  8
SURVBND
 10
633309.0828401888720691
 20
597358.8899577507982031
 30
0.0
  0
VERTEX
  5
153B
  8
SURVBND
 10
633301.1492986606899649
 20
597383.8868947097798809
 30
0.0
  0
VERTEX
  5
153C
  8
SURVBND
 10
633290.1946470553521067
 20
597398.8997871265746653
 30
0.0
  0
VERTEX
  5
153D
  8
SURVBND
 10
633272.2675576034234837
 20
597422.9213653315091506
 30
0.0
  0
VERTEX
  5
153E
  8
SURVBND
 10
633262.3072715151356533
 20
597435.93364748719614
 30
0.0
  0
VERTEX
  5
153F
  8
SURVBND
 10
633253.3365992528852075
 20
597444.9470849663484842
 30
0.0
  0
VERTEX
  5
1540
  8
SURVBND
 10
633240.3742098502116278
 20
597455.9682602423708886
 30
0.0
  0
VERTEX
  5
1541
  8
SURVBND
 10
633221.4171172004425898
 20
597467.0036905908491462
 30
0.0
  0
VERTEX
  5
1542
  8
SURVBND
 10
633206.4493658461142331
 20
597475.0322659342782572
 30
0.0
  0
VERTEX
  5
1543
  8
SURVBND
 10
633199.5006864535389468
 20
597494.0321238008327782
 30
0.0
  0
VERTEX
  5
1544
  8
SURVBND
 10
633195.5279760761186481
 20
597504.0327992608072236
 30
0.0
  0
VERTEX
  5
1545
  8
SURVBND
 10
633195.5588620658963919
 20
597517.0213229625951499
 30
0.0
  0
VERTEX
  5
1546
  8
SURVBND
 10
633196.5959927999647334
 20
597533.0048224426573142
 30
0.0
  0
VERTEX
  5
1547
  8
SURVBND
 10
633192.628034113207832
 20
597545.0037323181750253
 30
0.0
  0
VERTEX
  5
1548
  8
SURVBND
 10
633186.654713474563323
 20
597554.0100422612158582
 30
0.0
  0
VERTEX
  5
1549
  8
SURVBND
 10
633177.6982962847687304
 20
597569.0181829872308299
 30
0.0
  0
VERTEX
  5
154A
  8
SURVBND
 10
633163.7344138290500268
 20
597579.0426169007550925
 30
0.0
  0
VERTEX
  5
154B
  8
SURVBND
 10
633142.7577041550539434
 20
597581.0907440695445985
 30
0.0
  0
VERTEX
  5
154C
  8
SURVBND
 10
633131.7697907142573968
 20
597582.1159955764887854
 30
0.0
  0
VERTEX
  5
154D
  8
SURVBND
 10
633120.805635727243498
 20
597593.1324191619642079
 30
0.0
  0
VERTEX
  5
154E
  8
SURVBND
 10
633119.8540354272117838
 20
597613.1171391641255468
 30
0.0
  0
VERTEX
  5
154F
  8
SURVBND
 10
633121.9045384412165731
 20
597635.0929660458350554
 30
0.0
  0
VERTEX
  5
1550
  8
SURVBND
 10
633122.9701793198473752
 20
597663.0658720197388902
 30
0.0
  0
VERTEX
  5
1551
  8
SURVBND
 10
633123.0295754544204101
 20
597688.0438022157177329
 30
0.0
  0
VERTEX
  5
1552
  8
SURVBND
 10
633126.0815715218195692
 20
597711.016370459808968
 30
0.0
  0
VERTEX
  5
1553
  8
SURVBND
 10
633126.1385918108280748
 20
597734.9951834479579702
 30
0.0
  0
VERTEX
  5
1554
  8
SURVBND
 10
633124.1783709212904796
 20
597750.9858104641316459
 30
0.0
  0
VERTEX
  5
1555
  8
SURVBND
 10
633099.283595313783735
 20
597786.014308872865513
 30
0.0
  0
VERTEX
  5
1556
  8
SURVBND
 10
633082.3389921520138159
 20
597803.0396907776594162
 30
0.0
  0
VERTEX
  5
1557
  8
SURVBND
 10
633067.3641132614575326
 20
597808.0709144975990057
 30
0.0
  0
VERTEX
  5
1558
  8
SURVBND
 10
633050.3791207283502445
 20
597808.1113038690527901
 30
0.0
  0
VERTEX
  5
1559
  8
SURVBND
 10
633035.3828592291101813
 20
597804.1504727184074
 30
0.0
  0
VERTEX
  5
155A
  8
SURVBND
 10
633008.3781844729091972
 20
597792.2252140496857464
 30
0.0
  0
VERTEX
  5
155B
  8
SURVBND
 10
632986.3809749828651547
 20
597785.2836621933383867
 30
0.0
  0
VERTEX
  5
155C
  8
SURVBND
 10
632970.3879721212433651
 20
597782.324324095970951
 30
0.0
  0
VERTEX
  5
155D
  8
SURVBND
 10
632944.4180522535461932
 20
597785.3834476993652061
 30
0.0
  0
VERTEX
  5
155E
  8
SURVBND
 10
632922.4707355166319758
 20
597799.4233572075609118
 30
0.0
  0
VERTEX
  5
155F
  8
SURVBND
 10
632895.5492153490195051
 20
597822.4672008131165057
 30
0.0
  0
VERTEX
  5
1560
  8
SURVBND
 10
632874.6223984281532466
 20
597845.4967893464490771
 30
0.0
  0
VERTEX
  5
1561
  8
SURVBND
 10
632850.6958540383493528
 20
597867.534388207946904
 30
0.0
  0
VERTEX
  5
1562
  8
SURVBND
 10
632825.7725682862801477
 20
597890.5734801228391007
 30
0.0
  0
VERTEX
  5
1563
  8
SURVBND
 10
632808.8232134338468313
 20
597905.6006276118569076
 30
0.0
  0
VERTEX
  5
1564
  8
SURVBND
 10
632790.8794930642470717
 20
597922.6283853619825095
 30
0.0
  0
VERTEX
  5
1565
  8
SURVBND
 10
632786.9352928312728181
 20
597944.6184673159150407
 30
0.0
  0
VERTEX
  5
1566
  8
SURVBND
 10
632796.9549750543665141
 20
597956.5841153562068939
 30
0.0
  0
VERTEX
  5
1567
  8
SURVBND
 10
632819.9441742161288857
 20
597960.5259397438494489
 30
0.0
  0
VERTEX
  5
1568
  8
SURVBND
 10
632848.920949088758789
 20
597961.4561574354302138
 30
0.0
  0
VERTEX
  5
1569
  8
SURVBND
 10
632871.9101482505211607
 20
597965.3979818229563534
 30
0.0
  0
VERTEX
  5
156A
  8
SURVBND
 10
632899.9139402145519853
 20
597977.3208646463463083
 30
0.0
  0
VERTEX
  5
156B
  8
SURVBND
 10
632912.9927460409235209
 20
598015.2564325541025028
 30
0.0
  0
VERTEX
  5
156C
  8
SURVBND
 10
632909.0889351796358824
 20
598054.2315070412587374
 30
0.0
  0
VERTEX
  5
156D
  8
SURVBND
 10
632908.1373348793713376
 20
598074.2162270434200764
 30
0.0
  0
VERTEX
  5
156E
  8
SURVBND
 10
632894.2233451765496284
 20
598105.222122321720235
 30
0.0
  0
VERTEX
  5
156F
  8
SURVBND
 10
632910.2472340280655771
 20
598121.1699841209920123
 30
0.0
  0
VERTEX
  5
1570
  8
SURVBND
 10
632962.2060805263463408
 20
598123.0446745768422261
 30
0.0
  0
VERTEX
  5
1571
  8
SURVBND
 10
632978.2537278316449374
 20
598148.9837084542959929
 30
0.0
  0
VERTEX
  5
1572
  8
SURVBND
 10
632992.3292750205146149
 20
598185.9177833090070635
 30
0.0
  0
VERTEX
  5
1573
  8
SURVBND
 10
632989.4673465838422999
 20
598242.8745916917687282
 30
0.0
  0
VERTEX
  5
1574
  8
SURVBND
 10
633003.5072560921544209
 20
598264.821908428799361
 30
0.0
  0
VERTEX
  5
1575
  8
SURVBND
 10
633007.5298592225881293
 20
598275.8026943334843963
 30
0.0
  0
VERTEX
  5
1576
  8
SURVBND
 10
633010.6032378983218223
 20
598307.7673174481606111
 30
0.0
  0
VERTEX
  5
1577
  8
SURVBND
 10
633006.6780444284668192
 20
598337.7503370647318661
 30
0.0
  0
VERTEX
  5
1578
  8
SURVBND
 10
633006.7350647177081555
 20
598361.7291500528808683
 30
0.0
  0
VERTEX
  5
1579
  8
SURVBND
 10
633005.7977194897830486
 20
598387.7085733020212501
 30
0.0
  0
VERTEX
  5
157A
  8
SURVBND
 10
633012.8628153061727062
 20
598417.665458619245328
 30
0.0
  0
VERTEX
  5
157B
  8
SURVBND
 10
633018.9074113061651587
 20
598438.6326649116817862
 30
0.0
  0
VERTEX
  5
157C
  8
SURVBND
 10
633035.9589275100734085
 20
598466.5675573595799506
 30
0.0
  0
VERTEX
  5
157D
  8
SURVBND
 10
633047.9934750664979219
 20
598485.5222741639008746
 30
0.0
  0
VERTEX
  5
157E
  8
SURVBND
 10
633064.0458740625763312
 20
598513.4595424572471529
 30
0.0
  0
VERTEX
  5
157F
  8
SURVBND
 10
633074.0703079763334244
 20
598527.4234249130822718
 30
0.0
  0
VERTEX
  5
1580
  8
SURVBND
 10
633087.1015968950232491
 20
598545.3766486642416567
 30
0.0
  0
VERTEX
  5
1581
  8
SURVBND
 10
633104.1436097176047042
 20
598569.3150722808204591
 30
0.0
  0
VERTEX
  5
1582
  8
SURVBND
 10
633114.1727953220251948
 20
598585.277189152315259
 30
0.0
  0
VERTEX
  5
1583
  8
SURVBND
 10
633128.2150806754361838
 20
598608.2236230971757323
 30
0.0
  0
VERTEX
  5
1584
  8
SURVBND
 10
633138.2395145891932771
 20
598622.1875055531272665
 30
0.0
  0
VERTEX
  5
1585
  8
SURVBND
 10
633151.268427662551403
 20
598639.1416120963403955
 30
0.0
  0
VERTEX
  5
1586
  8
SURVBND
 10
633162.3014821658143774
 20
598657.0995875381631777
 30
0.0
  0
VERTEX
  5
1587
  8
SURVBND
 10
633177.3381330362753943
 20
598678.0454112221486866
 30
0.0
  0
VERTEX
  5
1588
  8
SURVBND
 10
633191.3732908536912873
 20
598697.9944935434032232
 30
0.0
  0
VERTEX
  5
1589
  8
SURVBND
 10
633204.3998280817177147
 20
598713.9494828787865117
 30
0.0
  0
VERTEX
  5
158A
  8
SURVBND
 10
633232.4487611079821363
 20
598744.8555926510598511
 30
0.0
  0
VERTEX
  5
158B
  8
SURVBND
 10
633256.4893460761522874
 20
598770.7756197655107826
 30
0.0
  0
VERTEX
  5
158C
  8
SURVBND
 10
633273.5194796714931726
 20
598789.718457343056798
 30
0.0
  0
VERTEX
  5
158D
  8
SURVBND
 10
633304.575267702806741
 20
598824.6139084104215726
 30
0.0
  0
VERTEX
  5
158E
  8
SURVBND
 10
633329.6316007962450385
 20
598857.5253801344661042
 30
0.0
  0
VERTEX
  5
158F
  8
SURVBND
 10
633363.6989955235039815
 20
598898.4084069126984105
 30
0.0
  0
VERTEX
  5
1590
  8
SURVBND
 10
633403.7705968793015927
 20
598943.273647450027056
 30
0.0
  0
VERTEX
  5
1591
  8
SURVBND
 10
633438.8561155772767961
 20
598992.1472360456828028
 30
0.0
  0
VERTEX
  5
1592
  8
SURVBND
 10
633474.9241205655271187
 20
599034.0246283410815522
 30
0.0
  0
VERTEX
  5
1593
  8
SURVBND
 10
633515.9900874382583424
 20
599076.8892586173024029
 30
0.0
  0
VERTEX
  5
1594
  8
SURVBND
 10
633606.2432544971816242
 20
599216.5518416300183162
 30
0.0
  0
VERTEX
  5
1595
  8
SURVBND
 10
633651.3650863359216601
 20
599284.3848987206583843
 30
0.0
  0
VERTEX
  5
1596
  8
SURVBND
 10
633691.4343118461547419
 20
599328.2510220501571894
 30
0.0
  0
VERTEX
  5
1597
  8
SURVBND
 10
633715.4772726596565917
 20
599355.1701663725543767
 30
0.0
  0
VERTEX
  5
1598
  8
SURVBND
 10
633758.6246285365195945
 20
599432.9991472323890775
 30
0.0
  0
VERTEX
  5
1599
  8
SURVBND
 10
633783.7070959291886538
 20
599476.9009082426782697
 30
0.0
  0
VERTEX
  5
159A
  8
SURVBND
 10
633808.7848116311943159
 20
599518.8044348371913657
 30
0.0
  0
VERTEX
  5
159B
  8
SURVBND
 10
633839.8358479718444869
 20
599551.7016514888964593
 30
0.0
  0
VERTEX
  5
159C
  8
SURVBND
 10
633863.8930638574529439
 20
599584.6154990583891049
 30
0.0
  0
VERTEX
  5
159D
  8
SURVBND
 10
633900.9696894350927323
 20
599630.4869843395426869
 30
0.0
  0
VERTEX
  5
159E
  8
SURVBND
 10
633913.9867232815595344
 20
599642.4455048437230289
 30
0.0
  0
VERTEX
  5
159F
  8
SURVBND
 10
633939.0169220758834854
 20
599664.3666872816393152
 30
0.0
  0
VERTEX
  5
15A0
  8
SURVBND
 10
633938.1294696010882035
 20
599711.3275718954391778
 30
0.0
  0
VERTEX
  5
15A1
  8
SURVBND
 10
633914.2837039545411244
 20
599767.3351558232679963
 30
0.0
  0
VERTEX
  5
15A2
  8
SURVBND
 10
633904.3471763198031113
 20
599790.3386100574862212
 30
0.0
  0
VERTEX
  5
15A3
  8
SURVBND
 10
633837.6035185615764931
 20
599873.424519948544912
 30
0.0
  0
VERTEX
  5
15A4
  8
SURVBND
 10
633786.8148501388495788
 20
599943.4838926115771756
 30
0.0
  0
VERTEX
  5
15A5
  8
SURVBND
 10
633761.9319537581177428
 20
599983.507977059809491
 30
0.0
  0
VERTEX
  5
15A6
  8
SURVBND
 10
633742.9772369539132342
 20
599995.5425246158847585
 30
0.0
  0
VERTEX
  5
15A7
  8
SURVBND
 10
633728.0118614446837455
 20
600004.57021716714371
 30
0.0
  0
VERTEX
  5
15A8
  8
SURVBND
 10
633692.0887830249266699
 20
600023.6389745499473065
 30
0.0
  0
VERTEX
  5
15A9
  8
SURVBND
 10
633649.1172397064510733
 20
600019.7446670699864626
 30
0.0
  0
VERTEX
  5
15AA
  8
SURVBND
 10
633656.004147119121626
 20
599974.7677617998560891
 30
0.0
  0
VERTEX
  5
15AB
  8
SURVBND
 10
633656.9700024913763627
 20
599960.7777450445573777
 30
0.0
  0
VERTEX
  5
15AC
  8
SURVBND
 10
633631.954058769508265
 20
599944.8512658538529649
 30
0.0
  0
VERTEX
  5
15AD
  8
SURVBND
 10
633575.9963675943436101
 20
599941.986961571732536
 30
0.0
  0
VERTEX
  5
15AE
  8
SURVBND
 10
633519.0419350570300594
 20
599940.1241503428900614
 30
0.0
  0
VERTEX
  5
15AF
  8
SURVBND
 10
633477.0885157092707232
 20
599944.220404680352658
 30
0.0
  0
VERTEX
  5
15B0
  8
SURVBND
 10
633426.1002762742573395
 20
599930.3539318852126598
 30
0.0
  0
VERTEX
  5
15B1
  8
SURVBND
 10
633365.1113613793859258
 20
599912.5147487124195322
 30
0.0
  0
VERTEX
  5
15B2
  8
SURVBND
 10
633309.0752673066454008
 20
599876.6795765717979521
 30
0.0
  0
VERTEX
  5
15B3
  8
SURVBND
 10
633267.0814585875486955
 20
599863.7908383759204298
 30
0.0
  0
VERTEX
  5
15B4
  8
SURVBND
 10
633216.1644945139996707
 20
599879.8978818159084767
 30
0.0
  0
VERTEX
  5
15B5
  8
SURVBND
 10
633195.1972882217960432
 20
599885.9424778159009293
 30
0.0
  0
VERTEX
  5
15B6
  8
SURVBND
 10
633151.2693929122760892
 20
599900.0346559224417433
 30
0.0
  0
VERTEX
  5
15B7
  8
SURVBND
 10
633089.3692670887103304
 20
599919.1651852851500735
 30
0.0
  0
VERTEX
  5
15B8
  8
SURVBND
 10
633045.4627543876413256
 20
599942.2494182620430365
 30
0.0
  0
VERTEX
  5
15B9
  8
SURVBND
 10
633002.5411038221791387
 20
599959.3365721468580887
 30
0.0
  0
VERTEX
  5
15BA
  8
SURVBND
 10
632959.6051981844939291
 20
599970.4290227845776826
 30
0.0
  0
VERTEX
  5
15BB
  8
SURVBND
 10
632913.6814443046459928
 20
599985.5250697898445651
 30
0.0
  0
VERTEX
  5
15BC
  8
SURVBND
 10
632865.7618318545864895
 20
600001.62498569348827
 30
0.0
  0
VERTEX
  5
15BD
  8
SURVBND
 10
632821.8149297820637003
 20
600007.7242261373903602
 30
0.0
  0
VERTEX
  5
15BE
  8
SURVBND
 10
632777.825262492755428
 20
599995.8393568402389064
 30
0.0
  0
VERTEX
  5
15BF
  8
SURVBND
 10
632757.840542490594089
 20
599994.8877565399743617
 30
0.0
  0
VERTEX
  5
15C0
  8
SURVBND
 10
632698.8878755376208574
 20
599993.0296970020281151
 30
0.0
  0
VERTEX
  5
15C1
  8
SURVBND
 10
632658.9350664508529007
 20
599998.1203168564243242
 30
0.0
  0
VERTEX
  5
15C2
  8
SURVBND
 10
632603.969364947755821
 20
599992.2562851054826751
 30
0.0
  0
VERTEX
  5
15C3
  8
SURVBND
 10
632564.0070524795446545
 20
599993.3504361285595223
 30
0.0
  0
VERTEX
  5
15C4
  8
SURVBND
 10
632521.1946908016689122
 20
600056.3969815737800673
 30
0.0
  0
VERTEX
  5
15C5
  8
SURVBND
 10
632473.3867430846439674
 20
600119.4554062458919361
 30
0.0
  0
VERTEX
  5
15C6
  8
SURVBND
 10
632419.5840921206399798
 20
600182.5280859902268276
 30
0.0
  0
VERTEX
  5
15C7
  8
SURVBND
 10
632359.7677311465376988
 20
600237.6220831442624331
 30
0.0
  0
VERTEX
  5
15C8
  8
SURVBND
 10
632318.9250937396427616
 20
600288.6744704047450796
 30
0.0
  0
VERTEX
  5
15C9
  8
SURVBND
 10
632274.07173242920544
 20
600333.7416577995754778
 30
0.0
  0
VERTEX
  5
15CA
  8
SURVBND
 10
632169.4138893715571612
 20
600438.898428387590684
 30
0.0
  0
VERTEX
  5
15CB
  8
SURVBND
 10
632133.4314148171106353
 20
600432.9892555742990226
 30
0.0
  0
VERTEX
  5
15CC
  8
SURVBND
 10
632088.5899327335646376
 20
600483.0520290083950385
 30
0.0
  0
VERTEX
  5
15CD
  8
SURVBND
 10
632035.8125332766212523
 20
600557.1126221936428919
 30
0.0
  0
VERTEX
  5
15CE
  8
SURVBND
 10
631981.0036375684430823
 20
600617.1903261599363759
 30
0.0
  0
VERTEX
  5
15CF
  8
SURVBND
 10
631929.0495427610585466
 20
600617.3138701198622584
 30
0.0
  0
VERTEX
  5
15D0
  8
SURVBND
 10
631888.0002068058820441
 20
600581.4430602984502912
 30
0.0
  0
VERTEX
  5
15D1
  8
SURVBND
 10
631880.9778762066271156
 20
600569.4702847220469266
 30
0.0
  0
VERTEX
  5
15D2
  8
SURVBND
 10
631853.892422707285732
 20
600523.5750409869942814
 30
0.0
  0
VERTEX
  5
15D3
  8
SURVBND
 10
631806.7676047622226179
 20
600453.7485011713579297
 30
0.0
  0
VERTEX
  5
15D4
  8
SURVBND
 10
631766.6366072718519717
 20
600383.9053304380504414
 30
0.0
  0
VERTEX
  5
15D5
  8
SURVBND
 10
631767.5026771381963044
 20
600327.9523909537820145
 30
0.0
  0
VERTEX
  5
15D6
  8
SURVBND
 10
631762.3027683960972354
 20
600242.0401903068413958
 30
0.0
  0
VERTEX
  5
15D7
  8
SURVBND
 10
631759.1438592865597457
 20
600174.1073477099416777
 30
0.0
  0
VERTEX
  5
15D8
  8
SURVBND
 10
631765.0981731619685888
 20
600157.108100104611367
 30
0.0
  0
VERTEX
  5
15D9
  8
SURVBND
 10
631780.9771354452241212
 20
600112.1098122256807983
 30
0.0
  0
VERTEX
  5
15DA
  8
SURVBND
 10
631788.8869185195071623
 20
600077.1217031884007156
 30
0.0
  0
VERTEX
  5
15DB
  8
SURVBND
 10
631784.8001675636041909
 20
600039.1647526720771566
 30
0.0
  0
VERTEX
  5
15DC
  8
SURVBND
 10
631772.7347340174019337
 20
600007.221512165851891
 30
0.0
  0
VERTEX
  5
15DD
  8
SURVBND
 10
631756.6704557943157852
 20
599974.2886578333564103
 30
0.0
  0
VERTEX
  5
15DE
  8
SURVBND
 10
631737.6515911646420136
 20
599959.3470407781424001
 30
0.0
  0
VERTEX
  5
15DF
  8
SURVBND
 10
631669.6355939796194434
 20
599927.536847613286227
 30
0.0
  0
VERTEX
  5
15E0
  8
SURVBND
 10
631618.5974617915926501
 20
599892.6889134536031634
 30
0.0
  0
VERTEX
  5
15E1
  8
SURVBND
 10
631595.5607457221485674
 20
599868.7647449093637988
 30
0.0
  0
VERTEX
  5
15E2
  8
SURVBND
 10
631547.5294685390545055
 20
599837.9061520447721705
 30
0.0
  0
VERTEX
  5
15E3
  8
SURVBND
 10
631517.5226904685841873
 20
599823.9897864966187626
 30
0.0
  0
VERTEX
  5
15E4
  8
SURVBND
 10
631466.5154442704515532
 20
599802.1303760388400406
 30
0.0
  0
VERTEX
  5
15E5
  8
SURVBND
 10
631405.5098984577925876
 20
599777.2973724111216143
 30
0.0
  0
VERTEX
  5
15E6
  8
SURVBND
 10
631357.526138182496652
 20
599766.4211237032432109
 30
0.0
  0
VERTEX
  5
15E7
  8
SURVBND
 10
631311.5382364774122834
 20
599754.5410060967551544
 30
0.0
  0
VERTEX
  5
15E8
  8
SURVBND
 10
631263.5901138827903196
 20
599758.6515155065571889
 30
0.0
  0
VERTEX
  5
15E9
  8
SURVBND
 10
631234.6941177530679852
 20
599791.6912828813074157
 30
0.0
  0
VERTEX
  5
15EA
  8
SURVBND
 10
631194.826839100336656
 20
599832.7501222179271281
 30
0.0
  0
VERTEX
  5
15EB
  8
SURVBND
 10
631167.9338290771702304
 20
599867.7833723175572231
 30
0.0
  0
VERTEX
  5
15EC
  8
SURVBND
 10
631148.0393911994760856
 20
599904.7982259151758626
 30
0.0
  0
VERTEX
  5
15ED
  8
SURVBND
 10
631119.1719052145490423
 20
599949.8273997838841751
 30
0.0
  0
VERTEX
  5
15EE
  8
SURVBND
 10
631075.3556746379472315
 20
600010.8780866587767377
 30
0.0
  0
VERTEX
  5
15EF
  8
SURVBND
 10
631048.4840472233481705
 20
600054.9033916289918125
 30
0.0
  0
VERTEX
  5
15F0
  8
SURVBND
 10
631024.6002680505625904
 20
600094.9251002316595986
 30
0.0
  0
VERTEX
  5
15F1
  8
SURVBND
 10
631005.7001956900348887
 20
600129.9393435681704432
 30
0.0
  0
VERTEX
  5
15F2
  8
SURVBND
 10
630987.7849854651140049
 20
600158.9565078122541308
 30
0.0
  0
VERTEX
  5
15F3
  8
SURVBND
 10
630976.8374613957712427
 20
600176.966751852654852
 30
0.0
  0
VERTEX
  5
15F4
  8
SURVBND
 10
630945.9907477581873536
 20
600229.993615074781701
 30
0.0
  0
VERTEX
  5
15F5
  8
SURVBND
 10
630926.0963098807260394
 20
600267.0084686726331711
 30
0.0
  0
VERTEX
  5
15F6
  8
SURVBND
 10
630903.2235271425452083
 20
600312.0233874688856304
 30
0.0
  0
VERTEX
  5
15F7
  8
SURVBND
 10
630886.3288167339051142
 20
600350.0302307383390144
 30
0.0
  0
VERTEX
  5
15F8
  8
SURVBND
 10
630888.4054540471406654
 20
600382.9963469060603529
 30
0.0
  0
VERTEX
  5
15F9
  8
SURVBND
 10
630891.4479467329801992
 20
600401.9724463188322261
 30
0.0
  0
VERTEX
  5
15FA
  8
SURVBND
 10
630895.5727112151216716
 20
600455.9152721604332328
 30
0.0
  0
VERTEX
  5
15FB
  8
SURVBND
 10
630904.7382027985295281
 20
600528.8294457241427153
 30
0.0
  0
VERTEX
  5
15FC
  8
SURVBND
 10
630915.8734186531510204
 20
600589.7494611029978842
 30
0.0
  0
VERTEX
  5
15FD
  8
SURVBND
 10
630922.9860313769895583
 20
600639.6886905771680176
 30
0.0
  0
VERTEX
  5
15FE
  8
SURVBND
 10
630923.0573067384539172
 20
600669.6622068122960627
 30
0.0
  0
VERTEX
  5
15FF
  8
SURVBND
 10
630914.1602856833487749
 20
600709.6482777341734618
 30
0.0
  0
VERTEX
  5
1600
  8
SURVBND
 10
630903.2293925316771492
 20
600734.652342229266651
 30
0.0
  0
VERTEX
  5
1601
  8
SURVBND
 10
630893.3356301139574498
 20
600775.6399062045384198
 30
0.0
  0
VERTEX
  5
1602
  8
SURVBND
 10
630887.4620949815725908
 20
600826.6091388763161376
 30
0.0
  0
VERTEX
  5
1603
  8
SURVBND
 10
630867.5961672485573217
 20
600875.6133989680092782
 30
0.0
  0
VERTEX
  5
1604
  8
SURVBND
 10
630843.7622808287851512
 20
600936.6165689352201298
 30
0.0
  0
VERTEX
  5
1605
  8
SURVBND
 10
630835.8263634552713484
 20
600960.6143886862555519
 30
0.0
  0
VERTEX
  5
1606
  8
SURVBND
 10
630827.8928219272056594
 20
600985.6113256453536451
 30
0.0
  0
VERTEX
  5
1607
  8
SURVBND
 10
630796.0636219993466511
 20
601045.6343851678539068
 30
0.0
  0
VERTEX
  5
1608
  8
SURVBND
 10
630781.16239431547001
 20
601081.6382423307513818
 30
0.0
  0
VERTEX
  5
1609
  8
SURVBND
 10
630746.276446629781276
 20
601116.6904991933843121
 30
0.0
  0
VERTEX
  5
160A
  8
SURVBND
 10
630711.4023781707510352
 20
601156.7383420952828601
 30
0.0
  0
VERTEX
  5
160B
  8
SURVBND
 10
630677.5298027649987489
 20
601197.7829263595631346
 30
0.0
  0
VERTEX
  5
160C
  8
SURVBND
 10
630671.5588579718023539
 20
601207.7883535103173926
 30
0.0
  0
VERTEX
  5
160D
  8
SURVBND
 10
630671.7132879217388108
 20
601272.7309720197226852
 30
0.0
  0
VERTEX
  5
160E
  8
SURVBND
 10
630598.8917723279446363
 20
601320.8620347088435665
 30
0.0
  0
VERTEX
  5
160F
  8
SURVBND
 10
630262.505260722944513
 20
601454.5452832451555878
 30
0.0
  0
VERTEX
  5
1610
  8
SURVBND
 10
630139.7682741089956835
 20
601519.7801307365298271
 30
0.0
  0
VERTEX
  5
1611
  8
SURVBND
 10
630125.9136805406305939
 20
601575.7639562108088285
 30
0.0
  0
VERTEX
  5
1612
  8
SURVBND
 10
630083.2676280395826325
 20
601708.7487062044674531
 30
0.0
  0
VERTEX
  5
1613
  8
SURVBND
 10
630103.5303219514898956
 20
601826.5970198217546567
 30
0.0
  0
VERTEX
  5
1614
  8
SURVBND
 10
630098.7723204507492483
 20
601926.5206198323285207
 30
0.0
  0
VERTEX
  5
1615
  8
SURVBND
 10
630049.0706755147548392
 20
602033.5449533398495987
 30
0.0
  0
VERTEX
  5
1616
  8
SURVBND
 10
629959.1715094178216532
 20
602042.750834294827655
 30
0.0
  0
VERTEX
  5
1617
  8
SURVBND
 10
629871.3371014073491096
 20
602079.9272453784942627
 30
0.0
  0
VERTEX
  5
1618
  8
SURVBND
 10
629765.5423421097220853
 20
602127.137593757477589
 30
0.0
  0
VERTEX
  5
1619
  8
SURVBND
 10
629707.764604922849685
 20
602199.2118317539570853
 30
0.0
  0
VERTEX
  5
161A
  8
SURVBND
 10
629587.9679496430326253
 20
602240.4607387211872265
 30
0.0
  0
VERTEX
  5
161B
  8
SURVBND
 10
629527.028927501058206
 20
602243.6030169130535796
 30
0.0
  0
VERTEX
  5
161C
  8
SURVBND
 10
629436.1662818772019818
 20
602267.7980318309273571
 30
0.0
  0
VERTEX
  5
161D
  8
SURVBND
 10
629386.2674417744856328
 20
602291.8956370882224292
 30
0.0
  0
VERTEX
  5
161E
  8
SURVBND
 10
629325.3735606948612258
 20
602314.0211422289721668
 30
0.0
  0
VERTEX
  5
161F
  8
SURVBND
 10
629251.4602699235547334
 20
602323.1890096578281373
 30
0.0
  0
VERTEX
  5
1620
  8
SURVBND
 10
629203.5264024010393769
 20
602333.2942223146092147
 30
0.0
  0
VERTEX
  5
1621
  8
SURVBND
 10
629155.5949107240885496
 20
602344.3985521791037172
 30
0.0
  0
VERTEX
  5
1622
  8
SURVBND
 10
629099.6871123021701351
 20
602362.515709261642769
 30
0.0
  0
VERTEX
  5
1623
  8
SURVBND
 10
629054.743468867149204
 20
602369.6164427587063983
 30
0.0
  0
VERTEX
  5
1624
  8
SURVBND
 10
629008.7983323789667338
 20
602375.7204348933883011
 30
0.0
  0
VERTEX
  5
1625
  8
SURVBND
 10
628943.8842240143567324
 20
602387.8642713372828439
 30
0.0
  0
VERTEX
  5
1626
  8
SURVBND
 10
628898.9310771976597607
 20
602390.9685360031435266
 30
0.0
  0
VERTEX
  5
1627
  8
SURVBND
 10
628847.0197476070607081
 20
602409.0761897040065378
 30
0.0
  0
VERTEX
  5
1628
  8
SURVBND
 10
628772.047943493234925
 20
602393.2685027824481949
 30
0.0
  0
VERTEX
  5
1629
  8
SURVBND
 10
628723.0413075562100857
 20
602372.4034578414866701
 30
0.0
  0
VERTEX
  5
162A
  8
SURVBND
 10
628669.0153271262533963
 20
602341.5591200492344797
 30
0.0
  0
VERTEX
  5
162B
  8
SURVBND
 10
628613.9783502612262964
 20
602305.7215720631647855
 30
0.0
  0
VERTEX
  5
162C
  8
SURVBND
 10
628556.9573940531117842
 20
602275.8834790149703622
 30
0.0
  0
VERTEX
  5
162D
  8
SURVBND
 10
628472.9388906249077991
 20
602237.1174789214273915
 30
0.0
  0
VERTEX
  5
162E
  8
SURVBND
 10
628390.966138520045206
 20
602218.3290712940506637
 30
0.0
  0
VERTEX
  5
162F
  8
SURVBND
 10
628339.152218590141274
 20
602277.4005305161699653
 30
0.0
  0
VERTEX
  5
1630
  8
SURVBND
 10
628302.3963321391493082
 20
602366.4098682927433401
 30
0.0
  0
VERTEX
  5
1631
  8
SURVBND
 10
628265.6071838530478999
 20
602441.4315651598153636
 30
0.0
  0
VERTEX
  5
1632
  8
SURVBND
 10
628233.8041182243032381
 20
602512.4449139684438705
 30
0.0
  0
VERTEX
  5
1633
  8
SURVBND
 10
628210.1056549914646894
 20
602630.3977647824212909
 30
0.0
  0
VERTEX
  5
1634
  8
SURVBND
 10
628216.3379427768522874
 20
602730.295230493764393
 30
0.0
  0
VERTEX
  5
1635
  8
SURVBND
 10
628241.5296990571077913
 20
602820.156383064459078
 30
0.0
  0
VERTEX
  5
1636
  8
SURVBND
 10
628276.7150032612262294
 20
602910.9928943892009556
 30
0.0
  0
VERTEX
  5
1637
  8
SURVBND
 10
628307.922845397144556
 20
603009.8318467582575977
 30
0.0
  0
VERTEX
  5
1638
  8
SURVBND
 10
628287.3761637376155704
 20
603192.720188545412384
 30
0.0
  0
VERTEX
  5
1639
  8
SURVBND
 10
628277.482401319895871
 20
603233.7077525204513222
 30
0.0
  0
VERTEX
  5
163A
  8
SURVBND
 10
628167.7624485524138436
 20
603310.9011205160059035
 30
0.0
  0
VERTEX
  5
163B
  8
SURVBND
 10
628104.9534876454854384
 20
603368.0004796219291165
 30
0.0
  0
VERTEX
  5
163C
  8
SURVBND
 10
628050.2229948352323845
 20
603461.0490514467237517
 30
0.0
  0
VERTEX
  5
163D
  8
SURVBND
 10
628020.4395462305983528
 20
603541.0497034351574257
 30
0.0
  0
VERTEX
  5
163E
  8
SURVBND
 10
628037.5053175068460405
 20
603574.9792991301510483
 30
0.0
  0
VERTEX
  5
163F
  8
SURVBND
 10
628032.626147891394794
 20
603623.9479215410538018
 30
0.0
  0
VERTEX
  5
1640
  8
SURVBND
 10
628025.8295226033078507
 20
603706.8912807091837749
 30
0.0
  0
VERTEX
  5
1641
  8
SURVBND
 10
628009.0749870722647756
 20
603803.8460392408305779
 30
0.0
  0
VERTEX
  5
1642
  8
SURVBND
 10
628016.273130230139941
 20
603889.7534881972242147
 30
0.0
  0
VERTEX
  5
1643
  8
SURVBND
 10
627996.3691889708861709
 20
603922.7718729634070769
 30
0.0
  0
VERTEX
  5
1644
  8
SURVBND
 10
627961.5141272749751806
 20
603970.8126535279443488
 30
0.0
  0
VERTEX
  5
1645
  8
SURVBND
 10
627936.7167613281635568
 20
604046.8049574581673369
 30
0.0
  0
VERTEX
  5
1646
  8
SURVBND
 10
627891.9418029154185206
 20
604124.8430127116153017
 30
0.0
  0
VERTEX
  5
1647
  8
SURVBND
 10
627848.1065655760467052
 20
604177.9007619238691404
 30
0.0
  0
VERTEX
  5
1648
  8
SURVBND
 10
627765.2202266970416531
 20
604195.082949623814784
 30
0.0
  0
VERTEX
  5
1649
  8
SURVBND
 10
627680.3237741753691807
 20
604207.2743029753910378
 30
0.0
  0
VERTEX
  5
164A
  8
SURVBND
 10
627597.3899183887988329
 20
604204.4741465186234564
 30
0.0
  0
VERTEX
  5
164B
  8
SURVBND
 10
627521.4308762940345332
 20
604193.6644214815460145
 30
0.0
  0
VERTEX
  5
164C
  8
SURVBND
 10
627437.4765206911833957
 20
604181.8745859997579828
 30
0.0
  0
VERTEX
  5
164D
  8
SURVBND
 10
627377.6364012632984668
 20
604226.9774110752623528
 30
0.0
  0
VERTEX
  5
164E
  8
SURVBND
 10
627290.8438756775576621
 20
604282.1355560546508059
 30
0.0
  0
VERTEX
  5
164F
  8
SURVBND
 10
627203.0973739461041987
 20
604356.2793038282543421
 30
0.0
  0
VERTEX
  5
1650
  8
SURVBND
 10
627209.1134598015341908
 20
604365.2571036264998838
 30
0.0
  0
VERTEX
  5
1651
  8
SURVBND
 10
627134.3127165554324165
 20
604421.3858556691557169
 30
0.0
  0
VERTEX
  5
1652
  8
SURVBND
 10
627079.5679686727235094
 20
604508.4397242469713092
 30
0.0
  0
VERTEX
  5
1653
  8
SURVBND
 10
626943.5478535292204469
 20
604449.8149239567574114
 30
0.0
  0
VERTEX
  5
1654
  8
SURVBND
 10
626874.670538168400526
 20
604475.9559046918293461
 30
0.0
  0
VERTEX
  5
1655
  8
SURVBND
 10
626760.863834444899112
 20
604515.1923221710603684
 30
0.0
  0
VERTEX
  5
1656
  8
SURVBND
 10
626667.0370990327792242
 20
604553.3821055348962545
 30
0.0
  0
VERTEX
  5
1657
  8
SURVBND
 10
626585.1498773617204279
 20
604570.5619173896266147
 30
0.0
  0
VERTEX
  5
1658
  8
SURVBND
 10
626501.2430386665510014
 20
604578.7544260644353926
 30
0.0
  0
VERTEX
  5
1659
  8
SURVBND
 10
626422.2913966388441622
 20
604569.9500629791291431
 30
0.0
  0
VERTEX
  5
165A
  8
SURVBND
 10
626340.3614097508834675
 20
604569.145765092689544
 30
0.0
  0
VERTEX
  5
165B
  8
SURVBND
 10
626242.4289166198577732
 20
604561.3856602774467319
 30
0.0
  0
VERTEX
  5
165C
  8
SURVBND
 10
626162.4639023122144863
 20
604546.5889697906095535
 30
0.0
  0
VERTEX
  5
165D
  8
SURVBND
 10
626070.5878844080725685
 20
604564.7916573068359867
 30
0.0
  0
VERTEX
  5
165E
  8
SURVBND
 10
625955.7535533321788535
 20
604592.0410441375570372
 30
0.0
  0
VERTEX
  5
165F
  8
SURVBND
 10
625848.9477975998306647
 20
604634.2581823227228597
 30
0.0
  0
VERTEX
  5
1660
  8
SURVBND
 10
625771.1639578023459762
 20
604696.3887651483528316
 30
0.0
  0
VERTEX
  5
1661
  8
SURVBND
 10
625704.4155483533395454
 20
604777.4764406237518415
 30
0.0
  0
VERTEX
  5
1662
  8
SURVBND
 10
625744.4728946365648881
 20
604816.3469779141014442
 30
0.0
  0
VERTEX
  5
1663
  8
SURVBND
 10
625782.5581408034777269
 20
604866.2125561813591048
 30
0.0
  0
VERTEX
  5
1664
  8
SURVBND
 10
625835.6253933972911909
 20
604914.0442623522831127
 30
0.0
  0
VERTEX
  5
1665
  8
SURVBND
 10
625929.7205993377137929
 20
604988.7547234741505235
 30
0.0
  0
VERTEX
  5
1666
  8
SURVBND
 10
626033.8331116555491462
 20
605074.4317154282471165
 30
0.0
  0
VERTEX
  5
1667
  8
SURVBND
 10
626102.9646424724487588
 20
605155.1962759315501899
 30
0.0
  0
VERTEX
  5
1668
  8
SURVBND
 10
626190.9083393703913316
 20
605163.9792564082890749
 30
0.0
  0
VERTEX
  5
1669
  8
SURVBND
 10
626205.8998491788515821
 20
605165.9418531432747841
 30
0.0
  0
VERTEX
  5
166A
  8
SURVBND
 10
626216.9257761456537992
 20
605180.9024769617244601
 30
0.0
  0
VERTEX
  5
166B
  8
SURVBND
 10
626191.055641784099862
 20
605225.924523294204846
 30
0.0
  0
VERTEX
  5
166C
  8
SURVBND
 10
626151.1764839044772089
 20
605261.9877765915589407
 30
0.0
  0
VERTEX
  5
166D
  8
SURVBND
 10
626149.1853770249290392
 20
605264.9898799059446901
 30
0.0
  0
VERTEX
  5
166E
  8
SURVBND
 10
626155.2964966957224533
 20
605313.9323680176166818
 30
0.0
  0
VERTEX
  5
166F
  8
SURVBND
 10
626171.3583990733604878
 20
605345.866105142282322
 30
0.0
  0
VERTEX
  5
1670
  8
SURVBND
 10
626231.4456064210971817
 20
605404.6714696815470234
 30
0.0
  0
VERTEX
  5
1671
  8
SURVBND
 10
626265.520128684467636
 20
605448.5518480835016817
 30
0.0
  0
VERTEX
  5
1672
  8
SURVBND
 10
626284.6126445210538805
 20
605494.4660985816735774
 30
0.0
  0
VERTEX
  5
1673
  8
SURVBND
 10
626252.80720304697752
 20
605564.4803301824722439
 30
0.0
  0
VERTEX
  5
1674
  8
SURVBND
 10
626263.8806469214614481
 20
605599.4232981577515602
 30
0.0
  0
VERTEX
  5
1675
  8
SURVBND
 10
626335.9263747734948993
 20
605645.2116288505494595
 30
0.0
  0
VERTEX
  5
1676
  8
SURVBND
 10
626367.9812800127547234
 20
605680.1047040725825354
 30
0.0
  0
VERTEX
  5
1677
  8
SURVBND
 10
626388.0871681292774156
 20
605732.0112819724017754
 30
0.0
  0
VERTEX
  5
1678
  8
SURVBND
 10
626382.2207605328876525
 20
605785.9778662679018453
 30
0.0
  0
VERTEX
  5
1679
  8
SURVBND
 10
626372.3365014968439937
 20
605830.9618990743765607
 30
0.0
  0
VERTEX
  5
167A
  8
SURVBND
 10
626324.4572784183546901
 20
605864.0468075113603845
 30
0.0
  0
VERTEX
  5
167B
  8
SURVBND
 10
626288.5437033800408244
 20
605887.1120337253669277
 30
0.0
  0
VERTEX
  5
167C
  8
SURVBND
 10
626246.6045391047373414
 20
605897.2029913098085672
 30
0.0
  0
VERTEX
  5
167D
  8
SURVBND
 10
626231.6367877501761541
 20
605905.2315666533540934
 30
0.0
  0
VERTEX
  5
167E
  8
SURVBND
 10
626242.6722180986544117
 20
605924.1886593031231314
 30
0.0
  0
VERTEX
  5
167F
  8
SURVBND
 10
626259.7071033848915249
 20
605945.1297312960959971
 30
0.0
  0
VERTEX
  5
1680
  8
SURVBND
 10
626282.7652020629029721
 20
605978.045954710803926
 30
0.0
  0
VERTEX
  5
1681
  8
SURVBND
 10
626299.8000873491400853
 20
605998.987026703893207
 30
0.0
  0
VERTEX
  5
1682
  8
SURVBND
 10
626323.8454240078572184
 20
606026.9052882341202348
 30
0.0
  0
VERTEX
  5
1683
  8
SURVBND
 10
626342.8737920189741999
 20
606045.843374120653607
 30
0.0
  0
VERTEX
  5
1684
  8
SURVBND
 10
626362.9060289289336652
 20
606066.777318577747792
 30
0.0
  0
VERTEX
  5
1685
  8
SURVBND
 10
626396.9449135112809017
 20
606095.6709388619055972
 30
0.0
  0
VERTEX
  5
1686
  8
SURVBND
 10
626431.9567810024600476
 20
606113.5718940146034583
 30
0.0
  0
VERTEX
  5
1687
  8
SURVBND
 10
626523.0831454639555886
 20
606200.2788891666568816
 30
0.0
  0
VERTEX
  5
1688
  8
SURVBND
 10
626609.2329306493047625
 20
606294.9907012082403526
 30
0.0
  0
VERTEX
  5
1689
  8
SURVBND
 10
626646.3024286907166243
 20
606337.8648348660208285
 30
0.0
  0
VERTEX
  5
168A
  8
SURVBND
 10
626680.3983335624216124
 20
606390.7372681383276358
 30
0.0
  0
VERTEX
  5
168B
  8
SURVBND
 10
626714.4490973718930036
 20
606424.6264744617510587
 30
0.0
  0
VERTEX
  5
168C
  8
SURVBND
 10
626746.4754924664739519
 20
606447.5301431897096336
 30
0.0
  0
VERTEX
  5
168D
  8
SURVBND
 10
626766.5504945933353156
 20
606486.448197387624532
 30
0.0
  0
VERTEX
  5
168E
  8
SURVBND
 10
626772.6378558101132512
 20
606525.3995134208817035
 30
0.0
  0
VERTEX
  5
168F
  8
SURVBND
 10
626789.7083787772571668
 20
606561.3273435316514224
 30
0.0
  0
VERTEX
  5
1690
  8
SURVBND
 10
626797.7797193374717608
 20
606594.2792046271497384
 30
0.0
  0
VERTEX
  5
1691
  8
SURVBND
 10
626795.8788945826236159
 20
606635.2477618391858414
 30
0.0
  0
VERTEX
  5
1692
  8
SURVBND
 10
626807.9110662933671847
 20
606653.2033614356769249
 30
0.0
  0
VERTEX
  5
1693
  8
SURVBND
 10
626809.9829519160557538
 20
606684.1712431878549978
 30
0.0
  0
VERTEX
  5
1694
  8
SURVBND
 10
626817.0979404853424057
 20
606735.1095898698549718
 30
0.0
  0
VERTEX
  5
1695
  8
SURVBND
 10
626830.1981289202813059
 20
606782.0372126481961459
 30
0.0
  0
VERTEX
  5
1696
  8
SURVBND
 10
626838.2385834907181561
 20
606802.0005500419065356
 30
0.0
  0
VERTEX
  5
1697
  8
SURVBND
 10
626834.3133900207467377
 20
606831.9835696584777907
 30
0.0
  0
VERTEX
  5
1698
  8
SURVBND
 10
626846.3574409587308764
 20
606854.9347552941180766
 30
0.0
  0
VERTEX
  5
1699
  8
SURVBND
 10
626856.4080091714859009
 20
606879.8889270364306867
 30
0.0
  0
VERTEX
  5
169A
  8
SURVBND
 10
626867.4576945923035964
 20
606904.8407229329459369
 30
0.0
  0
VERTEX
  5
169B
  8
SURVBND
 10
626878.5263867762405425
 20
606937.7854564923327416
 30
0.0
  0
VERTEX
  5
169C
  8
SURVBND
 10
626882.6107618866953999
 20
606974.7432898008264601
 30
0.0
  0
VERTEX
  5
169D
  8
SURVBND
 10
626885.6698854900896549
 20
607000.7132096684072167
 30
0.0
  0
VERTEX
  5
169E
  8
SURVBND
 10
626896.7457052101381123
 20
607036.6552948512835428
 30
0.0
  0
VERTEX
  5
169F
  8
SURVBND
 10
626906.8129043406806886
 20
607068.603287048288621
 30
0.0
  0
VERTEX
  5
16A0
  8
SURVBND
 10
626915.8881137997377664
 20
607103.5510067141149193
 30
0.0
  0
VERTEX
  5
16A1
  8
SURVBND
 10
626912.9881718368269503
 20
607144.5219397715991363
 30
0.0
  0
VERTEX
  5
16A2
  8
SURVBND
 10
626925.0844913731561974
 20
607189.4537039796123281
 30
0.0
  0
VERTEX
  5
16A3
  8
SURVBND
 10
626942.1954037117538974
 20
607242.3665266234893352
 30
0.0
  0
VERTEX
  5
16A4
  8
SURVBND
 10
627038.2840923769399524
 20
607315.0740016388008371
 30
0.0
  0
VERTEX
  5
16A5
  8
SURVBND
 10
627191.4103681680280715
 20
607424.613390157232061
 30
0.0
  0
VERTEX
  5
16A6
  8
SURVBND
 10
627208.4595085266046226
 20
607451.5491653973003849
 30
0.0
  0
VERTEX
  5
16A7
  8
SURVBND
 10
627210.4553670970490202
 20
607450.5452964988071471
 30
0.0
  0
VERTEX
  5
16A8
  8
SURVBND
 10
627255.4987960379803553
 20
607485.4074857308296487
 30
0.0
  0
VERTEX
  5
16A9
  8
SURVBND
 10
627306.5440557623514906
 20
607523.2527715140022337
 30
0.0
  0
VERTEX
  5
16AA
  8
SURVBND
 10
627338.5704508569324389
 20
607546.156440242077224
 30
0.0
  0
VERTEX
  5
16AB
  8
SURVBND
 10
627374.6194490819470957
 20
607580.0408948747208342
 30
0.0
  0
VERTEX
  5
16AC
  8
SURVBND
 10
627403.6057273361366242
 20
607584.9675813978537917
 30
0.0
  0
VERTEX
  5
16AD
  8
SURVBND
 10
627449.5793739688815549
 20
607590.85299575724639
 30
0.0
  0
VERTEX
  5
16AE
  8
SURVBND
 10
627541.5337947705993429
 20
607605.621176099521108
 30
0.0
  0
VERTEX
  5
16AF
  8
SURVBND
 10
627593.5472857126733288
 20
607630.4755623355740681
 30
0.0
  0
VERTEX
  5
16B0
  8
SURVBND
 10
627672.5321895757224411
 20
607653.2675663304980844
 30
0.0
  0
VERTEX
  5
16B1
  8
SURVBND
 10
627738.5547040358651429
 20
607687.0807456017937511
 30
0.0
  0
VERTEX
  5
16B2
  8
SURVBND
 10
627799.5697532300837338
 20
607715.9102180605987087
 30
0.0
  0
VERTEX
  5
16B3
  8
SURVBND
 10
627856.5835819020867348
 20
607742.7509594855364412
 30
0.0
  0
VERTEX
  5
16B4
  8
SURVBND
 10
627907.5694454916520044
 20
607755.6183150727301836
 30
0.0
  0
VERTEX
  5
16B5
  8
SURVBND
 10
627948.5902713021496311
 20
607779.4997184001840651
 30
0.0
  0
VERTEX
  5
16B6
  8
SURVBND
 10
627994.573421316454187
 20
607789.3816015908960253
 30
0.0
  0
VERTEX
  5
16B7
  8
SURVBND
 10
628040.5755780939944088
 20
607807.2564224443631247
 30
0.0
  0
VERTEX
  5
16B8
  8
SURVBND
 10
628067.5873803861904889
 20
607822.1790327365742996
 30
0.0
  0
VERTEX
  5
16B9
  8
SURVBND
 10
628109.5503031153930351
 20
607822.079247230431065
 30
0.0
  0
VERTEX
  5
16BA
  8
SURVBND
 10
628184.512603847659193
 20
607833.8904653206700459
 30
0.0
  0
VERTEX
  5
16BB
  8
SURVBND
 10
628226.4731507315300405
 20
607832.7915626069298014
 30
0.0
  0
VERTEX
  5
16BC
  8
SURVBND
 10
628276.4361386594828218
 20
607835.670121961273253
 30
0.0
  0
VERTEX
  5
16BD
  8
SURVBND
 10
628320.4258059489075094
 20
607847.5549912584247068
 30
0.0
  0
VERTEX
  5
16BE
  8
SURVBND
 10
628361.4442559139570221
 20
607870.4372773779323325
 30
0.0
  0
VERTEX
  5
16BF
  8
SURVBND
 10
628404.4656919855624437
 20
607895.3130462224362418
 30
0.0
  0
VERTEX
  5
16C0
  8
SURVBND
 10
628444.4874005882302299
 20
607919.196825395221822
 30
0.0
  0
VERTEX
  5
16C1
  8
SURVBND
 10
628481.5212609488517046
 20
607947.0842009355546907
 30
0.0
  0
VERTEX
  5
16C2
  8
SURVBND
 10
628518.5503696189261973
 20
607972.9733420601114631
 30
0.0
  0
VERTEX
  5
16C3
  8
SURVBND
 10
628556.5809713419293985
 20
607999.8592245471663773
 30
0.0
  0
VERTEX
  5
16C4
  8
SURVBND
 10
628585.5981355862459168
 20
608017.7744347722036764
 30
0.0
  0
VERTEX
  5
16C5
  8
SURVBND
 10
628626.6355923142982647
 20
608048.6496585542336106
 30
0.0
  0
VERTEX
  5
16C6
  8
SURVBND
 10
628656.6661288385512307
 20
608072.5571961810346693
 30
0.0
  0
VERTEX
  5
16C7
  8
SURVBND
 10
628678.7061035454971716
 20
608097.482857778435573
 30
0.0
  0
VERTEX
  5
16C8
  8
SURVBND
 10
628703.7434298760490492
 20
608122.4013918397249654
 30
0.0
  0
VERTEX
  5
16C9
  8
SURVBND
 10
628724.7890390659449622
 20
608149.3276636983500794
 30
0.0
  0
VERTEX
  5
16CA
  8
SURVBND
 10
628755.8210686434758827
 20
608174.2319426873000339
 30
0.0
  0
VERTEX
  5
16CB
  8
SURVBND
 10
628768.8618609437253326
 20
608196.1816352697787806
 30
0.0
  0
VERTEX
  5
16CC
  8
SURVBND
 10
628798.9422902211081237
 20
608241.0706342610064894
 30
0.0
  0
VERTEX
  5
16CD
  8
SURVBND
 10
628834.9437715385574847
 20
608254.97274473705329
 30
0.0
  0
VERTEX
  5
16CE
  8
SURVBND
 10
632239.6686758175492287
 20
610655.7617068387335166
 30
0.0
  0
VERTEX
  5
16CF
  8
SURVBND
 10
632245.7227751989848912
 20
610680.7253819623729214
 30
0.0
  0
VERTEX
  5
16D0
  8
SURVBND
 10
632445.888338501448743
 20
610824.1230908143334091
 30
0.0
  0
VERTEX
  5
16D1
  8
SURVBND
 10
632613.0070068930508569
 20
610935.6274519130820408
 30
0.0
  0
VERTEX
  5
16D2
  8
SURVBND
 10
632800.1294020499335602
 20
611056.0763509748503566
 30
0.0
  0
VERTEX
  5
16D3
  8
SURVBND
 10
632936.2136650185566396
 20
611141.6773158765863627
 30
0.0
  0
VERTEX
  5
16D4
  8
SURVBND
 10
633099.3002268981654197
 20
611238.2044222393305972
 30
0.0
  0
VERTEX
  5
16D5
  8
SURVBND
 10
633181.3703886638395488
 20
611297.956635388196446
 30
0.0
  0
VERTEX
  5
16D6
  8
SURVBND
 10
633223.3380630837054923
 20
611299.8550842977128923
 30
0.0
  0
VERTEX
  5
16D7
  8
SURVBND
 10
633244.3979273459408432
 20
611332.7760594033170491
 30
0.0
  0
VERTEX
  5
16D8
  8
SURVBND
 10
632988.3660686912480742
 20
611645.1112205119570717
 30
0.0
  0
VERTEX
  5
16D9
  8
SURVBND
 10
633522.62879389943555
 20
611952.5697362988721579
 30
0.0
  0
VERTEX
  5
16DA
  8
SURVBND
 10
633960.864602422225289
 20
612213.2978244744008407
 30
0.0
  0
VERTEX
  5
16DB
  8
SURVBND
 10
633951.7656345095019788
 20
612168.3589327302761376
 30
0.0
  0
VERTEX
  5
16DC
  8
SURVBND
 10
633940.5829017473151907
 20
612087.4565731948241591
 30
0.0
  0
VERTEX
  5
16DD
  8
SURVBND
 10
633926.450334269204177
 20
612026.5436853519640863
 30
0.0
  0
VERTEX
  5
16DE
  8
SURVBND
 10
633916.3332423855317757
 20
611973.6142317904159427
 30
0.0
  0
VERTEX
  5
16DF
  8
SURVBND
 10
633901.2490746072726324
 20
611932.6860639499500394
 30
0.0
  0
VERTEX
  5
16E0
  8
SURVBND
 10
633907.1653749566758052
 20
611899.700941018993035
 30
0.0
  0
VERTEX
  5
16E1
  8
SURVBND
 10
633907.1107305128825828
 20
611876.7212452389067039
 30
0.0
  0
VERTEX
  5
16E2
  8
SURVBND
 10
633891.0155663000186905
 20
611830.7998672043904662
 30
0.0
  0
VERTEX
  5
16E3
  8
SURVBND
 10
633883.9338395659578964
 20
611793.8491614321246743
 30
0.0
  0
VERTEX
  5
16E4
  8
SURVBND
 10
633876.8687437494518235
 20
611763.8922761146677658
 30
0.0
  0
VERTEX
  5
16E5
  8
SURVBND
 10
633863.8208239132072777
 20
611738.9452319088159129
 30
0.0
  0
VERTEX
  5
16E6
  8
SURVBND
 10
633865.762038039509207
 20
611714.9616672298870981
 30
0.0
  0
VERTEX
  5
16E7
  8
SURVBND
 10
633880.6395072694867849
 20
611668.9666379886912182
 30
0.0
  0
VERTEX
  5
16E8
  8
SURVBND
 10
633908.517379428143613
 20
611627.9363087967503816
 30
0.0
  0
VERTEX
  5
16E9
  8
SURVBND
 10
633937.4205030939774588
 20
611597.893893045373261
 30
0.0
  0
VERTEX
  5
16EA
  8
SURVBND
 10
633961.2995305759832263
 20
611555.8739500270457938
 30
0.0
  0
VERTEX
  5
16EB
  8
SURVBND
 10
633994.1729887740220875
 20
611514.8317416082136333
 30
0.0
  0
VERTEX
  5
16EC
  8
SURVBND
 10
634024.0514711935538799
 20
611474.7957779332064092
 30
0.0
  0
VERTEX
  5
16ED
  8
SURVBND
 10
634064.894108600448817
 20
611423.7433906729565933
 30
0.0
  0
VERTEX
  5
16EE
  8
SURVBND
 10
634077.7923501777695492
 20
611385.7460507850628346
 30
0.0
  0
VERTEX
  5
16EF
  8
SURVBND
 10
634085.5857168283546343
 20
611301.801198563654907
 30
0.0
  0
VERTEX
  5
16F0
  8
SURVBND
 10
634094.4993688012473285
 20
611268.8089480965863913
 30
0.0
  0
VERTEX
  5
16F1
  8
SURVBND
 10
634090.4933965883683413
 20
611264.8219826468266547
 30
0.0
  0
VERTEX
  5
16F2
  8
SURVBND
 10
634091.4141108985058963
 20
611231.8487389427609742
 30
0.0
  0
VERTEX
  5
16F3
  8
SURVBND
 10
634095.4058280391618609
 20
611229.8410011455416679
 30
0.0
  0
VERTEX
  5
16F4
  8
SURVBND
 10
634101.9672446342883632
 20
611047.9850384016754106
 30
0.0
  0
VERTEX
  5
16F5
  8
SURVBND
 10
634101.689270724542439
 20
610931.088325084769167
 30
0.0
  0
VERTEX
  5
16F6
  8
SURVBND
 10
634112.4681097716093063
 20
610842.1407592881005257
 30
0.0
  0
VERTEX
  5
16F7
  8
SURVBND
 10
634135.2125968589680269
 20
610743.1735112683381885
 30
0.0
  0
VERTEX
  5
16F8
  8
SURVBND
 10
634154.0295146311400458
 20
610673.1901656575500965
 30
0.0
  0
VERTEX
  5
16F9
  8
SURVBND
 10
634174.8731769634177908
 20
610615.1914748499402776
 30
0.0
  0
VERTEX
  5
16FA
  8
SURVBND
 10
634214.6145358110079542
 20
610521.1794234979897738
 30
0.0
  0
VERTEX
  5
16FB
  8
SURVBND
 10
634238.3129990438465029
 20
610403.2265726842451841
 30
0.0
  0
VERTEX
  5
16FC
  8
SURVBND
 10
634229.2758031110279262
 20
610384.2647283434635028
 30
0.0
  0
VERTEX
  5
16FD
  8
SURVBND
 10
634249.7987263166578487
 20
610191.385214478126727
 30
0.0
  0
VERTEX
  5
16FE
  8
SURVBND
 10
634253.7951951479772106
 20
610191.3757110965671018
 30
0.0
  0
VERTEX
  5
16FF
  8
SURVBND
 10
634262.5948065425036475
 20
610110.425834653316997
 30
0.0
  0
VERTEX
  5
1700
  8
SURVBND
 10
634273.4425451059360057
 20
610050.4526678839465603
 30
0.0
  0
VERTEX
  5
1701
  8
SURVBND
 10
634280.2724322292488068
 20
609981.4969496255507693
 30
0.0
  0
VERTEX
  5
1702
  8
SURVBND
 10
634289.1575740574626252
 20
609936.5152926644077525
 30
0.0
  0
VERTEX
  5
1703
  8
SURVBND
 10
634301.0662018085131422
 20
609902.516797453397885
 30
0.0
  0
VERTEX
  5
1704
  8
SURVBND
 10
634319.9710258598206565
 20
609869.5007885325467214
 30
0.0
  0
VERTEX
  5
1705
  8
SURVBND
 10
634334.8722535435808823
 20
609833.4969313696492463
 30
0.0
  0
VERTEX
  5
1706
  8
SURVBND
 10
634340.7933055836474523
 20
609802.5100428543519229
 30
0.0
  0
VERTEX
  5
1707
  8
SURVBND
 10
634346.6858474792679772
 20
609759.5337478450965136
 30
0.0
  0
VERTEX
  5
1708
  8
SURVBND
 10
634352.6116512102307752
 20
609730.5450937453424558
 30
0.0
  0
VERTEX
  5
1709
  8
SURVBND
 10
634352.5142415495356545
 20
609689.5812882242025807
 30
0.0
  0
VERTEX
  5
170A
  8
SURVBND
 10
634358.4495486620580778
 20
609664.5891029560007155
 30
0.0
  0
VERTEX
  5
170B
  8
SURVBND
 10
634365.3554628376150504
 20
609627.6051353483926505
 30
0.0
  0
VERTEX
  5
170C
  8
SURVBND
 10
634366.2547945394180715
 20
609585.6398367738584056
 30
0.0
  0
VERTEX
  5
170D
  8
SURVBND
 10
634372.1544639710336924
 20
609545.6608933880925179
 30
0.0
  0
VERTEX
  5
170E
  8
SURVBND
 10
634371.0603129479568452
 20
609505.6985809199977666
 30
0.0
  0
VERTEX
  5
170F
  8
SURVBND
 10
634369.9732894608750939
 20
609468.7336200753925368
 30
0.0
  0
VERTEX
  5
1710
  8
SURVBND
 10
634375.891965655842796
 20
609436.7476143522653729
 30
0.0
  0
VERTEX
  5
1711
  8
SURVBND
 10
634379.779145599459298
 20
609390.7787194103002548
 30
0.0
  0
VERTEX
  5
1712
  8
SURVBND
 10
634386.7016906928038225
 20
609360.7885722575010732
 30
0.0
  0
VERTEX
  5
1713
  8
SURVBND
 10
634390.6411392349982634
 20
609336.800255887908861
 30
0.0
  0
VERTEX
  5
1714
  8
SURVBND
 10
634397.5660601736744866
 20
609307.8092259429395199
 30
0.0
  0
VERTEX
  5
1715
  8
SURVBND
 10
634407.4812051998451352
 20
609275.813716838369146
 30
0.0
  0
VERTEX
  5
1716
  8
SURVBND
 10
634409.4224193262634799
 20
609251.8301521595567465
 30
0.0
  0
VERTEX
  5
1717
  8
SURVBND
 10
634415.3719815111253411
 20
609232.8326701384503394
 30
0.0
  0
VERTEX
  5
1718
  8
SURVBND
 10
634423.3126505753025413
 20
609210.8330848028417677
 30
0.0
  0
VERTEX
  5
1719
  8
SURVBND
 10
634430.19718214252498
 20
609164.857062324648723
 30
0.0
  0
VERTEX
  5
171A
  8
SURVBND
 10
634446.0832719618920237
 20
609122.8561260694405064
 30
0.0
  0
VERTEX
  5
171B
  8
SURVBND
 10
634462.9851099066436291
 20
609087.8466344235930592
 30
0.0
  0
VERTEX
  5
171C
  8
SURVBND
 10
634475.8833514840807766
 20
609049.8492945358157158
 30
0.0
  0
VERTEX
  5
171D
  8
SURVBND
 10
634484.816010219976306
 20
609024.8499817315023392
 30
0.0
  0
VERTEX
  5
171E
  8
SURVBND
 10
634494.7525378547143191
 20
609001.8465274974005297
 30
0.0
  0
VERTEX
  5
171F
  8
SURVBND
 10
634502.6979586095549166
 20
608981.8451765775680542
 30
0.0
  0
VERTEX
  5
1720
  8
SURVBND
 10
634500.6141937600914389
 20
608945.8817087862407789
 30
0.0
  0
VERTEX
  5
1721
  8
SURVBND
 10
634503.5212632591137663
 20
608907.9081273522460833
 30
0.0
  0
VERTEX
  5
1722
  8
SURVBND
 10
634511.4524289418477565
 20
608881.9120731855509803
 30
0.0
  0
VERTEX
  5
1723
  8
SURVBND
 10
634519.3740912431385368
 20
608851.9195501874201
 30
0.0
  0
VERTEX
  5
1724
  8
SURVBND
 10
634528.2972465974744409
 20
608822.9237685515545309
 30
0.0
  0
VERTEX
  5
1725
  8
SURVBND
 10
634547.2115740303415805
 20
608793.9042284620227292
 30
0.0
  0
VERTEX
  5
1726
  8
SURVBND
 10
634570.1009876859607175
 20
608755.883130120462738
 30
0.0
  0
VERTEX
  5
1727
  8
SURVBND
 10
634583.9674604811007157
 20
608704.8948906854493544
 30
0.0
  0
VERTEX
  5
1728
  8
SURVBND
 10
634600.8835534983081743
 20
608675.88010228658095
 30
0.0
  0
VERTEX
  5
1729
  8
SURVBND
 10
634623.7824705354869366
 20
608641.855472776456736
 30
0.0
  0
VERTEX
  5
172A
  8
SURVBND
 10
634637.6988360837567598
 20
608611.8486947058700025
 30
0.0
  0
VERTEX
  5
172B
  8
SURVBND
 10
634658.5971428599441424
 20
608576.8296996785793453
 30
0.0
  0
VERTEX
  5
172C
  8
SURVBND
 10
634683.4681600135518238
 20
608531.8100291914306581
 30
0.0
  0
VERTEX
  5
172D
  8
SURVBND
 10
634702.3919908278621733
 20
608506.7869579333346337
 30
0.0
  0
VERTEX
  5
172E
  8
SURVBND
 10
634711.3127703368663788
 20
608476.7920590897556394
 30
0.0
  0
VERTEX
  5
172F
  8
SURVBND
 10
634721.2516738170525059
 20
608454.787722063367255
 30
0.0
  0
VERTEX
  5
1730
  8
SURVBND
 10
634734.1998081472702324
 20
608437.7718435401329771
 30
0.0
  0
VERTEX
  5
1731
  8
SURVBND
 10
634753.1569007969228551
 20
608426.7364131917711347
 30
0.0
  0
VERTEX
  5
1732
  8
SURVBND
 10
634770.1110073402523994
 20
608413.7075001184130087
 30
0.0
  0
VERTEX
  5
1733
  8
SURVBND
 10
634785.0502485502511263
 20
608393.6895182809093967
 30
0.0
  0
VERTEX
  5
1734
  8
SURVBND
 10
634803.9693276736652479
 20
608366.6682126069208607
 30
0.0
  0
VERTEX
  5
1735
  8
SURVBND
 10
634816.9032069317763671
 20
608343.6576308367075399
 30
0.0
  0
VERTEX
  5
1736
  8
SURVBND
 10
634826.8254794939421117
 20
608314.6594733556266874
 30
0.0
  0
VERTEX
  5
1737
  8
SURVBND
 10
634836.7738863554550335
 20
608296.6516051607904956
 30
0.0
  0
VERTEX
  5
1738
  8
SURVBND
 10
634843.7154382120352238
 20
608274.6543956706300378
 30
0.0
  0
VERTEX
  5
1739
  8
SURVBND
 10
634842.671179941855371
 20
608255.6735445671947673
 30
0.0
  0
VERTEX
  5
173A
  8
SURVBND
 10
634845.6233905029948801
 20
608236.6831900820834562
 30
0.0
  0
VERTEX
  5
173B
  8
SURVBND
 10
634834.6235978353070095
 20
608232.7128555499948561
 30
0.0
  0
VERTEX
  5
173C
  8
SURVBND
 10
634839.3911027177236974
 20
608136.7857243708567694
 30
0.0
  0
VERTEX
  5
173D
  8
SURVBND
 10
634839.3911027177236974
 20
608136.7857243708567694
 30
0.0
  0
SEQEND
  5
173E
  8
SURVBND
  0
POLYLINE
  5
883
  8
FRAME
 66
     1
 10
0.0
 20
0.0
 30
0.0
 70
     1
  0
VERTEX
  5
173F
  8
FRAME
 10
625617.512842521071434
 20
596383.0528420198243111
 30
0.0
  0
VERTEX
  5
1740
  8
FRAME
 10
625655.5263686472317204
 20
612368.928167408099398
 30
0.0
  0
VERTEX
  5
1741
  8
FRAME
 10
643140.0775057906284928
 20
612327.3508732076734304
 30
0.0
  0
VERTEX
  5
1742
  8
FRAME
 10
643102.0639796645846218
 20
596341.4755478192819282
 30
0.0
  0
SEQEND
  5
1743
  8
FRAME
  0
POLYLINE
  5
889
  8
AREAS
 66
     1
 10
0.0
 20
0.0
 30
0.0
 70
     1
  0
VERTEX
  5
1744
  8
AREAS
 10
634148.4132384855765849
 20
600328.2854546535527334
 30
0.0
  0
VERTEX
  5
1745
  8
AREAS
 10
634165.3697208743542433
 20
600316.2556587879080325
 30
0.0
  0
VERTEX
  5
1746
  8
AREAS
 10
634188.3612958813318983
 20
600321.1966003831475973
 30
0.0
  0
VERTEX
  5
1747
  8
AREAS
 10
634196.3851195339811966
 20
600334.1661173220491037
 30
0.0
  0
VERTEX
  5
1748
  8
AREAS
 10
634200.4148502007592469
 20
600348.1442548502236605
 30
0.0
  0
VERTEX
  5
1749
  8
AREAS
 10
634202.451098142657429
 20
600364.1253784849541262
 30
0.0
  0
VERTEX
  5
174A
  8
AREAS
 10
634199.4941358905052766
 20
600381.1174985541729257
 30
0.0
  0
VERTEX
  5
174B
  8
AREAS
 10
634195.5142979768570513
 20
600388.1208223906578496
 30
0.0
  0
VERTEX
  5
174C
  8
AREAS
 10
634178.5601914336439222
 20
600401.1497354640159756
 30
0.0
  0
VERTEX
  5
174D
  8
AREAS
 10
634169.5776399447349831
 20
600405.1675869037862867
 30
0.0
  0
VERTEX
  5
174E
  8
AREAS
 10
634158.5897265038220212
 20
600406.192838410846889
 30
0.0
  0
SEQEND
  5
174F
  8
AREAS
  0
POLYLINE
  5
896
  8
AREAS
 66
     1
 10
0.0
 20
0.0
 30
0.0
 70
     1
  0
VERTEX
  5
1750
  8
AREAS
 10
634488.6224853117018938
 20
601802.1817935263970867
 30
0.0
  0
VERTEX
  5
1751
  8
AREAS
 10
634501.6799085296224803
 20
601831.1253065636847168
 30
0.0
  0
VERTEX
  5
1752
  8
AREAS
 10
634526.6245768902590498
 20
601817.0782695193774998
 30
0.0
  0
VERTEX
  5
1753
  8
AREAS
 10
634546.4881287778262049
 20
601767.0748922198545188
 30
0.0
  0
VERTEX
  5
1754
  8
AREAS
 10
634525.4734055780572817
 20
601753.1371440632501617
 30
0.0
  0
VERTEX
  5
1755
  8
AREAS
 10
634497.5860300376079977
 20
601790.1710044239880517
 30
0.0
  0
SEQEND
  5
1756
  8
AREAS
  0
POLYLINE
  5
89E
  8
AREAS
 66
     1
 10
0.0
 20
0.0
 30
0.0
 70
     1
  0
VERTEX
  5
1757
  8
AREAS
 10
634428.8419104669010267
 20
601032.0002253165002912
 30
0.0
  0
VERTEX
  5
1758
  8
AREAS
 10
634436.868109964998439
 20
601045.9688594631152228
 30
0.0
  0
VERTEX
  5
1759
  8
AREAS
 10
634459.8905709621030837
 20
601063.8983247603755444
 30
0.0
  0
VERTEX
  5
175A
  8
AREAS
 10
634463.8917914843186736
 20
601065.8870557944756001
 30
0.0
  0
VERTEX
  5
175B
  8
AREAS
 10
634466.8891431078081951
 20
601065.8799282583640888
 30
0.0
  0
VERTEX
  5
175C
  8
AREAS
 10
634487.8991146170301363
 20
601077.8194419994251803
 30
0.0
  0
VERTEX
  5
175D
  8
AREAS
 10
634497.8641523962141946
 20
601066.8053942595142871
 30
0.0
  0
VERTEX
  5
175E
  8
AREAS
 10
634501.8439903097460046
 20
601059.8020704231457785
 30
0.0
  0
VERTEX
  5
175F
  8
AREAS
 10
634482.7989913809578866
 20
601033.870164081454277
 30
0.0
  0
VERTEX
  5
1760
  8
AREAS
 10
634443.7930309036746621
 20
601016.9778295181458816
 30
0.0
  0
VERTEX
  5
1761
  8
AREAS
 10
634435.8024690864840522
 20
601017.9959534890949726
 30
0.0
  0
SEQEND
  5
1762
  8
AREAS
  0
POLYLINE
  5
8AB
  8
AREAS
 66
     1
 10
0.0
 20
0.0
 30
0.0
 70
     1
  0
VERTEX
  5
1763
  8
AREAS
 10
634805.1302247071871534
 20
600451.6141752164112404
 30
0.0
  0
VERTEX
  5
1764
  8
AREAS
 10
634826.0808000818360597
 20
600438.5757587614934891
 30
0.0
  0
VERTEX
  5
1765
  8
AREAS
 10
634817.0768659843597561
 20
600433.6015553307952359
 30
0.0
  0
VERTEX
  5
1766
  8
AREAS
 10
634809.0672974040498957
 20
600426.6267416389891878
 30
0.0
  0
VERTEX
  5
1767
  8
AREAS
 10
634800.0894976056879386
 20
600432.6428274945355952
 30
0.0
  0
VERTEX
  5
1768
  8
AREAS
 10
634796.100156310480088
 20
600435.6496824994683266
 30
0.0
  0
VERTEX
  5
1769
  8
AREAS
 10
634794.1233045032713562
 20
600444.6464890609495342
 30
0.0
  0
SEQEND
  5
176A
  8
AREAS
  0
POLYLINE
  5
8B4
  8
AREAS
 66
     1
 10
0.0
 20
0.0
 30
0.0
 70
     1
  0
VERTEX
  5
176B
  8
AREAS
 10
632354.1720214751549065
 20
601245.7503526145592332
 30
0.0
  0
VERTEX
  5
176C
  8
AREAS
 10
632366.2018173405667767
 20
601262.7068350032204762
 30
0.0
  0
VERTEX
  5
176D
  8
AREAS
 10
632375.2081272833747789
 20
601268.6801556418649852
 30
0.0
  0
VERTEX
  5
176E
  8
AREAS
 10
632399.1940678077517077
 20
601271.6204869761131704
 30
0.0
  0
VERTEX
  5
176F
  8
AREAS
 10
632419.1288950566668063
 20
601251.5906259118346497
 30
0.0
  0
VERTEX
  5
1770
  8
AREAS
 10
632410.0916991238482296
 20
601232.6287815714022145
 30
0.0
  0
VERTEX
  5
1771
  8
AREAS
 10
632400.0815202825469896
 20
601224.6596023625461385
 30
0.0
  0
VERTEX
  5
1772
  8
AREAS
 10
632386.0843759912531823
 20
601220.6963953664526343
 30
0.0
  0
VERTEX
  5
1773
  8
AREAS
 10
632368.1026420956477523
 20
601221.7382777911843732
 30
0.0
  0
VERTEX
  5
1774
  8
AREAS
 10
632353.1230115140788257
 20
601224.7712670954642817
 30
0.0
  0
SEQEND
  5
1775
  8
AREAS
  0
POLYLINE
  5
8C0
  8
AREAS
 66
     1
 10
0.0
 20
0.0
 30
0.0
 70
     1
  0
VERTEX
  5
1776
  8
AREAS
 10
632157.5502542341127992
 20
601332.1424740289803594
 30
0.0
  0
VERTEX
  5
1777
  8
AREAS
 10
632173.5432570957345888
 20
601335.1018121263477951
 30
0.0
  0
VERTEX
  5
1778
  8
AREAS
 10
632183.4631538125686347
 20
601305.1045374375535175
 30
0.0
  0
VERTEX
  5
1779
  8
AREAS
 10
632182.4426539962878451
 20
601296.1148584123002365
 30
0.0
  0
VERTEX
  5
177A
  8
AREAS
 10
632176.4123130686348304
 20
601281.1423553670756519
 30
0.0
  0
VERTEX
  5
177B
  8
AREAS
 10
632164.3872688936535269
 20
601266.1841073940740898
 30
0.0
  0
VERTEX
  5
177C
  8
AREAS
 10
632155.3928381778532639
 20
601265.2063727946951985
 30
0.0
  0
VERTEX
  5
177D
  8
AREAS
 10
632142.406690321280621
 20
601266.2363759925356135
 30
0.0
  0
VERTEX
  5
177E
  8
AREAS
 10
632136.4500006005400792
 20
601282.2365063901524991
 30
0.0
  0
VERTEX
  5
177F
  8
AREAS
 10
632139.4924932861467823
 20
601301.2126058029243723
 30
0.0
  0
VERTEX
  5
1780
  8
AREAS
 10
632146.5433340303134173
 20
601325.1747878734022379
 30
0.0
  0
SEQEND
  5
1781
  8
AREAS
  0
POLYLINE
  5
8CD
  8
AREAS
 66
     1
 10
0.0
 20
0.0
 30
0.0
 70
     1
  0
VERTEX
  5
1782
  8
AREAS
 10
634408.7969775293022394
 20
598904.9153275128919631
 30
0.0
  0
VERTEX
  5
1783
  8
AREAS
 10
634423.8098699458641931
 20
598915.8699791182298213
 30
0.0
  0
VERTEX
  5
1784
  8
AREAS
 10
634449.8130516490200534
 20
598926.798496424453333
 30
0.0
  0
VERTEX
  5
1785
  8
AREAS
 10
634453.6503388397395611
 20
598859.8481401179451495
 30
0.0
  0
VERTEX
  5
1786
  8
AREAS
 10
634446.6565183848142624
 20
598859.8647710354998708
 30
0.0
  0
VERTEX
  5
1787
  8
AREAS
 10
634425.663177793379873
 20
598854.919077749364078
 30
0.0
  0
VERTEX
  5
1788
  8
AREAS
 10
634411.6897919557522982
 20
598860.9470428318018094
 30
0.0
  0
VERTEX
  5
1789
  8
AREAS
 10
634407.7170815784484148
 20
598870.9477182916598395
 30
0.0
  0
VERTEX
  5
178A
  8
AREAS
 10
634409.7557053655618802
 20
598887.9279591341037303
 30
0.0
  0
SEQEND
  5
178B
  8
AREAS
  0
POLYLINE
  5
8D8
  8
AREAS
 66
     1
 10
0.0
 20
0.0
 30
0.0
 70
     1
  0
VERTEX
  5
178C
  8
AREAS
 10
633934.4301298912614584
 20
598995.9644027750473469
 30
0.0
  0
VERTEX
  5
178D
  8
AREAS
 10
634006.4806094338418916
 20
599043.7509678836213425
 30
0.0
  0
VERTEX
  5
178E
  8
AREAS
 10
634014.4426611065864563
 20
599030.7434374185977504
 30
0.0
  0
VERTEX
  5
178F
  8
AREAS
 10
634029.3985332341399044
 20
599017.719276036019437
 30
0.0
  0
VERTEX
  5
1790
  8
AREAS
 10
634034.3656091287266463
 20
599005.717990315053612
 30
0.0
  0
VERTEX
  5
1791
  8
AREAS
 10
634034.3537299019517377
 20
599000.7224042757879943
 30
0.0
  0
VERTEX
  5
1792
  8
AREAS
 10
634025.3212856597965583
 20
598983.7587943511316553
 30
0.0
  0
VERTEX
  5
1793
  8
AREAS
 10
634017.3093412341549993
 20
598975.7848634513793513
 30
0.0
  0
VERTEX
  5
1794
  8
AREAS
 10
634012.3042518134461716
 20
598971.8002738469513133
 30
0.0
  0
VERTEX
  5
1795
  8
AREAS
 10
633978.3223875199910253
 20
598966.8854665509425104
 30
0.0
  0
VERTEX
  5
1796
  8
AREAS
 10
633966.3377327166963369
 20
598968.9122111110482365
 30
0.0
  0
VERTEX
  5
1797
  8
AREAS
 10
633953.3658399324631318
 20
598975.9369175559841096
 30
0.0
  0
SEQEND
  5
1798
  8
AREAS
  0
POLYLINE
  5
8E6
  8
AREAS
 66
     1
 10
0.0
 20
0.0
 30
0.0
 70
     1
  0
VERTEX
  5
1799
  8
AREAS
 10
634050.7732712338911369
 20
598762.8921194392023608
 30
0.0
  0
VERTEX
  5
179A
  8
AREAS
 10
634095.766807422041893
 20
598776.7728473066817969
 30
0.0
  0
VERTEX
  5
179B
  8
AREAS
 10
634114.7001416177954525
 20
598755.7462448797887191
 30
0.0
  0
VERTEX
  5
179C
  8
AREAS
 10
634117.6618555606110021
 20
598740.7523592261131853
 30
0.0
  0
VERTEX
  5
179D
  8
AREAS
 10
634117.6357212613802403
 20
598729.7620699398685247
 30
0.0
  0
VERTEX
  5
179E
  8
AREAS
 10
634111.6101320245070383
 20
598716.787801310303621
 30
0.0
  0
VERTEX
  5
179F
  8
AREAS
 10
634086.6179467561887577
 20
598710.852494197897613
 30
0.0
  0
VERTEX
  5
17A0
  8
AREAS
 10
634074.6285402621142566
 20
598710.8810043424600735
 30
0.0
  0
VERTEX
  5
17A1
  8
AREAS
 10
634052.652713380404748
 20
598712.9315073565812781
 30
0.0
  0
VERTEX
  5
17A2
  8
AREAS
 10
634039.6903239778475836
 20
598723.9526826328365132
 30
0.0
  0
VERTEX
  5
17A3
  8
AREAS
 10
634035.7271169817540795
 20
598737.9498269240139052
 30
0.0
  0
VERTEX
  5
17A4
  8
AREAS
 10
634039.7544718030840158
 20
598750.9288472443586215
 30
0.0
  0
VERTEX
  5
17A5
  8
AREAS
 10
634048.7679092821199447
 20
598759.8995195063762367
 30
0.0
  0
SEQEND
  5
17A6
  8
AREAS
  0
POLYLINE
  5
8F5
  8
AREAS
 66
     1
 10
0.0
 20
0.0
 30
0.0
 70
     1
  0
VERTEX
  5
17A7
  8
AREAS
 10
633464.3046116076875478
 20
598349.6507235813187435
 30
0.0
  0
VERTEX
  5
17A8
  8
AREAS
 10
633499.2855931088561192
 20
598354.5631550321122631
 30
0.0
  0
VERTEX
  5
17A9
  8
AREAS
 10
633504.2811791481217369
 20
598354.5512758052209392
 30
0.0
  0
VERTEX
  5
17AA
  8
AREAS
 10
633510.2758823951007798
 20
598354.5370207328815013
 30
0.0
  0
VERTEX
  5
17AB
  8
AREAS
 10
633523.2596544063417241
 20
598352.5079003272112459
 30
0.0
  0
VERTEX
  5
17AC
  8
AREAS
 10
633527.2418681652052328
 20
598346.5036936986725777
 30
0.0
  0
VERTEX
  5
17AD
  8
AREAS
 10
633530.2107096442487091
 20
598334.5071596684865654
 30
0.0
  0
VERTEX
  5
17AE
  8
AREAS
 10
633522.1536241562571377
 20
598307.5500018199672922
 30
0.0
  0
VERTEX
  5
17AF
  8
AREAS
 10
633504.11724581674207
 20
598285.6121884643798694
 30
0.0
  0
VERTEX
  5
17B0
  8
AREAS
 10
633485.1292671768460423
 20
598283.6590951110702008
 30
0.0
  0
VERTEX
  5
17B1
  8
AREAS
 10
633469.1837812232552096
 20
598300.6821011702995747
 30
0.0
  0
VERTEX
  5
17B2
  8
AREAS
 10
633472.2215222180821002
 20
598317.6599661675281823
 30
0.0
  0
SEQEND
  5
17B3
  8
AREAS
  0
POLYLINE
  5
903
  8
AREAS
 66
     1
 10
0.0
 20
0.0
 30
0.0
 70
     1
  0
VERTEX
  5
17B4
  8
AREAS
 10
635419.4697774046799168
 20
599980.5655667772516608
 30
0.0
  0
VERTEX
  5
17B5
  8
AREAS
 10
635441.4527318225009367
 20
599981.5124153868528083
 30
0.0
  0
VERTEX
  5
17B6
  8
AREAS
 10
635453.416004017344676
 20
599970.4936159560456872
 30
0.0
  0
VERTEX
  5
17B7
  8
AREAS
 10
635445.3969320552423596
 20
599959.5223334328038618
 30
0.0
  0
VERTEX
  5
17B8
  8
AREAS
 10
635430.3816637933487073
 20
599947.5685646196361631
 30
0.0
  0
VERTEX
  5
17B9
  8
AREAS
 10
635422.3815985942492262
 20
599944.5902197590330616
 30
0.0
  0
VERTEX
  5
17BA
  8
AREAS
 10
635411.3984368443489075
 20
599947.6137056817533448
 30
0.0
  0
VERTEX
  5
17BB
  8
AREAS
 10
635403.4245059447130188
 20
599955.6256501075113192
 30
0.0
  0
VERTEX
  5
17BC
  8
AREAS
 10
635401.4381507559446618
 20
599960.6259878374403343
 30
0.0
  0
VERTEX
  5
17BD
  8
AREAS
 10
635405.4655055771581829
 20
599973.6050081577850506
 30
0.0
  0
SEQEND
  5
17BE
  8
AREAS
  0
POLYLINE
  5
90F
  8
AREAS
 66
     1
 10
0.0
 20
0.0
 30
0.0
 70
     1
  0
VERTEX
  5
17BF
  8
AREAS
 10
635212.5883675571531057
 20
599954.0812021598685533
 30
0.0
  0
VERTEX
  5
17C0
  8
AREAS
 10
635244.6812863224186003
 20
600004.9601527074119076
 30
0.0
  0
VERTEX
  5
17C1
  8
AREAS
 10
635251.675106777343899
 20
600004.9435217897407711
 30
0.0
  0
VERTEX
  5
17C2
  8
AREAS
 10
635265.6793786046328023
 20
600011.9040804093237966
 30
0.0
  0
VERTEX
  5
17C3
  8
AREAS
 10
635282.6619952925248072
 20
600010.8645738298073411
 30
0.0
  0
VERTEX
  5
17C4
  8
AREAS
 10
635292.6341606078203768
 20
600002.8478777133859694
 30
0.0
  0
VERTEX
  5
17C5
  8
AREAS
 10
635302.5968225415563211
 20
599990.8347127654124051
 30
0.0
  0
VERTEX
  5
17C6
  8
AREAS
 10
635301.5596918076043949
 20
599974.8512132854666561
 30
0.0
  0
VERTEX
  5
17C7
  8
AREAS
 10
635293.5429956910666078
 20
599964.8790479701710865
 30
0.0
  0
VERTEX
  5
17C8
  8
AREAS
 10
635279.5434755545575172
 20
599959.9167237663641572
 30
0.0
  0
VERTEX
  5
17C9
  8
AREAS
 10
635260.5554969147779047
 20
599957.9636304130544886
 30
0.0
  0
VERTEX
  5
17CA
  8
AREAS
 10
635251.5563145081978291
 20
599954.987661397899501
 30
0.0
  0
VERTEX
  5
17CB
  8
AREAS
 10
635239.5455254057887942
 20
599946.0241166718769819
 30
0.0
  0
SEQEND
  5
17CC
  8
AREAS
  0
POLYLINE
  5
91E
  8
AREAS
 66
     1
 10
0.0
 20
0.0
 30
0.0
 70
     1
  0
VERTEX
  5
17CD
  8
AREAS
 10
635175.0437004391569644
 20
599711.3836269349558279
 30
0.0
  0
VERTEX
  5
17CE
  8
AREAS
 10
635199.0700303348712623
 20
599731.3089508023113012
 30
0.0
  0
VERTEX
  5
17CF
  8
AREAS
 10
635260.0874553744215518
 20
599761.1375404690625146
 30
0.0
  0
VERTEX
  5
17D0
  8
AREAS
 10
635263.9865145450457931
 20
599720.164231566246599
 30
0.0
  0
VERTEX
  5
17D1
  8
AREAS
 10
635197.9663759302347898
 20
599687.3501695028971881
 30
0.0
  0
VERTEX
  5
17D2
  8
AREAS
 10
635180.0250314059667289
 20
599705.3770444608526304
 30
0.0
  0
SEQEND
  5
17D3
  8
AREAS
  0
POLYLINE
  5
926
  8
AREAS
 66
     1
 10
0.0
 20
0.0
 30
0.0
 70
     1
  0
VERTEX
  5
17D4
  8
AREAS
 10
635667.0951528514269739
 20
600334.6653417497873306
 30
0.0
  0
VERTEX
  5
17D5
  8
AREAS
 10
635676.1204695572378114
 20
600348.6316000510705635
 30
0.0
  0
VERTEX
  5
17D6
  8
AREAS
 10
635683.12379339360632
 20
600352.6114379647187889
 30
0.0
  0
VERTEX
  5
17D7
  8
AREAS
 10
635716.1136680153431371
 20
600360.5259727296652272
 30
0.0
  0
VERTEX
  5
17D8
  8
AREAS
 10
635728.0698126738425344
 20
600346.509821675485
 30
0.0
  0
VERTEX
  5
17D9
  8
AREAS
 10
635727.0279302492272109
 20
600328.5280877797631547
 30
0.0
  0
VERTEX
  5
17DA
  8
AREAS
 10
635708.9939277550438419
 20
600307.5893916321219876
 30
0.0
  0
VERTEX
  5
17DB
  8
AREAS
 10
635695.9959006716962904
 20
600303.6238087908132002
 30
0.0
  0
VERTEX
  5
17DC
  8
AREAS
 10
635666.0318878182442859
 20
600307.691552983596921
 30
0.0
  0
SEQEND
  5
17DD
  8
AREAS
  0
POLYLINE
  5
931
  8
AREAS
 66
     1
 10
0.0
 20
0.0
 30
0.0
 70
     1
  0
VERTEX
  5
17DE
  8
AREAS
 10
635874.1499994117766619
 20
600434.0852625393308699
 30
0.0
  0
VERTEX
  5
17DF
  8
AREAS
 10
635904.1876634722575545
 20
600460.990151789272204
 30
0.0
  0
VERTEX
  5
17E0
  8
AREAS
 10
635937.0920076599577442
 20
600432.9364670723443851
 30
0.0
  0
VERTEX
  5
17E1
  8
AREAS
 10
635930.0720529060345143
 20
600421.962808703770861
 30
0.0
  0
VERTEX
  5
17E2
  8
AREAS
 10
635924.0702221228275448
 20
600418.9797121526207775
 30
0.0
  0
VERTEX
  5
17E3
  8
AREAS
 10
635916.0725327694090083
 20
600417.0004844998475164
 30
0.0
  0
VERTEX
  5
17E4
  8
AREAS
 10
635901.0857746518449858
 20
600417.0361221806379035
 30
0.0
  0
SEQEND
  5
17E5
  8
AREAS
  0
POLYLINE
  5
93A
  8
AREAS
 66
     1
 10
0.0
 20
0.0
 30
0.0
 70
     1
  0
VERTEX
  5
17E6
  8
AREAS
 10
635844.0184152344008908
 20
600787.8464053203351796
 30
0.0
  0
VERTEX
  5
17E7
  8
AREAS
 10
635875.0171829765895382
 20
600798.7630433996673673
 30
0.0
  0
VERTEX
  5
17E8
  8
AREAS
 10
635880.0032656341791153
 20
600794.7546953413402662
 30
0.0
  0
VERTEX
  5
17E9
  8
AREAS
 10
635883.990231083938852
 20
600790.748723128461279
 30
0.0
  0
VERTEX
  5
17EA
  8
AREAS
 10
635890.9745481573045254
 20
600786.7356233794707805
 30
0.0
  0
VERTEX
  5
17EB
  8
AREAS
 10
635894.96626529796049
 20
600784.7278855822514743
 30
0.0
  0
VERTEX
  5
17EC
  8
AREAS
 10
635903.9464409415377304
 20
600779.7109169346513227
 30
0.0
  0
VERTEX
  5
17ED
  8
AREAS
 10
635891.8905107767786831
 20
600751.764145259745419
 30
0.0
  0
VERTEX
  5
17EE
  8
AREAS
 10
635870.9185527936788276
 20
600755.8105068441946059
 30
0.0
  0
VERTEX
  5
17EF
  8
AREAS
 10
635860.9440116330515593
 20
600762.8280857526697218
 30
0.0
  0
VERTEX
  5
17F0
  8
AREAS
 10
635852.9700807334156707
 20
600770.8400301786605269
 30
0.0
  0
SEQEND
  5
17F1
  8
AREAS
  0
POLYLINE
  5
947
  8
AREAS
 66
     1
 10
0.0
 20
0.0
 30
0.0
 70
     1
  0
VERTEX
  5
17F2
  8
AREAS
 10
635743.9476612587459385
 20
599880.8808134520659223
 30
0.0
  0
VERTEX
  5
17F3
  8
AREAS
 10
635750.9533609404461458
 20
599885.8597685735439882
 30
0.0
  0
VERTEX
  5
17F4
  8
AREAS
 10
635776.8068643843289465
 20
599833.8439017860218883
 30
0.0
  0
VERTEX
  5
17F5
  8
AREAS
 10
635764.767565137357451
 20
599812.8909505661576986
 30
0.0
  0
VERTEX
  5
17F6
  8
AREAS
 10
635759.7434689536457881
 20
599800.9134232989745215
 30
0.0
  0
VERTEX
  5
17F7
  8
AREAS
 10
635720.8159113739384338
 20
599816.9919565942836925
 30
0.0
  0
VERTEX
  5
17F8
  8
AREAS
 10
635719.8524318468989804
 20
599831.9810905571794137
 30
0.0
  0
VERTEX
  5
17F9
  8
AREAS
 10
635722.8711660789558664
 20
599840.9660178916528821
 30
0.0
  0
VERTEX
  5
17FA
  8
AREAS
 10
635728.8967553158290684
 20
599853.9402865212177858
 30
0.0
  0
VERTEX
  5
17FB
  8
AREAS
 10
635733.918475654325448
 20
599864.9186965804547071
 30
0.0
  0
VERTEX
  5
17FC
  8
AREAS
 10
635737.9291995578678325
 20
599870.9038964458741248
 30
0.0
  0
SEQEND
  5
17FD
  8
AREAS
  0
POLYLINE
  5
954
  8
AREAS
 66
     1
 10
0.0
 20
0.0
 30
0.0
 70
     1
  0
VERTEX
  5
17FE
  8
AREAS
 10
636790.239579793647863
 20
599969.3129692493239418
 30
0.0
  0
VERTEX
  5
17FF
  8
AREAS
 10
636826.1721615950809792
 20
599954.2406806979561225
 30
0.0
  0
VERTEX
  5
1800
  8
AREAS
 10
636816.1501035266555846
 20
599941.275915449950844
 30
0.0
  0
VERTEX
  5
1801
  8
AREAS
 10
636812.1203728599939495
 20
599927.2977779216598719
 30
0.0
  0
VERTEX
  5
1802
  8
AREAS
 10
636806.0757768598850816
 20
599906.3305716294562444
 30
0.0
  0
VERTEX
  5
1803
  8
AREAS
 10
636807.0558873047120869
 20
599898.3352581212529913
 30
0.0
  0
VERTEX
  5
1804
  8
AREAS
 10
636805.0267668990418315
 20
599885.3514861102448776
 30
0.0
  0
VERTEX
  5
1805
  8
AREAS
 10
636799.0059293529484421
 20
599874.3754518963396549
 30
0.0
  0
VERTEX
  5
1806
  8
AREAS
 10
636791.0011124631855637
 20
599869.3988726201932877
 30
0.0
  0
VERTEX
  5
1807
  8
AREAS
 10
636784.0096678538247943
 20
599870.4146207456942648
 30
0.0
  0
VERTEX
  5
1808
  8
AREAS
 10
636775.0271163646830246
 20
599874.4324721854645759
 30
0.0
  0
VERTEX
  5
1809
  8
AREAS
 10
636765.0692061218433082
 20
599888.4438715490978211
 30
0.0
  0
VERTEX
  5
180A
  8
AREAS
 10
636763.0947301598498598
 20
599898.4397953181760386
 30
0.0
  0
VERTEX
  5
180B
  8
AREAS
 10
636760.1187611448112875
 20
599907.4389777247561142
 30
0.0
  0
VERTEX
  5
180C
  8
AREAS
 10
636764.1770019561517984
 20
599933.4065217471215874
 30
0.0
  0
VERTEX
  5
180D
  8
AREAS
 10
636776.2020461309002712
 20
599948.3647697200067341
 30
0.0
  0
SEQEND
  5
180E
  8
AREAS
  0
POLYLINE
  5
966
  8
AREAS
 66
     1
 10
0.0
 20
0.0
 30
0.0
 70
     1
  0
VERTEX
  5
180F
  8
AREAS
 10
636369.3736507560824975
 20
599870.4014793719397858
 30
0.0
  0
VERTEX
  5
1810
  8
AREAS
 10
636420.3595143456477672
 20
599883.2688349591335282
 30
0.0
  0
VERTEX
  5
1811
  8
AREAS
 10
636421.2659735836787149
 20
599844.3008880080888048
 30
0.0
  0
VERTEX
  5
1812
  8
AREAS
 10
636412.2549119500909001
 20
599836.3293329539010301
 30
0.0
  0
VERTEX
  5
1813
  8
AREAS
 10
636400.2274919298943132
 20
599820.3719677730696276
 30
0.0
  0
VERTEX
  5
1814
  8
AREAS
 10
636398.2078749056672677
 20
599811.3846645933808759
 30
0.0
  0
VERTEX
  5
1815
  8
AREAS
 10
636384.1798446245957166
 20
599794.4329338954994455
 30
0.0
  0
VERTEX
  5
1816
  8
AREAS
 10
636376.1774035802809522
 20
599790.4554718271829188
 30
0.0
  0
VERTEX
  5
1817
  8
AREAS
 10
636360.1915282548870891
 20
599790.4934853533050045
 30
0.0
  0
VERTEX
  5
1818
  8
AREAS
 10
636355.1983180611860007
 20
599791.5044817880261689
 30
0.0
  0
VERTEX
  5
1819
  8
AREAS
 10
636344.2222838471643627
 20
599797.525319334352389
 30
0.0
  0
VERTEX
  5
181A
  8
AREAS
 10
636341.2320597600191832
 20
599800.5297984939534217
 30
0.0
  0
VERTEX
  5
181B
  8
AREAS
 10
636339.2433287256862968
 20
599804.5310190160525963
 30
0.0
  0
VERTEX
  5
181C
  8
AREAS
 10
636339.2552079525776207
 20
599809.5266050552017987
 30
0.0
  0
VERTEX
  5
181D
  8
AREAS
 10
636339.2623354888055474
 20
599812.5239566788077354
 30
0.0
  0
VERTEX
  5
181E
  8
AREAS
 10
636338.2703458170872182
 20
599815.5236841476289555
 30
0.0
  0
VERTEX
  5
181F
  8
AREAS
 10
636340.2852111504180357
 20
599822.5127529117744416
 30
0.0
  0
VERTEX
  5
1820
  8
AREAS
 10
636350.3120209095068276
 20
599837.4757525755558163
 30
0.0
  0
VERTEX
  5
1821
  8
AREAS
 10
636359.3302100793225691
 20
599848.4446592533495277
 30
0.0
  0
VERTEX
  5
1822
  8
AREAS
 10
636365.3367925531929359
 20
599853.4259902201592922
 30
0.0
  0
SEQEND
  5
1823
  8
AREAS
  0
POLYLINE
  5
97C
  8
AREAS
 66
     1
 10
0.0
 20
0.0
 30
0.0
 70
     1
  0
VERTEX
  5
1824
  8
AREAS
 10
636211.7340855384245515
 20
599963.6947632712544873
 30
0.0
  0
VERTEX
  5
1825
  8
AREAS
 10
636260.648063505650498
 20
599945.5942371063865721
 30
0.0
  0
VERTEX
  5
1826
  8
AREAS
 10
636251.5277129843598232
 20
599891.663290491560474
 30
0.0
  0
VERTEX
  5
1827
  8
AREAS
 10
636239.5169238819507882
 20
599882.6997457656543702
 30
0.0
  0
VERTEX
  5
1828
  8
AREAS
 10
636222.5319313488435
 20
599882.7401351372245699
 30
0.0
  0
VERTEX
  5
1829
  8
AREAS
 10
636203.5748386989580467
 20
599893.7755654855864123
 30
0.0
  0
VERTEX
  5
182A
  8
AREAS
 10
636195.5890285724308342
 20
599896.7919238721951842
 30
0.0
  0
VERTEX
  5
182B
  8
AREAS
 10
636191.6068148134509102
 20
599902.7961305007338524
 30
0.0
  0
VERTEX
  5
182C
  8
AREAS
 10
636188.6284699528478086
 20
599910.7961956997169182
 30
0.0
  0
VERTEX
  5
182D
  8
AREAS
 10
636188.6403491798555478
 20
599915.7917817387497053
 30
0.0
  0
SEQEND
  5
182E
  8
AREAS
  0
POLYLINE
  5
988
  8
AREAS
 66
     1
 10
0.0
 20
0.0
 30
0.0
 70
     1
  0
VERTEX
  5
182F
  8
AREAS
 10
635947.349422869971022
 20
599704.5515124144731089
 30
0.0
  0
VERTEX
  5
1830
  8
AREAS
 10
635953.3465019623981789
 20
599705.5363745501963422
 30
0.0
  0
VERTEX
  5
1831
  8
AREAS
 10
635969.3109946793410927
 20
599696.5063061534892768
 30
0.0
  0
VERTEX
  5
1832
  8
AREAS
 10
635984.2169740538811311
 20
599662.500683406367898
 30
0.0
  0
VERTEX
  5
1833
  8
AREAS
 10
635984.1765846824273467
 20
599645.5156908731441945
 30
0.0
  0
VERTEX
  5
1834
  8
AREAS
 10
635982.1284575136378407
 20
599624.5389811992645264
 30
0.0
  0
VERTEX
  5
1835
  8
AREAS
 10
635975.0657375426962972
 20
599595.5812130897538736
 30
0.0
  0
VERTEX
  5
1836
  8
AREAS
 10
635953.0518971349811181
 20
599581.6458407784812152
 30
0.0
  0
VERTEX
  5
1837
  8
AREAS
 10
635924.0085985915502533
 20
599552.7403412673156708
 30
0.0
  0
VERTEX
  5
1838
  8
AREAS
 10
635908.0274749569362029
 20
599554.7765892090974376
 30
0.0
  0
VERTEX
  5
1839
  8
AREAS
 10
635904.0428853525081649
 20
599559.7816786298062652
 30
0.0
  0
VERTEX
  5
183A
  8
AREAS
 10
635913.0729537493316457
 20
599575.7461713467491791
 30
0.0
  0
VERTEX
  5
183B
  8
AREAS
 10
635927.1104874119628221
 20
599596.6943708759499714
 30
0.0
  0
VERTEX
  5
183C
  8
AREAS
 10
635940.1584072485566139
 20
599621.6414150819182396
 30
0.0
  0
VERTEX
  5
183D
  8
AREAS
 10
635951.2461061952635646
 20
599662.5790863039437681
 30
0.0
  0
VERTEX
  5
183E
  8
AREAS
 10
635947.2757716630585492
 20
599673.578878971748054
 30
0.0
  0
VERTEX
  5
183F
  8
AREAS
 10
635945.2989198559662327
 20
599682.575685532996431
 30
0.0
  0
VERTEX
  5
1840
  8
AREAS
 10
635944.3188094111392274
 20
599690.5709990410832688
 30
0.0
  0
SEQEND
  5
1841
  8
AREAS
  0
POLYLINE
  5
99C
  8
AREAS
 66
     1
 10
0.0
 20
0.0
 30
0.0
 70
     1
  0
VERTEX
  5
1842
  8
AREAS
 10
636620.5630911743501201
 20
600042.6524191364878789
 30
0.0
  0
VERTEX
  5
1843
  8
AREAS
 10
636663.5322586474940181
 20
600045.547609408502467
 30
0.0
  0
VERTEX
  5
1844
  8
AREAS
 10
636673.4093901474261656
 20
599997.5662249785382301
 30
0.0
  0
VERTEX
  5
1845
  8
AREAS
 10
636659.4003666293574497
 20
599988.6074319434119388
 30
0.0
  0
VERTEX
  5
1846
  8
AREAS
 10
636649.4068187056109309
 20
599987.6320731892483309
 30
0.0
  0
VERTEX
  5
1847
  8
AREAS
 10
636636.4111674674786627
 20
599984.6656075557693839
 30
0.0
  0
VERTEX
  5
1848
  8
AREAS
 10
636626.4223712345119566
 20
599985.6884832174982876
 30
0.0
  0
VERTEX
  5
1849
  8
AREAS
 10
636609.4445062375161797
 20
599988.7262242125580087
 30
0.0
  0
VERTEX
  5
184A
  8
AREAS
 10
636602.4601891641505063
 20
599992.7393239615485072
 30
0.0
  0
VERTEX
  5
184B
  8
AREAS
 10
636601.4634478016523644
 20
599993.7408170147100464
 30
0.0
  0
VERTEX
  5
184C
  8
AREAS
 10
636612.5273882948094979
 20
600024.6873161585535854
 30
0.0
  0
VERTEX
  5
184D
  8
AREAS
 10
636618.5506016863510013
 20
600036.6624675801722333
 30
0.0
  0
SEQEND
  5
184E
  8
AREAS
  0
POLYLINE
  5
9AA
  8
AREAS
 66
     1
 10
0.0
 20
0.0
 30
0.0
 70
     1
  0
VERTEX
  5
184F
  8
AREAS
 10
636334.0421578366076574
 20
600138.2504215058870614
 30
0.0
  0
VERTEX
  5
1850
  8
AREAS
 10
636341.0359782914165407
 20
600138.2337905880995095
 30
0.0
  0
VERTEX
  5
1851
  8
AREAS
 10
636351.0722914320649579
 20
600157.1932590832002461
 30
0.0
  0
VERTEX
  5
1852
  8
AREAS
 10
636355.1043979441747069
 20
600172.1705138193210587
 30
0.0
  0
VERTEX
  5
1853
  8
AREAS
 10
636360.1332458186661825
 20
600186.1462755020475015
 30
0.0
  0
VERTEX
  5
1854
  8
AREAS
 10
636361.1489939442835748
 20
600193.1377201115246862
 30
0.0
  0
VERTEX
  5
1855
  8
AREAS
 10
636362.1718696058960631
 20
600203.1265163444913924
 30
0.0
  0
VERTEX
  5
1856
  8
AREAS
 10
636362.1837488327873871
 20
600208.1221023837570101
 30
0.0
  0
VERTEX
  5
1857
  8
AREAS
 10
636361.2036383880767971
 20
600216.1174158917274326
 30
0.0
  0
VERTEX
  5
1858
  8
AREAS
 10
636355.2184385226573795
 20
600220.1281397955026478
 30
0.0
  0
VERTEX
  5
1859
  8
AREAS
 10
636341.2165425405837595
 20
600214.1666983837494627
 30
0.0
  0
VERTEX
  5
185A
  8
AREAS
 10
636334.2060911679873243
 20
600207.1895088466117159
 30
0.0
  0
VERTEX
  5
185B
  8
AREAS
 10
636332.1793466076487675
 20
600195.2048540434334427
 30
0.0
  0
VERTEX
  5
185C
  8
AREAS
 10
636334.0682921358384192
 20
600149.240710792131722
 30
0.0
  0
SEQEND
  5
185D
  8
AREAS
  0
POLYLINE
  5
9BA
  8
AREAS
 66
     1
 10
0.0
 20
0.0
 30
0.0
 70
     1
  0
VERTEX
  5
185E
  8
AREAS
 10
637238.9798914461862296
 20
599605.564292382216081
 30
0.0
  0
VERTEX
  5
185F
  8
AREAS
 10
637264.9236770146526396
 20
599591.5148794925771654
 30
0.0
  0
VERTEX
  5
1860
  8
AREAS
 10
637230.8467789059504867
 20
599546.6353838829090819
 30
0.0
  0
VERTEX
  5
1861
  8
AREAS
 10
637233.8227479209890589
 20
599537.6362014763290063
 30
0.0
  0
VERTEX
  5
1862
  8
AREAS
 10
637187.8752355873584747
 20
599542.7410764030646533
 30
0.0
  0
VERTEX
  5
1863
  8
AREAS
 10
637195.908562621450983
 20
599559.7070621731691062
 30
0.0
  0
VERTEX
  5
1864
  8
AREAS
 10
637211.9419548546429724
 20
599579.6513928037602454
 30
0.0
  0
VERTEX
  5
1865
  8
AREAS
 10
637231.9718159190379083
 20
599599.58622005302459
 30
0.0
  0
SEQEND
  5
1866
  8
AREAS
  0
POLYLINE
  5
9C4
  8
AREAS
 66
     1
 10
0.0
 20
0.0
 30
0.0
 70
     1
  0
VERTEX
  5
1867
  8
AREAS
 10
636359.3636203632922843
 20
599022.169976681470871
 30
0.0
  0
VERTEX
  5
1868
  8
AREAS
 10
636371.3744094658177346
 20
599031.1335214073769748
 30
0.0
  0
VERTEX
  5
1869
  8
AREAS
 10
636396.3380845894571394
 20
599025.079422025824897
 30
0.0
  0
VERTEX
  5
186A
  8
AREAS
 10
636404.2882570351939648
 20
599007.0763055216521025
 30
0.0
  0
VERTEX
  5
186B
  8
AREAS
 10
636405.2683674800209701
 20
598999.0809920135652646
 30
0.0
  0
VERTEX
  5
186C
  8
AREAS
 10
636405.2422331807902083
 20
598988.0907027274370193
 30
0.0
  0
VERTEX
  5
186D
  8
AREAS
 10
636403.2249920020112768
 20
598980.1025167554616928
 30
0.0
  0
VERTEX
  5
186E
  8
AREAS
 10
636397.2112819920293987
 20
598972.1238341650459915
 30
0.0
  0
VERTEX
  5
186F
  8
AREAS
 10
636392.2085684166522697
 20
598969.138361768447794
 30
0.0
  0
VERTEX
  5
1870
  8
AREAS
 10
636382.2173963383538648
 20
598969.1621202223468572
 30
0.0
  0
VERTEX
  5
1871
  8
AREAS
 10
636372.2381034868303686
 20
598974.1814647152787074
 30
0.0
  0
VERTEX
  5
1872
  8
AREAS
 10
636362.2564347899751738
 20
598978.2016920004971325
 30
0.0
  0
VERTEX
  5
1873
  8
AREAS
 10
636354.2825038904557005
 20
598986.2136364262551069
 30
0.0
  0
VERTEX
  5
1874
  8
AREAS
 10
636356.3282552136806771
 20
599006.1912288921885192
 30
0.0
  0
SEQEND
  5
1875
  8
AREAS
  0
POLYLINE
  5
9D4
  8
AREAS
 66
     1
 10
0.0
 20
0.0
 30
0.0
 70
     1
  0
VERTEX
  5
1876
  8
AREAS
 10
636193.9663261759560555
 20
599214.3948709196411073
 30
0.0
  0
VERTEX
  5
1877
  8
AREAS
 10
636205.9604843606939539
 20
599216.3645951908547431
 30
0.0
  0
VERTEX
  5
1878
  8
AREAS
 10
636226.9063080445630476
 20
599201.3279443201608956
 30
0.0
  0
VERTEX
  5
1879
  8
AREAS
 10
636188.8186860323185101
 20
599150.4632488449569792
 30
0.0
  0
VERTEX
  5
187A
  8
AREAS
 10
636184.8269688915461302
 20
599152.4709866422927007
 30
0.0
  0
VERTEX
  5
187B
  8
AREAS
 10
636169.8663450733292848
 20
599163.4969136092113331
 30
0.0
  0
VERTEX
  5
187C
  8
AREAS
 10
636166.8903760582907125
 20
599172.496096015907824
 30
0.0
  0
VERTEX
  5
187D
  8
AREAS
 10
636167.9156275653513148
 20
599183.484009456820786
 30
0.0
  0
VERTEX
  5
187E
  8
AREAS
 10
636176.9528234981698915
 20
599202.4458537972532213
 30
0.0
  0
VERTEX
  5
187F
  8
AREAS
 10
636183.9656507160980254
 20
599210.4221605421043932
 30
0.0
  0
SEQEND
  5
1880
  8
AREAS
  0
POLYLINE
  5
9E0
  8
AREAS
 66
     1
 10
0.0
 20
0.0
 30
0.0
 70
     1
  0
VERTEX
  5
1881
  8
AREAS
 10
636095.5919258036883548
 20
599020.7989654468838125
 30
0.0
  0
VERTEX
  5
1882
  8
AREAS
 10
636097.6139186732470989
 20
599030.7853858346352354
 30
0.0
  0
VERTEX
  5
1883
  8
AREAS
 10
636102.6356390116270632
 20
599041.7637958937557414
 30
0.0
  0
VERTEX
  5
1884
  8
AREAS
 10
636119.6586450708564371
 20
599057.7092818475794047
 30
0.0
  0
VERTEX
  5
1885
  8
AREAS
 10
636127.6634619605029002
 20
599062.6858611237257719
 30
0.0
  0
VERTEX
  5
1886
  8
AREAS
 10
636139.6528684545774013
 20
599062.6573509791633114
 30
0.0
  0
VERTEX
  5
1887
  8
AREAS
 10
636153.6286301373038441
 20
599057.6285031045554206
 30
0.0
  0
VERTEX
  5
1888
  8
AREAS
 10
636151.5733754325192422
 20
599033.6544418074190617
 30
0.0
  0
VERTEX
  5
1889
  8
AREAS
 10
636117.5416183860506862
 20
599007.7581731465179473
 30
0.0
  0
VERTEX
  5
188A
  8
AREAS
 10
636105.5545877374242991
 20
599008.7858004990266636
 30
0.0
  0
VERTEX
  5
188B
  8
AREAS
 10
636097.5759051470085979
 20
599014.7995105090085417
 30
0.0
  0
SEQEND
  5
188C
  8
AREAS
  0
POLYLINE
  5
9ED
  8
AREAS
 66
     1
 10
0.0
 20
0.0
 30
0.0
 70
     1
  0
VERTEX
  5
188D
  8
AREAS
 10
636589.736646446865052
 20
599684.0406168845947832
 30
0.0
  0
VERTEX
  5
188E
  8
AREAS
 10
636658.6377202614676207
 20
599667.8908082277048379
 30
0.0
  0
VERTEX
  5
188F
  8
AREAS
 10
636668.5481135967420414
 20
599633.8970647074747831
 30
0.0
  0
VERTEX
  5
1890
  8
AREAS
 10
636670.5083344862796366
 20
599617.9064376914175227
 30
0.0
  0
VERTEX
  5
1891
  8
AREAS
 10
636664.4447317231679335
 20
599588.9462937363423407
 30
0.0
  0
VERTEX
  5
1892
  8
AREAS
 10
636635.4275674789678305
 20
599571.0310835114214569
 30
0.0
  0
VERTEX
  5
1893
  8
AREAS
 10
636612.4336166265420616
 20
599565.0910247082356364
 30
0.0
  0
VERTEX
  5
1894
  8
AREAS
 10
636592.4655275420518592
 20
599571.1332448628963903
 30
0.0
  0
VERTEX
  5
1895
  8
AREAS
 10
636573.5084348923992366
 20
599582.1686752112582326
 30
0.0
  0
VERTEX
  5
1896
  8
AREAS
 10
636567.5374900992028415
 20
599592.174102362128906
 30
0.0
  0
VERTEX
  5
1897
  8
AREAS
 10
636570.6203721564961597
 20
599628.1351943080080673
 30
0.0
  0
VERTEX
  5
1898
  8
AREAS
 10
636581.6534266595263034
 20
599646.0931697498308495
 30
0.0
  0
SEQEND
  5
1899
  8
AREAS
  0
POLYLINE
  5
9FB
  8
AREAS
 66
     1
 10
0.0
 20
0.0
 30
0.0
 70
     1
  0
VERTEX
  5
189A
  8
AREAS
 10
636200.481339561752975
 20
599433.1872843636665493
 30
0.0
  0
VERTEX
  5
189B
  8
AREAS
 10
636206.4831703449599445
 20
599436.1703809148166329
 30
0.0
  0
VERTEX
  5
189C
  8
AREAS
 10
636229.4628661252791062
 20
599436.1157364711398259
 30
0.0
  0
VERTEX
  5
189D
  8
AREAS
 10
636232.3295462527312338
 20
599381.1571625038050115
 30
0.0
  0
VERTEX
  5
189E
  8
AREAS
 10
636224.1109032785752788
 20
599286.2600345223909244
 30
0.0
  0
VERTEX
  5
189F
  8
AREAS
 10
636211.1200037314556539
 20
599285.2918033045716584
 30
0.0
  0
VERTEX
  5
18A0
  8
AREAS
 10
636204.1285591218620539
 20
599286.3075514300726354
 30
0.0
  0
VERTEX
  5
18A1
  8
AREAS
 10
636191.1542904922971502
 20
599292.3331406670622528
 30
0.0
  0
VERTEX
  5
18A2
  8
AREAS
 10
636183.1708562111016363
 20
599296.3486162615008652
 30
0.0
  0
VERTEX
  5
18A3
  8
AREAS
 10
636176.2007942099589854
 20
599306.3564192575868219
 30
0.0
  0
VERTEX
  5
18A4
  8
AREAS
 10
636174.2310699390945956
 20
599318.3505774424411356
 30
0.0
  0
VERTEX
  5
18A5
  8
AREAS
 10
636178.2608006057562307
 20
599332.3287149704992771
 30
0.0
  0
VERTEX
  5
18A6
  8
AREAS
 10
636185.2878828959073871
 20
599346.2997249625623226
 30
0.0
  0
VERTEX
  5
18A7
  8
AREAS
 10
636190.3499926058575511
 20
599374.2631275551393628
 30
0.0
  0
VERTEX
  5
18A8
  8
AREAS
 10
636191.3823716490296647
 20
599388.2483926195418462
 30
0.0
  0
VERTEX
  5
18A9
  8
AREAS
 10
636190.409388740430586
 20
599399.2410577511182055
 30
0.0
  0
VERTEX
  5
18AA
  8
AREAS
 10
636192.4598917545517907
 20
599421.2168846325948834
 30
0.0
  0
VERTEX
  5
18AB
  8
AREAS
 10
636194.4747570878826082
 20
599428.2059533968567848
 30
0.0
  0
SEQEND
  5
18AC
  8
AREAS
  0
POLYLINE
  5
A0F
  8
AREAS
 66
     1
 10
0.0
 20
0.0
 30
0.0
 70
     1
  0
VERTEX
  5
18AD
  8
AREAS
 10
635823.3093592878431082
 20
598801.6394096668809652
 30
0.0
  0
VERTEX
  5
18AE
  8
AREAS
 10
635866.2880301424302161
 20
598808.5310687703313306
 30
0.0
  0
VERTEX
  5
18AF
  8
AREAS
 10
635872.2637266264064237
 20
598800.5238760353531688
 30
0.0
  0
VERTEX
  5
18B0
  8
AREAS
 10
635880.2234024539357051
 20
598786.5172283624997362
 30
0.0
  0
VERTEX
  5
18B1
  8
AREAS
 10
635878.1919062027009204
 20
598772.5343391435453668
 30
0.0
  0
VERTEX
  5
18B2
  8
AREAS
 10
635868.1912307428428903
 20
598768.5616287661250681
 30
0.0
  0
VERTEX
  5
18B3
  8
AREAS
 10
635856.1970725579885766
 20
598766.5919044951442629
 30
0.0
  0
VERTEX
  5
18B4
  8
AREAS
 10
635844.2029143732506782
 20
598764.6221802240470424
 30
0.0
  0
VERTEX
  5
18B5
  8
AREAS
 10
635820.2074704674305394
 20
598757.6853800582466647
 30
0.0
  0
VERTEX
  5
18B6
  8
AREAS
 10
635815.2166361190611497
 20
598759.6954937007976696
 30
0.0
  0
VERTEX
  5
18B7
  8
AREAS
 10
635809.2385637897532433
 20
598766.7035692279459909
 30
0.0
  0
VERTEX
  5
18B8
  8
AREAS
 10
635806.2578430839348584
 20
598773.7045172189828008
 30
0.0
  0
VERTEX
  5
18B9
  8
AREAS
 10
635807.2830945908790454
 20
598784.6924306597793475
 30
0.0
  0
SEQEND
  5
18BA
  8
AREAS
  0
POLYLINE
  5
A1E
  8
AREAS
 66
     1
 10
0.0
 20
0.0
 30
0.0
 70
     1
  0
VERTEX
  5
18BB
  8
AREAS
 10
635665.7196868233149871
 20
598915.9141549308551475
 30
0.0
  0
VERTEX
  5
18BC
  8
AREAS
 10
635678.7295931335538626
 20
598924.8753238113131374
 30
0.0
  0
VERTEX
  5
18BD
  8
AREAS
 10
635717.685660857707262
 20
598920.7861970100784674
 30
0.0
  0
VERTEX
  5
18BE
  8
AREAS
 10
635713.5727756025735289
 20
598871.8389572077430785
 30
0.0
  0
VERTEX
  5
18BF
  8
AREAS
 10
635698.5693865674547851
 20
598864.8807744334917516
 30
0.0
  0
VERTEX
  5
18C0
  8
AREAS
 10
635681.5843940341146663
 20
598864.9211638050619513
 30
0.0
  0
VERTEX
  5
18C1
  8
AREAS
 10
635670.6036081295460463
 20
598868.943766935612075
 30
0.0
  0
VERTEX
  5
18C2
  8
AREAS
 10
635664.6112807277822867
 20
598869.9571392156649381
 30
0.0
  0
VERTEX
  5
18C3
  8
AREAS
 10
635658.6237050169147551
 20
598872.9687459114938974
 30
0.0
  0
VERTEX
  5
18C4
  8
AREAS
 10
635653.6471257407683879
 20
598880.9735628012567759
 30
0.0
  0
VERTEX
  5
18C5
  8
AREAS
 10
635654.6747530932771042
 20
598892.9605934496503323
 30
0.0
  0
VERTEX
  5
18C6
  8
AREAS
 10
635658.6926045330474153
 20
598901.943144938792102
 30
0.0
  0
VERTEX
  5
18C7
  8
AREAS
 10
635660.7050940210465342
 20
598907.9330964949913323
 30
0.0
  0
SEQEND
  5
18C8
  8
AREAS
  0
POLYLINE
  5
A2D
  8
AREAS
 66
     1
 10
0.0
 20
0.0
 30
0.0
 70
     1
  0
VERTEX
  5
18C9
  8
AREAS
 10
635912.1405086606973782
 20
598763.4615055300528184
 30
0.0
  0
VERTEX
  5
18CA
  8
AREAS
 10
635943.1155179492197931
 20
598764.3869715308537707
 30
0.0
  0
VERTEX
  5
18CB
  8
AREAS
 10
635945.0804905295372009
 20
598750.3945789304561913
 30
0.0
  0
VERTEX
  5
18CC
  8
AREAS
 10
635949.0627042884007096
 20
598744.3903723019175231
 30
0.0
  0
VERTEX
  5
18CD
  8
AREAS
 10
635951.0324285594979301
 20
598732.3962141171796247
 30
0.0
  0
VERTEX
  5
18CE
  8
AREAS
 10
635947.012201274279505
 20
598722.4145454203244299
 30
0.0
  0
VERTEX
  5
18CF
  8
AREAS
 10
635940.0041257472475991
 20
598716.4364730911329389
 30
0.0
  0
VERTEX
  5
18D0
  8
AREAS
 10
635926.0212365281768143
 20
598718.4679693420184776
 30
0.0
  0
VERTEX
  5
18D1
  8
AREAS
 10
635915.0333230873802677
 20
598719.4932208490790799
 30
0.0
  0
VERTEX
  5
18D2
  8
AREAS
 10
635901.0551855592057109
 20
598723.5229515158571303
 30
0.0
  0
VERTEX
  5
18D3
  8
AREAS
 10
635894.0779960220679641
 20
598730.5334028883371502
 30
0.0
  0
VERTEX
  5
18D4
  8
AREAS
 10
635894.0993786305189133
 20
598739.5254577588057145
 30
0.0
  0
VERTEX
  5
18D5
  8
AREAS
 10
635900.1273437129566446
 20
598753.4988435964332893
 30
0.0
  0
SEQEND
  5
18D6
  8
AREAS
  0
POLYLINE
  5
A3C
  8
AREAS
 66
     1
 10
0.0
 20
0.0
 30
0.0
 70
     1
  0
VERTEX
  5
18D7
  8
AREAS
 10
635635.5264791145455092
 20
598403.4359268266707659
 30
0.0
  0
VERTEX
  5
18D8
  8
AREAS
 10
635651.4957235222682357
 20
598396.4040928456233814
 30
0.0
  0
VERTEX
  5
18D9
  8
AREAS
 10
635661.4631371467839926
 20
598386.3891623134259135
 30
0.0
  0
VERTEX
  5
18DA
  8
AREAS
 10
635664.4581129249418154
 20
598385.3829175694845617
 30
0.0
  0
VERTEX
  5
18DB
  8
AREAS
 10
635675.4341471388470381
 20
598379.362080023274757
 30
0.0
  0
VERTEX
  5
18DC
  8
AREAS
 10
635683.4152055745944381
 20
598374.347487221006304
 30
0.0
  0
VERTEX
  5
18DD
  8
AREAS
 10
635670.3078896035440266
 20
598324.4225128191756085
 30
0.0
  0
VERTEX
  5
18DE
  8
AREAS
 10
635638.3551457159919664
 20
598332.4914775340585038
 30
0.0
  0
VERTEX
  5
18DF
  8
AREAS
 10
635627.3719839658588171
 20
598335.5149634567787871
 30
0.0
  0
VERTEX
  5
18E0
  8
AREAS
 10
635612.4018567659659311
 20
598342.5444215923780575
 30
0.0
  0
SEQEND
  5
18E1
  8
AREAS
  0
POLYLINE
  5
A48
  8
AREAS
 66
     1
 10
0.0
 20
0.0
 30
0.0
 70
     1
  0
VERTEX
  5
18E2
  8
AREAS
 10
635051.0486294705187902
 20
599667.7170746175106615
 30
0.0
  0
VERTEX
  5
18E3
  8
AREAS
 10
635071.0143427095608786
 20
599660.6757372550200671
 30
0.0
  0
VERTEX
  5
18E4
  8
AREAS
 10
635094.90524941845797
 20
599623.6513802758418024
 30
0.0
  0
VERTEX
  5
18E5
  8
AREAS
 10
635073.8881503732409328
 20
599608.7145149112911895
 30
0.0
  0
VERTEX
  5
18E6
  8
AREAS
 10
635050.8870719845872372
 20
599599.7771044846158475
 30
0.0
  0
VERTEX
  5
18E7
  8
AREAS
 10
635040.8958999061724171
 20
599599.8008629383984953
 30
0.0
  0
VERTEX
  5
18E8
  8
AREAS
 10
635034.9059483498567715
 20
599601.8133524263976142
 30
0.0
  0
VERTEX
  5
18E9
  8
AREAS
 10
635028.9159967936575413
 20
599603.825841914396733
 30
0.0
  0
VERTEX
  5
18EA
  8
AREAS
 10
635023.9465450536226854
 20
599614.8280104274163023
 30
0.0
  0
VERTEX
  5
18EB
  8
AREAS
 10
635025.9732896138448268
 20
599626.8126652307109907
 30
0.0
  0
SEQEND
  5
18EC
  8
AREAS
  0
POLYLINE
  5
A54
  8
AREAS
 66
     1
 10
0.0
 20
0.0
 30
0.0
 70
     1
  0
VERTEX
  5
18ED
  8
AREAS
 10
634417.6819709088886157
 20
599700.1959940331289545
 30
0.0
  0
VERTEX
  5
18EE
  8
AREAS
 10
634465.7037447104230523
 20
599727.0581180664012209
 30
0.0
  0
VERTEX
  5
18EF
  8
AREAS
 10
634470.6660689142299816
 20
599713.0585979297757149
 30
0.0
  0
VERTEX
  5
18F0
  8
AREAS
 10
634474.6078933017561212
 20
599690.0693987680133432
 30
0.0
  0
VERTEX
  5
18F1
  8
AREAS
 10
634472.5906521229771897
 20
599682.0812127960380167
 30
0.0
  0
VERTEX
  5
18F2
  8
AREAS
 10
634464.583459387999028
 20
599676.105516312061809
 30
0.0
  0
VERTEX
  5
18F3
  8
AREAS
 10
634451.5806806138716638
 20
599670.1416990549769253
 30
0.0
  0
VERTEX
  5
18F4
  8
AREAS
 10
634431.6411016739439219
 20
599688.1733257037121803
 30
0.0
  0
SEQEND
  5
18F5
  8
AREAS
  0
POLYLINE
  5
A5E
  8
AREAS
 66
     1
 10
0.0
 20
0.0
 30
0.0
 70
     1
  0
VERTEX
  5
18F6
  8
AREAS
 10
634490.7030575147364289
 20
599735.9907768022967502
 30
0.0
  0
VERTEX
  5
18F7
  8
AREAS
 10
634522.7294526093173772
 20
599758.8944455303717405
 30
0.0
  0
VERTEX
  5
18F8
  8
AREAS
 10
634511.7890560763189569
 20
599779.9020411941455677
 30
0.0
  0
VERTEX
  5
18F9
  8
AREAS
 10
634489.8251084213843569
 20
599786.9481302474159747
 30
0.0
  0
VERTEX
  5
18FA
  8
AREAS
 10
634464.8044130086200312
 20
599769.0234166409354657
 30
0.0
  0
VERTEX
  5
18FB
  8
AREAS
 10
634470.7468476572539657
 20
599747.0285829962231219
 30
0.0
  0
SEQEND
  5
18FC
  8
AREAS
  0
POLYLINE
  5
A66
  8
AREAS
 66
     1
 10
0.0
 20
0.0
 30
0.0
 70
     1
  0
VERTEX
  5
18FD
  8
AREAS
 10
634514.7924215374514461
 20
599362.2615449368022382
 30
0.0
  0
VERTEX
  5
18FE
  8
AREAS
 10
634532.8264240315183997
 20
599383.2002410844434053
 30
0.0
  0
VERTEX
  5
18FF
  8
AREAS
 10
634548.8313061200315133
 20
599391.1551652209600434
 30
0.0
  0
VERTEX
  5
1900
  8
AREAS
 10
634563.794305783812888
 20
599381.1283554619876668
 30
0.0
  0
VERTEX
  5
1901
  8
AREAS
 10
634563.7634197938023135
 20
599368.1398317600833252
 30
0.0
  0
VERTEX
  5
1902
  8
AREAS
 10
634549.7425170488422737
 20
599354.1854526856914163
 30
0.0
  0
VERTEX
  5
1903
  8
AREAS
 10
634534.7367521680425853
 20
599346.2281527037266642
 30
0.0
  0
VERTEX
  5
1904
  8
AREAS
 10
634518.7532526882132515
 20
599347.2652834376785904
 30
0.0
  0
SEQEND
  5
1905
  8
AREAS
  0
POLYLINE
  5
A70
  8
AREAS
 66
     1
 10
0.0
 20
0.0
 30
0.0
 70
     1
  0
VERTEX
  5
1906
  8
AREAS
 10
634853.0550341941416264
 20
597916.7255232840543613
 30
0.0
  0
VERTEX
  5
1907
  8
AREAS
 10
634887.0749120134860277
 20
597937.6262059054570273
 30
0.0
  0
VERTEX
  5
1908
  8
AREAS
 10
634897.0589565555565059
 20
597934.6050958279520273
 30
0.0
  0
VERTEX
  5
1909
  8
AREAS
 10
634906.0272529722424224
 20
597924.5925411413190886
 30
0.0
  0
VERTEX
  5
190A
  8
AREAS
 10
634911.9981977655552328
 20
597914.5871139906812459
 30
0.0
  0
VERTEX
  5
190B
  8
AREAS
 10
634907.975594635005109
 20
597903.6063280859962106
 30
0.0
  0
VERTEX
  5
190C
  8
AREAS
 10
634900.9603915717452765
 20
597894.6309041330823675
 30
0.0
  0
VERTEX
  5
190D
  8
AREAS
 10
634895.929167851805687
 20
597879.6560252424096689
 30
0.0
  0
VERTEX
  5
190E
  8
AREAS
 10
634873.9248308255337179
 20
597869.7171217624563724
 30
0.0
  0
VERTEX
  5
190F
  8
AREAS
 10
634857.0111136537743732
 20
597899.7310273691546172
 30
0.0
  0
SEQEND
  5
1910
  8
AREAS
  0
POLYLINE
  5
A7C
  8
AREAS
 66
     1
 10
0.0
 20
0.0
 30
0.0
 70
     1
  0
VERTEX
  5
1911
  8
AREAS
 10
633497.8208102061180398
 20
598158.7385581415146589
 30
0.0
  0
VERTEX
  5
1912
  8
AREAS
 10
633504.840764960157685
 20
598169.7122165099717677
 30
0.0
  0
VERTEX
  5
1913
  8
AREAS
 10
633509.8672369892010465
 20
598182.6888609849847853
 30
0.0
  0
VERTEX
  5
1914
  8
AREAS
 10
633514.8770781006896868
 20
598188.6716850050725043
 30
0.0
  0
VERTEX
  5
1915
  8
AREAS
 10
633523.885763888945803
 20
598195.6441228515468538
 30
0.0
  0
VERTEX
  5
1916
  8
AREAS
 10
633530.8867118800990283
 20
598198.6248435572488233
 30
0.0
  0
VERTEX
  5
1917
  8
AREAS
 10
633537.8829081801231951
 20
598199.6073298475239426
 30
0.0
  0
VERTEX
  5
1918
  8
AREAS
 10
633546.8654596691485494
 20
598195.5894784077536315
 30
0.0
  0
VERTEX
  5
1919
  8
AREAS
 10
633549.850932065746747
 20
598190.5867648322600871
 30
0.0
  0
VERTEX
  5
191A
  8
AREAS
 10
633550.8334183559054509
 20
598183.5905685322359204
 30
0.0
  0
VERTEX
  5
191B
  8
AREAS
 10
633546.7989359984640032
 20
598167.6141965882852674
 30
0.0
  0
VERTEX
  5
191C
  8
AREAS
 10
633538.7774881911464036
 20
598155.6437968572136015
 30
0.0
  0
VERTEX
  5
191D
  8
AREAS
 10
633537.7736192925367504
 20
598153.6479382868856192
 30
0.0
  0
VERTEX
  5
191E
  8
AREAS
 10
633528.7483025868423283
 20
598139.6816799858352169
 30
0.0
  0
SEQEND
  5
191F
  8
AREAS
  0
POLYLINE
  5
A8C
  8
AREAS
 66
     1
 10
0.0
 20
0.0
 30
0.0
 70
     1
  0
VERTEX
  5
1920
  8
AREAS
 10
633620.4877836055820808
 20
597643.89859127800446
 30
0.0
  0
VERTEX
  5
1921
  8
AREAS
 10
633640.4867586799664423
 20
597650.8448948252480477
 30
0.0
  0
VERTEX
  5
1922
  8
AREAS
 10
633655.3761071368353441
 20
597609.8454516233177856
 30
0.0
  0
VERTEX
  5
1923
  8
AREAS
 10
633645.3825592130888253
 20
597608.8700928691541776
 30
0.0
  0
VERTEX
  5
1924
  8
AREAS
 10
633636.3928801879519597
 20
597609.8905926854349673
 30
0.0
  0
VERTEX
  5
1925
  8
AREAS
 10
633629.4109389601508155
 20
597614.9028096423717216
 30
0.0
  0
VERTEX
  5
1926
  8
AREAS
 10
633619.4435253355186433
 20
597624.9177401745691895
 30
0.0
  0
VERTEX
  5
1927
  8
AREAS
 10
633617.4595459921984002
 20
597630.9171951124444604
 30
0.0
  0
VERTEX
  5
1928
  8
AREAS
 10
633617.4761769097531214
 20
597637.9110155672533438
 30
0.0
  0
SEQEND
  5
1929
  8
AREAS
  0
POLYLINE
  5
A97
  8
AREAS
 66
     1
 10
0.0
 20
0.0
 30
0.0
 70
     1
  0
VERTEX
  5
192A
  8
AREAS
 10
633506.4553745707962662
 20
597588.21887401281856
 30
0.0
  0
VERTEX
  5
192B
  8
AREAS
 10
633532.4395495106000453
 20
597591.1544536565197632
 30
0.0
  0
VERTEX
  5
192C
  8
AREAS
 10
633543.4274629515130073
 20
597590.1292021493427455
 30
0.0
  0
VERTEX
  5
192D
  8
AREAS
 10
633548.4111697637708858
 20
597585.1217368831858039
 30
0.0
  0
VERTEX
  5
192E
  8
AREAS
 10
633550.3903974164277315
 20
597577.1240475297672674
 30
0.0
  0
VERTEX
  5
192F
  8
AREAS
 10
633549.3794009815901518
 20
597572.1308373359497637
 30
0.0
  0
VERTEX
  5
1930
  8
AREAS
 10
633540.356460121111013
 20
597559.1636962424963713
 30
0.0
  0
VERTEX
  5
1931
  8
AREAS
 10
633499.3831512182950974
 20
597555.26463707187213
 30
0.0
  0
SEQEND
  5
1932
  8
AREAS
  0
POLYLINE
  5
AA1
  8
AREAS
 66
     1
 10
0.0
 20
0.0
 30
0.0
 70
     1
  0
VERTEX
  5
1933
  8
AREAS
 10
634376.2254001436522231
 20
598232.5830978455487639
 30
0.0
  0
VERTEX
  5
1934
  8
AREAS
 10
634387.2299445021199062
 20
598238.5516667932970449
 30
0.0
  0
VERTEX
  5
1935
  8
AREAS
 10
634411.2016299541573972
 20
598235.4972948804497719
 30
0.0
  0
VERTEX
  5
1936
  8
AREAS
 10
634430.1587226038100198
 20
598224.4618645320879295
 30
0.0
  0
VERTEX
  5
1937
  8
AREAS
 10
634434.1290571358986199
 20
598213.462071864400059
 30
0.0
  0
VERTEX
  5
1938
  8
AREAS
 10
634432.1070642664562911
 20
598203.4756514766486362
 30
0.0
  0
VERTEX
  5
1939
  8
AREAS
 10
634419.0805270384298638
 20
598187.5206621412653476
 30
0.0
  0
VERTEX
  5
193A
  8
AREAS
 10
634375.0766046766657382
 20
598169.6410895971348509
 30
0.0
  0
VERTEX
  5
193B
  8
AREAS
 10
634364.1100738444365561
 20
598179.6583959746640176
 30
0.0
  0
VERTEX
  5
193C
  8
AREAS
 10
634360.1302359305555001
 20
598186.6617198111489415
 30
0.0
  0
VERTEX
  5
193D
  8
AREAS
 10
634358.1605116595746949
 20
598198.6558779958868399
 30
0.0
  0
VERTEX
  5
193E
  8
AREAS
 10
634361.1839975824113935
 20
598209.6390397461364046
 30
0.0
  0
VERTEX
  5
193F
  8
AREAS
 10
634368.2110798724461347
 20
598223.6100497379666194
 30
0.0
  0
SEQEND
  5
1940
  8
AREAS
  0
POLYLINE
  5
AB0
  8
AREAS
 66
     1
 10
0.0
 20
0.0
 30
0.0
 70
     1
  0
VERTEX
  5
1941
  8
AREAS
 10
633466.1902160407043993
 20
597041.7944192960858345
 30
0.0
  0
VERTEX
  5
1942
  8
AREAS
 10
633488.2278149024350569
 20
597065.720963685773313
 30
0.0
  0
VERTEX
  5
1943
  8
AREAS
 10
633505.2080557446461171
 20
597063.6823398985434324
 30
0.0
  0
VERTEX
  5
1944
  8
AREAS
 10
633517.1808313210494816
 20
597056.6600092990556732
 30
0.0
  0
VERTEX
  5
1945
  8
AREAS
 10
633525.1523863753536716
 20
597047.6489476654678583
 30
0.0
  0
VERTEX
  5
1946
  8
AREAS
 10
633526.1420002016238868
 20
597043.6501029887003824
 30
0.0
  0
VERTEX
  5
1947
  8
AREAS
 10
633522.1289004526333883
 20
597036.6657859154511243
 30
0.0
  0
VERTEX
  5
1948
  8
AREAS
 10
633515.1279524615965784
 20
597033.6850652096327394
 30
0.0
  0
VERTEX
  5
1949
  8
AREAS
 10
633506.1335217455634847
 20
597032.7073306101374328
 30
0.0
  0
VERTEX
  5
194A
  8
AREAS
 10
633501.1426873974269256
 20
597034.7174442529212683
 30
0.0
  0
VERTEX
  5
194B
  8
AREAS
 10
633490.1523981110658497
 20
597034.7435785520356148
 30
0.0
  0
SEQEND
  5
194C
  8
AREAS
  0
POLYLINE
  5
ABD
  8
AREAS
 66
     1
 10
0.0
 20
0.0
 30
0.0
 70
     1
  0
VERTEX
  5
194D
  8
AREAS
 10
634133.3687917265342548
 20
597362.9245885569835082
 30
0.0
  0
VERTEX
  5
194E
  8
AREAS
 10
634142.4036118139047176
 20
597380.8873156897025183
 30
0.0
  0
VERTEX
  5
194F
  8
AREAS
 10
634157.3974974675802514
 20
597383.8490296322852373
 30
0.0
  0
VERTEX
  5
1950
  8
AREAS
 10
634198.3209136173827574
 20
597366.7666274382499978
 30
0.0
  0
VERTEX
  5
1951
  8
AREAS
 10
634197.2956621103221551
 20
597355.7787139975698665
 30
0.0
  0
VERTEX
  5
1952
  8
AREAS
 10
634188.2750970951747149
 20
597343.8106901119463146
 30
0.0
  0
VERTEX
  5
1953
  8
AREAS
 10
634185.2706179355736822
 20
597340.8204660245683044
 30
0.0
  0
SEQEND
  5
1954
  8
AREAS
  0
POLYLINE
  5
AC6
  8
AREAS
 66
     1
 10
0.0
 20
0.0
 30
0.0
 70
     1
  0
VERTEX
  5
1955
  8
AREAS
 10
633454.8481531891738996
 20
597734.2135303169488907
 30
0.0
  0
VERTEX
  5
1956
  8
AREAS
 10
633496.8182034544879571
 20
597737.1110964342951775
 30
0.0
  0
VERTEX
  5
1957
  8
AREAS
 10
633493.7329455517465249
 20
597700.1508872804697603
 30
0.0
  0
VERTEX
  5
1958
  8
AREAS
 10
633483.7275184011086822
 20
597694.1799424872733653
 30
0.0
  0
VERTEX
  5
1959
  8
AREAS
 10
633470.7366188537562266
 20
597693.2117112694540992
 30
0.0
  0
VERTEX
  5
195A
  8
AREAS
 10
633466.7496534041129053
 20
597697.2176834824495018
 30
0.0
  0
VERTEX
  5
195B
  8
AREAS
 10
633463.7713085435098037
 20
597705.2177486811997369
 30
0.0
  0
VERTEX
  5
195C
  8
AREAS
 10
633461.7778258187463507
 20
597707.2207347877556458
 30
0.0
  0
VERTEX
  5
195D
  8
AREAS
 10
633454.8196430444950238
 20
597722.2241238228743896
 30
0.0
  0
SEQEND
  5
195E
  8
AREAS
  0
POLYLINE
  5
AD1
  8
AREAS
 66
     1
 10
0.0
 20
0.0
 30
0.0
 70
     1
  0
VERTEX
  5
195F
  8
AREAS
 10
634489.4013911422807723
 20
597507.9498999448260292
 30
0.0
  0
VERTEX
  5
1960
  8
AREAS
 10
634491.4257598570547998
 20
597518.9354375402908772
 30
0.0
  0
VERTEX
  5
1961
  8
AREAS
 10
634487.457801170530729
 20
597530.9343474158085883
 30
0.0
  0
VERTEX
  5
1962
  8
AREAS
 10
634496.4854937216732651
 20
597545.8997229250380769
 30
0.0
  0
VERTEX
  5
1963
  8
AREAS
 10
634512.4975033462978899
 20
597556.8519986850442365
 30
0.0
  0
VERTEX
  5
1964
  8
AREAS
 10
634527.4985165360849351
 20
597562.8110642513493076
 30
0.0
  0
VERTEX
  5
1965
  8
AREAS
 10
634540.5179262279998511
 20
597575.7687019632430747
 30
0.0
  0
VERTEX
  5
1966
  8
AREAS
 10
634551.5105913594597951
 20
597576.7416848718421534
 30
0.0
  0
VERTEX
  5
1967
  8
AREAS
 10
634592.4126249009277672
 20
597550.6672278074547648
 30
0.0
  0
VERTEX
  5
1968
  8
AREAS
 10
634544.3694684909423813
 20
597514.8130489035975188
 30
0.0
  0
VERTEX
  5
1969
  8
AREAS
 10
634511.3344528069719672
 20
597487.9152871896512806
 30
0.0
  0
VERTEX
  5
196A
  8
AREAS
 10
634495.374711780808866
 20
597498.9435900019016117
 30
0.0
  0
SEQEND
  5
196B
  8
AREAS
  0
POLYLINE
  5
ADF
  8
AREAS
 66
     1
 10
0.0
 20
0.0
 30
0.0
 70
     1
  0
VERTEX
  5
196C
  8
AREAS
 10
634032.8250960709992796
 20
597097.3969958106754348
 30
0.0
  0
VERTEX
  5
196D
  8
AREAS
 10
634034.8423372495453805
 20
597105.385181782534346
 30
0.0
  0
VERTEX
  5
196E
  8
AREAS
 10
634037.8563197909388691
 20
597112.3718747012317181
 30
0.0
  0
VERTEX
  5
196F
  8
AREAS
 10
634050.8757294827373698
 20
597125.3295124132419005
 30
0.0
  0
VERTEX
  5
1970
  8
AREAS
 10
634055.8713155218865722
 20
597125.3176331862341613
 30
0.0
  0
VERTEX
  5
1971
  8
AREAS
 10
634076.8313942779786885
 20
597116.2756855626357719
 30
0.0
  0
VERTEX
  5
1972
  8
AREAS
 10
634080.8136080370750278
 20
597110.2714789340971038
 30
0.0
  0
VERTEX
  5
1973
  8
AREAS
 10
634081.7937184819020331
 20
597102.2761654261266813
 30
0.0
  0
VERTEX
  5
1974
  8
AREAS
 10
634079.7693497670115903
 20
597091.2906278306618333
 30
0.0
  0
VERTEX
  5
1975
  8
AREAS
 10
634080.7470843663904816
 20
597082.296197114745155
 30
0.0
  0
VERTEX
  5
1976
  8
AREAS
 10
634085.7307911786483601
 20
597077.2887318485882133
 30
0.0
  0
SEQEND
  5
1977
  8
AREAS
  0
POLYLINE
  5
AEC
  8
AREAS
 66
     1
 10
0.0
 20
0.0
 30
0.0
 70
     1
  0
VERTEX
  5
1978
  8
AREAS
 10
633876.1014934728154913
 20
597155.7188015902647749
 30
0.0
  0
VERTEX
  5
1979
  8
AREAS
 10
633923.1075191488489509
 20
597175.5894810139434412
 30
0.0
  0
VERTEX
  5
197A
  8
AREAS
 10
633927.0944845986086875
 20
597171.5835088011808693
 30
0.0
  0
VERTEX
  5
197B
  8
AREAS
 10
633929.0855914781568572
 20
597168.5814054869115353
 30
0.0
  0
VERTEX
  5
197C
  8
AREAS
 10
633932.0734397200867534
 20
597164.5778091192478314
 30
0.0
  0
VERTEX
  5
197D
  8
AREAS
 10
633932.0473054208559915
 20
597153.5875198331195861
 30
0.0
  0
VERTEX
  5
197E
  8
AREAS
 10
633924.0401126858778298
 20
597147.6118233492597938
 30
0.0
  0
VERTEX
  5
197F
  8
AREAS
 10
633919.0326474199537188
 20
597142.6281165371183306
 30
0.0
  0
VERTEX
  5
1980
  8
AREAS
 10
633914.0275579992448911
 20
597138.643526932457462
 30
0.0
  0
VERTEX
  5
1981
  8
AREAS
 10
633908.0281030612532049
 20
597136.6595475892536342
 30
0.0
  0
VERTEX
  5
1982
  8
AREAS
 10
633901.0342826064443216
 20
597136.6761785068083555
 30
0.0
  0
VERTEX
  5
1983
  8
AREAS
 10
633891.0549897549208254
 20
597141.695522999856621
 30
0.0
  0
SEQEND
  5
1984
  8
AREAS
  0
POLYLINE
  5
AFA
  8
AREAS
 66
     1
 10
0.0
 20
0.0
 30
0.0
 70
     1
  0
VERTEX
  5
1985
  8
AREAS
 10
633987.8291840375168249
 20
597082.5171507352497429
 30
0.0
  0
VERTEX
  5
1986
  8
AREAS
 10
634017.8312104172073305
 20
597094.4352818678598851
 30
0.0
  0
VERTEX
  5
1987
  8
AREAS
 10
634053.6568791763857007
 20
597034.4027189639164135
 30
0.0
  0
VERTEX
  5
1988
  8
AREAS
 10
633984.743926134891808
 20
597045.5569415816571563
 30
0.0
  0
VERTEX
  5
1989
  8
AREAS
 10
633982.7789535545744002
 20
597059.5493341820547357
 30
0.0
  0
SEQEND
  5
198A
  8
AREAS
  0
POLYLINE
  5
B01
  8
AREAS
 66
     1
 10
0.0
 20
0.0
 30
0.0
 70
     1
  0
VERTEX
  5
198B
  8
AREAS
 10
631308.3503718771971762
 20
602195.4057274506194517
 30
0.0
  0
VERTEX
  5
198C
  8
AREAS
 10
631340.362511899555102
 20
602212.3146929314825684
 30
0.0
  0
VERTEX
  5
198D
  8
AREAS
 10
631372.3366383956745267
 20
602213.2377830870682374
 30
0.0
  0
VERTEX
  5
198E
  8
AREAS
 10
631376.2927178555401042
 20
602196.2432871724013239
 30
0.0
  0
VERTEX
  5
198F
  8
AREAS
 10
631366.2445254880003631
 20
602172.2882326381513849
 30
0.0
  0
VERTEX
  5
1990
  8
AREAS
 10
631320.2661271643592045
 20
602164.4045838629826903
 30
0.0
  0
SEQEND
  5
1991
  8
AREAS
  0
POLYLINE
  5
B09
  8
AREAS
 66
     1
 10
0.0
 20
0.0
 30
0.0
 70
     1
  0
VERTEX
  5
1992
  8
AREAS
 10
630905.6323374634375796
 20
603005.6528831785544753
 30
0.0
  0
VERTEX
  5
1993
  8
AREAS
 10
630925.6241850017104298
 20
603009.6018351020757109
 30
0.0
  0
VERTEX
  5
1994
  8
AREAS
 10
630910.478245243546553
 20
602942.6966198576847091
 30
0.0
  0
VERTEX
  5
1995
  8
AREAS
 10
630897.4920973870903254
 20
602943.7266230555251241
 30
0.0
  0
VERTEX
  5
1996
  8
AREAS
 10
630886.4923047192860395
 20
602939.756288523436524
 30
0.0
  0
VERTEX
  5
1997
  8
AREAS
 10
630874.5124016067711636
 20
602943.7812674993183464
 30
0.0
  0
VERTEX
  5
1998
  8
AREAS
 10
630869.5334464854095131
 20
602950.786967181134969
 30
0.0
  0
VERTEX
  5
1999
  8
AREAS
 10
630871.5673185817431659
 20
602965.7689736080355942
 30
0.0
  0
VERTEX
  5
199A
  8
AREAS
 10
630890.6194450466427952
 20
602994.6982315728673711
 30
0.0
  0
SEQEND
  5
199B
  8
AREAS
  0
POLYLINE
  5
B14
  8
AREAS
 66
     1
 10
0.0
 20
0.0
 30
0.0
 70
     1
  0
VERTEX
  5
199C
  8
AREAS
 10
631468.5105605974094942
 20
604002.4381245474796742
 30
0.0
  0
VERTEX
  5
199D
  8
AREAS
 10
631504.4455182441743091
 20
603988.3649532040581107
 30
0.0
  0
VERTEX
  5
199E
  8
AREAS
 10
631507.3597152793081477
 20
603953.3887233935529366
 30
0.0
  0
VERTEX
  5
199F
  8
AREAS
 10
631498.3581570271635428
 20
603949.4136371708009392
 30
0.0
  0
VERTEX
  5
19A0
  8
AREAS
 10
631472.3668545512482524
 20
603943.4807059036102146
 30
0.0
  0
VERTEX
  5
19A1
  8
AREAS
 10
631460.367944675614126
 20
603939.5127472168533131
 30
0.0
  0
VERTEX
  5
19A2
  8
AREAS
 10
631451.3925207227002829
 20
603946.527950280229561
 30
0.0
  0
VERTEX
  5
19A3
  8
AREAS
 10
631452.4296514566522092
 20
603962.5114497601753101
 30
0.0
  0
VERTEX
  5
19A4
  8
AREAS
 10
631458.4694957659812644
 20
603981.4804216367192566
 30
0.0
  0
SEQEND
  5
19A5
  8
AREAS
  0
POLYLINE
  5
B1F
  8
AREAS
 66
     1
 10
0.0
 20
0.0
 30
0.0
 70
     1
  0
VERTEX
  5
19A6
  8
AREAS
 10
630359.8029577909037471
 20
603716.3280640124576166
 30
0.0
  0
VERTEX
  5
19A7
  8
AREAS
 10
630375.7817055799532682
 20
603713.2926988627295941
 30
0.0
  0
VERTEX
  5
19A8
  8
AREAS
 10
630404.7370978442486376
 20
603705.2308616838417947
 30
0.0
  0
VERTEX
  5
19A9
  8
AREAS
 10
630415.7083803673740476
 20
603697.2117897219723091
 30
0.0
  0
VERTEX
  5
19AA
  8
AREAS
 10
630420.6683287258492783
 20
603682.2131523775169626
 30
0.0
  0
VERTEX
  5
19AB
  8
AREAS
 10
630421.6531908614560962
 20
603676.2160732850898057
 30
0.0
  0
VERTEX
  5
19AC
  8
AREAS
 10
630420.6041809004964307
 20
603655.2369877658784389
 30
0.0
  0
VERTEX
  5
19AD
  8
AREAS
 10
630404.5921712758718058
 20
603644.2847120058722794
 30
0.0
  0
VERTEX
  5
19AE
  8
AREAS
 10
630388.5872891873586923
 20
603636.329787869239226
 30
0.0
  0
VERTEX
  5
19AF
  8
AREAS
 10
630373.5934035336831585
 20
603633.3680739265400916
 30
0.0
  0
VERTEX
  5
19B0
  8
AREAS
 10
630359.5915075518423691
 20
603627.4066325147869065
 30
0.0
  0
VERTEX
  5
19B1
  8
AREAS
 10
630341.6169011921156198
 20
603631.4458665632409975
 30
0.0
  0
VERTEX
  5
19B2
  8
AREAS
 10
630328.65451178944204
 20
603642.4670418392634019
 30
0.0
  0
VERTEX
  5
19B3
  8
AREAS
 10
630324.6984323298092932
 20
603659.4615377540467307
 30
0.0
  0
VERTEX
  5
19B4
  8
AREAS
 10
630322.7405872854869813
 20
603676.4512819780502468
 30
0.0
  0
VERTEX
  5
19B5
  8
AREAS
 10
630333.7831451700767502
 20
603698.4057262511923909
 30
0.0
  0
VERTEX
  5
19B6
  8
AREAS
 10
630342.7965826491126791
 20
603707.3763985134428367
 30
0.0
  0
SEQEND
  5
19B7
  8
AREAS
  0
POLYLINE
  5
B32
  8
AREAS
 66
     1
 10
0.0
 20
0.0
 30
0.0
 70
     1
  0
VERTEX
  5
19B8
  8
AREAS
 10
629455.0386608940316364
 20
604321.9497493080561981
 30
0.0
  0
VERTEX
  5
19B9
  8
AREAS
 10
629528.9970927278045565
 20
604331.7651088279671967
 30
0.0
  0
VERTEX
  5
19BA
  8
AREAS
 10
629531.932672371272929
 20
604305.7809338881634176
 30
0.0
  0
VERTEX
  5
19BB
  8
AREAS
 10
629514.9025387759320438
 20
604286.8380963107338175
 30
0.0
  0
VERTEX
  5
19BC
  8
AREAS
 10
629497.8819085620343685
 20
604271.8917275646235794
 30
0.0
  0
VERTEX
  5
19BD
  8
AREAS
 10
629484.8696264063473791
 20
604261.9314414764521644
 30
0.0
  0
VERTEX
  5
19BE
  8
AREAS
 10
629464.8849064040696248
 20
604260.9798411760712042
 30
0.0
  0
VERTEX
  5
19BF
  8
AREAS
 10
629434.9945447574136779
 20
604296.0202188119292259
 30
0.0
  0
SEQEND
  5
19C0
  8
AREAS
  0
POLYLINE
  5
B3C
  8
AREAS
 66
     1
 10
0.0
 20
0.0
 30
0.0
 70
     1
  0
VERTEX
  5
19C1
  8
AREAS
 10
630552.5709553719498217
 20
602849.6301549681229517
 30
0.0
  0
VERTEX
  5
19C2
  8
AREAS
 10
630576.5355132876429707
 20
602843.5784314319025725
 30
0.0
  0
VERTEX
  5
19C3
  8
AREAS
 10
630587.3832518509589136
 20
602783.6052646626485512
 30
0.0
  0
VERTEX
  5
19C4
  8
AREAS
 10
630546.3719294220209122
 20
602763.7203301665140316
 30
0.0
  0
VERTEX
  5
19C5
  8
AREAS
 10
630542.3897156629245728
 20
602769.7245367950526997
 30
0.0
  0
VERTEX
  5
19C6
  8
AREAS
 10
630535.4695464150281623
 20
602800.7138011556817219
 30
0.0
  0
VERTEX
  5
19C7
  8
AREAS
 10
630537.5105460475897416
 20
602818.6931592059554532
 30
0.0
  0
VERTEX
  5
19C8
  8
AREAS
 10
630546.5548695165198296
 20
602840.6523551698774099
 30
0.0
  0
SEQEND
  5
19C9
  8
AREAS
  0
POLYLINE
  5
B46
  8
AREAS
 66
     1
 10
0.0
 20
0.0
 30
0.0
 70
     1
  0
VERTEX
  5
19CA
  8
AREAS
 10
631027.6982219811761752
 20
602238.0362627322319895
 30
0.0
  0
VERTEX
  5
19CB
  8
AREAS
 10
631057.7715237223310396
 20
602279.9279100999701768
 30
0.0
  0
VERTEX
  5
19CC
  8
AREAS
 10
631092.7881429042899981
 20
602299.827099668327719
 30
0.0
  0
VERTEX
  5
19CD
  8
AREAS
 10
631121.712649178574793
 20
602278.7767387876519933
 30
0.0
  0
VERTEX
  5
19CE
  8
AREAS
 10
631089.6482405578717589
 20
602239.8871947340667248
 30
0.0
  0
VERTEX
  5
19CF
  8
AREAS
 10
631042.684980098856613
 20
602238.0006250515580177
 30
0.0
  0
SEQEND
  5
19D0
  8
AREAS
  0
POLYLINE
  5
B4E
  8
AREAS
 66
     1
 10
0.0
 20
0.0
 30
0.0
 70
     1
  0
VERTEX
  5
19D1
  8
AREAS
 10
629831.3198475982062519
 20
603738.5663475844776258
 30
0.0
  0
VERTEX
  5
19D2
  8
AREAS
 10
629863.3533702290151268
 20
603764.4673679359257221
 30
0.0
  0
VERTEX
  5
19D3
  8
AREAS
 10
629889.3137867150362581
 20
603757.4117755010956898
 30
0.0
  0
VERTEX
  5
19D4
  8
AREAS
 10
629895.2942348896758631
 20
603751.402817181777209
 30
0.0
  0
VERTEX
  5
19D5
  8
AREAS
 10
629897.2758383876644075
 20
603744.4042450363049284
 30
0.0
  0
VERTEX
  5
19D6
  8
AREAS
 10
629894.2333457020577043
 20
603725.4281456235330552
 30
0.0
  0
VERTEX
  5
19D7
  8
AREAS
 10
629888.214884001063183
 20
603715.451228617457673
 30
0.0
  0
VERTEX
  5
19D8
  8
AREAS
 10
629885.186646387563087
 20
603702.4698324516648427
 30
0.0
  0
VERTEX
  5
19D9
  8
AREAS
 10
629876.1684572178637609
 20
603691.5009257738711312
 30
0.0
  0
VERTEX
  5
19DA
  8
AREAS
 10
629867.155019738827832
 20
603682.5302535118535161
 30
0.0
  0
VERTEX
  5
19DB
  8
AREAS
 10
629859.1502028491813689
 20
603677.5536742357071489
 30
0.0
  0
VERTEX
  5
19DC
  8
AREAS
 10
629845.150682712555863
 20
603672.5913500317838043
 30
0.0
  0
VERTEX
  5
19DD
  8
AREAS
 10
629831.1654176482697949
 20
603673.6237290749559179
 30
0.0
  0
VERTEX
  5
19DE
  8
AREAS
 10
629826.2007175990147516
 20
603686.6241320038679987
 30
0.0
  0
SEQEND
  5
19DF
  8
AREAS
  0
POLYLINE
  5
B5E
  8
AREAS
 66
     1
 10
0.0
 20
0.0
 30
0.0
 70
     1
  0
VERTEX
  5
19E0
  8
AREAS
 10
630613.5727147435536608
 20
604133.3579680061666295
 30
0.0
  0
VERTEX
  5
19E1
  8
AREAS
 10
630676.476709465845488
 20
604116.2232972140191123
 30
0.0
  0
VERTEX
  5
19E2
  8
AREAS
 10
630667.4086275428999215
 20
604084.2729291715659201
 30
0.0
  0
VERTEX
  5
19E3
  8
AREAS
 10
630667.2494459023000672
 20
604017.3320762463845313
 30
0.0
  0
VERTEX
  5
19E4
  8
AREAS
 10
630667.2090565307298675
 20
604000.3470837132772431
 30
0.0
  0
VERTEX
  5
19E5
  8
AREAS
 10
630657.1965018439805135
 20
603991.3787872965913266
 30
0.0
  0
VERTEX
  5
19E6
  8
AREAS
 10
630615.2145723517751321
 20
603983.4856351399794221
 30
0.0
  0
VERTEX
  5
19E7
  8
AREAS
 10
630605.2590379541506991
 20
603998.4961517113260925
 30
0.0
  0
VERTEX
  5
19E8
  8
AREAS
 10
630577.4073000947246328
 20
604050.5167701895115897
 30
0.0
  0
VERTEX
  5
19E9
  8
AREAS
 10
630577.4548170022899285
 20
604070.49911434634123
 30
0.0
  0
VERTEX
  5
19EA
  8
AREAS
 10
630584.4961543647805229
 20
604090.4648275851504877
 30
0.0
  0
VERTEX
  5
19EB
  8
AREAS
 10
630596.5330777666531503
 20
604110.4186615974176675
 30
0.0
  0
VERTEX
  5
19EC
  8
AREAS
 10
630608.5652494775131345
 20
604128.374261193908751
 30
0.0
  0
SEQEND
  5
19ED
  8
AREAS
  0
POLYLINE
  5
B6D
  8
AREAS
 66
     1
 10
0.0
 20
0.0
 30
0.0
 70
     1
  0
VERTEX
  5
19EE
  8
AREAS
 10
631193.626294938614592
 20
603529.5075496677309275
 30
0.0
  0
VERTEX
  5
19EF
  8
AREAS
 10
631212.5905151244951412
 20
603521.4694709428586066
 30
0.0
  0
VERTEX
  5
19F0
  8
AREAS
 10
631212.57388420694042
 20
603514.4756504879333079
 30
0.0
  0
VERTEX
  5
19F1
  8
AREAS
 10
631222.5341702952282503
 20
603501.4633683322463185
 30
0.0
  0
VERTEX
  5
19F2
  8
AREAS
 10
631226.5092565180966631
 20
603492.4618100802181289
 30
0.0
  0
VERTEX
  5
19F3
  8
AREAS
 10
631226.4712429919745773
 20
603476.4759347549406812
 30
0.0
  0
VERTEX
  5
19F4
  8
AREAS
 10
631225.4246088764630258
 20
603456.4959664434427395
 30
0.0
  0
VERTEX
  5
19F5
  8
AREAS
 10
631226.3904642489505932
 20
603442.5059496883768588
 30
0.0
  0
VERTEX
  5
19F6
  8
AREAS
 10
631235.354008974856697
 20
603430.4951605858514085
 30
0.0
  0
VERTEX
  5
19F7
  8
AREAS
 10
631237.3023506375029683
 20
603409.5089475306449458
 30
0.0
  0
VERTEX
  5
19F8
  8
AREAS
 10
631150.5169525878736749
 20
603467.664444133406505
 30
0.0
  0
VERTEX
  5
19F9
  8
AREAS
 10
631148.5210940175456926
 20
603468.6683130320161581
 30
0.0
  0
SEQEND
  5
19FA
  8
AREAS
  0
POLYLINE
  5
B7B
  8
AREAS
 66
     1
 10
0.0
 20
0.0
 30
0.0
 70
     1
  0
VERTEX
  5
19FB
  8
AREAS
 10
630785.8581784905400127
 20
603476.5245653608581051
 30
0.0
  0
VERTEX
  5
19FC
  8
AREAS
 10
630826.883755991817452
 20
603502.4042031038552523
 30
0.0
  0
VERTEX
  5
19FD
  8
AREAS
 10
630835.8544282539514825
 20
603493.3907656249357387
 30
0.0
  0
VERTEX
  5
19FE
  8
AREAS
 10
630834.8481835098937154
 20
603490.395789846777916
 30
0.0
  0
VERTEX
  5
19FF
  8
AREAS
 10
630835.8259181092726067
 20
603481.4013591308612376
 30
0.0
  0
VERTEX
  5
1A00
  8
AREAS
 10
630832.811935568228364
 20
603474.4146662121638656
 30
0.0
  0
VERTEX
  5
1A01
  8
AREAS
 10
630828.8083392006810755
 20
603471.4268179702339694
 30
0.0
  0
VERTEX
  5
1A02
  8
AREAS
 10
630821.8073912096442655
 20
603468.4460972642991692
 30
0.0
  0
VERTEX
  5
1A03
  8
AREAS
 10
630815.805560426437296
 20
603465.4630007131490856
 30
0.0
  0
VERTEX
  5
1A04
  8
AREAS
 10
630807.8078710731351748
 20
603463.4837730604922399
 30
0.0
  0
VERTEX
  5
1A05
  8
AREAS
 10
630798.8110645116539672
 20
603461.5069212532835081
 30
0.0
  0
VERTEX
  5
1A06
  8
AREAS
 10
630790.8062476221239194
 20
603456.5303419772535563
 30
0.0
  0
SEQEND
  5
1A07
  8
AREAS
  0
POLYLINE
  5
B89
  8
AREAS
 66
     1
 10
0.0
 20
0.0
 30
0.0
 70
     1
  0
VERTEX
  5
1A08
  8
AREAS
 10
630400.2820908540161327
 20
603512.4107439528452232
 30
0.0
  0
VERTEX
  5
1A09
  8
AREAS
 10
630426.2733933300478384
 20
603518.3436752199195325
 30
0.0
  0
VERTEX
  5
1A0A
  8
AREAS
 10
630433.288596393307671
 20
603527.319099172949791
 30
0.0
  0
VERTEX
  5
1A0B
  8
AREAS
 10
630445.2970096503850073
 20
603535.283526690909639
 30
0.0
  0
VERTEX
  5
1A0C
  8
AREAS
 10
630473.2889223875245079
 20
603542.2108234751503915
 30
0.0
  0
VERTEX
  5
1A0D
  8
AREAS
 10
630486.2679427078692243
 20
603538.1834686537040398
 30
0.0
  0
VERTEX
  5
1A0E
  8
AREAS
 10
630491.2492736747954041
 20
603532.1768861798336729
 30
0.0
  0
VERTEX
  5
1A0F
  8
AREAS
 10
630495.2077289799926803
 20
603516.1815074728801847
 30
0.0
  0
VERTEX
  5
1A10
  8
AREAS
 10
630484.2079363123048097
 20
603512.2111729407915846
 30
0.0
  0
VERTEX
  5
1A11
  8
AREAS
 10
630465.1653132288483903
 20
603487.2783838070463389
 30
0.0
  0
VERTEX
  5
1A12
  8
AREAS
 10
630445.1330763190053403
 20
603466.3444393501849845
 30
0.0
  0
VERTEX
  5
1A13
  8
AREAS
 10
630419.1465255337534472
 20
603462.4097424987703562
 30
0.0
  0
VERTEX
  5
1A14
  8
AREAS
 10
630376.2153715868480504
 20
603475.5004275521496311
 30
0.0
  0
SEQEND
  5
1A15
  8
AREAS
  0
POLYLINE
  5
B98
  8
AREAS
 66
     1
 10
0.0
 20
0.0
 30
0.0
 70
     1
  0
VERTEX
  5
1A16
  8
AREAS
 10
630387.9957036870764568
 20
603387.549603117746301
 30
0.0
  0
VERTEX
  5
1A17
  8
AREAS
 10
630452.943073887261562
 20
603389.3934075837023556
 30
0.0
  0
VERTEX
  5
1A18
  8
AREAS
 10
630451.8703054725192487
 20
603358.4231499860761687
 30
0.0
  0
VERTEX
  5
1A19
  8
AREAS
 10
630471.8265153301181272
 20
603347.3853437921497971
 30
0.0
  0
VERTEX
  5
1A1A
  8
AREAS
 10
630488.7521117286523804
 20
603322.3670242248335853
 30
0.0
  0
VERTEX
  5
1A1B
  8
AREAS
 10
630491.6995705991284922
 20
603301.3784353241790086
 30
0.0
  0
VERTEX
  5
1A1C
  8
AREAS
 10
630491.6639329184545204
 20
603286.3916772067314014
 30
0.0
  0
VERTEX
  5
1A1D
  8
AREAS
 10
630480.6593885598704219
 20
603280.4231082587502897
 30
0.0
  0
VERTEX
  5
1A1E
  8
AREAS
 10
630464.6640098531497642
 20
603276.4646529535530135
 30
0.0
  0
VERTEX
  5
1A1F
  8
AREAS
 10
630434.7166279171360657
 20
603287.526217601262033
 30
0.0
  0
VERTEX
  5
1A20
  8
AREAS
 10
630427.7370625345502049
 20
603293.5375517659122124
 30
0.0
  0
VERTEX
  5
1A21
  8
AREAS
 10
630422.7509798768442124
 20
603297.5458998243557289
 30
0.0
  0
VERTEX
  5
1A22
  8
AREAS
 10
630419.8035210062516853
 20
603318.5344887248938903
 30
0.0
  0
VERTEX
  5
1A23
  8
AREAS
 10
630383.8946976589504629
 20
603343.5979493545601144
 30
0.0
  0
VERTEX
  5
1A24
  8
AREAS
 10
630384.9294525474542752
 20
603358.5823316267924383
 30
0.0
  0
VERTEX
  5
1A25
  8
AREAS
 10
630387.9814486148534343
 20
603381.5548998708836734
 30
0.0
  0
SEQEND
  5
1A26
  8
AREAS
  0
POLYLINE
  5
BAA
  8
AREAS
 66
     1
 10
0.0
 20
0.0
 30
0.0
 70
     1
  0
VERTEX
  5
1A27
  8
AREAS
 10
629653.3773475458147004
 20
602856.764001851901412
 30
0.0
  0
VERTEX
  5
1A28
  8
AREAS
 10
629667.3839952185517177
 20
602864.7236776794306934
 30
0.0
  0
VERTEX
  5
1A29
  8
AREAS
 10
629705.2910529817454517
 20
602839.6554653588682413
 30
0.0
  0
VERTEX
  5
1A2A
  8
AREAS
 10
629721.238914781017229
 20
602823.6315765073522925
 30
0.0
  0
VERTEX
  5
1A2B
  8
AREAS
 10
629671.2070273369317874
 20
602791.7786181257106364
 30
0.0
  0
VERTEX
  5
1A2C
  8
AREAS
 10
629654.2576724846148863
 20
602806.8057656147284433
 30
0.0
  0
VERTEX
  5
1A2D
  8
AREAS
 10
629645.2846243770327419
 20
602814.8200858858181164
 30
0.0
  0
VERTEX
  5
1A2E
  8
AREAS
 10
629641.3237932263873518
 20
602829.8163473849417642
 30
0.0
  0
SEQEND
  5
1A2F
  8
AREAS
  0
POLYLINE
  5
BB4
  8
AREAS
 66
     1
 10
0.0
 20
0.0
 30
0.0
 70
     1
  0
VERTEX
  5
1A30
  8
AREAS
 10
629298.1157841810490936
 20
602615.8210626663640141
 30
0.0
  0
VERTEX
  5
1A31
  8
AREAS
 10
629391.0930806444957852
 20
602640.5780392417218536
 30
0.0
  0
VERTEX
  5
1A32
  8
AREAS
 10
629392.05418432620354
 20
602624.5897880708798766
 30
0.0
  0
VERTEX
  5
1A33
  8
AREAS
 10
629384.0232331374427304
 20
602608.6229195087216794
 30
0.0
  0
VERTEX
  5
1A34
  8
AREAS
 10
629349.9986036270856857
 20
602585.7240024715429172
 30
0.0
  0
VERTEX
  5
1A35
  8
AREAS
 10
629321.9995633538346738
 20
602575.7993540635798126
 30
0.0
  0
VERTEX
  5
1A36
  8
AREAS
 10
629303.0258397865109146
 20
602579.8409639572491869
 30
0.0
  0
VERTEX
  5
1A37
  8
AREAS
 10
629301.0489879794185981
 20
602588.8377705186139792
 30
0.0
  0
SEQEND
  5
1A38
  8
AREAS
  0
POLYLINE
  5
BBE
  8
AREAS
 66
     1
 10
0.0
 20
0.0
 30
0.0
 70
     1
  0
VERTEX
  5
1A39
  8
AREAS
 10
634333.8147793418029323
 20
603926.6851126486435533
 30
0.0
  0
VERTEX
  5
1A3A
  8
AREAS
 10
634338.7913586179492995
 20
603918.6802957591135055
 30
0.0
  0
VERTEX
  5
1A3B
  8
AREAS
 10
634365.7603956933598965
 20
603915.6187963101547211
 30
0.0
  0
VERTEX
  5
1A3C
  8
AREAS
 10
634386.7180986041203141
 20
603905.5777314788429067
 30
0.0
  0
VERTEX
  5
1A3D
  8
AREAS
 10
634383.5544378038030118
 20
603835.646654466399923
 30
0.0
  0
VERTEX
  5
1A3E
  8
AREAS
 10
634353.5951766410144046
 20
603841.7126330748433247
 30
0.0
  0
VERTEX
  5
1A3F
  8
AREAS
 10
634290.7386988265207037
 20
603878.8296480239368975
 30
0.0
  0
VERTEX
  5
1A40
  8
AREAS
 10
634325.8004590707132593
 20
603917.7120645411778241
 30
0.0
  0
SEQEND
  5
1A41
  8
AREAS
  0
POLYLINE
  5
BC8
  8
AREAS
 66
     1
 10
0.0
 20
0.0
 30
0.0
 70
     1
  0
VERTEX
  5
1A42
  8
AREAS
 10
634392.3529354999773204
 20
603334.0660576785448939
 30
0.0
  0
VERTEX
  5
1A43
  8
AREAS
 10
634408.3388108253711835
 20
603334.0280441524228081
 30
0.0
  0
VERTEX
  5
1A44
  8
AREAS
 10
634447.2521133326226845
 20
603311.9548076101345941
 30
0.0
  0
VERTEX
  5
1A45
  8
AREAS
 10
634448.1823310244362801
 20
603282.9780327373882756
 30
0.0
  0
VERTEX
  5
1A46
  8
AREAS
 10
634438.1483937290031463
 20
603265.0176814501173794
 30
0.0
  0
VERTEX
  5
1A47
  8
AREAS
 10
634422.1625184037256986
 20
603265.0556949763558805
 30
0.0
  0
VERTEX
  5
1A48
  8
AREAS
 10
634410.1897428274387494
 20
603272.0780255758436397
 30
0.0
  0
VERTEX
  5
1A49
  8
AREAS
 10
634394.2228742649313062
 20
603280.1089767643716186
 30
0.0
  0
VERTEX
  5
1A4A
  8
AREAS
 10
634383.280101886484772
 20
603300.117455220548436
 30
0.0
  0
VERTEX
  5
1A4B
  8
AREAS
 10
634384.3172326205531135
 20
603316.1009547004941851
 30
0.0
  0
VERTEX
  5
1A4C
  8
AREAS
 10
634390.3451977027580142
 20
603330.0743405378889292
 30
0.0
  0
SEQEND
  5
1A4D
  8
AREAS
  0
POLYLINE
  5
BD5
  8
AREAS
 66
     1
 10
0.0
 20
0.0
 30
0.0
 70
     1
  0
VERTEX
  5
1A4E
  8
AREAS
 10
633394.2907514618709683
 20
602939.7876198594458401
 30
0.0
  0
VERTEX
  5
1A4F
  8
AREAS
 10
633405.3214301195694134
 20
602956.7464780935551971
 30
0.0
  0
VERTEX
  5
1A50
  8
AREAS
 10
633424.3141604500124231
 20
602960.697805862640962
 30
0.0
  0
VERTEX
  5
1A51
  8
AREAS
 10
633437.2813015433494002
 20
602951.6748650020454079
 30
0.0
  0
VERTEX
  5
1A52
  8
AREAS
 10
633447.2320842504268512
 20
602934.6661140149226412
 30
0.0
  0
VERTEX
  5
1A53
  8
AREAS
 10
633452.1991601448971778
 20
602922.6648282939568162
 30
0.0
  0
VERTEX
  5
1A54
  8
AREAS
 10
633450.1248986769933254
 20
602890.6978293339489028
 30
0.0
  0
VERTEX
  5
1A55
  8
AREAS
 10
633426.124703080393374
 20
602881.7627947526052594
 30
0.0
  0
VERTEX
  5
1A56
  8
AREAS
 10
633411.1949652520706877
 20
602905.7772454215446487
 30
0.0
  0
VERTEX
  5
1A57
  8
AREAS
 10
633397.2785997040336952
 20
602935.7840234918985516
 30
0.0
  0
SEQEND
  5
1A58
  8
AREAS
  0
POLYLINE
  5
BE1
  8
AREAS
 66
     1
 10
0.0
 20
0.0
 30
0.0
 70
     1
  0
VERTEX
  5
1A59
  8
AREAS
 10
633469.931281826691702
 20
603656.9779625278897583
 30
0.0
  0
VERTEX
  5
1A5A
  8
AREAS
 10
633500.9395529504399747
 20
603671.8910694386577234
 30
0.0
  0
VERTEX
  5
1A5B
  8
AREAS
 10
633510.9235974926268682
 20
603668.8699593612691388
 30
0.0
  0
VERTEX
  5
1A5C
  8
AREAS
 10
633517.900787029764615
 20
603661.8595079886727035
 30
0.0
  0
VERTEX
  5
1A5D
  8
AREAS
 10
633524.8684731854591519
 20
603650.8525877847569063
 30
0.0
  0
VERTEX
  5
1A5E
  8
AREAS
 10
633530.8156595247564837
 20
603630.8559885558206588
 30
0.0
  0
VERTEX
  5
1A5F
  8
AREAS
 10
633536.7747250910615548
 20
603615.8549753659171984
 30
0.0
  0
VERTEX
  5
1A60
  8
AREAS
 10
633543.7424112467560917
 20
603604.8480551620014012
 30
0.0
  0
VERTEX
  5
1A61
  8
AREAS
 10
633559.6926488913595676
 20
603589.8232835183152929
 30
0.0
  0
VERTEX
  5
1A62
  8
AREAS
 10
633474.7296726991189644
 20
603574.0393550505395979
 30
0.0
  0
VERTEX
  5
1A63
  8
AREAS
 10
633471.8558650355553254
 20
603626.0005773941520602
 30
0.0
  0
SEQEND
  5
1A64
  8
AREAS
  0
POLYLINE
  5
BEE
  8
AREAS
 66
     1
 10
0.0
 20
0.0
 30
0.0
 70
     1
  0
VERTEX
  5
1A65
  8
AREAS
 10
635548.8480686647817492
 20
604809.0186824972042814
 30
0.0
  0
VERTEX
  5
1A66
  8
AREAS
 10
635565.7308998466469347
 20
604766.0162531887181103
 30
0.0
  0
VERTEX
  5
1A67
  8
AREAS
 10
635551.7242521739099175
 20
604758.0565773614216596
 30
0.0
  0
VERTEX
  5
1A68
  8
AREAS
 10
635530.7214082009159029
 20
604749.1144152438500896
 30
0.0
  0
VERTEX
  5
1A69
  8
AREAS
 10
635526.7249393694801256
 20
604749.1239186254097149
 30
0.0
  0
VERTEX
  5
1A6A
  8
AREAS
 10
635519.7358706054510549
 20
604751.1387839588569477
 30
0.0
  0
VERTEX
  5
1A6B
  8
AREAS
 10
635506.7782328935572878
 20
604764.1581936506554484
 30
0.0
  0
VERTEX
  5
1A6C
  8
AREAS
 10
635514.8068082369863987
 20
604779.1259450051002204
 30
0.0
  0
VERTEX
  5
1A6D
  8
AREAS
 10
635523.8321249427972361
 20
604793.0922033063834533
 30
0.0
  0
SEQEND
  5
1A6E
  8
AREAS
  0
POLYLINE
  5
BF9
  8
AREAS
 66
     1
 10
0.0
 20
0.0
 30
0.0
 70
     1
  0
VERTEX
  5
1A6F
  8
AREAS
 10
634580.5680710842134431
 20
604754.3711958264466375
 30
0.0
  0
VERTEX
  5
1A70
  8
AREAS
 10
634585.582663886481896
 20
604762.3522542624268681
 30
0.0
  0
VERTEX
  5
1A71
  8
AREAS
 10
634602.6056699458276853
 20
604778.2977402161341161
 30
0.0
  0
VERTEX
  5
1A72
  8
AREAS
 10
634612.6039695603540167
 20
604781.271333385957405
 30
0.0
  0
VERTEX
  5
1A73
  8
AREAS
 10
634635.5836653405567631
 20
604781.2166889420477673
 30
0.0
  0
VERTEX
  5
1A74
  8
AREAS
 10
634652.5448994199978188
 20
604771.1851274921791628
 30
0.0
  0
VERTEX
  5
1A75
  8
AREAS
 10
634647.4970447823870927
 20
604749.2164281466975808
 30
0.0
  0
VERTEX
  5
1A76
  8
AREAS
 10
634629.4820490513229743
 20
604736.2706696616951376
 30
0.0
  0
VERTEX
  5
1A77
  8
AREAS
 10
634600.4910191063536331
 20
604729.3457487229024991
 30
0.0
  0
VERTEX
  5
1A78
  8
AREAS
 10
634582.5069093653000891
 20
604729.3885139398043975
 30
0.0
  0
VERTEX
  5
1A79
  8
AREAS
 10
634580.537185094319284
 20
604741.3826721245422959
 30
0.0
  0
SEQEND
  5
1A7A
  8
AREAS
  0
POLYLINE
  5
C06
  8
AREAS
 66
     1
 10
0.0
 20
0.0
 30
0.0
 70
     1
  0
VERTEX
  5
1A7B
  8
AREAS
 10
634340.8036996572045609
 20
604764.9325707968091592
 30
0.0
  0
VERTEX
  5
1A7C
  8
AREAS
 10
634349.8337680539116263
 20
604780.897063513752073
 30
0.0
  0
VERTEX
  5
1A7D
  8
AREAS
 10
634369.8303672829642892
 20
604786.8442498531658202
 30
0.0
  0
VERTEX
  5
1A7E
  8
AREAS
 10
634391.8038183192256838
 20
604783.7946296310983598
 30
0.0
  0
VERTEX
  5
1A7F
  8
AREAS
 10
634421.763079482014291
 20
604777.7286510226549581
 30
0.0
  0
VERTEX
  5
1A80
  8
AREAS
 10
634435.7364653195254505
 20
604771.7006859404500574
 30
0.0
  0
VERTEX
  5
1A81
  8
AREAS
 10
634439.7067998516140506
 20
604760.7008932725293562
 30
0.0
  0
VERTEX
  5
1A82
  8
AREAS
 10
634429.6776142470771447
 20
604744.7387764011509717
 30
0.0
  0
VERTEX
  5
1A83
  8
AREAS
 10
634415.6780941104516387
 20
604739.776452197227627
 30
0.0
  0
VERTEX
  5
1A84
  8
AREAS
 10
634407.6851564475800842
 20
604739.7954589603468776
 30
0.0
  0
VERTEX
  5
1A85
  8
AREAS
 10
634392.7102775571402162
 20
604744.8266826800536364
 30
0.0
  0
VERTEX
  5
1A86
  8
AREAS
 10
634383.7182226865552366
 20
604744.8480652886210009
 30
0.0
  0
SEQEND
  5
1A87
  8
AREAS
  0
POLYLINE
  5
C14
  8
AREAS
 66
     1
 10
0.0
 20
0.0
 30
0.0
 70
     1
  0
VERTEX
  5
1A88
  8
AREAS
 10
634387.5673891041660681
 20
604682.8932950211456046
 30
0.0
  0
VERTEX
  5
1A89
  8
AREAS
 10
634400.565416187630035
 20
604686.858877862454392
 30
0.0
  0
VERTEX
  5
1A8A
  8
AREAS
 10
634407.563988333218731
 20
604688.8404813605593517
 30
0.0
  0
VERTEX
  5
1A8B
  8
AREAS
 10
634420.5525120351230726
 20
604688.8095953705487773
 30
0.0
  0
VERTEX
  5
1A8C
  8
AREAS
 10
634428.5359463162021711
 20
604684.7941197761101648
 30
0.0
  0
VERTEX
  5
1A8D
  8
AREAS
 10
634432.5134083845186979
 20
604676.7916787319118157
 30
0.0
  0
VERTEX
  5
1A8E
  8
AREAS
 10
634437.4591016706544906
 20
604655.798338140361011
 30
0.0
  0
VERTEX
  5
1A8F
  8
AREAS
 10
634435.4489880281034857
 20
604650.8075037919916213
 30
0.0
  0
VERTEX
  5
1A90
  8
AREAS
 10
634432.4112470330437645
 20
604633.8296387951122597
 30
0.0
  0
VERTEX
  5
1A91
  8
AREAS
 10
634421.3948234476847574
 20
604622.8654838079819456
 30
0.0
  0
VERTEX
  5
1A92
  8
AREAS
 10
634416.3921098723076284
 20
604619.8800114113837481
 30
0.0
  0
VERTEX
  5
1A93
  8
AREAS
 10
634410.3902790891006589
 20
604616.8969148602336645
 30
0.0
  0
SEQEND
  5
1A94
  8
AREAS
  0
POLYLINE
  5
C22
  8
AREAS
 66
     1
 10
0.0
 20
0.0
 30
0.0
 70
     1
  0
VERTEX
  5
1A95
  8
AREAS
 10
634173.2917546305106953
 20
604908.2054735417477787
 30
0.0
  0
VERTEX
  5
1A96
  8
AREAS
 10
634183.2734233272494748
 20
604904.1852462566457689
 30
0.0
  0
VERTEX
  5
1A97
  8
AREAS
 10
634193.2479644881095737
 20
604897.1676673479378223
 30
0.0
  0
VERTEX
  5
1A98
  8
AREAS
 10
634204.2192470112349838
 20
604889.1485953859519213
 30
0.0
  0
VERTEX
  5
1A99
  8
AREAS
 10
634208.2038366155466065
 20
604884.1435059652430937
 30
0.0
  0
VERTEX
  5
1A9A
  8
AREAS
 10
634220.1789880372816697
 20
604878.1202925737015903
 30
0.0
  0
VERTEX
  5
1A9B
  8
AREAS
 10
634165.0897425740258768
 20
604820.3021660152589902
 30
0.0
  0
VERTEX
  5
1A9C
  8
AREAS
 10
634147.2339284837944433
 20
604874.2972604554379359
 30
0.0
  0
VERTEX
  5
1A9D
  8
AREAS
 10
634154.2752658461686224
 20
604894.262973694363609
 30
0.0
  0
SEQEND
  5
1A9E
  8
AREAS
  0
POLYLINE
  5
C2D
  8
AREAS
 66
     1
 10
0.0
 20
0.0
 30
0.0
 70
     1
  0
VERTEX
  5
1A9F
  8
AREAS
 10
634264.1662794812582433
 20
604889.0060446630232036
 30
0.0
  0
VERTEX
  5
1AA0
  8
AREAS
 10
634288.1712267686380073
 20
604899.9393136600265279
 30
0.0
  0
VERTEX
  5
1AA1
  8
AREAS
 10
634312.1357846843311563
 20
604893.8875901239225641
 30
0.0
  0
VERTEX
  5
1AA2
  8
AREAS
 10
634322.1031983089633286
 20
604883.8726595916086808
 30
0.0
  0
VERTEX
  5
1AA3
  8
AREAS
 10
634322.0628089373931289
 20
604866.8876670583849773
 30
0.0
  0
VERTEX
  5
1AA4
  8
AREAS
 10
634313.0469956130255014
 20
604856.917877588653937
 30
0.0
  0
VERTEX
  5
1AA5
  8
AREAS
 10
634301.0575891189510003
 20
604856.9463877330999821
 30
0.0
  0
VERTEX
  5
1AA6
  8
AREAS
 10
634266.1241245254641399
 20
604872.0163004390196875
 30
0.0
  0
SEQEND
  5
1AA7
  8
AREAS
  0
POLYLINE
  5
C37
  8
AREAS
 66
     1
 10
0.0
 20
0.0
 30
0.0
 70
     1
  0
VERTEX
  5
1AA8
  8
AREAS
 10
634799.9805801729671657
 20
605008.6257736861007288
 30
0.0
  0
VERTEX
  5
1AA9
  8
AREAS
 10
634830.9603411521529779
 20
605011.5494741026777774
 30
0.0
  0
VERTEX
  5
1AAA
  8
AREAS
 10
634844.9170960719930008
 20
604998.527688565547578
 30
0.0
  0
VERTEX
  5
1AAB
  8
AREAS
 10
634848.8850547587499022
 20
604986.5287786899134517
 30
0.0
  0
VERTEX
  5
1AAC
  8
AREAS
 10
634844.843444865080528
 20
604967.5550551223568618
 30
0.0
  0
VERTEX
  5
1AAD
  8
AREAS
 10
634824.8349664092529565
 20
604956.6122827439103276
 30
0.0
  0
VERTEX
  5
1AAE
  8
AREAS
 10
634817.8340184180997312
 20
604953.631562038208358
 30
0.0
  0
VERTEX
  5
1AAF
  8
AREAS
 10
634806.8508566680829972
 20
604956.6550479609286413
 30
0.0
  0
VERTEX
  5
1AB0
  8
AREAS
 10
634794.8662018647883087
 20
604958.6817925211507827
 30
0.0
  0
VERTEX
  5
1AB1
  8
AREAS
 10
634784.8987882402725518
 20
604968.6967230533482507
 30
0.0
  0
VERTEX
  5
1AB2
  8
AREAS
 10
634790.9647668489487842
 20
604998.6559842161368579
 30
0.0
  0
SEQEND
  5
1AB3
  8
AREAS
  0
POLYLINE
  5
C44
  8
AREAS
 66
     1
 10
0.0
 20
0.0
 30
0.0
 70
     1
  0
VERTEX
  5
1AB4
  8
AREAS
 10
633239.2884491770528257
 20
610444.5679891726467758
 30
0.0
  0
VERTEX
  5
1AB5
  8
AREAS
 10
633247.262380076572299
 20
610436.5560447468888015
 30
0.0
  0
VERTEX
  5
1AB6
  8
AREAS
 10
633252.2033216720446944
 20
610413.5644697396783158
 30
0.0
  0
VERTEX
  5
1AB7
  8
AREAS
 10
633243.1518706670030951
 20
610388.6079221521504223
 30
0.0
  0
VERTEX
  5
1AB8
  8
AREAS
 10
633239.1150124639971182
 20
610371.6324330003699288
 30
0.0
  0
VERTEX
  5
1AB9
  8
AREAS
 10
633230.0730648403987288
 20
610350.6723542443942279
 30
0.0
  0
VERTEX
  5
1ABA
  8
AREAS
 10
633209.0892276305239648
 20
610349.7231297895777971
 30
0.0
  0
VERTEX
  5
1ABB
  8
AREAS
 10
633200.161320585408248
 20
610376.7206770096672699
 30
0.0
  0
VERTEX
  5
1ABC
  8
AREAS
 10
633200.2135891837533563
 20
610398.7012555821565911
 30
0.0
  0
VERTEX
  5
1ABD
  8
AREAS
 10
633218.2594709047116339
 20
610424.6355377689469606
 30
0.0
  0
VERTEX
  5
1ABE
  8
AREAS
 10
633234.280983910895884
 20
610439.584282360272482
 30
0.0
  0
SEQEND
  5
1ABF
  8
AREAS
  0
POLYLINE
  5
C51
  8
AREAS
 66
     1
 10
0.0
 20
0.0
 30
0.0
 70
     1
  0
VERTEX
  5
1AC0
  8
AREAS
 10
632990.9477958214702085
 20
610629.9962581227300689
 30
0.0
  0
VERTEX
  5
1AC1
  8
AREAS
 10
633008.9437847894150764
 20
610634.9490789450937882
 30
0.0
  0
VERTEX
  5
1AC2
  8
AREAS
 10
633043.8891286100260913
 20
610624.8747522784397006
 30
0.0
  0
VERTEX
  5
1AC3
  8
AREAS
 10
633066.8046765647595748
 20
610597.8439432228915393
 30
0.0
  0
VERTEX
  5
1AC4
  8
AREAS
 10
633093.7261967326048762
 20
610574.8000996173359454
 30
0.0
  0
VERTEX
  5
1AC5
  8
AREAS
 10
633087.6673456602729857
 20
610547.8381900780368596
 30
0.0
  0
VERTEX
  5
1AC6
  8
AREAS
 10
633112.609638175345026
 20
610532.7920358258998021
 30
0.0
  0
VERTEX
  5
1AC7
  8
AREAS
 10
633104.4456396450987086
 20
610460.8746036246884614
 30
0.0
  0
VERTEX
  5
1AC8
  8
AREAS
 10
633025.4797425452852622
 20
610446.075537292403169
 30
0.0
  0
VERTEX
  5
1AC9
  8
AREAS
 10
632994.5094849476590753
 20
610447.148305707029067
 30
0.0
  0
VERTEX
  5
1ACA
  8
AREAS
 10
632994.5688810823485255
 20
610472.126235903124325
 30
0.0
  0
VERTEX
  5
1ACB
  8
AREAS
 10
633001.6316010532900691
 20
610501.0840040126349777
 30
0.0
  0
VERTEX
  5
1ACC
  8
AREAS
 10
633013.6827795272693038
 20
610527.0325412717647851
 30
0.0
  0
VERTEX
  5
1ACD
  8
AREAS
 10
633023.7618578848196194
 20
610563.9761195079190657
 30
0.0
  0
VERTEX
  5
1ACE
  8
AREAS
 10
633039.7714916639961302
 20
610573.9292780600953847
 30
0.0
  0
VERTEX
  5
1ACF
  8
AREAS
 10
633013.8419611678691581
 20
610593.9733941969461739
 30
0.0
  0
VERTEX
  5
1AD0
  8
AREAS
 10
632996.8569686346454546
 20
610594.013783568283543
 30
0.0
  0
VERTEX
  5
1AD1
  8
AREAS
 10
632978.8847381204832345
 20
610599.0521348244510591
 30
0.0
  0
VERTEX
  5
1AD2
  8
AREAS
 10
632974.9096518977312371
 20
610608.0536930764792487
 30
0.0
  0
SEQEND
  5
1AD3
  8
AREAS
  0
POLYLINE
  5
C66
  8
AREAS
 66
     1
 10
0.0
 20
0.0
 30
0.0
 70
     1
  0
VERTEX
  5
1AD4
  8
AREAS
 10
633326.2933902513468638
 20
611739.2243195169139653
 30
0.0
  0
VERTEX
  5
1AD5
  8
AREAS
 10
633331.2058217022567987
 20
611704.2433380156289786
 30
0.0
  0
VERTEX
  5
1AD6
  8
AREAS
 10
633313.1433090635109693
 20
611671.3152353739133105
 30
0.0
  0
VERTEX
  5
1AD7
  8
AREAS
 10
633290.1160963757429272
 20
611651.3875356609933078
 30
0.0
  0
VERTEX
  5
1AD8
  8
AREAS
 10
633319.0524818768026307
 20
611635.3327608193503693
 30
0.0
  0
VERTEX
  5
1AD9
  8
AREAS
 10
633338.982557435054332
 20
611613.304665339528583
 30
0.0
  0
VERTEX
  5
1ADA
  8
AREAS
 10
633349.8801887515000999
 20
611574.3129599345847964
 30
0.0
  0
VERTEX
  5
1ADB
  8
AREAS
 10
633339.8106137753929943
 20
611541.3658505298662931
 30
0.0
  0
VERTEX
  5
1ADC
  8
AREAS
 10
633324.7573319871444255
 20
611513.426206391188316
 30
0.0
  0
VERTEX
  5
1ADD
  8
AREAS
 10
633307.7604602269129828
 20
611508.471009723492898
 30
0.0
  0
VERTEX
  5
1ADE
  8
AREAS
 10
633291.7935916647547856
 20
611516.5019609122537076
 30
0.0
  0
VERTEX
  5
1ADF
  8
AREAS
 10
633264.9005816413555294
 20
611551.5352110118838027
 30
0.0
  0
VERTEX
  5
1AE0
  8
AREAS
 10
633252.9895780450897291
 20
611584.534589015180245
 30
0.0
  0
VERTEX
  5
1AE1
  8
AREAS
 10
633209.1662199323764071
 20
611642.5879242664668709
 30
0.0
  0
VERTEX
  5
1AE2
  8
AREAS
 10
633192.2382476883940399
 20
611666.6071266260696575
 30
0.0
  0
VERTEX
  5
1AE3
  8
AREAS
 10
633205.2719124526483938
 20
611685.5594675849424675
 30
0.0
  0
VERTEX
  5
1AE4
  8
AREAS
 10
633221.2839220771566033
 20
611696.5117433450650424
 30
0.0
  0
VERTEX
  5
1AE5
  8
AREAS
 10
633253.2723036456154659
 20
611703.4295367477461696
 30
0.0
  0
VERTEX
  5
1AE6
  8
AREAS
 10
633294.2717468475457281
 20
611718.3188852046150714
 30
0.0
  0
SEQEND
  5
1AE7
  8
AREAS
  0
POLYLINE
  5
C7B
  8
AREAS
 66
     1
 10
0.0
 20
0.0
 30
0.0
 70
     1
  0
VERTEX
  5
1AE8
  8
AREAS
 10
641302.6022142134606838
 20
606407.9208657672861591
 30
0.0
  0
VERTEX
  5
1AE9
  8
AREAS
 10
641319.5634482929017395
 20
606397.8893043174175546
 30
0.0
  0
VERTEX
  5
1AEA
  8
AREAS
 10
641338.537171860341914
 20
606393.8476944237481803
 30
0.0
  0
VERTEX
  5
1AEB
  8
AREAS
 10
641354.5040404226165265
 20
606385.8167432348709553
 30
0.0
  0
VERTEX
  5
1AEC
  8
AREAS
 10
641359.4877472347579896
 20
606380.809277968830429
 30
0.0
  0
VERTEX
  5
1AED
  8
AREAS
 10
641364.4571989747928455
 20
606369.8071094556944445
 30
0.0
  0
VERTEX
  5
1AEE
  8
AREAS
 10
641369.4242748693795875
 20
606357.8058237347286195
 30
0.0
  0
VERTEX
  5
1AEF
  8
AREAS
 10
641373.3613475661259145
 20
606332.8183901574229822
 30
0.0
  0
VERTEX
  5
1AF0
  8
AREAS
 10
641372.3408477498451248
 20
606323.8287111321697012
 30
0.0
  0
VERTEX
  5
1AF1
  8
AREAS
 10
641365.3303963773651049
 20
606316.8515215950319543
 30
0.0
  0
VERTEX
  5
1AF2
  8
AREAS
 10
641354.3306037094444036
 20
606312.8811870629433542
 30
0.0
  0
VERTEX
  5
1AF3
  8
AREAS
 10
641323.3603461120510474
 20
606313.9539554775692523
 30
0.0
  0
SEQEND
  5
1AF4
  8
AREAS
  0
POLYLINE
  5
C89
  8
AREAS
 66
     1
 10
0.0
 20
0.0
 30
0.0
 70
     1
  0
VERTEX
  5
1AF5
  8
AREAS
 10
641287.9860879756743088
 20
606563.8187878705793992
 30
0.0
  0
VERTEX
  5
1AF6
  8
AREAS
 10
641301.9475945861777291
 20
606552.7952367489924654
 30
0.0
  0
VERTEX
  5
1AF7
  8
AREAS
 10
641307.8947809254750609
 20
606532.7986375200562179
 30
0.0
  0
VERTEX
  5
1AF8
  8
AREAS
 10
641305.8323986843461171
 20
606505.8272245990810916
 30
0.0
  0
VERTEX
  5
1AF9
  8
AREAS
 10
641302.8041610709624365
 20
606492.8458284335210919
 30
0.0
  0
VERTEX
  5
1AFA
  8
AREAS
 10
641299.7901785299181938
 20
606485.8591355147073045
 30
0.0
  0
VERTEX
  5
1AFB
  8
AREAS
 10
641288.7690032536629587
 20
606472.8967461121501401
 30
0.0
  0
VERTEX
  5
1AFC
  8
AREAS
 10
641273.7774934453191236
 20
606470.9341493770480156
 30
0.0
  0
VERTEX
  5
1AFD
  8
AREAS
 10
641256.8186352114425972
 20
606481.9648280347464606
 30
0.0
  0
VERTEX
  5
1AFE
  8
AREAS
 10
641252.8387972975615412
 20
606488.9681518711149693
 30
0.0
  0
VERTEX
  5
1AFF
  8
AREAS
 10
641251.8563110075192526
 20
606495.9643481713719666
 30
0.0
  0
VERTEX
  5
1B00
  8
AREAS
 10
641250.8975831711431965
 20
606512.9517165500437841
 30
0.0
  0
VERTEX
  5
1B01
  8
AREAS
 10
641259.9514100216329098
 20
606538.9073813451686874
 30
0.0
  0
VERTEX
  5
1B02
  8
AREAS
 10
641261.9734028911916539
 20
606548.8938017329201102
 30
0.0
  0
VERTEX
  5
1B03
  8
AREAS
 10
641271.9859575780574232
 20
606557.8620981496060267
 30
0.0
  0
SEQEND
  5
1B04
  8
AREAS
  0
POLYLINE
  5
C9A
  8
AREAS
 66
     1
 10
0.0
 20
0.0
 30
0.0
 70
     1
  0
VERTEX
  5
1B05
  8
AREAS
 10
641173.6329398141242564
 20
606373.2582475473172963
 30
0.0
  0
VERTEX
  5
1B06
  8
AREAS
 10
641184.6659943171544001
 20
606391.2162229892564937
 30
0.0
  0
VERTEX
  5
1B07
  8
AREAS
 10
641185.6817424426553771
 20
606398.2076675987336785
 30
0.0
  0
VERTEX
  5
1B08
  8
AREAS
 10
641198.7391656608087942
 20
606427.1511806360213086
 30
0.0
  0
VERTEX
  5
1B09
  8
AREAS
 10
641213.7568097682669759
 20
606440.1040666571352631
 30
0.0
  0
VERTEX
  5
1B0A
  8
AREAS
 10
641236.7365055484697223
 20
606440.0494222133420408
 30
0.0
  0
VERTEX
  5
1B0B
  8
AREAS
 10
641241.7344674330670387
 20
606441.036660194164142
 30
0.0
  0
VERTEX
  5
1B0C
  8
AREAS
 10
641256.7022187875118107
 20
606433.0080848508514464
 30
0.0
  0
VERTEX
  5
1B0D
  8
AREAS
 10
641203.5969526676926762
 20
606369.1905033546499908
 30
0.0
  0
VERTEX
  5
1B0E
  8
AREAS
 10
641197.5879943482577801
 20
606363.2100551797775552
 30
0.0
  0
SEQEND
  5
1B0F
  8
AREAS
  0
POLYLINE
  5
CA6
  8
AREAS
 66
     1
 10
0.0
 20
0.0
 30
0.0
 70
     1
  0
VERTEX
  5
1B10
  8
AREAS
 10
641148.5457207304425538
 20
606327.3582521214848384
 30
0.0
  0
VERTEX
  5
1B11
  8
AREAS
 10
641197.3551615008618683
 20
606265.2965688117546961
 30
0.0
  0
VERTEX
  5
1B12
  8
AREAS
 10
641175.3294418662553653
 20
606246.3656104614492506
 30
0.0
  0
VERTEX
  5
1B13
  8
AREAS
 10
641150.3538875156082213
 20
606247.424123803852126
 30
0.0
  0
VERTEX
  5
1B14
  8
AREAS
 10
641147.4159320266917348
 20
606272.4091815358260646
 30
0.0
  0
VERTEX
  5
1B15
  8
AREAS
 10
641139.4586320447269827
 20
606287.4149464163929224
 30
0.0
  0
VERTEX
  5
1B16
  8
AREAS
 10
641138.497528363019228
 20
606303.4031975872348994
 30
0.0
  0
SEQEND
  5
1B17
  8
AREAS
  0
POLYLINE
  5
CAF
  8
AREAS
 66
     1
 10
0.0
 20
0.0
 30
0.0
 70
     1
  0
VERTEX
  5
1B18
  8
AREAS
 10
633741.455211422056891
 20
607758.7307464153273031
 30
0.0
  0
VERTEX
  5
1B19
  8
AREAS
 10
633822.3765777207445353
 20
607755.5409513157792389
 30
0.0
  0
VERTEX
  5
1B1A
  8
AREAS
 10
633818.3254644455155358
 20
607732.5707589171361178
 30
0.0
  0
VERTEX
  5
1B1B
  8
AREAS
 10
633810.3040166384307668
 20
607720.6003591860644519
 30
0.0
  0
VERTEX
  5
1B1C
  8
AREAS
 10
633802.2825688309967518
 20
607708.6299594551092014
 30
0.0
  0
VERTEX
  5
1B1D
  8
AREAS
 10
633793.2667555066291243
 20
607698.6601699851453304
 30
0.0
  0
VERTEX
  5
1B1E
  8
AREAS
 10
633773.2844113499158993
 20
607698.7076868928270414
 30
0.0
  0
VERTEX
  5
1B1F
  8
AREAS
 10
633753.3068188838660717
 20
607700.7534382160520181
 30
0.0
  0
VERTEX
  5
1B20
  8
AREAS
 10
633739.3690707272617146
 20
607721.768161416053772
 30
0.0
  0
VERTEX
  5
1B21
  8
AREAS
 10
633734.4067465234547853
 20
607735.7676815527956933
 30
0.0
  0
SEQEND
  5
1B22
  8
AREAS
  0
POLYLINE
  5
CBB
  8
AREAS
 66
     1
 10
0.0
 20
0.0
 30
0.0
 70
     1
  0
VERTEX
  5
1B23
  8
AREAS
 10
633600.9183173086494207
 20
607481.308780990424566
 30
0.0
  0
VERTEX
  5
1B24
  8
AREAS
 10
633602.9474377140868455
 20
607494.2925530014326796
 30
0.0
  0
VERTEX
  5
1B25
  8
AREAS
 10
633612.9671199370641261
 20
607506.2582010416081175
 30
0.0
  0
VERTEX
  5
1B26
  8
AREAS
 10
633670.9420522908912972
 20
607517.1106912955874577
 30
0.0
  0
VERTEX
  5
1B27
  8
AREAS
 10
633689.9229033943265676
 20
607516.0664330256404355
 30
0.0
  0
VERTEX
  5
1B28
  8
AREAS
 10
633704.9025339758954942
 20
607513.0334437212441117
 30
0.0
  0
VERTEX
  5
1B29
  8
AREAS
 10
633713.8589511655736715
 20
607498.0253029952291399
 30
0.0
  0
VERTEX
  5
1B2A
  8
AREAS
 10
633708.8372308271937072
 20
607487.0468929359922186
 30
0.0
  0
VERTEX
  5
1B2B
  8
AREAS
 10
633718.7808859979268163
 20
607467.0407903253799304
 30
0.0
  0
VERTEX
  5
1B2C
  8
AREAS
 10
633734.7643854778725654
 20
607466.0036595915444195
 30
0.0
  0
VERTEX
  5
1B2D
  8
AREAS
 10
633704.6459426743676886
 20
607405.1287852750392631
 30
0.0
  0
VERTEX
  5
1B2E
  8
AREAS
 10
633744.5559865441173315
 20
607382.0540556793566793
 30
0.0
  0
VERTEX
  5
1B2F
  8
AREAS
 10
633731.5128183984197676
 20
607359.1052458890480921
 30
0.0
  0
VERTEX
  5
1B30
  8
AREAS
 10
633724.4714810360455886
 20
607339.1395326500060037
 30
0.0
  0
VERTEX
  5
1B31
  8
AREAS
 10
633723.4367261473089457
 20
607324.1551503778900951
 30
0.0
  0
VERTEX
  5
1B32
  8
AREAS
 10
633707.3914546873420477
 20
607299.2152337080333382
 30
0.0
  0
VERTEX
  5
1B33
  8
AREAS
 10
633695.3830414301482961
 20
607291.2508061899570748
 30
0.0
  0
VERTEX
  5
1B34
  8
AREAS
 10
633671.385221679112874
 20
607283.3148888164432719
 30
0.0
  0
VERTEX
  5
1B35
  8
AREAS
 10
633651.3743673777207732
 20
607271.3729992300504819
 30
0.0
  0
VERTEX
  5
1B36
  8
AREAS
 10
633646.3645262663485482
 20
607265.3901752099627629
 30
0.0
  0
VERTEX
  5
1B37
  8
AREAS
 10
633625.3806890563573688
 20
607264.4409507551463321
 30
0.0
  0
VERTEX
  5
1B38
  8
AREAS
 10
633608.4147032861365005
 20
607272.4742777893552557
 30
0.0
  0
VERTEX
  5
1B39
  8
AREAS
 10
633602.4342551113804802
 20
607278.4832361086737365
 30
0.0
  0
VERTEX
  5
1B3A
  8
AREAS
 10
633599.4559102510102093
 20
607286.4833013076568022
 30
0.0
  0
VERTEX
  5
1B3B
  8
AREAS
 10
633599.4796687047928572
 20
607296.474473385955207
 30
0.0
  0
VERTEX
  5
1B3C
  8
AREAS
 10
633602.4936512459535152
 20
607303.4611663046525791
 30
0.0
  0
VERTEX
  5
1B3D
  8
AREAS
 10
633611.5023370343260467
 20
607310.4336041510105133
 30
0.0
  0
VERTEX
  5
1B3E
  8
AREAS
 10
633622.5045055473456159
 20
607315.4030558909289539
 30
0.0
  0
VERTEX
  5
1B3F
  8
AREAS
 10
633631.5084396448219195
 20
607320.3772593217436224
 30
0.0
  0
VERTEX
  5
1B40
  8
AREAS
 10
633636.5159049107460305
 20
607325.3609661340015009
 30
0.0
  0
VERTEX
  5
1B41
  8
AREAS
 10
633631.5488290162757039
 20
607337.3622518549673259
 30
0.0
  0
VERTEX
  5
1B42
  8
AREAS
 10
633617.5920740965520963
 20
607350.3840373922139406
 30
0.0
  0
VERTEX
  5
1B43
  8
AREAS
 10
633585.6844712711172178
 20
607377.4362290559802204
 30
0.0
  0
VERTEX
  5
1B44
  8
AREAS
 10
633580.6983886135276407
 20
607381.4445771144237369
 30
0.0
  0
VERTEX
  5
1B45
  8
AREAS
 10
633568.7683782540261745
 20
607406.4510174548486248
 30
0.0
  0
VERTEX
  5
1B46
  8
AREAS
 10
633561.8339539336739108
 20
607431.4455785683821887
 30
0.0
  0
VERTEX
  5
1B47
  8
AREAS
 10
633565.8565570643404499
 20
607442.426364473067224
 30
0.0
  0
VERTEX
  5
1B48
  8
AREAS
 10
633583.9071904760785401
 20
607470.3588810757501051
 30
0.0
  0
SEQEND
  5
1B49
  8
AREAS
  0
POLYLINE
  5
CE3
  8
AREAS
 66
     1
 10
0.0
 20
0.0
 30
0.0
 70
     1
  0
VERTEX
  5
1B4A
  8
AREAS
 10
635246.3380673554493114
 20
602802.5002138772979379
 30
0.0
  0
VERTEX
  5
1B4B
  8
AREAS
 10
635260.3589701004093513
 20
602816.4545929516898468
 30
0.0
  0
VERTEX
  5
1B4C
  8
AREAS
 10
635280.3484417933505028
 20
602819.4044276674976572
 30
0.0
  0
VERTEX
  5
1B4D
  8
AREAS
 10
635286.3360175041016191
 20
602816.3928209716686979
 30
0.0
  0
VERTEX
  5
1B4E
  8
AREAS
 10
635290.3134795724181458
 20
602808.3903799273539335
 30
0.0
  0
VERTEX
  5
1B4F
  8
AREAS
 10
635292.2927072250749916
 20
602800.392690573935397
 30
0.0
  0
VERTEX
  5
1B50
  8
AREAS
 10
635290.2707143556326628
 20
602790.4062701864168048
 30
0.0
  0
VERTEX
  5
1B51
  8
AREAS
 10
635285.2513698625843972
 20
602780.4269773348933086
 30
0.0
  0
VERTEX
  5
1B52
  8
AREAS
 10
635280.2344012148678303
 20
602771.4468016913160682
 30
0.0
  0
VERTEX
  5
1B53
  8
AREAS
 10
635279.2162772440351546
 20
602763.456239874009043
 30
0.0
  0
VERTEX
  5
1B54
  8
AREAS
 10
635281.1955048966920003
 20
602755.4585505204740912
 30
0.0
  0
VERTEX
  5
1B55
  8
AREAS
 10
635271.1924535912694409
 20
602750.4867229352239519
 30
0.0
  0
VERTEX
  5
1B56
  8
AREAS
 10
635249.3259155972627923
 20
602798.4966175097506493
 30
0.0
  0
SEQEND
  5
1B57
  8
AREAS
  0
POLYLINE
  5
CF2
  8
AREAS
 66
     1
 10
0.0
 20
0.0
 30
0.0
 70
     1
  0
VERTEX
  5
1B58
  8
AREAS
 10
635643.1136671203421429
 20
602014.2478917940752581
 30
0.0
  0
VERTEX
  5
1B59
  8
AREAS
 10
635647.0840016526635736
 20
602003.2480991265038028
 30
0.0
  0
VERTEX
  5
1B5A
  8
AREAS
 10
635657.0609186587389559
 20
601997.2296374255092815
 30
0.0
  0
VERTEX
  5
1B5B
  8
AREAS
 10
635678.0542592502897605
 20
602002.1753307116450742
 30
0.0
  0
VERTEX
  5
1B5C
  8
AREAS
 10
635691.0522863337537274
 20
602006.140913553070277
 30
0.0
  0
VERTEX
  5
1B5D
  8
AREAS
 10
635703.0559478999348357
 20
602012.1071066553704441
 30
0.0
  0
VERTEX
  5
1B5E
  8
AREAS
 10
635709.1052955907071009
 20
602035.0725473633501679
 30
0.0
  0
VERTEX
  5
1B5F
  8
AREAS
 10
635698.1744024391518906
 20
602060.0766118585597724
 30
0.0
  0
VERTEX
  5
1B60
  8
AREAS
 10
635670.1753621660172939
 20
602050.1519634509459138
 30
0.0
  0
VERTEX
  5
1B61
  8
AREAS
 10
635658.1479421457042918
 20
602034.1945982702309266
 30
0.0
  0
VERTEX
  5
1B62
  8
AREAS
 10
635646.1252738164039329
 20
602020.2354675049427897
 30
0.0
  0
SEQEND
  5
1B63
  8
AREAS
  0
POLYLINE
  5
CFF
  8
AREAS
 66
     1
 10
0.0
 20
0.0
 30
0.0
 70
     1
  0
VERTEX
  5
1B64
  8
AREAS
 10
635588.7289340376155451
 20
601832.5368556184694171
 30
0.0
  0
VERTEX
  5
1B65
  8
AREAS
 10
635602.7284541743574664
 20
601837.4991798222763464
 30
0.0
  0
VERTEX
  5
1B66
  8
AREAS
 10
635614.7131089776521549
 20
601835.4724352620542049
 30
0.0
  0
VERTEX
  5
1B67
  8
AREAS
 10
635632.6663327285787091
 20
601822.441146343247965
 30
0.0
  0
VERTEX
  5
1B68
  8
AREAS
 10
635655.5913840649882331
 20
601799.4068061192519963
 30
0.0
  0
VERTEX
  5
1B69
  8
AREAS
 10
635672.5407389175379649
 20
601784.379658630117774
 30
0.0
  0
VERTEX
  5
1B6A
  8
AREAS
 10
635699.4860175391659141
 20
601771.3269871029770002
 30
0.0
  0
VERTEX
  5
1B6B
  8
AREAS
 10
635719.4778650775551796
 20
601775.2759390266146511
 30
0.0
  0
VERTEX
  5
1B6C
  8
AREAS
 10
635759.4069157101912424
 20
601760.1941470938036218
 30
0.0
  0
VERTEX
  5
1B6D
  8
AREAS
 10
635689.2382541594561189
 20
601663.4460871105547994
 30
0.0
  0
VERTEX
  5
1B6E
  8
AREAS
 10
635696.1584234074689448
 20
601632.456822749809362
 30
0.0
  0
VERTEX
  5
1B6F
  8
AREAS
 10
635743.0836703403620049
 20
601618.3575171070406213
 30
0.0
  0
VERTEX
  5
1B70
  8
AREAS
 10
635767.0814900916302577
 20
601626.2934344805544242
 30
0.0
  0
VERTEX
  5
1B71
  8
AREAS
 10
635779.0138762963470072
 20
601602.2861113478429615
 30
0.0
  0
VERTEX
  5
1B72
  8
AREAS
 10
635784.9895727803232148
 20
601594.2789186128647998
 30
0.0
  0
VERTEX
  5
1B73
  8
AREAS
 10
635792.9112350816139951
 20
601564.2863956148503348
 30
0.0
  0
VERTEX
  5
1B74
  8
AREAS
 10
635847.8508022855967283
 20
601559.1601380795473233
 30
0.0
  0
VERTEX
  5
1B75
  8
AREAS
 10
635854.797105832840316
 20
601539.1611630050465465
 30
0.0
  0
VERTEX
  5
1B76
  8
AREAS
 10
635850.7840060838498175
 20
601532.1768459317972884
 30
0.0
  0
VERTEX
  5
1B77
  8
AREAS
 10
635836.7821101017761976
 20
601526.2154045201605186
 30
0.0
  0
VERTEX
  5
1B78
  8
AREAS
 10
635828.7820449029095471
 20
601523.2370596596738324
 30
0.0
  0
VERTEX
  5
1B79
  8
AREAS
 10
635805.8166041950462386
 20
601529.2864073504460976
 30
0.0
  0
VERTEX
  5
1B7A
  8
AREAS
 10
635788.8529942702734843
 20
601538.3188515924848616
 30
0.0
  0
VERTEX
  5
1B7B
  8
AREAS
 10
635780.8386739990673959
 20
601529.3458034850191325
 30
0.0
  0
VERTEX
  5
1B7C
  8
AREAS
 10
635736.8513825552072376
 20
601518.4600513958139345
 30
0.0
  0
VERTEX
  5
1B7D
  8
AREAS
 10
635713.8455524756573141
 20
601507.5244065532460809
 30
0.0
  0
VERTEX
  5
1B7E
  8
AREAS
 10
635652.8803960344521329
 20
601499.6763954589841887
 30
0.0
  0
VERTEX
  5
1B7F
  8
AREAS
 10
635634.006457973155193
 20
601545.6809280817396939
 30
0.0
  0
VERTEX
  5
1B80
  8
AREAS
 10
635625.0571683195885271
 20
601563.6864204312441871
 30
0.0
  0
VERTEX
  5
1B81
  8
AREAS
 10
635548.1940428322413936
 20
601592.8437595530413091
 30
0.0
  0
VERTEX
  5
1B82
  8
AREAS
 10
635515.2493092728545889
 20
601603.9124517368618399
 30
0.0
  0
VERTEX
  5
1B83
  8
AREAS
 10
635509.2593577166553587
 20
601605.9249412247445434
 30
0.0
  0
VERTEX
  5
1B84
  8
AREAS
 10
635504.2708992137340829
 20
601608.9341720752418041
 30
0.0
  0
VERTEX
  5
1B85
  8
AREAS
 10
635509.3401364594465122
 20
601639.8949262911919504
 30
0.0
  0
VERTEX
  5
1B86
  8
AREAS
 10
635503.3929501202655956
 20
601659.8915255202446133
 30
0.0
  0
VERTEX
  5
1B87
  8
AREAS
 10
635501.4256016946164891
 20
601672.8848009130451828
 30
0.0
  0
VERTEX
  5
1B88
  8
AREAS
 10
635501.4564876846270636
 20
601685.8733246149495244
 30
0.0
  0
VERTEX
  5
1B89
  8
AREAS
 10
635504.4657185350079089
 20
601690.8617831178708002
 30
0.0
  0
VERTEX
  5
1B8A
  8
AREAS
 10
635519.4881143332459033
 20
601705.8129035546444356
 30
0.0
  0
VERTEX
  5
1B8B
  8
AREAS
 10
635529.4959173293318599
 20
601712.7829655556706712
 30
0.0
  0
VERTEX
  5
1B8C
  8
AREAS
 10
635544.5491991175804287
 20
601740.7226096943486482
 30
0.0
  0
VERTEX
  5
1B8D
  8
AREAS
 10
635566.6461941137677059
 20
601789.6270842800149694
 30
0.0
  0
VERTEX
  5
1B8E
  8
AREAS
 10
635571.684545369935222
 20
601807.5993147940607741
 30
0.0
  0
VERTEX
  5
1B8F
  8
AREAS
 10
635582.715224027633667
 20
601824.5581730280537158
 30
0.0
  0
SEQEND
  5
1B90
  8
AREAS
  0
POLYLINE
  5
D2D
  8
AREAS
 66
     1
 10
0.0
 20
0.0
 30
0.0
 70
     1
  0
VERTEX
  5
1B91
  8
AREAS
 10
635821.0503017837181687
 20
602473.4212827662704512
 30
0.0
  0
VERTEX
  5
1B92
  8
AREAS
 10
635832.0643495237454772
 20
602483.3863205453380942
 30
0.0
  0
VERTEX
  5
1B93
  8
AREAS
 10
635841.077787002781406
 20
602492.3569928074721247
 30
0.0
  0
VERTEX
  5
1B94
  8
AREAS
 10
635856.1096861825790256
 20
602511.3045820756815374
 30
0.0
  0
VERTEX
  5
1B95
  8
AREAS
 10
635893.1174122439697385
 20
602528.2016683296533301
 30
0.0
  0
VERTEX
  5
1B96
  8
AREAS
 10
635936.093707253341563
 20
602534.094210225273855
 30
0.0
  0
VERTEX
  5
1B97
  8
AREAS
 10
635904.9310061798896641
 20
602454.2384848053334281
 30
0.0
  0
VERTEX
  5
1B98
  8
AREAS
 10
635886.9468964387197047
 20
602454.2812500222353265
 30
0.0
  0
VERTEX
  5
1B99
  8
AREAS
 10
635866.9574247457785532
 20
602451.3314153061946854
 30
0.0
  0
VERTEX
  5
1B9A
  8
AREAS
 10
635854.9442597979214042
 20
602441.3687533724587411
 30
0.0
  0
VERTEX
  5
1B9B
  8
AREAS
 10
635834.0103153409436345
 20
602461.400990282301791
 30
0.0
  0
SEQEND
  5
1B9C
  8
AREAS
  0
POLYLINE
  5
D3A
  8
AREAS
 66
     1
 10
0.0
 20
0.0
 30
0.0
 70
     1
  0
VERTEX
  5
1B9D
  8
AREAS
 10
635917.2031382743734866
 20
602573.1049223932204768
 30
0.0
  0
VERTEX
  5
1B9E
  8
AREAS
 10
635922.2201069218572229
 20
602582.0850980367977172
 30
0.0
  0
VERTEX
  5
1B9F
  8
AREAS
 10
635925.2530962262535468
 20
602597.0647286182502285
 30
0.0
  0
VERTEX
  5
1BA0
  8
AREAS
 10
635947.2669366339687258
 20
602611.0001009295228869
 30
0.0
  0
VERTEX
  5
1BA1
  8
AREAS
 10
635993.2049455860396847
 20
602601.8987571713514626
 30
0.0
  0
VERTEX
  5
1BA2
  8
AREAS
 10
636013.1183902266202495
 20
602572.8768412362551317
 30
0.0
  0
VERTEX
  5
1BA3
  8
AREAS
 10
636008.0990457336883992
 20
602562.8975483849644661
 30
0.0
  0
VERTEX
  5
1BA4
  8
AREAS
 10
635994.0662637616042048
 20
602543.9475832714233547
 30
0.0
  0
VERTEX
  5
1BA5
  8
AREAS
 10
635991.0475295296637341
 20
602534.9626559370663017
 30
0.0
  0
VERTEX
  5
1BA6
  8
AREAS
 10
635946.1418996208813041
 20
602558.0492647595237941
 30
0.0
  0
VERTEX
  5
1BA7
  8
AREAS
 10
635925.1865725554525852
 20
602569.0894467987818643
 30
0.0
  0
SEQEND
  5
1BA8
  8
AREAS
  0
POLYLINE
  5
D47
  8
AREAS
 66
     1
 10
0.0
 20
0.0
 30
0.0
 70
     1
  0
VERTEX
  5
1BA9
  8
AREAS
 10
636364.889539826544933
 20
603026.6412490727379918
 30
0.0
  0
VERTEX
  5
1BAA
  8
AREAS
 10
636381.9386801852378994
 20
603053.5770243128063157
 30
0.0
  0
VERTEX
  5
1BAB
  8
AREAS
 10
636450.8658882989548147
 20
603048.4175049422774464
 30
0.0
  0
VERTEX
  5
1BAC
  8
AREAS
 10
636525.650000627618283
 20
602985.2949324449291453
 30
0.0
  0
VERTEX
  5
1BAD
  8
AREAS
 10
636515.5661705792881548
 20
602946.3531197929987684
 30
0.0
  0
VERTEX
  5
1BAE
  8
AREAS
 10
636466.5832930960459635
 20
602935.4792469304520637
 30
0.0
  0
VERTEX
  5
1BAF
  8
AREAS
 10
636416.6868288387777284
 20
602960.5759693955769762
 30
0.0
  0
SEQEND
  5
1BB0
  8
AREAS
  0
POLYLINE
  5
D50
  8
AREAS
 66
     1
 10
0.0
 20
0.0
 30
0.0
 70
     1
  0
VERTEX
  5
1BB1
  8
AREAS
 10
636106.4770840983837843
 20
602337.8609679287765175
 30
0.0
  0
VERTEX
  5
1BB2
  8
AREAS
 10
636134.5402721969876438
 20
602374.7617809481453151
 30
0.0
  0
VERTEX
  5
1BB3
  8
AREAS
 10
636156.4923406247980893
 20
602362.720105855492875
 30
0.0
  0
VERTEX
  5
1BB4
  8
AREAS
 10
636168.4651162010850385
 20
602355.6977752561215311
 30
0.0
  0
VERTEX
  5
1BB5
  8
AREAS
 10
636176.4461746369488537
 20
602350.6831824538530782
 30
0.0
  0
VERTEX
  5
1BB6
  8
AREAS
 10
636185.4192227444145828
 20
602342.6688621826469898
 30
0.0
  0
VERTEX
  5
1BB7
  8
AREAS
 10
636188.3999434502329677
 20
602335.6679141918430105
 30
0.0
  0
VERTEX
  5
1BB8
  8
AREAS
 10
636189.3895572765031829
 20
602331.6690695149591193
 30
0.0
  0
VERTEX
  5
1BB9
  8
AREAS
 10
636192.3750296732177958
 20
602326.6663559395819902
 30
0.0
  0
VERTEX
  5
1BBA
  8
AREAS
 10
636196.3501158959697932
 20
602317.6647976875538006
 30
0.0
  0
VERTEX
  5
1BBB
  8
AREAS
 10
636196.3311091328505427
 20
602309.6718600250314921
 30
0.0
  0
VERTEX
  5
1BBC
  8
AREAS
 10
636195.312985162017867
 20
602301.6812982076080516
 30
0.0
  0
VERTEX
  5
1BBD
  8
AREAS
 10
636193.2957439833553508
 20
602293.6931122356327251
 30
0.0
  0
VERTEX
  5
1BBE
  8
AREAS
 10
636192.2799958577379584
 20
602286.7016676261555403
 30
0.0
  0
VERTEX
  5
1BBF
  8
AREAS
 10
636191.2523685053456575
 20
602274.7146369775291532
 30
0.0
  0
VERTEX
  5
1BC0
  8
AREAS
 10
636187.2321412201272324
 20
602264.7329682806739584
 30
0.0
  0
VERTEX
  5
1BC1
  8
AREAS
 10
636181.2136795193655416
 20
602254.7560512745985761
 30
0.0
  0
VERTEX
  5
1BC2
  8
AREAS
 10
636153.2716595352394506
 20
602268.8102158550173044
 30
0.0
  0
VERTEX
  5
1BC3
  8
AREAS
 10
636141.2941322681726888
 20
602273.8343120388453826
 30
0.0
  0
VERTEX
  5
1BC4
  8
AREAS
 10
636147.3102181236026809
 20
602282.8121118370909244
 30
0.0
  0
VERTEX
  5
1BC5
  8
AREAS
 10
636145.3333663163939491
 20
602291.8089183984557167
 30
0.0
  0
VERTEX
  5
1BC6
  8
AREAS
 10
636145.3595006157411262
 20
602302.799207684583962
 30
0.0
  0
VERTEX
  5
1BC7
  8
AREAS
 10
636143.3731454268563539
 20
602307.799545414512977
 30
0.0
  0
VERTEX
  5
1BC8
  8
AREAS
 10
636133.4199868745636195
 20
602323.8091791936894879
 30
0.0
  0
VERTEX
  5
1BC9
  8
AREAS
 10
636115.4572597419610247
 20
602332.8439992812927812
 30
0.0
  0
SEQEND
  5
1BCA
  8
AREAS
  0
POLYLINE
  5
D6B
  8
AREAS
 66
     1
 10
0.0
 20
0.0
 30
0.0
 70
     1
  0
VERTEX
  5
1BCB
  8
AREAS
 10
636194.0655178873566911
 20
602617.4070875747129321
 30
0.0
  0
VERTEX
  5
1BCC
  8
AREAS
 10
636206.0382934637600556
 20
602610.3847569753415883
 30
0.0
  0
VERTEX
  5
1BCD
  8
AREAS
 10
636246.9046893243212253
 20
602569.3235417932737619
 30
0.0
  0
VERTEX
  5
1BCE
  8
AREAS
 10
636195.8095368470530957
 20
602510.4967946455581114
 30
0.0
  0
VERTEX
  5
1BCF
  8
AREAS
 10
636173.850340883131139
 20
602519.5411181144881994
 30
0.0
  0
VERTEX
  5
1BD0
  8
AREAS
 10
636155.9066205135313794
 20
602536.5688758644973859
 30
0.0
  0
VERTEX
  5
1BD1
  8
AREAS
 10
636188.0399286503670737
 20
602604.4328189451480284
 30
0.0
  0
SEQEND
  5
1BD2
  8
AREAS
  0
POLYLINE
  5
D74
  8
AREAS
 66
     1
 10
0.0
 20
0.0
 30
0.0
 70
     1
  0
VERTEX
  5
1BD3
  8
AREAS
 10
636777.8231894830241799
 20
602730.9180727724451572
 30
0.0
  0
VERTEX
  5
1BD4
  8
AREAS
 10
636815.7872675354592502
 20
602729.8286734400317073
 30
0.0
  0
VERTEX
  5
1BD5
  8
AREAS
 10
636822.7763362996047363
 20
602727.8138081067008898
 30
0.0
  0
VERTEX
  5
1BD6
  8
AREAS
 10
636875.6986623250413686
 20
602714.6993645994225517
 30
0.0
  0
VERTEX
  5
1BD7
  8
AREAS
 10
636876.6621418519644067
 20
602699.7102306365268305
 30
0.0
  0
VERTEX
  5
1BD8
  8
AREAS
 10
636884.6360727516002953
 20
602691.6982862107688561
 30
0.0
  0
VERTEX
  5
1BD9
  8
AREAS
 10
636888.5921522114658728
 20
602674.7037902961019427
 30
0.0
  0
VERTEX
  5
1BDA
  8
AREAS
 10
636878.5582149162655696
 20
602656.7434390088310465
 30
0.0
  0
VERTEX
  5
1BDB
  8
AREAS
 10
636839.6449124091304839
 20
602678.8166755512356758
 30
0.0
  0
VERTEX
  5
1BDC
  8
AREAS
 10
636808.7055408015148714
 20
602692.8779676677659154
 30
0.0
  0
VERTEX
  5
1BDD
  8
AREAS
 10
636799.722989312489517
 20
602696.8958191075362265
 30
0.0
  0
VERTEX
  5
1BDE
  8
AREAS
 10
636756.7490701484493911
 20
602692.0023944198619574
 30
0.0
  0
SEQEND
  5
1BDF
  8
AREAS
  0
POLYLINE
  5
D82
  8
AREAS
 66
     1
 10
0.0
 20
0.0
 30
0.0
 70
     1
  0
VERTEX
  5
1BE0
  8
AREAS
 10
636748.6991121968021616
 20
602668.0425881949486211
 30
0.0
  0
VERTEX
  5
1BE1
  8
AREAS
 10
636815.5496829971671104
 20
602629.9169526563491672
 30
0.0
  0
VERTEX
  5
1BE2
  8
AREAS
 10
636800.5367905803723261
 20
602618.9623010508948937
 30
0.0
  0
VERTEX
  5
1BE3
  8
AREAS
 10
636791.5209772561211139
 20
602608.9925115809310228
 30
0.0
  0
VERTEX
  5
1BE4
  8
AREAS
 10
636778.522950172657147
 20
602605.02692873950582
 30
0.0
  0
VERTEX
  5
1BE5
  8
AREAS
 10
636758.5406060159439221
 20
602605.0744456473039463
 30
0.0
  0
VERTEX
  5
1BE6
  8
AREAS
 10
636744.5719718692125753
 20
602613.1006451452849433
 30
0.0
  0
VERTEX
  5
1BE7
  8
AREAS
 10
636737.5947823320748284
 20
602620.1110965177649632
 30
0.0
  0
VERTEX
  5
1BE8
  8
AREAS
 10
636736.6075443512527272
 20
602625.1090584023622796
 30
0.0
  0
VERTEX
  5
1BE9
  8
AREAS
 10
636736.643182031926699
 20
602640.0958165200427175
 30
0.0
  0
VERTEX
  5
1BEA
  8
AREAS
 10
636745.6851296555250883
 20
602661.055895276251249
 30
0.0
  0
SEQEND
  5
1BEB
  8
AREAS
  0
POLYLINE
  5
D8F
  8
AREAS
 66
     1
 10
0.0
 20
0.0
 30
0.0
 70
     1
  0
VERTEX
  5
1BEC
  8
AREAS
 10
636516.0687361020827666
 20
602737.53524750971701
 30
0.0
  0
VERTEX
  5
1BED
  8
AREAS
 10
636566.0459791023749858
 20
602746.4085101111559197
 30
0.0
  0
VERTEX
  5
1BEE
  8
AREAS
 10
636600.8677789629437029
 20
602684.3800886368844658
 30
0.0
  0
VERTEX
  5
1BEF
  8
AREAS
 10
636584.8771519467700273
 20
602682.4198677473468706
 30
0.0
  0
VERTEX
  5
1BF0
  8
AREAS
 10
636570.8705042741494253
 20
602674.4601919199340045
 30
0.0
  0
VERTEX
  5
1BF1
  8
AREAS
 10
636530.917695187497884
 20
602679.550811774446629
 30
0.0
  0
VERTEX
  5
1BF2
  8
AREAS
 10
636526.9022195930592716
 20
602671.5673774932511151
 30
0.0
  0
VERTEX
  5
1BF3
  8
AREAS
 10
636513.9327026542741805
 20
602679.5912011459004134
 30
0.0
  0
VERTEX
  5
1BF4
  8
AREAS
 10
636516.0402259576367214
 20
602725.5458410156425089
 30
0.0
  0
SEQEND
  5
1BF5
  8
AREAS
  0
POLYLINE
  5
D9A
  8
AREAS
 66
     1
 10
0.0
 20
0.0
 30
0.0
 70
     1
  0
VERTEX
  5
1BF6
  8
AREAS
 10
636571.3849490237189457
 20
602470.6379056759178638
 30
0.0
  0
VERTEX
  5
1BF7
  8
AREAS
 10
636607.4553298574173823
 20
602513.5144151790300384
 30
0.0
  0
VERTEX
  5
1BF8
  8
AREAS
 10
636616.4212504286551848
 20
602502.5027432844508439
 30
0.0
  0
VERTEX
  5
1BF9
  8
AREAS
 10
636629.3955190582200885
 20
602496.4771540473448113
 30
0.0
  0
VERTEX
  5
1BFA
  8
AREAS
 10
636592.2642490369034931
 20
602427.6259729858720675
 30
0.0
  0
SEQEND
  5
1BFB
  8
AREAS
  0
POLYLINE
  5
DA1
  8
AREAS
 66
     1
 10
0.0
 20
0.0
 30
0.0
 70
     1
  0
VERTEX
  5
1BFC
  8
AREAS
 10
636479.3687562420964241
 20
602429.8926779297180474
 30
0.0
  0
VERTEX
  5
1BFD
  8
AREAS
 10
636502.3128143416251987
 20
602414.8512753683608025
 30
0.0
  0
VERTEX
  5
1BFE
  8
AREAS
 10
636524.2173658617539331
 20
602382.8272561193443835
 30
0.0
  0
VERTEX
  5
1BFF
  8
AREAS
 10
636524.1698489540722221
 20
602362.8449119625147432
 30
0.0
  0
VERTEX
  5
1C00
  8
AREAS
 10
636492.1767156949499622
 20
602353.9288841440575197
 30
0.0
  0
VERTEX
  5
1C01
  8
AREAS
 10
636475.1917231616098434
 20
602353.9692735157441348
 30
0.0
  0
VERTEX
  5
1C02
  8
AREAS
 10
636450.2684374095406383
 20
602377.0083654305199161
 30
0.0
  0
VERTEX
  5
1C03
  8
AREAS
 10
636450.3064509355463088
 20
602392.9942407559137791
 30
0.0
  0
SEQEND
  5
1C04
  8
AREAS
  0
POLYLINE
  5
DAB
  8
AREAS
 66
     1
 10
0.0
 20
0.0
 30
0.0
 70
     1
  0
VERTEX
  5
1C05
  8
AREAS
 10
636406.1325814047595486
 20
602723.8089495921740308
 30
0.0
  0
VERTEX
  5
1C06
  8
AREAS
 10
636456.0551799611421302
 20
602709.7025164132937789
 30
0.0
  0
VERTEX
  5
1C07
  8
AREAS
 10
636394.9403452610131353
 20
602638.9101212251698598
 30
0.0
  0
VERTEX
  5
1C08
  8
AREAS
 10
636356.7933271140791476
 20
602563.0674955543363467
 30
0.0
  0
VERTEX
  5
1C09
  8
AREAS
 10
636379.716002605156973
 20
602539.0340381222777069
 30
0.0
  0
VERTEX
  5
1C0A
  8
AREAS
 10
636423.7104215852450579
 20
602552.9171418352052569
 30
0.0
  0
VERTEX
  5
1C0B
  8
AREAS
 10
636435.5810358101734892
 20
602502.9327712986851111
 30
0.0
  0
VERTEX
  5
1C0C
  8
AREAS
 10
636533.4493811159627512
 20
602483.7167115022893995
 30
0.0
  0
VERTEX
  5
1C0D
  8
AREAS
 10
636530.4187676571309566
 20
602469.7361981286667287
 30
0.0
  0
VERTEX
  5
1C0E
  8
AREAS
 10
636522.3925681590335444
 20
602455.7675639820517972
 30
0.0
  0
VERTEX
  5
1C0F
  8
AREAS
 10
636494.3864003495546058
 20
602442.8455639509484172
 30
0.0
  0
VERTEX
  5
1C10
  8
AREAS
 10
636479.3877630050992593
 20
602437.8856155924731866
 30
0.0
  0
VERTEX
  5
1C11
  8
AREAS
 10
636464.4057565783150494
 20
602439.9194876889232546
 30
0.0
  0
VERTEX
  5
1C12
  8
AREAS
 10
636397.5147964062634856
 20
602461.0601306941825897
 30
0.0
  0
VERTEX
  5
1C13
  8
AREAS
 10
636376.4810664432588965
 20
602439.1294448747066781
 30
0.0
  0
VERTEX
  5
1C14
  8
AREAS
 10
636355.6136456570820883
 20
602487.1369636040180922
 30
0.0
  0
VERTEX
  5
1C15
  8
AREAS
 10
636351.614800980547443
 20
602486.1473497776314616
 30
0.0
  0
VERTEX
  5
1C16
  8
AREAS
 10
636311.6073474499862641
 20
602468.2582738519413397
 30
0.0
  0
VERTEX
  5
1C17
  8
AREAS
 10
636295.628599660936743
 20
602471.2936390015529469
 30
0.0
  0
VERTEX
  5
1C18
  8
AREAS
 10
636292.6858924812404439
 20
602494.2804623178672045
 30
0.0
  0
VERTEX
  5
1C19
  8
AREAS
 10
636289.7550645283190534
 20
602522.2628716735634953
 30
0.0
  0
VERTEX
  5
1C1A
  8
AREAS
 10
636287.7948436387814581
 20
602538.2534986897371709
 30
0.0
  0
VERTEX
  5
1C1B
  8
AREAS
 10
636273.8309611828299239
 20
602548.2779326033778489
 30
0.0
  0
VERTEX
  5
1C1C
  8
AREAS
 10
636312.9248279392486438
 20
602602.1376038567395881
 30
0.0
  0
VERTEX
  5
1C1D
  8
AREAS
 10
636347.0088535840623081
 20
602650.0144510896643624
 30
0.0
  0
VERTEX
  5
1C1E
  8
AREAS
 10
636354.0216808018740267
 20
602657.9907578348647803
 30
0.0
  0
VERTEX
  5
1C1F
  8
AREAS
 10
636339.0539294474292547
 20
602666.0193331781774759
 30
0.0
  0
VERTEX
  5
1C20
  8
AREAS
 10
636360.0591492658713832
 20
602675.9606125035788864
 30
0.0
  0
VERTEX
  5
1C21
  8
AREAS
 10
636362.0787662899820134
 20
602684.9479156832676381
 30
0.0
  0
VERTEX
  5
1C22
  8
AREAS
 10
636364.0888799325330183
 20
602689.9387500317534432
 30
0.0
  0
VERTEX
  5
1C23
  8
AREAS
 10
636380.0985137118259445
 20
602699.8919085840461776
 30
0.0
  0
VERTEX
  5
1C24
  8
AREAS
 10
636388.1152098282473162
 20
602709.8640738993417472
 30
0.0
  0
VERTEX
  5
1C25
  8
AREAS
 10
636397.1143922349438071
 20
602712.8400429143803194
 30
0.0
  0
VERTEX
  5
1C26
  8
AREAS
 10
636397.1191439258400351
 20
602714.8382773301564157
 30
0.0
  0
SEQEND
  5
1C27
  8
AREAS
  0
POLYLINE
  5
DCF
  8
AREAS
 66
     1
 10
0.0
 20
0.0
 30
0.0
 70
     1
  0
VERTEX
  5
1C28
  8
AREAS
 10
632792.4675975873833522
 20
606153.3987087381538004
 30
0.0
  0
VERTEX
  5
1C29
  8
AREAS
 10
632795.5029627371113747
 20
606169.3774565275525674
 30
0.0
  0
VERTEX
  5
1C2A
  8
AREAS
 10
632809.5262413275195286
 20
606184.3309528096579015
 30
0.0
  0
VERTEX
  5
1C2B
  8
AREAS
 10
632831.5353300445713103
 20
606196.2680907051544636
 30
0.0
  0
VERTEX
  5
1C2C
  8
AREAS
 10
632873.5148836913285777
 20
606203.162125654052943
 30
0.0
  0
VERTEX
  5
1C2D
  8
AREAS
 10
632885.4805317315040156
 20
606193.1424434310756624
 30
0.0
  0
VERTEX
  5
1C2E
  8
AREAS
 10
632898.4049076080555096
 20
606166.1353928294265643
 30
0.0
  0
VERTEX
  5
1C2F
  8
AREAS
 10
632909.3072906151646748
 20
606129.1419218401424587
 30
0.0
  0
VERTEX
  5
1C30
  8
AREAS
 10
632911.2888941131532192
 20
606122.143349694670178
 30
0.0
  0
VERTEX
  5
1C31
  8
AREAS
 10
632914.2719906643033028
 20
606116.1415189114632085
 30
0.0
  0
VERTEX
  5
1C32
  8
AREAS
 10
632915.2497252635657787
 20
606107.1470881955465302
 30
0.0
  0
VERTEX
  5
1C33
  8
AREAS
 10
632918.2351976602803916
 20
606102.1443746202858165
 30
0.0
  0
VERTEX
  5
1C34
  8
AREAS
 10
632928.188356212573126
 20
606086.1347408409928903
 30
0.0
  0
VERTEX
  5
1C35
  8
AREAS
 10
632930.1770872466731817
 20
606082.1335203188937157
 30
0.0
  0
VERTEX
  5
1C36
  8
AREAS
 10
632930.1557046382222325
 20
606073.1414654484251514
 30
0.0
  0
VERTEX
  5
1C37
  8
AREAS
 10
632928.128960078000091
 20
606061.1568106452468783
 30
0.0
  0
VERTEX
  5
1C38
  8
AREAS
 10
632912.1121987624792382
 20
606048.2063004693482071
 30
0.0
  0
VERTEX
  5
1C39
  8
AREAS
 10
632893.0909582875901833
 20
606032.2655662063043565
 30
0.0
  0
VERTEX
  5
1C3A
  8
AREAS
 10
632882.0935414652340114
 20
606029.2943488819291815
 30
0.0
  0
VERTEX
  5
1C3B
  8
AREAS
 10
632876.0893348366953433
 20
606025.3121351229492575
 30
0.0
  0
VERTEX
  5
1C3C
  8
AREAS
 10
632854.1040045735426247
 20
606023.3661693056346849
 30
0.0
  0
VERTEX
  5
1C3D
  8
AREAS
 10
632838.125256784260273
 20
606026.4015344552462921
 30
0.0
  0
VERTEX
  5
1C3E
  8
AREAS
 10
632824.1970120092155412
 20
606051.4127264865674078
 30
0.0
  0
VERTEX
  5
1C3F
  8
AREAS
 10
632816.2753497079247609
 20
606081.4052494848147035
 30
0.0
  0
VERTEX
  5
1C40
  8
AREAS
 10
632811.3272805764572695
 20
606101.3994728685356677
 30
0.0
  0
VERTEX
  5
1C41
  8
AREAS
 10
632796.4379321195883676
 20
606142.3989160703495145
 30
0.0
  0
SEQEND
  5
1C42
  8
AREAS
  0
POLYLINE
  5
DEB
  8
AREAS
 66
     1
 10
0.0
 20
0.0
 30
0.0
 70
     1
  0
VERTEX
  5
1C43
  8
AREAS
 10
632784.7871578169288114
 20
605864.6704665910219774
 30
0.0
  0
VERTEX
  5
1C44
  8
AREAS
 10
632797.81131919962354
 20
605879.6263387185754254
 30
0.0
  0
VERTEX
  5
1C45
  8
AREAS
 10
632807.823873886372894
 20
605888.5946351351449266
 30
0.0
  0
VERTEX
  5
1C46
  8
AREAS
 10
632815.8358183121308684
 20
605896.5685660348972306
 30
0.0
  0
VERTEX
  5
1C47
  8
AREAS
 10
632862.8133338434854522
 20
605904.4498389646178111
 30
0.0
  0
VERTEX
  5
1C48
  8
AREAS
 10
632889.7704916920047253
 20
605896.3927534766262397
 30
0.0
  0
VERTEX
  5
1C49
  8
AREAS
 10
632900.7037606890080497
 20
605872.3878061892464757
 30
0.0
  0
VERTEX
  5
1C4A
  8
AREAS
 10
632894.6852989882463589
 20
605862.4108891831710935
 30
0.0
  0
VERTEX
  5
1C4B
  8
AREAS
 10
632883.6617478666594252
 20
605848.4493825727840886
 30
0.0
  0
VERTEX
  5
1C4C
  8
AREAS
 10
632870.6542174017522484
 20
605840.4873309001559392
 30
0.0
  0
VERTEX
  5
1C4D
  8
AREAS
 10
632853.654969796189107
 20
605834.5330170245142654
 30
0.0
  0
VERTEX
  5
1C4E
  8
AREAS
 10
632843.6637977177742869
 20
605834.5567754782969132
 30
0.0
  0
VERTEX
  5
1C4F
  8
AREAS
 10
632825.6939430490601808
 20
605840.5942439422942698
 30
0.0
  0
VERTEX
  5
1C50
  8
AREAS
 10
632808.7160780519479886
 20
605843.631984937353991
 30
0.0
  0
VERTEX
  5
1C51
  8
AREAS
 10
632788.7479889675742015
 20
605849.6742050920147449
 30
0.0
  0
SEQEND
  5
1C52
  8
AREAS
  0
POLYLINE
  5
DFC
  8
AREAS
 66
     1
 10
0.0
 20
0.0
 30
0.0
 70
     1
  0
VERTEX
  5
1C53
  8
AREAS
 10
630256.6439762723166496
 20
606132.452439708285965
 30
0.0
  0
VERTEX
  5
1C54
  8
AREAS
 10
630265.6882997413631529
 20
606154.4116356723243371
 30
0.0
  0
VERTEX
  5
1C55
  8
AREAS
 10
630281.7026852114358917
 20
606166.3630286400439218
 30
0.0
  0
VERTEX
  5
1C56
  8
AREAS
 10
630303.6998947013635188
 20
606173.3045804967405275
 30
0.0
  0
VERTEX
  5
1C57
  8
AREAS
 10
630324.6552217667922378
 20
606162.2643984572496265
 30
0.0
  0
VERTEX
  5
1C58
  8
AREAS
 10
630339.6182214304571971
 20
606152.2375886982772499
 30
0.0
  0
VERTEX
  5
1C59
  8
AREAS
 10
630346.5977868130430579
 20
606146.2262545337434858
 30
0.0
  0
VERTEX
  5
1C5A
  8
AREAS
 10
630352.556852379348129
 20
606131.22524134372361
 30
0.0
  0
VERTEX
  5
1C5B
  8
AREAS
 10
630348.522370021790266
 20
606115.248869399772957
 30
0.0
  0
VERTEX
  5
1C5C
  8
AREAS
 10
630334.4919638952706009
 20
606097.2980214941781014
 30
0.0
  0
VERTEX
  5
1C5D
  8
AREAS
 10
630313.4843682314967737
 20
606086.3576249610632658
 30
0.0
  0
VERTEX
  5
1C5E
  8
AREAS
 10
630294.5058929732767865
 20
606088.4010004389565438
 30
0.0
  0
VERTEX
  5
1C5F
  8
AREAS
 10
630273.5576934440759942
 20
606102.4385341017041355
 30
0.0
  0
VERTEX
  5
1C60
  8
AREAS
 10
630259.6033143698005006
 20
606116.4594368466641754
 30
0.0
  0
SEQEND
  5
1C61
  8
AREAS
  0
POLYLINE
  5
E0C
  8
AREAS
 66
     1
 10
0.0
 20
0.0
 30
0.0
 70
     1
  0
VERTEX
  5
1C62
  8
AREAS
 10
629298.9350054921815172
 20
605481.3034698144765571
 30
0.0
  0
VERTEX
  5
1C63
  8
AREAS
 10
629334.9554935727501288
 20
605503.1985179531620815
 30
0.0
  0
VERTEX
  5
1C64
  8
AREAS
 10
629358.9628167054615915
 20
605515.1309041579952464
 30
0.0
  0
VERTEX
  5
1C65
  8
AREAS
 10
629372.9623368420870975
 20
605520.0932283618021756
 30
0.0
  0
VERTEX
  5
1C66
  8
AREAS
 10
629393.9509257428580895
 20
605523.0406872322782874
 30
0.0
  0
VERTEX
  5
1C67
  8
AREAS
 10
629415.9124975521117449
 20
605514.9954809711780399
 30
0.0
  0
VERTEX
  5
1C68
  8
AREAS
 10
629417.8418324516387656
 20
605486.016330253216438
 30
0.0
  0
VERTEX
  5
1C69
  8
AREAS
 10
629406.806402103160508
 20
605467.0592376034474
 30
0.0
  0
VERTEX
  5
1C6A
  8
AREAS
 10
629384.7949375407770276
 20
605454.1229825001209974
 30
0.0
  0
VERTEX
  5
1C6B
  8
AREAS
 10
629346.7928459623362869
 20
605439.2265065071405843
 30
0.0
  0
VERTEX
  5
1C6C
  8
AREAS
 10
629313.7863404229283333
 20
605424.3181512870360166
 30
0.0
  0
VERTEX
  5
1C6D
  8
AREAS
 10
629307.7845096398377791
 20
605421.335054735885933
 30
0.0
  0
VERTEX
  5
1C6E
  8
AREAS
 10
629302.8768298797076568
 20
605458.3142706527141854
 30
0.0
  0
SEQEND
  5
1C6F
  8
AREAS
  0
POLYLINE
  5
E1B
  8
AREAS
 66
     1
 10
0.0
 20
0.0
 30
0.0
 70
     1
  0
VERTEX
  5
1C70
  8
AREAS
 10
629213.4219468694645911
 20
605654.3550694731529802
 30
0.0
  0
VERTEX
  5
1C71
  8
AREAS
 10
629278.3883238326525316
 20
605664.1918116016313434
 30
0.0
  0
VERTEX
  5
1C72
  8
AREAS
 10
629256.1368988866452128
 20
605550.3447185066761449
 30
0.0
  0
VERTEX
  5
1C73
  8
AREAS
 10
629241.128758160630241
 20
605541.3883013168815523
 30
0.0
  0
VERTEX
  5
1C74
  8
AREAS
 10
629225.1333794536767527
 20
605537.4298460116842762
 30
0.0
  0
VERTEX
  5
1C75
  8
AREAS
 10
629213.1225903513841331
 20
605528.4663012857781723
 30
0.0
  0
VERTEX
  5
1C76
  8
AREAS
 10
629195.1075946202035993
 20
605515.5205428007757291
 30
0.0
  0
VERTEX
  5
1C77
  8
AREAS
 10
629183.1253156622406095
 20
605518.5464045689441264
 30
0.0
  0
VERTEX
  5
1C78
  8
AREAS
 10
629179.1573569754837081
 20
605530.5453144444618374
 30
0.0
  0
VERTEX
  5
1C79
  8
AREAS
 10
629179.1906188109423965
 20
605544.5329553541960195
 30
0.0
  0
VERTEX
  5
1C7A
  8
AREAS
 10
629184.2360976031050086
 20
605565.502537491847761
 30
0.0
  0
VERTEX
  5
1C7B
  8
AREAS
 10
629193.2732935359235853
 20
605584.4643818322801962
 30
0.0
  0
VERTEX
  5
1C7C
  8
AREAS
 10
629201.3113722609123215
 20
605603.4286020181607455
 30
0.0
  0
VERTEX
  5
1C7D
  8
AREAS
 10
629206.3449718261836097
 20
605619.4025981165468693
 30
0.0
  0
VERTEX
  5
1C7E
  8
AREAS
 10
629210.38420587440487
 20
605637.3772044761572033
 30
0.0
  0
SEQEND
  5
1C7F
  8
AREAS
  0
POLYLINE
  5
E2C
  8
AREAS
 66
     1
 10
0.0
 20
0.0
 30
0.0
 70
     1
  0
VERTEX
  5
1C80
  8
AREAS
 10
629084.7032499335473403
 20
606145.2304784208536148
 30
0.0
  0
VERTEX
  5
1C81
  8
AREAS
 10
629138.6104380945907906
 20
606126.1189558211481199
 30
0.0
  0
VERTEX
  5
1C82
  8
AREAS
 10
629192.5200021008495241
 20
606108.0065504295052961
 30
0.0
  0
VERTEX
  5
1C83
  8
AREAS
 10
629202.4470263539114967
 20
606081.0066273640841246
 30
0.0
  0
VERTEX
  5
1C84
  8
AREAS
 10
629209.3624439111445099
 20
606048.0191285877954215
 30
0.0
  0
VERTEX
  5
1C85
  8
AREAS
 10
629197.3278963549528271
 20
606029.0644117833580822
 30
0.0
  0
VERTEX
  5
1C86
  8
AREAS
 10
629184.3322451168205589
 20
606026.0979461499955505
 30
0.0
  0
VERTEX
  5
1C87
  8
AREAS
 10
629126.4357156606856734
 20
606048.2163237547501922
 30
0.0
  0
VERTEX
  5
1C88
  8
AREAS
 10
629111.4703401515726
 20
606057.2440163058927283
 30
0.0
  0
VERTEX
  5
1C89
  8
AREAS
 10
629089.5396543323295191
 20
606078.2777462688973173
 30
0.0
  0
VERTEX
  5
1C8A
  8
AREAS
 10
629082.562464795075357
 20
606085.2881976413773373
 30
0.0
  0
VERTEX
  5
1C8B
  8
AREAS
 10
629076.5915200018789619
 20
606095.2936247921315953
 30
0.0
  0
SEQEND
  5
1C8C
  8
AREAS
  0
POLYLINE
  5
E3A
  8
AREAS
 66
     1
 10
0.0
 20
0.0
 30
0.0
 70
     1
  0
VERTEX
  5
1C8D
  8
AREAS
 10
629725.2560239776503295
 20
607033.925745403743349
 30
0.0
  0
VERTEX
  5
1C8E
  8
AREAS
 10
629748.2499748300760984
 20
607039.8658042069291696
 30
0.0
  0
VERTEX
  5
1C8F
  8
AREAS
 10
629757.204016174422577
 20
607023.8585462730843574
 30
0.0
  0
VERTEX
  5
1C90
  8
AREAS
 10
629763.1702092769555748
 20
607011.854884706903249
 30
0.0
  0
VERTEX
  5
1C91
  8
AREAS
 10
629765.1494369294960052
 20
607003.8571953533682972
 30
0.0
  0
VERTEX
  5
1C92
  8
AREAS
 10
629767.1191612005932257
 20
606991.8630371685139835
 30
0.0
  0
VERTEX
  5
1C93
  8
AREAS
 10
629767.0954027468105778
 20
606981.8718650900991634
 30
0.0
  0
VERTEX
  5
1C94
  8
AREAS
 10
629760.0279310850892216
 20
606950.9158625649288297
 30
0.0
  0
VERTEX
  5
1C95
  8
AREAS
 10
629734.0413802998373285
 20
606946.9811657135142013
 30
0.0
  0
VERTEX
  5
1C96
  8
AREAS
 10
629723.0748494673753157
 20
606956.998472091043368
 30
0.0
  0
VERTEX
  5
1C97
  8
AREAS
 10
629715.1199253307422623
 20
606973.0033541794400662
 30
0.0
  0
VERTEX
  5
1C98
  8
AREAS
 10
629718.1695455526933074
 20
606994.9768052158178762
 30
0.0
  0
VERTEX
  5
1C99
  8
AREAS
 10
629722.2254105187021196
 20
607019.9452320302370936
 30
0.0
  0
SEQEND
  5
1C9A
  8
AREAS
  0
POLYLINE
  5
E49
  8
AREAS
 66
     1
 10
0.0
 20
0.0
 30
0.0
 70
     1
  0
VERTEX
  5
1C9B
  8
AREAS
 10
627985.5482530591543764
 20
606935.1530198082327843
 30
0.0
  0
VERTEX
  5
1C9C
  8
AREAS
 10
628019.4327076920308173
 20
606899.1040215831017122
 30
0.0
  0
VERTEX
  5
1C9D
  8
AREAS
 10
628050.4504821971058846
 20
606918.0135973250726238
 30
0.0
  0
VERTEX
  5
1C9E
  8
AREAS
 10
628071.4747087786672637
 20
606935.9478143129963428
 30
0.0
  0
VERTEX
  5
1C9F
  8
AREAS
 10
628082.5196425085887313
 20
606958.9013757940847427
 30
0.0
  0
VERTEX
  5
1CA0
  8
AREAS
 10
628079.5579285657731816
 20
606973.8952614477602765
 30
0.0
  0
VERTEX
  5
1CA1
  8
AREAS
 10
628067.6089114433852956
 20
606990.9087641255464405
 30
0.0
  0
VERTEX
  5
1CA2
  8
AREAS
 10
628056.6138704663608223
 20
606988.9366640091175213
 30
0.0
  0
VERTEX
  5
1CA3
  8
AREAS
 10
628031.6050542804878205
 20
606976.0075364417862147
 30
0.0
  0
VERTEX
  5
1CA4
  8
AREAS
 10
628005.5781141235493124
 20
606955.0878470572642982
 30
0.0
  0
SEQEND
  5
1CA5
  8
AREAS
  0
POLYLINE
  5
E55
  8
AREAS
 66
     1
 10
0.0
 20
0.0
 30
0.0
 70
     1
  0
VERTEX
  5
1CA6
  8
AREAS
 10
628811.0804097247309983
 20
607043.0934643839718774
 30
0.0
  0
VERTEX
  5
1CA7
  8
AREAS
 10
628845.1573078332003206
 20
607087.9729599935235456
 30
0.0
  0
VERTEX
  5
1CA8
  8
AREAS
 10
628852.1368732157861814
 20
607081.9616258288733661
 30
0.0
  0
VERTEX
  5
1CA9
  8
AREAS
 10
628874.0913174890447408
 20
607070.9190679440507665
 30
0.0
  0
VERTEX
  5
1CAA
  8
AREAS
 10
628899.0502409220207483
 20
607062.8667341469554231
 30
0.0
  0
VERTEX
  5
1CAB
  8
AREAS
 10
628912.0102544791297987
 20
607050.8464416628703475
 30
0.0
  0
VERTEX
  5
1CAC
  8
AREAS
 10
628909.9454963927855715
 20
607022.8759115344146267
 30
0.0
  0
VERTEX
  5
1CAD
  8
AREAS
 10
628899.8782972622429952
 20
606990.9279193372931331
 30
0.0
  0
VERTEX
  5
1CAE
  8
AREAS
 10
628896.7930393593851477
 20
606953.967710183467716
 30
0.0
  0
VERTEX
  5
1CAF
  8
AREAS
 10
628896.745522451819852
 20
606933.985366026754491
 30
0.0
  0
VERTEX
  5
1CB0
  8
AREAS
 10
628896.7170123072573915
 20
606921.9959595326799899
 30
0.0
  0
VERTEX
  5
1CB1
  8
AREAS
 10
628893.6887746937572956
 20
606909.014563367003575
 30
0.0
  0
VERTEX
  5
1CB2
  8
AREAS
 10
628893.6697679307544604
 20
606901.0216257043648511
 30
0.0
  0
VERTEX
  5
1CB3
  8
AREAS
 10
628894.6475025301333517
 20
606892.0271949884481728
 30
0.0
  0
VERTEX
  5
1CB4
  8
AREAS
 10
628893.6008684146218002
 20
606872.0472266770666465
 30
0.0
  0
VERTEX
  5
1CB5
  8
AREAS
 10
628890.563127419562079
 20
606855.0693616799544543
 30
0.0
  0
VERTEX
  5
1CB6
  8
AREAS
 10
628887.5491448782850057
 20
606848.0826687612570822
 30
0.0
  0
VERTEX
  5
1CB7
  8
AREAS
 10
628876.5374729837058112
 20
606839.1167481899028644
 30
0.0
  0
VERTEX
  5
1CB8
  8
AREAS
 10
628868.5255285579478368
 20
606831.1428172902669758
 30
0.0
  0
VERTEX
  5
1CB9
  8
AREAS
 10
628856.5337462186580524
 20
606830.1722102272324264
 30
0.0
  0
VERTEX
  5
1CBA
  8
AREAS
 10
628833.5849364282330498
 20
606843.215378372813575
 30
0.0
  0
VERTEX
  5
1CBB
  8
AREAS
 10
628827.5997365626972169
 20
606847.2261022764723748
 30
0.0
  0
VERTEX
  5
1CBC
  8
AREAS
 10
628801.6274408497847617
 20
606849.2861086721532047
 30
0.0
  0
VERTEX
  5
1CBD
  8
AREAS
 10
628761.6675042270217091
 20
606851.3793769030598924
 30
0.0
  0
VERTEX
  5
1CBE
  8
AREAS
 10
628742.6842772782547399
 20
606851.4245179651770741
 30
0.0
  0
VERTEX
  5
1CBF
  8
AREAS
 10
628708.8806013885186985
 20
606921.4435012567555532
 30
0.0
  0
VERTEX
  5
1CC0
  8
AREAS
 10
628728.8772006175713614
 20
606927.3906875962857157
 30
0.0
  0
VERTEX
  5
1CC1
  8
AREAS
 10
628756.8762408908223733
 20
606937.3153360038995743
 30
0.0
  0
VERTEX
  5
1CC2
  8
AREAS
 10
628776.8775918106548488
 20
606945.2607567589730024
 30
0.0
  0
VERTEX
  5
1CC3
  8
AREAS
 10
628787.879760323674418
 20
606950.230208498891443
 30
0.0
  0
VERTEX
  5
1CC4
  8
AREAS
 10
628809.8650905869435519
 20
606952.1761743162060156
 30
0.0
  0
VERTEX
  5
1CC5
  8
AREAS
 10
628830.8513036421500146
 20
606954.1245159787358716
 30
0.0
  0
VERTEX
  5
1CC6
  8
AREAS
 10
628818.9949444896774366
 20
607010.1035897622350603
 30
0.0
  0
SEQEND
  5
1CC7
  8
AREAS
  0
POLYLINE
  5
E78
  8
AREAS
 66
     1
 10
0.0
 20
0.0
 30
0.0
 70
     1
  0
VERTEX
  5
1CC8
  8
AREAS
 10
626393.5056546465493739
 20
605909.8422657405026257
 30
0.0
  0
VERTEX
  5
1CC9
  8
AREAS
 10
626461.5644170487066731
 20
605959.6365686462959275
 30
0.0
  0
VERTEX
  5
1CCA
  8
AREAS
 10
626509.6051976132439449
 20
605994.4916303422069177
 30
0.0
  0
VERTEX
  5
1CCB
  8
AREAS
 10
626494.7206008471548557
 20
606037.4893079599132761
 30
0.0
  0
VERTEX
  5
1CCC
  8
AREAS
 10
626451.7443058378994465
 20
606031.5967660642927513
 30
0.0
  0
VERTEX
  5
1CCD
  8
AREAS
 10
626407.7498868576949462
 20
606017.7136623514816165
 30
0.0
  0
VERTEX
  5
1CCE
  8
AREAS
 10
626381.7324500824324787
 20
606000.7904417981626466
 30
0.0
  0
VERTEX
  5
1CCF
  8
AREAS
 10
626377.6599541988689452
 20
605968.8281945289345458
 30
0.0
  0
VERTEX
  5
1CD0
  8
AREAS
 10
626386.5759820170933381
 20
605936.8350612696958706
 30
0.0
  0
VERTEX
  5
1CD1
  8
AREAS
 10
626391.5311786847887561
 20
605919.8381895095808432
 30
0.0
  0
SEQEND
  5
1CD2
  8
AREAS
  0
POLYLINE
  5
E84
  8
AREAS
 66
     1
 10
0.0
 20
0.0
 30
0.0
 70
     1
  0
VERTEX
  5
1CD3
  8
AREAS
 10
626438.8853399336803705
 20
605665.9483781406888738
 30
0.0
  0
VERTEX
  5
1CD4
  8
AREAS
 10
626549.7398330960422754
 20
605645.7023151464527473
 30
0.0
  0
VERTEX
  5
1CD5
  8
AREAS
 10
626598.6728178261546418
 20
605635.5947266443399712
 30
0.0
  0
VERTEX
  5
1CD6
  8
AREAS
 10
626598.5516497115604579
 20
605584.6397490446688607
 30
0.0
  0
VERTEX
  5
1CD7
  8
AREAS
 10
626596.448878099094145
 20
605540.6833435905864462
 30
0.0
  0
VERTEX
  5
1CD8
  8
AREAS
 10
626596.4156162636354566
 20
605526.6957026808522642
 30
0.0
  0
VERTEX
  5
1CD9
  8
AREAS
 10
626538.46206651837565
 20
605524.8352672974579036
 30
0.0
  0
VERTEX
  5
1CDA
  8
AREAS
 10
626501.4923539829906076
 20
605523.9240563687635586
 30
0.0
  0
VERTEX
  5
1CDB
  8
AREAS
 10
626493.4994163203518838
 20
605523.9430631317663938
 30
0.0
  0
VERTEX
  5
1CDC
  8
AREAS
 10
626429.6034319264581427
 20
605544.0774613930843771
 30
0.0
  0
VERTEX
  5
1CDD
  8
AREAS
 10
626388.6705123950960115
 20
605557.163394755567424
 30
0.0
  0
VERTEX
  5
1CDE
  8
AREAS
 10
626407.7440214685630053
 20
605595.0847075911005959
 30
0.0
  0
VERTEX
  5
1CDF
  8
AREAS
 10
626429.8457681555300951
 20
605645.9874165924265981
 30
0.0
  0
VERTEX
  5
1CE0
  8
AREAS
 10
626435.8808607739629224
 20
605662.9581540533108637
 30
0.0
  0
SEQEND
  5
1CE1
  8
AREAS
  0
POLYLINE
  5
E94
  8
AREAS
 66
     1
 10
0.0
 20
0.0
 30
0.0
 70
     1
  0
VERTEX
  5
1CE2
  8
AREAS
 10
626441.5204493605997413
 20
605093.4447146686725318
 30
0.0
  0
VERTEX
  5
1CE3
  8
AREAS
 10
626429.6926003525732085
 20
605161.4131949461298063
 30
0.0
  0
VERTEX
  5
1CE4
  8
AREAS
 10
626404.7954488997347653
 20
605195.4425761471502483
 30
0.0
  0
VERTEX
  5
1CE5
  8
AREAS
 10
626506.8859683482442051
 20
605271.1331477137282491
 30
0.0
  0
VERTEX
  5
1CE6
  8
AREAS
 10
626546.7413677740842104
 20
605225.0787223378429189
 30
0.0
  0
VERTEX
  5
1CE7
  8
AREAS
 10
626530.617693416425027
 20
605167.1679378094850108
 30
0.0
  0
VERTEX
  5
1CE8
  8
AREAS
 10
626497.5541675878921524
 20
605128.2807696014642715
 30
0.0
  0
VERTEX
  5
1CE9
  8
AREAS
 10
626443.518683776143007
 20
605093.4399629778927192
 30
0.0
  0
VERTEX
  5
1CEA
  8
AREAS
 10
626414.3874789539258927
 20
605027.5671267767902464
 30
0.0
  0
VERTEX
  5
1CEB
  8
AREAS
 10
626394.3718729617539793
 20
605013.6270027747377753
 30
0.0
  0
VERTEX
  5
1CEC
  8
AREAS
 10
626363.3944878280162811
 20
605011.7024195658741519
 30
0.0
  0
VERTEX
  5
1CED
  8
AREAS
 10
626345.4008747054031119
 20
605007.7487159514566883
 30
0.0
  0
VERTEX
  5
1CEE
  8
AREAS
 10
626345.4602708398597315
 20
605032.7266461473191157
 30
0.0
  0
VERTEX
  5
1CEF
  8
AREAS
 10
626345.5458012737799436
 20
605068.694865629542619
 30
0.0
  0
VERTEX
  5
1CF0
  8
AREAS
 10
626345.5671838823473081
 20
605077.6869205001275986
 30
0.0
  0
VERTEX
  5
1CF1
  8
AREAS
 10
626392.5423235682537779
 20
605084.5690762219019234
 30
0.0
  0
VERTEX
  5
1CF2
  8
AREAS
 10
626430.5230325382435694
 20
605090.4734973444137722
 30
0.0
  0
SEQEND
  5
1CF3
  8
AREAS
  0
ENDSEC
  0
EOF
