  0
SECTION
  2
HEADER
  9
$ACADVER
  1
AC1009
  9
$INSBASE
 10
0.0
 20
0.0
 30
0.0
  9
$EXTMIN
 10
424147.7991839888854884
 20
513066.6490637232200243
 30
0.0
  9
$EXTMAX
 10
429879.7841010111151263
 20
520544.2361953572835773
 30
0.0
  9
$LIMMIN
 10
0.0
 20
0.0
  9
$LIMMAX
 10
12.0
 20
9.0
  9
$ORTHOMODE
 70
     0
  9
$REGENMODE
 70
     1
  9
$FILLMODE
 70
     1
  9
$QTEXTMODE
 70
     0
  9
$MIRRTEXT
 70
     1
  9
$DRAGMODE
 70
     2
  9
$LTSCALE
 40
1.0
  9
$OSMODE
 70
    37
  9
$ATTMODE
 70
     1
  9
$TEXTSIZE
 40
22.3849593560444191
  9
$TRACEWID
 40
0.05
  9
$TEXTSTYLE
  7
STANDARD
  9
$CLAYER
  8
0
  9
$CELTYPE
  6
BYLAYER
  9
$CECOLOR
 62
   256
  9
$DIMSCALE
 40
1.0
  9
$DIMASZ
 40
0.18
  9
$DIMEXO
 40
0.0625
  9
$DIMDLI
 40
0.38
  9
$DIMRND
 40
0.0
  9
$DIMDLE
 40
0.0
  9
$DIMEXE
 40
0.18
  9
$DIMTP
 40
0.0
  9
$DIMTM
 40
0.0
  9
$DIMTXT
 40
0.18
  9
$DIMCEN
 40
0.09
  9
$DIMTSZ
 40
0.0
  9
$DIMTOL
 70
     0
  9
$DIMLIM
 70
     0
  9
$DIMTIH
 70
     1
  9
$DIMTOH
 70
     1
  9
$DIMSE1
 70
     0
  9
$DIMSE2
 70
     0
  9
$DIMTAD
 70
     0
  9
$DIMZIN
 70
     0
  9
$DIMBLK
  1

  9
$DIMASO
 70
     1
  9
$DIMSHO
 70
     1
  9
$DIMPOST
  1

  9
$DIMAPOST
  1

  9
$DIMALT
 70
     0
  9
$DIMALTD
 70
     2
  9
$DIMALTF
 40
25.3999999999999986
  9
$DIMLFAC
 40
1.0
  9
$DIMTOFL
 70
     0
  9
$DIMTVP
 40
0.0
  9
$DIMTIX
 70
     0
  9
$DIMSOXD
 70
     0
  9
$DIMSAH
 70
     0
  9
$DIMBLK1
  1

  9
$DIMBLK2
  1

  9
$DIMSTYLE
  2
STANDARD
  9
$DIMCLRD
 70
     0
  9
$DIMCLRE
 70
     0
  9
$DIMCLRT
 70
     0
  9
$DIMTFAC
 40
1.0
  9
$DIMGAP
 40
0.09
  9
$LUNITS
 70
     2
  9
$LUPREC
 70
     4
  9
$SKETCHINC
 40
0.1
  9
$FILLETRAD
 40
0.0
  9
$AUNITS
 70
     0
  9
$AUPREC
 70
     0
  9
$MENU
  1
.
  9
$ELEVATION
 40
0.0
  9
$PELEVATION
 40
0.0
  9
$THICKNESS
 40
0.0
  9
$LIMCHECK
 70
     0
  9
$BLIPMODE
 70
     0
  9
$CHAMFERA
 40
0.0
  9
$CHAMFERB
 40
0.0
  9
$SKPOLY
 70
     0
  9
$TDCREATE
 40
2460573.476712963078171
  9
$TDUPDATE
 40
2460576.5042592589743435
  9
$TDINDWG
 40
0.0533680671
  9
$TDUSRTIMER
 40
0.0533680671
  9
$USRTIMER
 70
     1
  9
$ANGBASE
 50
0.0
  9
$ANGDIR
 70
     0
  9
$PDMODE
 70
    33
  9
$PDSIZE
 40
-3.0
  9
$PLINEWID
 40
0.0
  9
$COORDS
 70
     1
  9
$SPLFRAME
 70
     0
  9
$SPLINETYPE
 70
     6
  9
$SPLINESEGS
 70
     8
  9
$ATTDIA
 70
     1
  9
$ATTREQ
 70
     1
  9
$HANDLING
 70
     1
  9
$HANDSEED
  5
1787
  9
$SURFTAB1
 70
     6
  9
$SURFTAB2
 70
     6
  9
$SURFTYPE
 70
     6
  9
$SURFU
 70
     6
  9
$SURFV
 70
     6
  9
$UCSNAME
  2

  9
$UCSORG
 10
0.0
 20
0.0
 30
0.0
  9
$UCSXDIR
 10
1.0
 20
0.0
 30
0.0
  9
$UCSYDIR
 10
0.0
 20
1.0
 30
0.0
  9
$PUCSNAME
  2

  9
$PUCSORG
 10
0.0
 20
0.0
 30
0.0
  9
$PUCSXDIR
 10
1.0
 20
0.0
 30
0.0
  9
$PUCSYDIR
 10
0.0
 20
1.0
 30
0.0
  9
$USERI1
 70
     0
  9
$USERI2
 70
     0
  9
$USERI3
 70
     0
  9
$USERI4
 70
     0
  9
$USERI5
 70
     0
  9
$USERR1
 40
0.0
  9
$USERR2
 40
0.0
  9
$USERR3
 40
0.0
  9
$USERR4
 40
0.0
  9
$USERR5
 40
0.0
  9
$WORLDVIEW
 70
     1
  9
$SHADEDGE
 70
     3
  9
$SHADEDIF
 70
    70
  9
$TILEMODE
 70
     1
  9
$MAXACTVP
 70
    64
  9
$PLIMCHECK
 70
     0
  9
$PEXTMIN
 10
1.0000000000000000E+20
 20
1.0000000000000000E+20
 30
1.0000000000000000E+20
  9
$PEXTMAX
 10
-1.0000000000000000E+20
 20
-1.0000000000000000E+20
 30
-1.0000000000000000E+20
  9
$PLIMMIN
 10
0.0
 20
0.0
  9
$PLIMMAX
 10
12.0
 20
9.0
  9
$UNITMODE
 70
     0
  9
$VISRETAIN
 70
     1
  9
$PLINEGEN
 70
     0
  9
$PSLTSCALE
 70
     1
  0
ENDSEC
  0
SECTION
  2
TABLES
  0
TABLE
  2
VPORT
 70
     1
  0
VPORT
  2
*ACTIVE
 70
     0
 10
0.0
 20
0.0
 11
1.0
 21
1.0
 12
427196.2028933822875842
 22
516283.3030662115779705
 13
0.0
 23
0.0
 14
0.5
 24
0.5
 15
0.5
 25
0.5
 16
0.0
 26
0.0
 36
1.0
 17
0.0
 27
0.0
 37
0.0
 40
7652.8207724272506312
 41
1.338213762811127
 42
50.0
 43
0.0
 44
0.0
 50
0.0
 51
0.0
 71
     0
 72
   100
 73
     1
 74
     3
 75
     0
 76
     0
 77
     0
 78
     0
  0
ENDTAB
  0
TABLE
  2
LTYPE
 70
     2
  0
LTYPE
  2
CONTINUOUS
 70
     0
  3
Solid line
 72
    65
 73
     0
 40
0.0
  0
ENDTAB
  0
TABLE
  2
LAYER
 70
     3
  0
LAYER
  2
0
 70
     0
 62
     7
  6
CONTINUOUS
  0
LAYER
  2
SOILS
 70
     0
 62
     7
  6
CONTINUOUS
  0
LAYER
  2
LABELS
 70
     0
 62
     1
  6
CONTINUOUS
  0
ENDTAB
  0
TABLE
  2
STYLE
 70
     2
  0
STYLE
  2
STANDARD
 70
     0
 40
0.0
 41
1.0
 50
0.0
 71
     0
 42
22.3849593560444191
  3
txt
  4

  0
STYLE
  2
ANNOTATIVE
 70
     0
 40
0.0
 41
1.0
 50
0.0
 71
     0
 42
0.2
  3
txt
  4

  0
ENDTAB
  0
TABLE
  2
VIEW
 70
     0
  0
ENDTAB
  0
TABLE
  2
UCS
 70
     0
  0
ENDTAB
  0
TABLE
  2
APPID
 70
     7
  0
APPID
  2
ACAD
 70
     0
  0
APPID
  2
ACADANNOTATIVE
 70
     0
  0
APPID
  2
ACAD_EXEMPT_FROM_CAD_STANDARDS
 70
     0
  0
APPID
  2
ACAD_NAV_VCDISPLAY
 70
     0
  0
APPID
  2
ACAD_MLEADERVER
 70
     0
  0
APPID
  2
ACAECLAYERSTANDARD
 70
     0
  0
APPID
  2
ACCMTRANSPARENCY
 70
     0
  0
ENDTAB
  0
TABLE
  2
DIMSTYLE
 70
     2
  0
DIMSTYLE
  2
STANDARD
 70
     0
  3

  4

  5

  6

  7

 40
1.0
 41
0.18
 42
0.0625
 43
0.38
 44
0.18
 45
0.0
 46
0.0
 47
0.0
 48
0.0
140
0.18
141
0.09
142
0.0
143
25.3999999999999986
144
1.0
145
0.0
146
1.0
147
0.09
 71
     0
 72
     0
 73
     1
 74
     1
 75
     0
 76
     0
 77
     0
 78
     0
170
     0
171
     2
172
     0
173
     0
174
     0
175
     0
176
     0
177
     0
178
     0
  0
DIMSTYLE
  2
ANNOTATIVE
 70
     0
  3

  4

  5

  6

  7

 40
1.0
 41
0.18
 42
0.0625
 43
0.38
 44
0.18
 45
0.0
 46
0.0
 47
0.0
 48
0.0
140
0.18
141
0.09
142
0.0
143
25.3999999999999986
144
1.0
145
0.0
146
1.0
147
0.09
 71
     0
 72
     0
 73
     1
 74
     1
 75
     0
 76
     0
 77
     0
 78
     0
170
     0
171
     2
172
     0
173
     0
174
     0
175
     0
176
     0
177
     0
178
     0
  0
ENDTAB
  0
ENDSEC
  0
SECTION
  2
BLOCKS
  0
BLOCK
  8
0
  2
$MODEL_SPACE
 70
     0
 10
0.0
 20
0.0
 30
0.0
  3
$MODEL_SPACE
  1

  0
ENDBLK
  5
103D
  8
0
  0
BLOCK
 67
     1
  8
0
  2
$PAPER_SPACE
 70
     0
 10
0.0
 20
0.0
 30
0.0
  3
$PAPER_SPACE
  1

  0
ENDBLK
  5
1039
 67
     1
  8
0
  0
ENDSEC
  0
SECTION
  2
ENTITIES
  0
POLYLINE
  5
7A
  8
SOILS
 66
     1
 10
0.0
 20
0.0
 30
0.0
 70
     1
  0
VERTEX
  5
107F
  8
SOILS
 10
425429.0413443463039584
 20
519783.7209776646923274
 30
0.0
  0
VERTEX
  5
1080
  8
SOILS
 10
425428.7035341985756531
 20
519783.6095113299088553
 30
0.0
  0
VERTEX
  5
1081
  8
SOILS
 10
425388.728883073781617
 20
519783.7283045123913325
 30
0.0
  0
VERTEX
  5
1082
  8
SOILS
 10
425358.7776703271083534
 20
519793.8111859040218405
 30
0.0
  0
VERTEX
  5
1083
  8
SOILS
 10
425328.826559652807191
 20
519803.8939659660100006
 30
0.0
  0
VERTEX
  5
1084
  8
SOILS
 10
425288.8519186353078112
 20
519804.0127570400945842
 30
0.0
  0
VERTEX
  5
1085
  8
SOILS
 10
425258.9007129442761652
 20
519814.095634322904516
 30
0.0
  0
VERTEX
  5
1086
  8
SOILS
 10
425228.9791816641809419
 20
519834.1719684167183004
 30
0.0
  0
VERTEX
  5
1087
  8
SOILS
 10
425199.0576514936983585
 20
519854.248399390722625
 30
0.0
  0
VERTEX
  5
1088
  8
SOILS
 10
425169.1063515241257846
 20
519864.3311704928055406
 30
0.0
  0
VERTEX
  5
1089
  8
SOILS
 10
425139.1551533624879085
 20
519874.4140401210170239
 30
0.0
  0
VERTEX
  5
108A
  8
SOILS
 10
425109.233627938083373
 20
519894.4904634613776579
 30
0.0
  0
VERTEX
  5
108B
  8
SOILS
 10
425079.2229926931904629
 20
519884.5860202888725325
 30
0.0
  0
VERTEX
  5
108C
  8
SOILS
 10
425049.2121597623918205
 20
519874.6814784288872033
 30
0.0
  0
VERTEX
  5
108D
  8
SOILS
 10
425019.2015285915113054
 20
519864.7770382624003105
 30
0.0
  0
VERTEX
  5
108E
  8
SOILS
 10
424989.1907997949165292
 20
519854.8723996101180092
 30
0.0
  0
VERTEX
  5
108F
  8
SOILS
 10
424959.1504009448108263
 20
519834.9743109456030652
 30
0.0
  0
VERTEX
  5
1090
  8
SOILS
 10
424939.0739817973808385
 20
519805.0527021397138014
 30
0.0
  0
VERTEX
  5
1091
  8
SOILS
 10
424918.9974614823004231
 20
519775.1310962503193878
 30
0.0
  0
VERTEX
  5
1092
  8
SOILS
 10
424898.9210398549912497
 20
519745.2094935401109979
 30
0.0
  0
VERTEX
  5
1093
  8
SOILS
 10
424878.8446169855888002
 20
519715.2878938780049793
 30
0.0
  0
VERTEX
  5
1094
  8
SOILS
 10
424858.7680929491762072
 20
519685.3662971323938109
 30
0.0
  0
VERTEX
  5
1095
  8
SOILS
 10
424828.7574716886156239
 20
519675.461776195676066
 30
0.0
  0
VERTEX
  5
1096
  8
SOILS
 10
424798.7169763927231543
 20
519655.5635092874290422
 30
0.0
  0
VERTEX
  5
1097
  8
SOILS
 10
424758.7422891039168462
 20
519655.6824149003950879
 30
0.0
  0
VERTEX
  5
1098
  8
SOILS
 10
424728.7909278452862054
 20
519665.7650896760751493
 30
0.0
  0
VERTEX
  5
1099
  8
SOILS
 10
424698.8693442200892605
 20
519685.8415077278041281
 30
0.0
  0
VERTEX
  5
109A
  8
SOILS
 10
424688.9647252698196098
 20
519715.8523167978273705
 30
0.0
  0
VERTEX
  5
109B
  8
SOILS
 10
424669.0664602812030353
 20
519745.8926986085134558
 30
0.0
  0
VERTEX
  5
109C
  8
SOILS
 10
424649.1681938684778288
 20
519775.9331773219746538
 30
0.0
  0
VERTEX
  5
109D
  8
SOILS
 10
424639.2636690957006067
 20
519805.9440804228070192
 30
0.0
  0
VERTEX
  5
109E
  8
SOILS
 10
424619.3653996019274928
 20
519835.9845538440276869
 30
0.0
  0
VERTEX
  5
109F
  8
SOILS
 10
424589.4734866817016155
 20
519866.0546953576267697
 30
0.0
  0
VERTEX
  5
10A0
  8
SOILS
 10
424559.522132585872896
 20
519876.1375496740220115
 30
0.0
  0
VERTEX
  5
10A1
  8
SOILS
 10
424529.5708804313908331
 20
519886.2204025886021554
 30
0.0
  0
VERTEX
  5
10A2
  8
SOILS
 10
424499.6195303616113961
 20
519896.3032538337283768
 30
0.0
  0
VERTEX
  5
10A3
  8
SOILS
 10
424469.6681823027902283
 20
519906.3861035433947109
 30
0.0
  0
VERTEX
  5
10A4
  8
SOILS
 10
424459.7636522068060003
 20
519936.3968898014281876
 30
0.0
  0
VERTEX
  5
10A5
  8
SOILS
 10
424449.8590201453771442
 20
519966.4076744230114855
 30
0.0
  0
VERTEX
  5
10A6
  8
SOILS
 10
424419.9672097368747927
 20
519996.4779931178200059
 30
0.0
  0
VERTEX
  5
10A7
  8
SOILS
 10
424370.1472593853832223
 20
520046.5950139188207686
 30
0.0
  0
VERTEX
  5
10A8
  8
SOILS
 10
424350.249084860784933
 20
520076.6355547860730439
 30
0.0
  0
VERTEX
  5
10A9
  8
SOILS
 10
424330.3508089851820841
 20
520106.676192419428844
 30
0.0
  0
VERTEX
  5
10AA
  8
SOILS
 10
424300.4292328829178587
 20
520126.7526566708111204
 30
0.0
  0
VERTEX
  5
10AB
  8
SOILS
 10
424280.5309556879801676
 20
520156.7932879889849573
 30
0.0
  0
VERTEX
  5
10AC
  8
SOILS
 10
424240.5858841466833837
 20
520166.905875550408382
 30
0.0
  0
VERTEX
  5
10AD
  8
SOILS
 10
424234.5714436019188724
 20
520168.9305623543914407
 30
0.0
  0
VERTEX
  5
10AE
  8
SOILS
 10
424233.3193945403909311
 20
520178.8005896228714846
 30
0.0
  0
VERTEX
  5
10AF
  8
SOILS
 10
424256.4008836980792694
 20
520242.2939323500031605
 30
0.0
  0
VERTEX
  5
10B0
  8
SOILS
 10
424268.733749337203335
 20
520287.8421034815255553
 30
0.0
  0
VERTEX
  5
10B1
  8
SOILS
 10
424281.5719901086995378
 20
520336.9854540189844556
 30
0.0
  0
VERTEX
  5
10B2
  8
SOILS
 10
424292.7907778471126221
 20
520375.0280681891017593
 30
0.0
  0
VERTEX
  5
10B3
  8
SOILS
 10
424304.0188579367822967
 20
520416.2435095487744547
 30
0.0
  0
VERTEX
  5
10B4
  8
SOILS
 10
424310.4498653321061283
 20
520444.7815451865899377
 30
0.0
  0
VERTEX
  5
10B5
  8
SOILS
 10
424325.6076942186919041
 20
520493.9412635482149199
 30
0.0
  0
VERTEX
  5
10B6
  8
SOILS
 10
424358.2835403495118953
 20
520525.1537031513871625
 30
0.0
  0
VERTEX
  5
10B7
  8
SOILS
 10
424394.0257277055061422
 20
520540.9120430226903409
 30
0.0
  0
VERTEX
  5
10B8
  8
SOILS
 10
424448.9998146052821539
 20
520544.2361953572835773
 30
0.0
  0
VERTEX
  5
10B9
  8
SOILS
 10
424487.8936403924017213
 20
520532.9402020263951272
 30
0.0
  0
VERTEX
  5
10BA
  8
SOILS
 10
424530.3541356070199981
 20
520517.9902580910711549
 30
0.0
  0
VERTEX
  5
10BB
  8
SOILS
 10
424572.8592200779239647
 20
520512.8517036166740581
 30
0.0
  0
VERTEX
  5
10BC
  8
SOILS
 10
424620.3126492309966125
 20
520505.7456125715980306
 30
0.0
  0
VERTEX
  5
10BD
  8
SOILS
 10
424661.1013615450938232
 20
520499.637782335979864
 30
0.0
  0
VERTEX
  5
10BE
  8
SOILS
 10
424704.9518906436860561
 20
520470.8441332206130028
 30
0.0
  0
VERTEX
  5
10BF
  8
SOILS
 10
424714.6702927941223606
 20
520458.6772502704989165
 30
0.0
  0
VERTEX
  5
10C0
  8
SOILS
 10
424760.6243037348031066
 20
520353.8453033766709268
 30
0.0
  0
VERTEX
  5
10C1
  8
SOILS
 10
424796.6464801447000355
 20
520291.24730305041885
 30
0.0
  0
VERTEX
  5
10C2
  8
SOILS
 10
424896.1313100847764872
 20
520195.665349795774091
 30
0.0
  0
VERTEX
  5
10C3
  8
SOILS
 10
424939.4267494173254818
 20
520165.9587723275762983
 30
0.0
  0
VERTEX
  5
10C4
  8
SOILS
 10
425084.2193850295152515
 20
520114.4140951883746311
 30
0.0
  0
VERTEX
  5
10C5
  8
SOILS
 10
425159.7067378122010268
 20
520079.5358738452778198
 30
0.0
  0
VERTEX
  5
10C6
  8
SOILS
 10
425226.7221396787790582
 20
520065.5717108434764668
 30
0.0
  0
VERTEX
  5
10C7
  8
SOILS
 10
425349.422031695372425
 20
520010.1715224403887987
 30
0.0
  0
VERTEX
  5
10C8
  8
SOILS
 10
425403.7560842410894111
 20
519943.618441901227925
 30
0.0
  0
VERTEX
  5
10C9
  8
SOILS
 10
425429.2687401989242062
 20
519860.0304841991746798
 30
0.0
  0
SEQEND
  5
10CA
  8
SOILS
  0
POLYLINE
  5
7B
  8
SOILS
 66
     1
 10
0.0
 20
0.0
 30
0.0
 70
     1
  0
VERTEX
  5
10CB
  8
SOILS
 10
428555.930741066171322
 20
519955.2909914255724289
 30
0.0
  0
VERTEX
  5
10CC
  8
SOILS
 10
428536.186794884793926
 20
519964.4960571023984812
 30
0.0
  0
VERTEX
  5
10CD
  8
SOILS
 10
428498.1510324510745704
 20
519977.3389593868050724
 30
0.0
  0
VERTEX
  5
10CE
  8
SOILS
 10
428462.6383076409110799
 20
519985.0931091259117238
 30
0.0
  0
VERTEX
  5
10CF
  8
SOILS
 10
428427.10267309169285
 20
519985.2285398431122303
 30
0.0
  0
VERTEX
  5
10D0
  8
SOILS
 10
428391.5596036242786795
 20
519982.8246649602078833
 30
0.0
  0
VERTEX
  5
10D1
  8
SOILS
 10
428355.9936241984250955
 20
519972.8021741886041127
 30
0.0
  0
VERTEX
  5
10D2
  8
SOILS
 10
428322.9583187411772087
 20
519960.2304420325090177
 30
0.0
  0
VERTEX
  5
10D3
  8
SOILS
 10
428294.9843569577788003
 20
519942.5603257066104561
 30
0.0
  0
VERTEX
  5
10D4
  8
SOILS
 10
428267.0028582041850314
 20
519922.3507071259082295
 30
0.0
  0
VERTEX
  5
10D5
  8
SOILS
 10
428241.5443921115947887
 20
519897.0524435709812678
 30
0.0
  0
VERTEX
  5
10D6
  8
SOILS
 10
428216.0933648759964854
 20
519874.293487717397511
 30
0.0
  0
VERTEX
  5
10D7
  8
SOILS
 10
428190.634899003081955
 20
519848.9952305271290243
 30
0.0
  0
VERTEX
  5
10D8
  8
SOILS
 10
428160.0999178055790253
 20
519823.7161545957205817
 30
0.0
  0
VERTEX
  5
10D9
  8
SOILS
 10
428132.1183227684232406
 20
519803.5064512853859924
 30
0.0
  0
VERTEX
  5
10DA
  8
SOILS
 10
428101.5908822935889475
 20
519780.7668863044818863
 30
0.0
  0
VERTEX
  5
10DB
  8
SOILS
 10
428071.0862600801046938
 20
519765.6460354289738461
 30
0.0
  0
VERTEX
  5
10DC
  8
SOILS
 10
428035.5279432518873364
 20
519758.1630757119273767
 30
0.0
  0
VERTEX
  5
10DD
  8
SOILS
 10
427999.9847081343759783
 20
519755.7590234708040953
 30
0.0
  0
VERTEX
  5
10DE
  8
SOILS
 10
427961.8956303909071721
 20
519750.8252081386162899
 30
0.0
  0
VERTEX
  5
10DF
  8
SOILS
 10
427928.8830689660971984
 20
519745.8719149869284593
 30
0.0
  0
VERTEX
  5
10E0
  8
SOILS
 10
427895.8401529261027463
 20
519730.7606129553751089
 30
0.0
  0
VERTEX
  5
10E1
  8
SOILS
 10
427834.8155597174190916
 20
519695.4396328621078283
 30
0.0
  0
VERTEX
  5
10E2
  8
SOILS
 10
427801.7573704476235434
 20
519675.2492349444073625
 30
0.0
  0
VERTEX
  5
10E3
  8
SOILS
 10
427771.2527675483725034
 20
519660.128303743316792
 30
0.0
  0
VERTEX
  5
10E4
  8
SOILS
 10
427743.2787318814080209
 20
519642.458033352799248
 30
0.0
  0
VERTEX
  5
10E5
  8
SOILS
 10
427717.8277223350014538
 20
519619.6990226947818883
 30
0.0
  0
VERTEX
  5
10E6
  8
SOILS
 10
427694.9074774142936803
 20
519594.3909735014894977
 30
0.0
  0
VERTEX
  5
10E7
  8
SOILS
 10
427671.9721515778801404
 20
519564.0037255667266436
 30
0.0
  0
VERTEX
  5
10E8
  8
SOILS
 10
427661.7204066495760344
 20
519531.0286761542083696
 30
0.0
  0
VERTEX
  5
10E9
  8
SOILS
 10
427661.6141366304946132
 20
519495.4752636831835844
 30
0.0
  0
VERTEX
  5
10EA
  8
SOILS
 10
427664.0538089344045147
 20
519462.4517110132146627
 30
0.0
  0
VERTEX
  5
10EB
  8
SOILS
 10
427671.5624461206025444
 20
519426.8694740071077831
 30
0.0
  0
VERTEX
  5
10EC
  8
SOILS
 10
427676.5328759924159385
 20
519391.2965776568744332
 30
0.0
  0
VERTEX
  5
10ED
  8
SOILS
 10
427689.1254583147820085
 20
519358.2344552351278253
 30
0.0
  0
VERTEX
  5
10EE
  8
SOILS
 10
427706.8099316981970333
 20
519330.2319491311209276
 30
0.0
  0
VERTEX
  5
10EF
  8
SOILS
 10
427729.578455991926603
 20
519304.7495572685147636
 30
0.0
  0
VERTEX
  5
10F0
  8
SOILS
 10
427757.4387742989929393
 20
519284.3270805981010199
 30
0.0
  0
VERTEX
  5
10F1
  8
SOILS
 10
427787.8447415715199895
 20
519266.434260088019073
 30
0.0
  0
VERTEX
  5
10F2
  8
SOILS
 10
427818.2433674546773545
 20
519246.0021350930910558
 30
0.0
  0
VERTEX
  5
10F3
  8
SOILS
 10
427846.0884040422970429
 20
519220.5004455111920834
 30
0.0
  0
VERTEX
  5
10F4
  8
SOILS
 10
427871.3951351215946488
 20
519195.0083952597924508
 30
0.0
  0
VERTEX
  5
10F5
  8
SOILS
 10
427896.6868797835195437
 20
519164.4375370335765183
 30
0.0
  0
VERTEX
  5
10F6
  8
SOILS
 10
427911.8178561804816127
 20
519131.3656458118930459
 30
0.0
  0
VERTEX
  5
10F7
  8
SOILS
 10
427924.395537054806482
 20
519093.2244906311971135
 30
0.0
  0
VERTEX
  5
10F8
  8
SOILS
 10
427926.8352769244811498
 20
519060.2011135417851619
 30
0.0
  0
VERTEX
  5
10F9
  8
SOILS
 10
427936.882189110678155
 20
519024.6091012976248749
 30
0.0
  0
VERTEX
  5
10FA
  8
SOILS
 10
427954.5590059160022065
 20
518994.0669599113753065
 30
0.0
  0
VERTEX
  5
10FB
  8
SOILS
 10
427982.4116796086891554
 20
518971.1050465651787817
 30
0.0
  0
VERTEX
  5
10FC
  8
SOILS
 10
428043.2390101900091395
 20
518940.398640830127988
 30
0.0
  0
VERTEX
  5
10FD
  8
SOILS
 10
428076.2287574416259304
 20
518937.7336570178158581
 30
0.0
  0
VERTEX
  5
10FE
  8
SOILS
 10
428109.2336967781884596
 20
518940.1473805133136921
 30
0.0
  0
VERTEX
  5
10FF
  8
SOILS
 10
428144.7694017891190015
 20
518940.0120558338239789
 30
0.0
  0
VERTEX
  5
1100
  8
SOILS
 10
428177.7515133402193896
 20
518934.8073671489255503
 30
0.0
  0
VERTEX
  5
1101
  8
SOILS
 10
428210.74127219512593
 20
518932.1420821488718502
 30
0.0
  0
VERTEX
  5
1102
  8
SOILS
 10
428243.7233891544747166
 20
518926.937391921703238
 30
0.0
  0
VERTEX
  5
1103
  8
SOILS
 10
428271.5913687238935381
 20
518909.0543668032041751
 30
0.0
  0
VERTEX
  5
1104
  8
SOILS
 10
428299.4437600076198578
 20
518886.0924285704968497
 30
0.0
  0
VERTEX
  5
1105
  8
SOILS
 10
428312.0366192432120442
 20
518853.0304381306050345
 30
0.0
  0
VERTEX
  5
1106
  8
SOILS
 10
428319.5377681407262571
 20
518814.9087261909153312
 30
0.0
  0
VERTEX
  5
1107
  8
SOILS
 10
428321.9699416856747121
 20
518779.3457093561883084
 30
0.0
  0
VERTEX
  5
1108
  8
SOILS
 10
428316.7873855934012681
 20
518743.8118297604960389
 30
0.0
  0
VERTEX
  5
1109
  8
SOILS
 10
428309.074163671117276
 20
518710.8271022965200245
 30
0.0
  0
VERTEX
  5
110A
  8
SOILS
 10
428306.4374563561286777
 20
518677.8230834541027434
 30
0.0
  0
VERTEX
  5
110B
  8
SOILS
 10
428308.8772636711946689
 20
518644.7996720257215202
 30
0.0
  0
VERTEX
  5
110C
  8
SOILS
 10
428313.8552770618116483
 20
518611.7665134363924153
 30
0.0
  0
VERTEX
  5
110D
  8
SOILS
 10
428321.3640493204002269
 20
518576.1844019077834673
 30
0.0
  0
VERTEX
  5
110E
  8
SOILS
 10
428328.8803657048847526
 20
518543.1416942105861381
 30
0.0
  0
VERTEX
  5
110F
  8
SOILS
 10
428354.0659262153203599
 20
518477.0176843961235136
 30
0.0
  0
VERTEX
  5
1110
  8
SOILS
 10
428359.044225770921912
 20
518443.9846202611224726
 30
0.0
  0
VERTEX
  5
1111
  8
SOILS
 10
428361.4840138258878142
 20
518410.9612030272255652
 30
0.0
  0
VERTEX
  5
1112
  8
SOILS
 10
428348.694245281687472
 20
518377.995874868822284
 30
0.0
  0
VERTEX
  5
1113
  8
SOILS
 10
428318.189850743918214
 20
518362.8747238225769252
 30
0.0
  0
VERTEX
  5
1114
  8
SOILS
 10
428282.6390342314261943
 20
518357.9308911127736792
 30
0.0
  0
VERTEX
  5
1115
  8
SOILS
 10
428262.4163962641032413
 20
518385.942830060783308
 30
0.0
  0
VERTEX
  5
1116
  8
SOILS
 10
428244.7317657202947885
 20
518413.9451177744776942
 30
0.0
  0
VERTEX
  5
1117
  8
SOILS
 10
428220.4856311376206577
 20
518435.9288343684165739
 30
0.0
  0
VERTEX
  5
1118
  8
SOILS
 10
428213.0193763364222832
 20
518466.1747894596192054
 30
0.0
  0
VERTEX
  5
1119
  8
SOILS
 10
428193.1213307668222114
 20
518496.2144039816921577
 30
0.0
  0
VERTEX
  5
111A
  8
SOILS
 10
428183.2167167176958174
 20
518526.2244094756897539
 30
0.0
  0
VERTEX
  5
111B
  8
SOILS
 10
428173.312200297601521
 20
518556.2346134582767263
 30
0.0
  0
VERTEX
  5
111C
  8
SOILS
 10
428163.4076819709152915
 20
518586.2447160101728514
 30
0.0
  0
VERTEX
  5
111D
  8
SOILS
 10
428153.5030616782023571
 20
518616.2548169264919125
 30
0.0
  0
VERTEX
  5
111E
  8
SOILS
 10
428153.6216741128009744
 20
518656.2287458539940417
 30
0.0
  0
VERTEX
  5
111F
  8
SOILS
 10
428143.7170488677802496
 20
518686.2387443539919332
 30
0.0
  0
VERTEX
  5
1120
  8
SOILS
 10
428123.8190896671148948
 20
518716.2785425208276138
 30
0.0
  0
VERTEX
  5
1121
  8
SOILS
 10
428103.9210292465286329
 20
518746.3183375271037221
 30
0.0
  0
VERTEX
  5
1122
  8
SOILS
 10
428073.9702376017230563
 20
518756.4007686909753829
 30
0.0
  0
VERTEX
  5
1123
  8
SOILS
 10
428034.0259187208721414
 20
518766.5127980837132782
 30
0.0
  0
VERTEX
  5
1124
  8
SOILS
 10
428004.0158322816714644
 20
518756.6082689915201627
 30
0.0
  0
VERTEX
  5
1125
  8
SOILS
 10
427974.0056478208862245
 20
518746.7038412002148107
 30
0.0
  0
VERTEX
  5
1126
  8
SOILS
 10
427943.9658649000921287
 20
518726.8057881484855898
 30
0.0
  0
VERTEX
  5
1127
  8
SOILS
 10
427913.8964818835956976
 20
518696.9142120521282777
 30
0.0
  0
VERTEX
  5
1128
  8
SOILS
 10
427883.8864028556272388
 20
518687.0096912540029734
 30
0.0
  0
VERTEX
  5
1129
  8
SOILS
 10
427853.8762260667863302
 20
518677.1050718982005492
 30
0.0
  0
VERTEX
  5
112A
  8
SOILS
 10
427823.8067462471080944
 20
518647.2135062756715342
 30
0.0
  0
VERTEX
  5
112B
  8
SOILS
 10
427793.7965730400756001
 20
518637.3088914470281452
 30
0.0
  0
VERTEX
  5
112C
  8
SOILS
 10
427763.7864017377141863
 20
518627.4043780484935269
 30
0.0
  0
VERTEX
  5
112D
  8
SOILS
 10
427723.8124144027824514
 20
518627.5229910222114995
 30
0.0
  0
VERTEX
  5
112E
  8
SOILS
 10
427693.861454920086544
 20
518637.6053212260012515
 30
0.0
  0
VERTEX
  5
112F
  8
SOILS
 10
427663.9105971136013977
 20
518647.6878498811856844
 30
0.0
  0
VERTEX
  5
1130
  8
SOILS
 10
427634.0190458029974252
 20
518677.7573151548276655
 30
0.0
  0
VERTEX
  5
1131
  8
SOILS
 10
427604.0681915036984719
 20
518687.8398392266244628
 30
0.0
  0
VERTEX
  5
1132
  8
SOILS
 10
427584.1700594446738251
 20
518717.8795959001872689
 30
0.0
  0
VERTEX
  5
1133
  8
SOILS
 10
427554.2488084416254424
 20
518737.955632608209271
 30
0.0
  0
VERTEX
  5
1134
  8
SOILS
 10
427524.2979587765876204
 20
518748.0380501330946572
 30
0.0
  0
VERTEX
  5
1135
  8
SOILS
 10
427484.3237957836245187
 20
518748.1566504939110018
 30
0.0
  0
VERTEX
  5
1136
  8
SOILS
 10
427454.3136509326286614
 20
518738.2520364443771541
 30
0.0
  0
VERTEX
  5
1137
  8
SOILS
 10
427424.3034080609213561
 20
518728.3475236935191788
 30
0.0
  0
VERTEX
  5
1138
  8
SOILS
 10
427384.2996544415946119
 20
518718.4726133369840682
 30
0.0
  0
VERTEX
  5
1139
  8
SOILS
 10
427344.3255056489724666
 20
518718.5912166204070672
 30
0.0
  0
VERTEX
  5
113A
  8
SOILS
 10
427314.3745724746258929
 20
518728.6736300793709233
 30
0.0
  0
VERTEX
  5
113B
  8
SOILS
 10
427284.4236411823076196
 20
518738.7561419334961101
 30
0.0
  0
VERTEX
  5
113C
  8
SOILS
 10
427254.4727120343013667
 20
518748.8385523236938752
 30
0.0
  0
VERTEX
  5
113D
  8
SOILS
 10
427234.5745926299714483
 20
518778.8784791310899891
 30
0.0
  0
VERTEX
  5
113E
  8
SOILS
 10
427214.6764718043268658
 20
518808.918502839980647
 30
0.0
  0
VERTEX
  5
113F
  8
SOILS
 10
427184.7848420728114434
 20
518838.9880214086151682
 30
0.0
  0
VERTEX
  5
1140
  8
SOILS
 10
427164.8867192975012586
 20
518869.0279383711749688
 30
0.0
  0
VERTEX
  5
1141
  8
SOILS
 10
427115.0673681009211577
 20
518919.1439528006012551
 30
0.0
  0
VERTEX
  5
1142
  8
SOILS
 10
427085.1162471688003279
 20
518929.2264448155183345
 30
0.0
  0
VERTEX
  5
1143
  8
SOILS
 10
427055.1061370886745863
 20
518919.3219268631073646
 30
0.0
  0
VERTEX
  5
1144
  8
SOILS
 10
427015.1318216830841266
 20
518919.4405093567911536
 30
0.0
  0
VERTEX
  5
1145
  8
SOILS
 10
426985.2106033460004255
 20
518939.5166016772272997
 30
0.0
  0
VERTEX
  5
1146
  8
SOILS
 10
426985.3292816774919629
 20
518979.4909121879027225
 30
0.0
  0
VERTEX
  5
1147
  8
SOILS
 10
426985.4477562319952995
 20
519019.4651225382112898
 30
0.0
  0
VERTEX
  5
1148
  8
SOILS
 10
426975.5432318631210364
 20
519049.4754229084937833
 30
0.0
  0
VERTEX
  5
1149
  8
SOILS
 10
426955.6452034806134179
 20
519079.5153134693973698
 30
0.0
  0
VERTEX
  5
114A
  8
SOILS
 10
426925.6941903124097735
 20
519089.597889278025832
 30
0.0
  0
VERTEX
  5
114B
  8
SOILS
 10
426885.7199877232196741
 20
519089.7165545109892264
 30
0.0
  0
VERTEX
  5
114C
  8
SOILS
 10
426855.7096969634876586
 20
519079.8120290490915067
 30
0.0
  0
VERTEX
  5
114D
  8
SOILS
 10
426825.6697164018987678
 20
519059.9139064744231291
 30
0.0
  0
VERTEX
  5
114E
  8
SOILS
 10
426795.7186135372030549
 20
519069.9965802220976911
 30
0.0
  0
VERTEX
  5
114F
  8
SOILS
 10
426765.7676128754974343
 20
519080.0790527096833102
 30
0.0
  0
VERTEX
  5
1150
  8
SOILS
 10
426735.9649670806829818
 20
519140.1295052635250613
 30
0.0
  0
VERTEX
  5
1151
  8
SOILS
 10
426706.0139690163778141
 20
519150.212070822075475
 30
0.0
  0
VERTEX
  5
1152
  8
SOILS
 10
426676.0034935874864459
 20
519140.3075449715834111
 30
0.0
  0
VERTEX
  5
1153
  8
SOILS
 10
426646.0525999938254245
 20
519150.3901091055013239
 30
0.0
  0
VERTEX
  5
1154
  8
SOILS
 10
426616.1311978222802281
 20
519170.4662647590739653
 30
0.0
  0
VERTEX
  5
1155
  8
SOILS
 10
426596.2330780850024894
 20
519200.5063215579721145
 30
0.0
  0
VERTEX
  5
1156
  8
SOILS
 10
426586.3285495053278282
 20
519230.5166877168812789
 30
0.0
  0
VERTEX
  5
1157
  8
SOILS
 10
426586.4472980687278323
 20
519270.4909581022220664
 30
0.0
  0
VERTEX
  5
1158
  8
SOILS
 10
426576.5426643438986503
 20
519300.5014215678093024
 30
0.0
  0
VERTEX
  5
1159
  8
SOILS
 10
426546.6213595686131157
 20
519320.5776623662095517
 30
0.0
  0
VERTEX
  5
115A
  8
SOILS
 10
426516.6702712940168567
 20
519330.6602092338725924
 30
0.0
  0
VERTEX
  5
115B
  8
SOILS
 10
426476.696009956416674
 20
519330.7789496231125668
 30
0.0
  0
VERTEX
  5
115C
  8
SOILS
 10
426446.6855564843281172
 20
519320.8744157425826415
 30
0.0
  0
VERTEX
  5
115D
  8
SOILS
 10
426416.6455192983266897
 20
519300.9762952122255228
 30
0.0
  0
VERTEX
  5
115E
  8
SOILS
 10
426386.6053834751946852
 20
519281.0781775749055669
 30
0.0
  0
VERTEX
  5
115F
  8
SOILS
 10
426356.5652489411877468
 20
519261.180062964616809
 30
0.0
  0
VERTEX
  5
1160
  8
SOILS
 10
426346.4826007562223822
 20
519231.2289902634220198
 30
0.0
  0
VERTEX
  5
1161
  8
SOILS
 10
426326.4063644458074123
 20
519201.3076074175769463
 30
0.0
  0
VERTEX
  5
1162
  8
SOILS
 10
426296.3959191867033951
 20
519191.4030871405266225
 30
0.0
  0
VERTEX
  5
1163
  8
SOILS
 10
426256.4216803736053407
 20
519191.5217415909282863
 30
0.0
  0
VERTEX
  5
1164
  8
SOILS
 10
426226.4111404013819993
 20
519181.6171237434027717
 30
0.0
  0
VERTEX
  5
1165
  8
SOILS
 10
426186.4368086227914318
 20
519181.7358789459103718
 30
0.0
  0
VERTEX
  5
1166
  8
SOILS
 10
426156.4857511104783043
 20
519191.8185270056128502
 30
0.0
  0
VERTEX
  5
1167
  8
SOILS
 10
426126.5344958856003359
 20
519201.9010733364266343
 30
0.0
  0
VERTEX
  5
1168
  8
SOILS
 10
426096.5241657823789865
 20
519191.9965581280994229
 30
0.0
  0
VERTEX
  5
1169
  8
SOILS
 10
426066.5136379937175661
 20
519182.0919442300801165
 30
0.0
  0
VERTEX
  5
116A
  8
SOILS
 10
426046.4373123308178037
 20
519152.1705849602003582
 30
0.0
  0
VERTEX
  5
116B
  8
SOILS
 10
426046.3187521884101443
 20
519112.1961697587976232
 30
0.0
  0
VERTEX
  5
116C
  8
SOILS
 10
426076.2697992959874682
 20
519102.1135184937738813
 30
0.0
  0
VERTEX
  5
116D
  8
SOILS
 10
426096.168085518409498
 20
519072.0732968050870113
 30
0.0
  0
VERTEX
  5
116E
  8
SOILS
 10
426096.0493172472924925
 20
519032.0989762725075707
 30
0.0
  0
VERTEX
  5
116F
  8
SOILS
 10
426075.9731787053169683
 20
519002.1775227600010112
 30
0.0
  0
VERTEX
  5
1170
  8
SOILS
 10
426055.8969389947014861
 20
518972.2560721642803401
 30
0.0
  0
VERTEX
  5
1171
  8
SOILS
 10
426025.8864089536946267
 20
518962.3513760776841082
 30
0.0
  0
VERTEX
  5
1172
  8
SOILS
 10
425995.8759807447786443
 20
518952.4467815512907691
 30
0.0
  0
VERTEX
  5
1173
  8
SOILS
 10
425955.8718779518967494
 20
518942.5718832205166109
 30
0.0
  0
VERTEX
  5
1174
  8
SOILS
 10
425915.8973741199006326
 20
518942.6904623759910464
 30
0.0
  0
VERTEX
  5
1175
  8
SOILS
 10
425875.9230740609928034
 20
518942.8091416913084686
 30
0.0
  0
VERTEX
  5
1176
  8
SOILS
 10
425845.9718465248006396
 20
518952.8916996929910965
 30
0.0
  0
VERTEX
  5
1177
  8
SOILS
 10
425816.0503150303848088
 20
518972.967929114412982
 30
0.0
  0
VERTEX
  5
1178
  8
SOILS
 10
425786.1287846444174647
 20
518993.0442554174805991
 30
0.0
  0
VERTEX
  5
1179
  8
SOILS
 10
425756.2369486460229382
 20
519023.1139503360027447
 30
0.0
  0
VERTEX
  5
117A
  8
SOILS
 10
425736.3386832397081889
 20
519053.1541485639754683
 30
0.0
  0
VERTEX
  5
117B
  8
SOILS
 10
425706.4171547960140742
 20
519073.2304647236014716
 30
0.0
  0
VERTEX
  5
117C
  8
SOILS
 10
425686.5189878682140261
 20
519103.2707566940225661
 30
0.0
  0
VERTEX
  5
117D
  8
SOILS
 10
425676.6143891745014116
 20
519133.2812557534780353
 30
0.0
  0
VERTEX
  5
117E
  8
SOILS
 10
425666.7097883124952205
 20
519163.2918532384210266
 30
0.0
  0
VERTEX
  5
117F
  8
SOILS
 10
425656.8051855422090739
 20
519193.3023492937791161
 30
0.0
  0
VERTEX
  5
1180
  8
SOILS
 10
425647.0193291301256977
 20
519263.2873188343946822
 30
0.0
  0
VERTEX
  5
1181
  8
SOILS
 10
425647.1379734151996672
 20
519303.2618936512735672
 30
0.0
  0
VERTEX
  5
1182
  8
SOILS
 10
425647.2567135796998627
 20
519343.2364686335204169
 30
0.0
  0
VERTEX
  5
1183
  8
SOILS
 10
425647.494182018795982
 20
519423.1854188403231092
 30
0.0
  0
VERTEX
  5
1184
  8
SOILS
 10
425647.6129100320977159
 20
519463.159993922803551
 30
0.0
  0
VERTEX
  5
1185
  8
SOILS
 10
425647.6335346468258649
 20
519470.0968439818243496
 30
0.0
  0
VERTEX
  5
1186
  8
SOILS
 10
425648.9205125566804782
 20
519470.4744725896161981
 30
0.0
  0
VERTEX
  5
1187
  8
SOILS
 10
425690.5427281847223639
 20
519501.2349707417888567
 30
0.0
  0
VERTEX
  5
1188
  8
SOILS
 10
425725.9991005079937167
 20
519518.7965994761907496
 30
0.0
  0
VERTEX
  5
1189
  8
SOILS
 10
425759.0772193077136762
 20
519554.4247327304910868
 30
0.0
  0
VERTEX
  5
118A
  8
SOILS
 10
425783.7690266515710391
 20
519625.804455342120491
 30
0.0
  0
VERTEX
  5
118B
  8
SOILS
 10
425817.0992960255825892
 20
519651.7916491143987514
 30
0.0
  0
VERTEX
  5
118C
  8
SOILS
 10
425867.1565575179993175
 20
519648.9509132279781625
 30
0.0
  0
VERTEX
  5
118D
  8
SOILS
 10
425915.590137809922453
 20
519606.2542011230252683
 30
0.0
  0
VERTEX
  5
118E
  8
SOILS
 10
426009.4233597054844722
 20
519577.9610216153087094
 30
0.0
  0
VERTEX
  5
118F
  8
SOILS
 10
426364.5179473310709
 20
519487.7221290639135987
 30
0.0
  0
VERTEX
  5
1190
  8
SOILS
 10
426470.1842106734984554
 20
519471.7653891798108816
 30
0.0
  0
VERTEX
  5
1191
  8
SOILS
 10
426484.0473072839085944
 20
519465.3180087332148105
 30
0.0
  0
VERTEX
  5
1192
  8
SOILS
 10
426543.5702863006154075
 20
519437.6351117757149041
 30
0.0
  0
VERTEX
  5
1193
  8
SOILS
 10
426642.7561802259879187
 20
519406.0383762781275436
 30
0.0
  0
VERTEX
  5
1194
  8
SOILS
 10
426710.1949978576158173
 20
519390.2634988168720156
 30
0.0
  0
VERTEX
  5
1195
  8
SOILS
 10
426758.3251136195030995
 20
519390.3268029013997875
 30
0.0
  0
VERTEX
  5
1196
  8
SOILS
 10
426760.2015867864247411
 20
519389.7101212592096999
 30
0.0
  0
VERTEX
  5
1197
  8
SOILS
 10
426843.8130207560025156
 20
519338.6002349451882765
 30
0.0
  0
VERTEX
  5
1198
  8
SOILS
 10
426922.4540548094082624
 20
519323.0629571608151309
 30
0.0
  0
VERTEX
  5
1199
  8
SOILS
 10
427095.3752227383083664
 20
519429.0657786516239867
 30
0.0
  0
VERTEX
  5
119A
  8
SOILS
 10
427182.0027206123922952
 20
519537.9366758220712654
 30
0.0
  0
VERTEX
  5
119B
  8
SOILS
 10
427289.3463519447250292
 20
519783.8646199399954639
 30
0.0
  0
VERTEX
  5
119C
  8
SOILS
 10
427370.9504572759033181
 20
519910.5313191405148245
 30
0.0
  0
VERTEX
  5
119D
  8
SOILS
 10
427483.0138788786134683
 20
520037.081820881285239
 30
0.0
  0
VERTEX
  5
119E
  8
SOILS
 10
427612.7389087653136812
 20
520128.010929383977782
 30
0.0
  0
VERTEX
  5
119F
  8
SOILS
 10
427747.5023901190725155
 20
520206.2228175463969819
 30
0.0
  0
VERTEX
  5
11A0
  8
SOILS
 10
427905.0721781819011085
 20
520271.6498230270226486
 30
0.0
  0
VERTEX
  5
11A1
  8
SOILS
 10
428065.1725904314080253
 20
520334.5275414640200324
 30
0.0
  0
VERTEX
  5
11A2
  8
SOILS
 10
428099.1201584778027609
 20
520345.477756945125293
 30
0.0
  0
VERTEX
  5
11A3
  8
SOILS
 10
428102.7255690342281014
 20
520344.9674890278838575
 30
0.0
  0
VERTEX
  5
11A4
  8
SOILS
 10
428126.5202040303847753
 20
520344.9988416511914693
 30
0.0
  0
VERTEX
  5
11A5
  8
SOILS
 10
428150.3149403901188634
 20
520345.0301944062812254
 30
0.0
  0
VERTEX
  5
11A6
  8
SOILS
 10
428180.3894092427217402
 20
520342.040302129695192
 30
0.0
  0
VERTEX
  5
11A7
  8
SOILS
 10
428208.8495693620061502
 20
520331.5348175892722793
 30
0.0
  0
VERTEX
  5
11A8
  8
SOILS
 10
428226.7515245146933012
 20
520314.5372815799200907
 30
0.0
  0
VERTEX
  5
11A9
  8
SOILS
 10
428260.5127281334716827
 20
520286.9378567935200408
 30
0.0
  0
VERTEX
  5
11AA
  8
SOILS
 10
428257.0520896434900351
 20
520264.2541049196734093
 30
0.0
  0
VERTEX
  5
11AB
  8
SOILS
 10
428266.6943954619928263
 20
520231.9219407829805277
 30
0.0
  0
VERTEX
  5
11AC
  8
SOILS
 10
428279.3164443832938559
 20
520208.6159995101043023
 30
0.0
  0
VERTEX
  5
11AD
  8
SOILS
 10
428300.3612217764020897
 20
520172.5932333411765285
 30
0.0
  0
VERTEX
  5
11AE
  8
SOILS
 10
428327.7958018163917586
 20
520151.3587022965075448
 30
0.0
  0
VERTEX
  5
11AF
  8
SOILS
 10
428377.1845468559768051
 20
520115.2514647638890892
 30
0.0
  0
VERTEX
  5
11B0
  8
SOILS
 10
428400.3760207757004537
 20
520089.7988126444979571
 30
0.0
  0
VERTEX
  5
11B1
  8
SOILS
 10
428427.3466658751131035
 20
520053.1843836235930212
 30
0.0
  0
VERTEX
  5
11B2
  8
SOILS
 10
428501.3409565790789202
 20
520007.0015079635195434
 30
0.0
  0
VERTEX
  5
11B3
  8
SOILS
 10
428539.6077523527201265
 20
519964.5816181792179123
 30
0.0
  0
SEQEND
  5
11B4
  8
SOILS
  0
POLYLINE
  5
7C
  8
SOILS
 66
     1
 10
0.0
 20
0.0
 30
0.0
 70
     1
  0
VERTEX
  5
11B5
  8
SOILS
 10
428589.6732639066176489
 20
519935.3307640579878353
 30
0.0
  0
VERTEX
  5
11B6
  8
SOILS
 10
428582.34245633991668
 20
519940.2581759943859652
 30
0.0
  0
VERTEX
  5
11B7
  8
SOILS
 10
428588.1754027808201499
 20
519936.9382429220713675
 30
0.0
  0
SEQEND
  5
11B8
  8
SOILS
  0
POLYLINE
  5
7D
  8
SOILS
 66
     1
 10
0.0
 20
0.0
 30
0.0
 70
     1
  0
VERTEX
  5
11B9
  8
SOILS
 10
429806.2750549477059394
 20
519045.6988027071929537
 30
0.0
  0
VERTEX
  5
11BA
  8
SOILS
 10
429789.9469740751083009
 20
519065.8008463464793749
 30
0.0
  0
VERTEX
  5
11BB
  8
SOILS
 10
429777.3543504212284461
 20
519098.8625546633265913
 30
0.0
  0
VERTEX
  5
11BC
  8
SOILS
 10
429774.9526129108271562
 20
519144.5832592807710171
 30
0.0
  0
VERTEX
  5
11BD
  8
SOILS
 10
429780.1276098871021532
 20
519177.5773613190976903
 30
0.0
  0
VERTEX
  5
11BE
  8
SOILS
 10
429780.2413534680963494
 20
519215.669679441023618
 30
0.0
  0
VERTEX
  5
11BF
  8
SOILS
 10
429772.7251536136027426
 20
519248.712196541018784
 30
0.0
  0
VERTEX
  5
11C0
  8
SOILS
 10
429744.8651950003113598
 20
519269.1345811596838757
 30
0.0
  0
VERTEX
  5
11C1
  8
SOILS
 10
429711.9060746511095203
 20
519281.9579055670765229
 30
0.0
  0
VERTEX
  5
11C2
  8
SOILS
 10
429689.1377383095095865
 20
519307.4398278511944227
 30
0.0
  0
VERTEX
  5
11C3
  8
SOILS
 10
429668.9153609363711439
 20
519335.451618975319434
 30
0.0
  0
VERTEX
  5
11C4
  8
SOILS
 10
429648.7004243560950272
 20
519366.0030206561787054
 30
0.0
  0
VERTEX
  5
11C5
  8
SOILS
 10
429625.9321860108757392
 20
519391.4850340727716684
 30
0.0
  0
VERTEX
  5
11C6
  8
SOILS
 10
429608.2479228809825145
 20
519419.4872745195752941
 30
0.0
  0
VERTEX
  5
11C7
  8
SOILS
 10
429585.4948658872745
 20
519450.0483088240143843
 30
0.0
  0
VERTEX
  5
11C8
  8
SOILS
 10
429567.8256825307034887
 20
519483.1295700073242188
 30
0.0
  0
VERTEX
  5
11C9
  8
SOILS
 10
429550.1491562000010163
 20
519513.6713154956814833
 30
0.0
  0
VERTEX
  5
11CA
  8
SOILS
 10
429504.61257134238258
 20
519564.6354094336275011
 30
0.0
  0
VERTEX
  5
11CB
  8
SOILS
 10
429479.3135524772806093
 20
519592.6666550189256668
 30
0.0
  0
VERTEX
  5
11CC
  8
SOILS
 10
429448.9231204303214327
 20
519615.6383530648890883
 30
0.0
  0
VERTEX
  5
11CD
  8
SOILS
 10
429415.9563734089024365
 20
519625.9221266056993045
 30
0.0
  0
VERTEX
  5
11CE
  8
SOILS
 10
429380.4284930963185616
 20
519628.5971025018952787
 30
0.0
  0
VERTEX
  5
11CF
  8
SOILS
 10
429347.3934906055801548
 20
519616.0253672719118185
 30
0.0
  0
VERTEX
  5
11D0
  8
SOILS
 10
429321.9427749121095985
 20
519593.2667662015883252
 30
0.0
  0
VERTEX
  5
11D1
  8
SOILS
 10
429304.091624220716767
 20
519565.3999233404756524
 30
0.0
  0
VERTEX
  5
11D2
  8
SOILS
 10
429291.3018209853908047
 20
519532.434778509195894
 30
0.0
  0
VERTEX
  5
11D3
  8
SOILS
 10
429268.374237475276459
 20
519504.5873227483243681
 30
0.0
  0
VERTEX
  5
11D4
  8
SOILS
 10
429240.3775649932213128
 20
519479.298763497674372
 30
0.0
  0
VERTEX
  5
11D5
  8
SOILS
 10
429209.8733429122949019
 20
519464.1777932452969253
 30
0.0
  0
VERTEX
  5
11D6
  8
SOILS
 10
429174.2999352389015257
 20
519451.6158183214720339
 30
0.0
  0
VERTEX
  5
11D7
  8
SOILS
 10
429138.7492544464184903
 20
519446.6721769793075509
 30
0.0
  0
VERTEX
  5
11D8
  8
SOILS
 10
429105.7748964886995964
 20
519454.4165461452794261
 30
0.0
  0
VERTEX
  5
11D9
  8
SOILS
 10
429075.3614782433141954
 20
519469.769702649791725
 30
0.0
  0
VERTEX
  5
11DA
  8
SOILS
 10
429045.0845969620277174
 20
519530.8339333875919692
 30
0.0
  0
VERTEX
  5
11DB
  8
SOILS
 10
429019.7704287167871371
 20
519553.7862290429184213
 30
0.0
  0
VERTEX
  5
11DC
  8
SOILS
 10
428989.3570132089080289
 20
519569.1393745347158983
 30
0.0
  0
VERTEX
  5
11DD
  8
SOILS
 10
428956.3218417487223633
 20
519556.5676564096938819
 30
0.0
  0
VERTEX
  5
11DE
  8
SOILS
 10
428923.2791321476106532
 20
519541.4563314903061837
 30
0.0
  0
VERTEX
  5
11DF
  8
SOILS
 10
428887.7132934997207485
 20
519531.433867396612186
 30
0.0
  0
VERTEX
  5
11E0
  8
SOILS
 10
428852.1778207736206241
 20
519531.5693394690169953
 30
0.0
  0
VERTEX
  5
11E1
  8
SOILS
 10
428816.6727139453287236
 20
519541.8627449651248753
 30
0.0
  0
VERTEX
  5
11E2
  8
SOILS
 10
428788.8202476833248511
 20
519564.8248670367756858
 30
0.0
  0
VERTEX
  5
11E3
  8
SOILS
 10
428766.0594860956771299
 20
519592.8465210449066944
 30
0.0
  0
VERTEX
  5
11E4
  8
SOILS
 10
428750.9209984642802738
 20
519623.3787587492261082
 30
0.0
  0
VERTEX
  5
11E5
  8
SOILS
 10
428743.41252321889624
 20
519658.9609897778136656
 30
0.0
  0
VERTEX
  5
11E6
  8
SOILS
 10
428740.9805680484860204
 20
519694.5237399715115316
 30
0.0
  0
VERTEX
  5
11E7
  8
SOILS
 10
428736.0102981572272256
 20
519730.0962291826144792
 30
0.0
  0
VERTEX
  5
11E8
  8
SOILS
 10
428725.9558629581006244
 20
519763.1486882427125238
 30
0.0
  0
VERTEX
  5
11E9
  8
SOILS
 10
428708.2868913714191876
 20
519796.2299635013914667
 30
0.0
  0
VERTEX
  5
11EA
  8
SOILS
 10
428693.4314516233280301
 20
519819.7529379684128799
 30
0.0
  0
VERTEX
  5
11EB
  8
SOILS
 10
428714.6905065609025769
 20
519803.2983085719752125
 30
0.0
  0
VERTEX
  5
11EC
  8
SOILS
 10
428752.8984173904755153
 20
519770.2823250698274933
 30
0.0
  0
VERTEX
  5
11ED
  8
SOILS
 10
428780.6070352263050154
 20
519732.9851009732228704
 30
0.0
  0
VERTEX
  5
11EE
  8
SOILS
 10
428821.0632337484275922
 20
519771.9613007889711298
 30
0.0
  0
VERTEX
  5
11EF
  8
SOILS
 10
428876.8669107913738117
 20
519827.1588830503751524
 30
0.0
  0
VERTEX
  5
11F0
  8
SOILS
 10
428935.4544699303223751
 20
519799.1501663263188675
 30
0.0
  0
VERTEX
  5
11F1
  8
SOILS
 10
429005.7574881056789309
 20
519817.564108369871974
 30
0.0
  0
VERTEX
  5
11F2
  8
SOILS
 10
429026.7565015659783967
 20
519765.7231084196828306
 30
0.0
  0
VERTEX
  5
11F3
  8
SOILS
 10
429045.5031646091956645
 20
519722.9205201097065583
 30
0.0
  0
VERTEX
  5
11F4
  8
SOILS
 10
429081.9019928025081754
 20
519673.3954124749288894
 30
0.0
  0
VERTEX
  5
11F5
  8
SOILS
 10
429121.5533080192981288
 20
519678.1510240695206448
 30
0.0
  0
VERTEX
  5
11F6
  8
SOILS
 10
429170.2262867910903879
 20
519666.441021898179315
 30
0.0
  0
VERTEX
  5
11F7
  8
SOILS
 10
429188.1037607010221109
 20
519709.2533056081738323
 30
0.0
  0
VERTEX
  5
11F8
  8
SOILS
 10
429265.6809057535137981
 20
519762.9142876524128951
 30
0.0
  0
VERTEX
  5
11F9
  8
SOILS
 10
429299.7354977531940676
 20
519791.2101434958749451
 30
0.0
  0
VERTEX
  5
11FA
  8
SOILS
 10
429329.943697415292263
 20
519817.4000128522748128
 30
0.0
  0
VERTEX
  5
11FB
  8
SOILS
 10
429351.1905893057119101
 20
519850.6680318845901638
 30
0.0
  0
VERTEX
  5
11FC
  8
SOILS
 10
429397.1527569406898692
 20
519866.5505267254193313
 30
0.0
  0
VERTEX
  5
11FD
  8
SOILS
 10
429423.8500388386892155
 20
519854.9864948553731665
 30
0.0
  0
VERTEX
  5
11FE
  8
SOILS
 10
429436.2006491968058981
 20
519824.5256792012951337
 30
0.0
  0
VERTEX
  5
11FF
  8
SOILS
 10
429477.0331446938216686
 20
519775.1090132165118121
 30
0.0
  0
VERTEX
  5
1200
  8
SOILS
 10
429516.0247766934917308
 20
519749.6582445841049775
 30
0.0
  0
VERTEX
  5
1201
  8
SOILS
 10
429568.9425366417854093
 20
519729.7483494703192264
 30
0.0
  0
VERTEX
  5
1202
  8
SOILS
 10
429722.6971715547842905
 20
519608.6366354657220654
 30
0.0
  0
VERTEX
  5
1203
  8
SOILS
 10
429744.693387063103728
 20
519571.8648915885132737
 30
0.0
  0
VERTEX
  5
1204
  8
SOILS
 10
429764.0052974454010837
 20
519556.8998798378161155
 30
0.0
  0
VERTEX
  5
1205
  8
SOILS
 10
429794.5346578637836501
 20
519533.2423272008891217
 30
0.0
  0
VERTEX
  5
1206
  8
SOILS
 10
429808.8962178161018528
 20
519506.2763579235761426
 30
0.0
  0
VERTEX
  5
1207
  8
SOILS
 10
429824.3417984441039152
 20
519477.2746572741889395
 30
0.0
  0
VERTEX
  5
1208
  8
SOILS
 10
429826.2663064639200456
 20
519452.5356866723159328
 30
0.0
  0
VERTEX
  5
1209
  8
SOILS
 10
429857.1860105083906092
 20
519392.8122298219823278
 30
0.0
  0
VERTEX
  5
120A
  8
SOILS
 10
429863.9791841948172078
 20
519367.2309800966177136
 30
0.0
  0
VERTEX
  5
120B
  8
SOILS
 10
429874.3006175850168802
 20
519327.8980069842073135
 30
0.0
  0
VERTEX
  5
120C
  8
SOILS
 10
429879.7841010111151263
 20
519303.8408489280263893
 30
0.0
  0
VERTEX
  5
120D
  8
SOILS
 10
429875.2952327617094852
 20
519275.6917182594188489
 30
0.0
  0
VERTEX
  5
120E
  8
SOILS
 10
429860.7799376875045709
 20
519247.5513474175822921
 30
0.0
  0
VERTEX
  5
120F
  8
SOILS
 10
429856.5681117359781638
 20
519227.0982446813140996
 30
0.0
  0
VERTEX
  5
1210
  8
SOILS
 10
429863.9740969510748982
 20
519197.7624547383747995
 30
0.0
  0
VERTEX
  5
1211
  8
SOILS
 10
429872.6604565047891811
 20
519173.6689483366790228
 30
0.0
  0
VERTEX
  5
1212
  8
SOILS
 10
429877.1520528719993308
 20
519156.4151708016288467
 30
0.0
  0
VERTEX
  5
1213
  8
SOILS
 10
429875.933107644377742
 20
519137.7041865965002216
 30
0.0
  0
VERTEX
  5
1214
  8
SOILS
 10
429871.0896365049993619
 20
519123.2267272003227845
 30
0.0
  0
VERTEX
  5
1215
  8
SOILS
 10
429858.3881813907064497
 20
519101.7302597769885324
 30
0.0
  0
VERTEX
  5
1216
  8
SOILS
 10
429849.9515746380202472
 20
519091.6286670321715064
 30
0.0
  0
VERTEX
  5
1217
  8
SOILS
 10
429840.9053418934927322
 20
519081.3428005434107035
 30
0.0
  0
VERTEX
  5
1218
  8
SOILS
 10
429831.2496826439164579
 20
519070.8729604198015295
 30
0.0
  0
VERTEX
  5
1219
  8
SOILS
 10
429820.9846973796957172
 20
519060.2187471407814883
 30
0.0
  0
VERTEX
  5
121A
  8
SOILS
 10
429810.1104859266197309
 20
519049.3802608288824558
 30
0.0
  0
SEQEND
  5
121B
  8
SOILS
  0
POLYLINE
  5
B2
  8
SOILS
 66
     1
 10
0.0
 20
0.0
 30
0.0
 70
     1
  0
VERTEX
  5
121C
  8
SOILS
 10
425429.0413443463039584
 20
519783.7209776646923274
 30
0.0
  0
VERTEX
  5
121D
  8
SOILS
 10
425428.4550319142872468
 20
519586.9443987425765954
 30
0.0
  0
VERTEX
  5
121E
  8
SOILS
 10
425440.2443514583283104
 20
519519.6477915064897388
 30
0.0
  0
VERTEX
  5
121F
  8
SOILS
 10
425520.7971310970024206
 20
519465.9538205363787711
 30
0.0
  0
VERTEX
  5
1220
  8
SOILS
 10
425606.1773430649773218
 20
519457.9342257907846943
 30
0.0
  0
VERTEX
  5
1221
  8
SOILS
 10
425647.6335346468258649
 20
519470.0968439818243496
 30
0.0
  0
VERTEX
  5
1222
  8
SOILS
 10
425647.6129100320977159
 20
519463.159993922803551
 30
0.0
  0
VERTEX
  5
1223
  8
SOILS
 10
425647.494182018795982
 20
519423.1854188403231092
 30
0.0
  0
VERTEX
  5
1224
  8
SOILS
 10
425647.2567135796998627
 20
519343.2364686335204169
 30
0.0
  0
VERTEX
  5
1225
  8
SOILS
 10
425647.1379734151996672
 20
519303.2618936512735672
 30
0.0
  0
VERTEX
  5
1226
  8
SOILS
 10
425647.0193291301256977
 20
519263.2873188343946822
 30
0.0
  0
VERTEX
  5
1227
  8
SOILS
 10
425656.8051855422090739
 20
519193.3023492937791161
 30
0.0
  0
VERTEX
  5
1228
  8
SOILS
 10
425666.7097883124952205
 20
519163.2918532384210266
 30
0.0
  0
VERTEX
  5
1229
  8
SOILS
 10
425676.6143891745014116
 20
519133.2812557534780353
 30
0.0
  0
VERTEX
  5
122A
  8
SOILS
 10
425686.5189878682140261
 20
519103.2707566940225661
 30
0.0
  0
VERTEX
  5
122B
  8
SOILS
 10
425706.4171547960140742
 20
519073.2304647236014716
 30
0.0
  0
VERTEX
  5
122C
  8
SOILS
 10
425736.3386832397081889
 20
519053.1541485639754683
 30
0.0
  0
VERTEX
  5
122D
  8
SOILS
 10
425756.2369486460229382
 20
519023.1139503360027447
 30
0.0
  0
VERTEX
  5
122E
  8
SOILS
 10
425786.1287846444174647
 20
518993.0442554174805991
 30
0.0
  0
VERTEX
  5
122F
  8
SOILS
 10
425816.0503150303848088
 20
518972.967929114412982
 30
0.0
  0
VERTEX
  5
1230
  8
SOILS
 10
425845.9718465248006396
 20
518952.8916996929910965
 30
0.0
  0
VERTEX
  5
1231
  8
SOILS
 10
425875.9230740609928034
 20
518942.8091416913084686
 30
0.0
  0
VERTEX
  5
1232
  8
SOILS
 10
425915.8973741199006326
 20
518942.6904623759910464
 30
0.0
  0
VERTEX
  5
1233
  8
SOILS
 10
425955.8718779518967494
 20
518942.5718832205166109
 30
0.0
  0
VERTEX
  5
1234
  8
SOILS
 10
425995.8759807447786443
 20
518952.4467815512907691
 30
0.0
  0
VERTEX
  5
1235
  8
SOILS
 10
426025.8864089536946267
 20
518962.3513760776841082
 30
0.0
  0
VERTEX
  5
1236
  8
SOILS
 10
426055.8969389947014861
 20
518972.2560721642803401
 30
0.0
  0
VERTEX
  5
1237
  8
SOILS
 10
426075.9731787053169683
 20
519002.1775227600010112
 30
0.0
  0
VERTEX
  5
1238
  8
SOILS
 10
426096.0493172472924925
 20
519032.0989762725075707
 30
0.0
  0
VERTEX
  5
1239
  8
SOILS
 10
426096.168085518409498
 20
519072.0732968050870113
 30
0.0
  0
VERTEX
  5
123A
  8
SOILS
 10
426076.2697992959874682
 20
519102.1135184937738813
 30
0.0
  0
VERTEX
  5
123B
  8
SOILS
 10
426046.3187521884101443
 20
519112.1961697587976232
 30
0.0
  0
VERTEX
  5
123C
  8
SOILS
 10
426046.4373123308178037
 20
519152.1705849602003582
 30
0.0
  0
VERTEX
  5
123D
  8
SOILS
 10
426066.5136379937175661
 20
519182.0919442300801165
 30
0.0
  0
VERTEX
  5
123E
  8
SOILS
 10
426096.5241657823789865
 20
519191.9965581280994229
 30
0.0
  0
VERTEX
  5
123F
  8
SOILS
 10
426126.5344958856003359
 20
519201.9010733364266343
 30
0.0
  0
VERTEX
  5
1240
  8
SOILS
 10
426156.4857511104783043
 20
519191.8185270056128502
 30
0.0
  0
VERTEX
  5
1241
  8
SOILS
 10
426186.4368086227914318
 20
519181.7358789459103718
 30
0.0
  0
VERTEX
  5
1242
  8
SOILS
 10
426226.4111404013819993
 20
519181.6171237434027717
 30
0.0
  0
VERTEX
  5
1243
  8
SOILS
 10
426256.4216803736053407
 20
519191.5217415909282863
 30
0.0
  0
VERTEX
  5
1244
  8
SOILS
 10
426296.3959191867033951
 20
519191.4030871405266225
 30
0.0
  0
VERTEX
  5
1245
  8
SOILS
 10
426326.4063644458074123
 20
519201.3076074175769463
 30
0.0
  0
VERTEX
  5
1246
  8
SOILS
 10
426346.4826007562223822
 20
519231.2289902634220198
 30
0.0
  0
VERTEX
  5
1247
  8
SOILS
 10
426356.5652489411877468
 20
519261.180062964616809
 30
0.0
  0
VERTEX
  5
1248
  8
SOILS
 10
426386.6053834751946852
 20
519281.0781775749055669
 30
0.0
  0
VERTEX
  5
1249
  8
SOILS
 10
426416.6455192983266897
 20
519300.9762952122255228
 30
0.0
  0
VERTEX
  5
124A
  8
SOILS
 10
426446.6855564843281172
 20
519320.8744157425826415
 30
0.0
  0
VERTEX
  5
124B
  8
SOILS
 10
426476.696009956416674
 20
519330.7789496231125668
 30
0.0
  0
VERTEX
  5
124C
  8
SOILS
 10
426516.6702712940168567
 20
519330.6602092338725924
 30
0.0
  0
VERTEX
  5
124D
  8
SOILS
 10
426546.6213595686131157
 20
519320.5776623662095517
 30
0.0
  0
VERTEX
  5
124E
  8
SOILS
 10
426576.5426643438986503
 20
519300.5014215678093024
 30
0.0
  0
VERTEX
  5
124F
  8
SOILS
 10
426586.4472980687278323
 20
519270.4909581022220664
 30
0.0
  0
VERTEX
  5
1250
  8
SOILS
 10
426586.3285495053278282
 20
519230.5166877168812789
 30
0.0
  0
VERTEX
  5
1251
  8
SOILS
 10
426596.2330780850024894
 20
519200.5063215579721145
 30
0.0
  0
VERTEX
  5
1252
  8
SOILS
 10
426616.1311978222802281
 20
519170.4662647590739653
 30
0.0
  0
VERTEX
  5
1253
  8
SOILS
 10
426646.0525999938254245
 20
519150.3901091055013239
 30
0.0
  0
VERTEX
  5
1254
  8
SOILS
 10
426676.0034935874864459
 20
519140.3075449715834111
 30
0.0
  0
VERTEX
  5
1255
  8
SOILS
 10
426706.0139690163778141
 20
519150.212070822075475
 30
0.0
  0
VERTEX
  5
1256
  8
SOILS
 10
426735.9649670806829818
 20
519140.1295052635250613
 30
0.0
  0
VERTEX
  5
1257
  8
SOILS
 10
426765.7676128754974343
 20
519080.0790527096833102
 30
0.0
  0
VERTEX
  5
1258
  8
SOILS
 10
426795.7186135372030549
 20
519069.9965802220976911
 30
0.0
  0
VERTEX
  5
1259
  8
SOILS
 10
426825.6697164018987678
 20
519059.9139064744231291
 30
0.0
  0
VERTEX
  5
125A
  8
SOILS
 10
426855.7096969634876586
 20
519079.8120290490915067
 30
0.0
  0
VERTEX
  5
125B
  8
SOILS
 10
426885.7199877232196741
 20
519089.7165545109892264
 30
0.0
  0
VERTEX
  5
125C
  8
SOILS
 10
426925.6941903124097735
 20
519089.597889278025832
 30
0.0
  0
VERTEX
  5
125D
  8
SOILS
 10
426955.6452034806134179
 20
519079.5153134693973698
 30
0.0
  0
VERTEX
  5
125E
  8
SOILS
 10
426975.5432318631210364
 20
519049.4754229084937833
 30
0.0
  0
VERTEX
  5
125F
  8
SOILS
 10
426985.4477562319952995
 20
519019.4651225382112898
 30
0.0
  0
VERTEX
  5
1260
  8
SOILS
 10
426985.3292816774919629
 20
518979.4909121879027225
 30
0.0
  0
VERTEX
  5
1261
  8
SOILS
 10
426985.2106033460004255
 20
518939.5166016772272997
 30
0.0
  0
VERTEX
  5
1262
  8
SOILS
 10
427015.1318216830841266
 20
518919.4405093567911536
 30
0.0
  0
VERTEX
  5
1263
  8
SOILS
 10
427055.1061370886745863
 20
518919.3219268631073646
 30
0.0
  0
VERTEX
  5
1264
  8
SOILS
 10
427085.1162471688003279
 20
518929.2264448155183345
 30
0.0
  0
VERTEX
  5
1265
  8
SOILS
 10
427115.0673681009211577
 20
518919.1439528006012551
 30
0.0
  0
VERTEX
  5
1266
  8
SOILS
 10
427164.8867192975012586
 20
518869.0279383711749688
 30
0.0
  0
VERTEX
  5
1267
  8
SOILS
 10
427184.7848420728114434
 20
518838.9880214086151682
 30
0.0
  0
VERTEX
  5
1268
  8
SOILS
 10
427214.6764718043268658
 20
518808.918502839980647
 30
0.0
  0
VERTEX
  5
1269
  8
SOILS
 10
427234.5745926299714483
 20
518778.8784791310899891
 30
0.0
  0
VERTEX
  5
126A
  8
SOILS
 10
427254.4727120343013667
 20
518748.8385523236938752
 30
0.0
  0
VERTEX
  5
126B
  8
SOILS
 10
427284.4236411823076196
 20
518738.7561419334961101
 30
0.0
  0
VERTEX
  5
126C
  8
SOILS
 10
427314.3745724746258929
 20
518728.6736300793709233
 30
0.0
  0
VERTEX
  5
126D
  8
SOILS
 10
427344.3255056489724666
 20
518718.5912166204070672
 30
0.0
  0
VERTEX
  5
126E
  8
SOILS
 10
427384.2996544415946119
 20
518718.4726133369840682
 30
0.0
  0
VERTEX
  5
126F
  8
SOILS
 10
427424.3034080609213561
 20
518728.3475236935191788
 30
0.0
  0
VERTEX
  5
1270
  8
SOILS
 10
427454.3136509326286614
 20
518738.2520364443771541
 30
0.0
  0
VERTEX
  5
1271
  8
SOILS
 10
427484.3237957836245187
 20
518748.1566504939110018
 30
0.0
  0
VERTEX
  5
1272
  8
SOILS
 10
427524.2979587765876204
 20
518748.0380501330946572
 30
0.0
  0
VERTEX
  5
1273
  8
SOILS
 10
427554.2488084416254424
 20
518737.955632608209271
 30
0.0
  0
VERTEX
  5
1274
  8
SOILS
 10
427584.1700594446738251
 20
518717.8795959001872689
 30
0.0
  0
VERTEX
  5
1275
  8
SOILS
 10
427604.0681915036984719
 20
518687.8398392266244628
 30
0.0
  0
VERTEX
  5
1276
  8
SOILS
 10
427634.0190458029974252
 20
518677.7573151548276655
 30
0.0
  0
VERTEX
  5
1277
  8
SOILS
 10
427663.9105971136013977
 20
518647.6878498811856844
 30
0.0
  0
VERTEX
  5
1278
  8
SOILS
 10
427693.861454920086544
 20
518637.6053212260012515
 30
0.0
  0
VERTEX
  5
1279
  8
SOILS
 10
427723.8124144027824514
 20
518627.5229910222114995
 30
0.0
  0
VERTEX
  5
127A
  8
SOILS
 10
427763.7864017377141863
 20
518627.4043780484935269
 30
0.0
  0
VERTEX
  5
127B
  8
SOILS
 10
427793.7965730400756001
 20
518637.3088914470281452
 30
0.0
  0
VERTEX
  5
127C
  8
SOILS
 10
427823.8067462471080944
 20
518647.2135062756715342
 30
0.0
  0
VERTEX
  5
127D
  8
SOILS
 10
427853.8762260667863302
 20
518677.1050718982005492
 30
0.0
  0
VERTEX
  5
127E
  8
SOILS
 10
427883.8864028556272388
 20
518687.0096912540029734
 30
0.0
  0
VERTEX
  5
127F
  8
SOILS
 10
427913.8964818835956976
 20
518696.9142120521282777
 30
0.0
  0
VERTEX
  5
1280
  8
SOILS
 10
427943.9658649000921287
 20
518726.8057881484855898
 30
0.0
  0
VERTEX
  5
1281
  8
SOILS
 10
427974.0056478208862245
 20
518746.7038412002148107
 30
0.0
  0
VERTEX
  5
1282
  8
SOILS
 10
428004.0158322816714644
 20
518756.6082689915201627
 30
0.0
  0
VERTEX
  5
1283
  8
SOILS
 10
428034.0259187208721414
 20
518766.5127980837132782
 30
0.0
  0
VERTEX
  5
1284
  8
SOILS
 10
428073.9702376017230563
 20
518756.4007686909753829
 30
0.0
  0
VERTEX
  5
1285
  8
SOILS
 10
428103.9210292465286329
 20
518746.3183375271037221
 30
0.0
  0
VERTEX
  5
1286
  8
SOILS
 10
428123.8190896671148948
 20
518716.2785425208276138
 30
0.0
  0
VERTEX
  5
1287
  8
SOILS
 10
428143.7170488677802496
 20
518686.2387443539919332
 30
0.0
  0
VERTEX
  5
1288
  8
SOILS
 10
428153.6216741128009744
 20
518656.2287458539940417
 30
0.0
  0
VERTEX
  5
1289
  8
SOILS
 10
428153.5030616782023571
 20
518616.2548169264919125
 30
0.0
  0
VERTEX
  5
128A
  8
SOILS
 10
428163.4076819709152915
 20
518586.2447160101728514
 30
0.0
  0
VERTEX
  5
128B
  8
SOILS
 10
428173.312200297601521
 20
518556.2346134582767263
 30
0.0
  0
VERTEX
  5
128C
  8
SOILS
 10
428183.2167167176958174
 20
518526.2244094756897539
 30
0.0
  0
VERTEX
  5
128D
  8
SOILS
 10
428193.1213307668222114
 20
518496.2144039816921577
 30
0.0
  0
VERTEX
  5
128E
  8
SOILS
 10
428213.0193763364222832
 20
518466.1747894596192054
 30
0.0
  0
VERTEX
  5
128F
  8
SOILS
 10
428220.4856311376206577
 20
518435.9288343684165739
 30
0.0
  0
VERTEX
  5
1290
  8
SOILS
 10
428222.8942784784012474
 20
518426.1711462793173268
 30
0.0
  0
VERTEX
  5
1291
  8
SOILS
 10
428212.8119181256042793
 20
518396.2203537381719798
 30
0.0
  0
VERTEX
  5
1292
  8
SOILS
 10
428202.6999455771874636
 20
518356.2761293210205622
 30
0.0
  0
VERTEX
  5
1293
  8
SOILS
 10
428202.5814027877058834
 20
518316.3020957838161848
 30
0.0
  0
VERTEX
  5
1294
  8
SOILS
 10
428202.4629557456937619
 20
518276.3281623399816453
 30
0.0
  0
VERTEX
  5
1295
  8
SOILS
 10
428202.3444045925280079
 20
518236.3543287265929393
 30
0.0
  0
VERTEX
  5
1296
  8
SOILS
 10
428202.2259494495810941
 20
518196.3803953492897563
 30
0.0
  0
VERTEX
  5
1297
  8
SOILS
 10
428192.1435721985180862
 20
518166.4296102877124213
 30
0.0
  0
VERTEX
  5
1298
  8
SOILS
 10
428182.0317770572728477
 20
518126.4851943104877137
 30
0.0
  0
VERTEX
  5
1299
  8
SOILS
 10
428171.9492950927233323
 20
518096.5344124453258701
 30
0.0
  0
VERTEX
  5
129A
  8
SOILS
 10
428161.8671109047718346
 20
518066.5836325121927075
 30
0.0
  0
VERTEX
  5
129B
  8
SOILS
 10
428131.7976614729268476
 20
518036.6919904478709213
 30
0.0
  0
VERTEX
  5
129C
  8
SOILS
 10
428111.7219427961972542
 20
518006.7707341883797199
 30
0.0
  0
VERTEX
  5
129D
  8
SOILS
 10
428081.7119316961034201
 20
517996.8660612644162029
 30
0.0
  0
VERTEX
  5
129E
  8
SOILS
 10
428051.6722029360244051
 20
517976.9679601773968898
 30
0.0
  0
VERTEX
  5
129F
  8
SOILS
 10
428021.6324755963287316
 20
517957.069762188999448
 30
0.0
  0
VERTEX
  5
12A0
  8
SOILS
 10
427991.5928493458195589
 20
517937.1716672874754295
 30
0.0
  0
VERTEX
  5
12A1
  8
SOILS
 10
427961.5532245176727884
 20
517917.273475484282244
 30
0.0
  0
VERTEX
  5
12A2
  8
SOILS
 10
427931.5134011235204525
 20
517897.3752864454872906
 30
0.0
  0
VERTEX
  5
12A3
  8
SOILS
 10
427901.5033012155909091
 20
517887.4705262829083949
 30
0.0
  0
VERTEX
  5
12A4
  8
SOILS
 10
427871.4932032136130147
 20
517877.5658675510203466
 30
0.0
  0
VERTEX
  5
12A5
  8
SOILS
 10
427841.4535845459904522
 20
517857.6676863289903849
 30
0.0
  0
VERTEX
  5
12A6
  8
SOILS
 10
427811.3843439192278311
 20
517827.7758848476223648
 30
0.0
  0
VERTEX
  5
12A7
  8
SOILS
 10
427791.3084259243914858
 20
517797.8546632524812594
 30
0.0
  0
VERTEX
  5
12A8
  8
SOILS
 10
427771.2326067495741881
 20
517767.9333449098048732
 30
0.0
  0
VERTEX
  5
12A9
  8
SOILS
 10
427711.1236490323208272
 20
517718.1433914265944622
 30
0.0
  0
VERTEX
  5
12AA
  8
SOILS
 10
427681.1727140392176807
 20
517728.2256903548841365
 30
0.0
  0
VERTEX
  5
12AB
  8
SOILS
 10
427641.2282620299956761
 20
517738.337513571488671
 30
0.0
  0
VERTEX
  5
12AC
  8
SOILS
 10
427601.2542881114059128
 20
517738.4558168419171125
 30
0.0
  0
VERTEX
  5
12AD
  8
SOILS
 10
427561.2802180498256348
 20
517738.5743198047275655
 30
0.0
  0
VERTEX
  5
12AE
  8
SOILS
 10
427531.3587193912244402
 20
517758.6501293174806051
 30
0.0
  0
VERTEX
  5
12AF
  8
SOILS
 10
427501.4373219009721652
 20
517778.7259359150775708
 30
0.0
  0
VERTEX
  5
12B0
  8
SOILS
 10
427471.4865011840010993
 20
517788.808224982873071
 30
0.0
  0
VERTEX
  5
12B1
  8
SOILS
 10
427431.5123444474884309
 20
517788.9266227150219493
 30
0.0
  0
VERTEX
  5
12B2
  8
SOILS
 10
427401.5021800972754136
 20
517779.0217832128982991
 30
0.0
  0
VERTEX
  5
12B3
  8
SOILS
 10
427371.4919175948016346
 20
517769.117144935997203
 30
0.0
  0
VERTEX
  5
12B4
  8
SOILS
 10
427341.4818571188952774
 20
517759.2124084976967424
 30
0.0
  0
VERTEX
  5
12B5
  8
SOILS
 10
427311.4716987503925338
 20
517749.3076734283822589
 30
0.0
  0
VERTEX
  5
12B6
  8
SOILS
 10
427281.4319167478824966
 20
517729.4093300130916759
 30
0.0
  0
VERTEX
  5
12B7
  8
SOILS
 10
427251.3921359032974578
 20
517709.511089552717749
 30
0.0
  0
VERTEX
  5
12B8
  8
SOILS
 10
427221.3818833568948321
 20
517699.6062604527105577
 30
0.0
  0
VERTEX
  5
12B9
  8
SOILS
 10
427181.4076520783710293
 20
517699.7246669582091272
 30
0.0
  0
VERTEX
  5
12BA
  8
SOILS
 10
427141.4335249104187824
 20
517699.8429736332036555
 30
0.0
  0
VERTEX
  5
12BB
  8
SOILS
 10
427071.5379396586795337
 20
517720.0372690908261575
 30
0.0
  0
VERTEX
  5
12BC
  8
SOILS
 10
427031.5637235507019795
 20
517720.1556734459009022
 30
0.0
  0
VERTEX
  5
12BD
  8
SOILS
 10
427001.553488002915401
 20
517710.2508490178734064
 30
0.0
  0
VERTEX
  5
12BE
  8
SOILS
 10
426971.5433544220868498
 20
517700.3460262215230614
 30
0.0
  0
VERTEX
  5
12BF
  8
SOILS
 10
426941.5331228175782599
 20
517690.4413047255948186
 30
0.0
  0
VERTEX
  5
12C0
  8
SOILS
 10
426911.5227934552240185
 20
517680.5364846707088873
 30
0.0
  0
VERTEX
  5
12C1
  8
SOILS
 10
426881.483038492500782
 20
517660.638166600081604
 30
0.0
  0
VERTEX
  5
12C2
  8
SOILS
 10
426851.4134567166911438
 20
517630.7463522771140561
 30
0.0
  0
VERTEX
  5
12C3
  8
SOILS
 10
426821.3737040975829586
 20
517610.8478411678224802
 30
0.0
  0
VERTEX
  5
12C4
  8
SOILS
 10
426801.2978206200059503
 20
517580.9264058272819966
 30
0.0
  0
VERTEX
  5
12C5
  8
SOILS
 10
426771.2284390641143546
 20
517551.0344040606869385
 30
0.0
  0
VERTEX
  5
12C6
  8
SOILS
 10
426751.1525537467096001
 20
517521.1128756433026865
 30
0.0
  0
VERTEX
  5
12C7
  8
SOILS
 10
426731.076667059212923
 20
517491.1914502013823949
 30
0.0
  0
VERTEX
  5
12C8
  8
SOILS
 10
426711.000779261928983
 20
517461.2699278814834543
 30
0.0
  0
VERTEX
  5
12C9
  8
SOILS
 10
426690.9248903543921188
 20
517431.3483086794731207
 30
0.0
  0
VERTEX
  5
12CA
  8
SOILS
 10
426660.8555059228092432
 20
517401.4563266814802773
 30
0.0
  0
VERTEX
  5
12CB
  8
SOILS
 10
426630.7860216007102281
 20
517371.5643491087248549
 30
0.0
  0
VERTEX
  5
12CC
  8
SOILS
 10
426600.7166372446808964
 20
517341.6723762233159505
 30
0.0
  0
VERTEX
  5
12CD
  8
SOILS
 10
426570.7063251297804527
 20
517331.76759121340001
 30
0.0
  0
VERTEX
  5
12CE
  8
SOILS
 10
426540.6961152441799641
 20
517321.8626079800887965
 30
0.0
  0
VERTEX
  5
12CF
  8
SOILS
 10
426510.6858072042814456
 20
517311.9578259763075039
 30
0.0
  0
VERTEX
  5
12D0
  8
SOILS
 10
426480.6754014053149149
 20
517302.0529454129282385
 30
0.0
  0
VERTEX
  5
12D1
  8
SOILS
 10
426450.6651976319262758
 20
517292.1479666864033788
 30
0.0
  0
VERTEX
  5
12D2
  8
SOILS
 10
426410.6907450016005896
 20
517292.266313741216436
 30
0.0
  0
VERTEX
  5
12D3
  8
SOILS
 10
426380.6805463121272624
 20
517282.361337504175026
 30
0.0
  0
VERTEX
  5
12D4
  8
SOILS
 10
426340.7061007790034637
 20
517282.4796855131280608
 30
0.0
  0
VERTEX
  5
12D5
  8
SOILS
 10
426310.6958071127883159
 20
517272.574811564409174
 30
0.0
  0
VERTEX
  5
12D6
  8
SOILS
 10
426270.6919314349070191
 20
517262.699376747594215
 30
0.0
  0
VERTEX
  5
12D7
  8
SOILS
 10
426150.620949880219996
 20
517213.0863215638091788
 30
0.0
  0
VERTEX
  5
12D8
  8
SOILS
 10
426120.6106690861051902
 20
517203.1813577085267752
 30
0.0
  0
VERTEX
  5
12D9
  8
SOILS
 10
426090.5706510519958101
 20
517183.2828156080213375
 30
0.0
  0
VERTEX
  5
12DA
  8
SOILS
 10
426050.5371555138844997
 20
517163.4139166413806379
 30
0.0
  0
VERTEX
  5
12DB
  8
SOILS
 10
426020.5267811702215113
 20
517153.5089589288108982
 30
0.0
  0
VERTEX
  5
12DC
  8
SOILS
 10
425990.5164087323937565
 20
517143.6041026466991752
 30
0.0
  0
VERTEX
  5
12DD
  8
SOILS
 10
425960.5060384647222236
 20
517133.6991479382268153
 30
0.0
  0
VERTEX
  5
12DE
  8
SOILS
 10
425930.4660291461041197
 20
517113.8006191850290634
 30
0.0
  0
VERTEX
  5
12DF
  8
SOILS
 10
425900.4261211780831218
 20
517093.9019936603726819
 30
0.0
  0
VERTEX
  5
12E0
  8
SOILS
 10
425870.3861145738046616
 20
517074.0033710337011144
 30
0.0
  0
VERTEX
  5
12E1
  8
SOILS
 10
425840.3166661452269182
 20
517044.1112783682765439
 30
0.0
  0
VERTEX
  5
12E2
  8
SOILS
 10
425810.306304830010049
 20
517034.2063349778181873
 30
0.0
  0
VERTEX
  5
12E3
  8
SOILS
 10
425780.2663019662722945
 20
517014.3078213590197265
 30
0.0
  0
VERTEX
  5
12E4
  8
SOILS
 10
425750.2264004515018314
 20
516994.4092109720804729
 30
0.0
  0
VERTEX
  5
12E5
  8
SOILS
 10
425720.1567554593202658
 20
516964.5170332791167311
 30
0.0
  0
VERTEX
  5
12E6
  8
SOILS
 10
425690.0873104928759858
 20
516934.6247604750096798
 30
0.0
  0
VERTEX
  5
12E7
  8
SOILS
 10
425660.0768579557770863
 20
516924.7198290347005241
 30
0.0
  0
VERTEX
  5
12E8
  8
SOILS
 10
425630.0369612352224067
 20
516904.8211315904045478
 30
0.0
  0
VERTEX
  5
12E9
  8
SOILS
 10
425599.9674187139025889
 20
516874.9288700292818248
 30
0.0
  0
VERTEX
  5
12EA
  8
SOILS
 10
425579.8915423984872177
 20
516845.0071650382014923
 30
0.0
  0
VERTEX
  5
12EB
  8
SOILS
 10
425549.8219993163947947
 20
516815.1148119071731344
 30
0.0
  0
VERTEX
  5
12EC
  8
SOILS
 10
425529.7460212360019796
 20
516785.1930137085728347
 30
0.0
  0
VERTEX
  5
12ED
  8
SOILS
 10
425509.6702419015928172
 20
516755.2711188918910921
 30
0.0
  0
VERTEX
  5
12EE
  8
SOILS
 10
425479.60069726977963
 20
516725.3788778514717706
 30
0.0
  0
VERTEX
  5
12EF
  8
SOILS
 10
425449.5607042337069288
 20
516705.4803044769796543
 30
0.0
  0
VERTEX
  5
12F0
  8
SOILS
 10
425429.4848231596988626
 20
516675.5583197437226772
 30
0.0
  0
VERTEX
  5
12F1
  8
SOILS
 10
425409.409040512284264
 20
516645.6365380433853716
 30
0.0
  0
VERTEX
  5
12F2
  8
SOILS
 10
425403.8655506821232848
 20
516629.1683836170122959
 30
0.0
  0
VERTEX
  5
12F3
  8
SOILS
 10
425338.7190366470022127
 20
516686.273003168811556
 30
0.0
  0
VERTEX
  5
12F4
  8
SOILS
 10
425247.5011086540762335
 20
516731.9962326934910379
 30
0.0
  0
VERTEX
  5
12F5
  8
SOILS
 10
425156.8631670752074569
 20
516788.309191407810431
 30
0.0
  0
VERTEX
  5
12F6
  8
SOILS
 10
425083.5765658789896406
 20
516839.3684996473020874
 30
0.0
  0
VERTEX
  5
12F7
  8
SOILS
 10
425056.3495632840204053
 20
516915.7595989463734441
 30
0.0
  0
VERTEX
  5
12F8
  8
SOILS
 10
425083.9621521935914643
 20
516969.4496842190856114
 30
0.0
  0
VERTEX
  5
12F9
  8
SOILS
 10
425108.5064114604028873
 20
517041.3458559567807242
 30
0.0
  0
VERTEX
  5
12FA
  8
SOILS
 10
425195.1548508207779378
 20
517129.3464054127107374
 30
0.0
  0
VERTEX
  5
12FB
  8
SOILS
 10
425231.9453107189037837
 20
517211.9490157354739495
 30
0.0
  0
VERTEX
  5
12FC
  8
SOILS
 10
425225.3167936493991874
 20
517278.9332660062937066
 30
0.0
  0
VERTEX
  5
12FD
  8
SOILS
 10
425213.0070140807074495
 20
517360.0854607371147722
 30
0.0
  0
VERTEX
  5
12FE
  8
SOILS
 10
425239.1832679494982585
 20
517425.1926055756048299
 30
0.0
  0
VERTEX
  5
12FF
  8
SOILS
 10
425295.2604643437080085
 20
517467.1655154332984239
 30
0.0
  0
VERTEX
  5
1300
  8
SOILS
 10
425350.6440530908876099
 20
517527.9198345906916074
 30
0.0
  0
VERTEX
  5
1301
  8
SOILS
 10
425386.3212488935096189
 20
517513.6149469088995829
 30
0.0
  0
VERTEX
  5
1302
  8
SOILS
 10
425437.9537301147938706
 20
517573.0063296572770923
 30
0.0
  0
VERTEX
  5
1303
  8
SOILS
 10
425419.9507669645245187
 20
517637.9001421577995643
 30
0.0
  0
VERTEX
  5
1304
  8
SOILS
 10
425398.8137281909002922
 20
517683.0507025477709249
 30
0.0
  0
VERTEX
  5
1305
  8
SOILS
 10
425372.0845022434950806
 20
517766.4925965589936823
 30
0.0
  0
VERTEX
  5
1306
  8
SOILS
 10
425372.8595374496071599
 20
517811.9285841010278091
 30
0.0
  0
VERTEX
  5
1307
  8
SOILS
 10
425347.4839505756972358
 20
517893.8993028649128973
 30
0.0
  0
VERTEX
  5
1308
  8
SOILS
 10
425271.8183979110908695
 20
517984.8149631303967908
 30
0.0
  0
VERTEX
  5
1309
  8
SOILS
 10
425164.6488356207264587
 20
517960.342030311585404
 30
0.0
  0
VERTEX
  5
130A
  8
SOILS
 10
425045.3100123396143317
 20
518070.4607108635827899
 30
0.0
  0
VERTEX
  5
130B
  8
SOILS
 10
424971.3647604273282923
 20
518119.8332124971784651
 30
0.0
  0
VERTEX
  5
130C
  8
SOILS
 10
424888.870289922808297
 20
518171.085881169012282
 30
0.0
  0
VERTEX
  5
130D
  8
SOILS
 10
424786.909238736028783
 20
518234.711577896901872
 30
0.0
  0
VERTEX
  5
130E
  8
SOILS
 10
424692.2805021404055879
 20
518387.8265766461263411
 30
0.0
  0
VERTEX
  5
130F
  8
SOILS
 10
424649.8484984906972386
 20
518528.2296624014852569
 30
0.0
  0
VERTEX
  5
1310
  8
SOILS
 10
424676.1802818297874182
 20
518609.5143503351719119
 30
0.0
  0
VERTEX
  5
1311
  8
SOILS
 10
424708.5054608368081972
 20
518691.9932924017775804
 30
0.0
  0
VERTEX
  5
1312
  8
SOILS
 10
424720.4778508120798506
 20
518764.0272252496797591
 30
0.0
  0
VERTEX
  5
1313
  8
SOILS
 10
424682.9982048139791004
 20
518853.8951967363245785
 30
0.0
  0
VERTEX
  5
1314
  8
SOILS
 10
424630.0731675812858157
 20
518896.3825928336009383
 30
0.0
  0
VERTEX
  5
1315
  8
SOILS
 10
424528.3904353466932662
 20
518941.080861811991781
 30
0.0
  0
VERTEX
  5
1316
  8
SOILS
 10
424500.9019041003193706
 20
518958.085247514070943
 30
0.0
  0
VERTEX
  5
1317
  8
SOILS
 10
424450.6594316367991269
 20
519000.4327501216903329
 30
0.0
  0
VERTEX
  5
1318
  8
SOILS
 10
424422.9738685038173571
 20
519057.7380271974834614
 30
0.0
  0
VERTEX
  5
1319
  8
SOILS
 10
424421.0413020725827664
 20
519119.0882673314772546
 30
0.0
  0
VERTEX
  5
131A
  8
SOILS
 10
424410.6725041192839853
 20
519188.9252564266207628
 30
0.0
  0
VERTEX
  5
131B
  8
SOILS
 10
424396.0611197333782911
 20
519254.5440813787281513
 30
0.0
  0
VERTEX
  5
131C
  8
SOILS
 10
424370.7851656238199212
 20
519290.580043537192978
 30
0.0
  0
VERTEX
  5
131D
  8
SOILS
 10
424343.3749180854065344
 20
519320.2762530763284303
 30
0.0
  0
VERTEX
  5
131E
  8
SOILS
 10
424305.464083427505102
 20
519375.3879725913866423
 30
0.0
  0
VERTEX
  5
131F
  8
SOILS
 10
424275.9828664910164662
 20
519419.8978564307908528
 30
0.0
  0
VERTEX
  5
1320
  8
SOILS
 10
424254.9812853502808139
 20
519470.7285741182859056
 30
0.0
  0
VERTEX
  5
1321
  8
SOILS
 10
424244.5689173949067481
 20
519525.7583440548041835
 30
0.0
  0
VERTEX
  5
1322
  8
SOILS
 10
424231.9420358397765085
 20
519547.4780055399169214
 30
0.0
  0
VERTEX
  5
1323
  8
SOILS
 10
424211.3844425007118843
 20
519569.7503918239963241
 30
0.0
  0
VERTEX
  5
1324
  8
SOILS
 10
424192.4321151928743348
 20
519598.3639230289845727
 30
0.0
  0
VERTEX
  5
1325
  8
SOILS
 10
424181.4024952191975899
 20
519623.780922684003599
 30
0.0
  0
VERTEX
  5
1326
  8
SOILS
 10
424160.8449003217974678
 20
519646.0532022175029851
 30
0.0
  0
VERTEX
  5
1327
  8
SOILS
 10
424147.7991839888854884
 20
519664.3157955165952444
 30
0.0
  0
VERTEX
  5
1328
  8
SOILS
 10
424148.2905245191068389
 20
519692.0991045454866253
 30
0.0
  0
VERTEX
  5
1329
  8
SOILS
 10
424156.2991871329140849
 20
519717.7281995128723793
 30
0.0
  0
VERTEX
  5
132A
  8
SOILS
 10
424164.3251616524066776
 20
519749.1653293098206632
 30
0.0
  0
VERTEX
  5
132B
  8
SOILS
 10
424176.5361804381827824
 20
519766.4768781685270369
 30
0.0
  0
VERTEX
  5
132C
  8
SOILS
 10
424201.0868432704010047
 20
519786.2528562839725055
 30
0.0
  0
VERTEX
  5
132D
  8
SOILS
 10
424218.481883438595105
 20
519821.9832760528079234
 30
0.0
  0
VERTEX
  5
132E
  8
SOILS
 10
424242.3539181923260912
 20
519847.2961704568006098
 30
0.0
  0
VERTEX
  5
132F
  8
SOILS
 10
424263.3762105071800761
 20
519876.3143301607924514
 30
0.0
  0
VERTEX
  5
1330
  8
SOILS
 10
424271.1157197619904764
 20
519916.1961046772194095
 30
0.0
  0
VERTEX
  5
1331
  8
SOILS
 10
424276.9309301513712853
 20
519932.7628466346068308
 30
0.0
  0
VERTEX
  5
1332
  8
SOILS
 10
424285.5177290777210146
 20
519954.5592822483740747
 30
0.0
  0
VERTEX
  5
1333
  8
SOILS
 10
424255.1638745806994848
 20
519993.3220110373804346
 30
0.0
  0
VERTEX
  5
1334
  8
SOILS
 10
424230.8676959206932224
 20
520056.4065041228896007
 30
0.0
  0
VERTEX
  5
1335
  8
SOILS
 10
424241.4987589631928131
 20
520114.3205997460172512
 30
0.0
  0
VERTEX
  5
1336
  8
SOILS
 10
424234.5714436019188724
 20
520168.9305623543914407
 30
0.0
  0
VERTEX
  5
1337
  8
SOILS
 10
424240.5858841466833837
 20
520166.905875550408382
 30
0.0
  0
VERTEX
  5
1338
  8
SOILS
 10
424280.5309556879801676
 20
520156.7932879889849573
 30
0.0
  0
VERTEX
  5
1339
  8
SOILS
 10
424300.4292328829178587
 20
520126.7526566708111204
 30
0.0
  0
VERTEX
  5
133A
  8
SOILS
 10
424330.3508089851820841
 20
520106.676192419428844
 30
0.0
  0
VERTEX
  5
133B
  8
SOILS
 10
424350.249084860784933
 20
520076.6355547860730439
 30
0.0
  0
VERTEX
  5
133C
  8
SOILS
 10
424370.1472593853832223
 20
520046.5950139188207686
 30
0.0
  0
VERTEX
  5
133D
  8
SOILS
 10
424419.9672097368747927
 20
519996.4779931178200059
 30
0.0
  0
VERTEX
  5
133E
  8
SOILS
 10
424449.8590201453771442
 20
519966.4076744230114855
 30
0.0
  0
VERTEX
  5
133F
  8
SOILS
 10
424459.7636522068060003
 20
519936.3968898014281876
 30
0.0
  0
VERTEX
  5
1340
  8
SOILS
 10
424469.6681823027902283
 20
519906.3861035433947109
 30
0.0
  0
VERTEX
  5
1341
  8
SOILS
 10
424499.6195303616113961
 20
519896.3032538337283768
 30
0.0
  0
VERTEX
  5
1342
  8
SOILS
 10
424529.5708804313908331
 20
519886.2204025886021554
 30
0.0
  0
VERTEX
  5
1343
  8
SOILS
 10
424559.522132585872896
 20
519876.1375496740220115
 30
0.0
  0
VERTEX
  5
1344
  8
SOILS
 10
424589.4734866817016155
 20
519866.0546953576267697
 30
0.0
  0
VERTEX
  5
1345
  8
SOILS
 10
424619.3653996019274928
 20
519835.9845538440276869
 30
0.0
  0
VERTEX
  5
1346
  8
SOILS
 10
424639.2636690957006067
 20
519805.9440804228070192
 30
0.0
  0
VERTEX
  5
1347
  8
SOILS
 10
424649.1681938684778288
 20
519775.9331773219746538
 30
0.0
  0
VERTEX
  5
1348
  8
SOILS
 10
424669.0664602812030353
 20
519745.8926986085134558
 30
0.0
  0
VERTEX
  5
1349
  8
SOILS
 10
424688.9647252698196098
 20
519715.8523167978273705
 30
0.0
  0
VERTEX
  5
134A
  8
SOILS
 10
424698.8693442200892605
 20
519685.8415077278041281
 30
0.0
  0
VERTEX
  5
134B
  8
SOILS
 10
424728.7909278452862054
 20
519665.7650896760751493
 30
0.0
  0
VERTEX
  5
134C
  8
SOILS
 10
424758.7422891039168462
 20
519655.6824149003950879
 30
0.0
  0
VERTEX
  5
134D
  8
SOILS
 10
424798.7169763927231543
 20
519655.5635092874290422
 30
0.0
  0
VERTEX
  5
134E
  8
SOILS
 10
424828.7574716886156239
 20
519675.461776195676066
 30
0.0
  0
VERTEX
  5
134F
  8
SOILS
 10
424858.7680929491762072
 20
519685.3662971323938109
 30
0.0
  0
VERTEX
  5
1350
  8
SOILS
 10
424878.8446169855888002
 20
519715.2878938780049793
 30
0.0
  0
VERTEX
  5
1351
  8
SOILS
 10
424898.9210398549912497
 20
519745.2094935401109979
 30
0.0
  0
VERTEX
  5
1352
  8
SOILS
 10
424918.9974614823004231
 20
519775.1310962503193878
 30
0.0
  0
VERTEX
  5
1353
  8
SOILS
 10
424939.0739817973808385
 20
519805.0527021397138014
 30
0.0
  0
VERTEX
  5
1354
  8
SOILS
 10
424959.1504009448108263
 20
519834.9743109456030652
 30
0.0
  0
VERTEX
  5
1355
  8
SOILS
 10
424989.1907997949165292
 20
519854.8723996101180092
 30
0.0
  0
VERTEX
  5
1356
  8
SOILS
 10
425019.2015285915113054
 20
519864.7770382624003105
 30
0.0
  0
VERTEX
  5
1357
  8
SOILS
 10
425049.2121597623918205
 20
519874.6814784288872033
 30
0.0
  0
VERTEX
  5
1358
  8
SOILS
 10
425079.2229926931904629
 20
519884.5860202888725325
 30
0.0
  0
VERTEX
  5
1359
  8
SOILS
 10
425109.233627938083373
 20
519894.4904634613776579
 30
0.0
  0
VERTEX
  5
135A
  8
SOILS
 10
425139.1551533624879085
 20
519874.4140401210170239
 30
0.0
  0
VERTEX
  5
135B
  8
SOILS
 10
425169.1063515241257846
 20
519864.3311704928055406
 30
0.0
  0
VERTEX
  5
135C
  8
SOILS
 10
425199.0576514936983585
 20
519854.248399390722625
 30
0.0
  0
VERTEX
  5
135D
  8
SOILS
 10
425228.9791816641809419
 20
519834.1719684167183004
 30
0.0
  0
VERTEX
  5
135E
  8
SOILS
 10
425258.9007129442761652
 20
519814.095634322904516
 30
0.0
  0
VERTEX
  5
135F
  8
SOILS
 10
425288.8519186353078112
 20
519804.0127570400945842
 30
0.0
  0
VERTEX
  5
1360
  8
SOILS
 10
425328.826559652807191
 20
519803.8939659660100006
 30
0.0
  0
VERTEX
  5
1361
  8
SOILS
 10
425358.7776703271083534
 20
519793.8111859040218405
 30
0.0
  0
VERTEX
  5
1362
  8
SOILS
 10
425388.728883073781617
 20
519783.7283045123913325
 30
0.0
  0
VERTEX
  5
1363
  8
SOILS
 10
425428.7035341985756531
 20
519783.6095113299088553
 30
0.0
  0
SEQEND
  5
1364
  8
SOILS
  0
POLYLINE
  5
CD
  8
SOILS
 66
     1
 10
0.0
 20
0.0
 30
0.0
 70
     1
  0
VERTEX
  5
1365
  8
SOILS
 10
428555.930741066171322
 20
519955.2909914255724289
 30
0.0
  0
VERTEX
  5
1366
  8
SOILS
 10
428582.34245633991668
 20
519940.2581759943859652
 30
0.0
  0
VERTEX
  5
1367
  8
SOILS
 10
428589.6732639066176489
 20
519935.3307640579878353
 30
0.0
  0
VERTEX
  5
1368
  8
SOILS
 10
428627.7976719603175297
 20
519894.4163008740288205
 30
0.0
  0
VERTEX
  5
1369
  8
SOILS
 10
428657.7563254699925892
 20
519862.6960119745926932
 30
0.0
  0
VERTEX
  5
136A
  8
SOILS
 10
428687.255918453913182
 20
519824.5328846570919268
 30
0.0
  0
VERTEX
  5
136B
  8
SOILS
 10
428693.4314516233280301
 20
519819.7529379684128799
 30
0.0
  0
VERTEX
  5
136C
  8
SOILS
 10
428708.2868913714191876
 20
519796.2299635013914667
 30
0.0
  0
VERTEX
  5
136D
  8
SOILS
 10
428725.9558629581006244
 20
519763.1486882427125238
 30
0.0
  0
VERTEX
  5
136E
  8
SOILS
 10
428736.0102981572272256
 20
519730.0962291826144792
 30
0.0
  0
VERTEX
  5
136F
  8
SOILS
 10
428740.9805680484860204
 20
519694.5237399715115316
 30
0.0
  0
VERTEX
  5
1370
  8
SOILS
 10
428743.41252321889624
 20
519658.9609897778136656
 30
0.0
  0
VERTEX
  5
1371
  8
SOILS
 10
428750.9209984642802738
 20
519623.3787587492261082
 30
0.0
  0
VERTEX
  5
1372
  8
SOILS
 10
428766.0594860956771299
 20
519592.8465210449066944
 30
0.0
  0
VERTEX
  5
1373
  8
SOILS
 10
428788.8202476833248511
 20
519564.8248670367756858
 30
0.0
  0
VERTEX
  5
1374
  8
SOILS
 10
428816.6727139453287236
 20
519541.8627449651248753
 30
0.0
  0
VERTEX
  5
1375
  8
SOILS
 10
428852.1778207736206241
 20
519531.5693394690169953
 30
0.0
  0
VERTEX
  5
1376
  8
SOILS
 10
428887.7132934997207485
 20
519531.433867396612186
 30
0.0
  0
VERTEX
  5
1377
  8
SOILS
 10
428923.2791321476106532
 20
519541.4563314903061837
 30
0.0
  0
VERTEX
  5
1378
  8
SOILS
 10
428956.3218417487223633
 20
519556.5676564096938819
 30
0.0
  0
VERTEX
  5
1379
  8
SOILS
 10
428989.3570132089080289
 20
519569.1393745347158983
 30
0.0
  0
VERTEX
  5
137A
  8
SOILS
 10
429019.7704287167871371
 20
519553.7862290429184213
 30
0.0
  0
VERTEX
  5
137B
  8
SOILS
 10
429045.0845969620277174
 20
519530.8339333875919692
 30
0.0
  0
VERTEX
  5
137C
  8
SOILS
 10
429075.3614782433141954
 20
519469.769702649791725
 30
0.0
  0
VERTEX
  5
137D
  8
SOILS
 10
429105.7748964886995964
 20
519454.4165461452794261
 30
0.0
  0
VERTEX
  5
137E
  8
SOILS
 10
429138.7492544464184903
 20
519446.6721769793075509
 30
0.0
  0
VERTEX
  5
137F
  8
SOILS
 10
429174.2999352389015257
 20
519451.6158183214720339
 30
0.0
  0
VERTEX
  5
1380
  8
SOILS
 10
429209.8733429122949019
 20
519464.1777932452969253
 30
0.0
  0
VERTEX
  5
1381
  8
SOILS
 10
429240.3775649932213128
 20
519479.298763497674372
 30
0.0
  0
VERTEX
  5
1382
  8
SOILS
 10
429268.374237475276459
 20
519504.5873227483243681
 30
0.0
  0
VERTEX
  5
1383
  8
SOILS
 10
429291.3018209853908047
 20
519532.434778509195894
 30
0.0
  0
VERTEX
  5
1384
  8
SOILS
 10
429304.091624220716767
 20
519565.3999233404756524
 30
0.0
  0
VERTEX
  5
1385
  8
SOILS
 10
429321.9427749121095985
 20
519593.2667662015883252
 30
0.0
  0
VERTEX
  5
1386
  8
SOILS
 10
429347.3934906055801548
 20
519616.0253672719118185
 30
0.0
  0
VERTEX
  5
1387
  8
SOILS
 10
429380.4284930963185616
 20
519628.5971025018952787
 30
0.0
  0
VERTEX
  5
1388
  8
SOILS
 10
429415.9563734089024365
 20
519625.9221266056993045
 30
0.0
  0
VERTEX
  5
1389
  8
SOILS
 10
429448.9231204303214327
 20
519615.6383530648890883
 30
0.0
  0
VERTEX
  5
138A
  8
SOILS
 10
429479.3135524772806093
 20
519592.6666550189256668
 30
0.0
  0
VERTEX
  5
138B
  8
SOILS
 10
429504.61257134238258
 20
519564.6354094336275011
 30
0.0
  0
VERTEX
  5
138C
  8
SOILS
 10
429550.1491562000010163
 20
519513.6713154956814833
 30
0.0
  0
VERTEX
  5
138D
  8
SOILS
 10
429567.8256825307034887
 20
519483.1295700073242188
 30
0.0
  0
VERTEX
  5
138E
  8
SOILS
 10
429585.4948658872745
 20
519450.0483088240143843
 30
0.0
  0
VERTEX
  5
138F
  8
SOILS
 10
429608.2479228809825145
 20
519419.4872745195752941
 30
0.0
  0
VERTEX
  5
1390
  8
SOILS
 10
429625.9321860108757392
 20
519391.4850340727716684
 30
0.0
  0
VERTEX
  5
1391
  8
SOILS
 10
429648.7004243560950272
 20
519366.0030206561787054
 30
0.0
  0
VERTEX
  5
1392
  8
SOILS
 10
429668.9153609363711439
 20
519335.451618975319434
 30
0.0
  0
VERTEX
  5
1393
  8
SOILS
 10
429689.1377383095095865
 20
519307.4398278511944227
 30
0.0
  0
VERTEX
  5
1394
  8
SOILS
 10
429711.9060746511095203
 20
519281.9579055670765229
 30
0.0
  0
VERTEX
  5
1395
  8
SOILS
 10
429744.8651950003113598
 20
519269.1345811596838757
 30
0.0
  0
VERTEX
  5
1396
  8
SOILS
 10
429772.7251536136027426
 20
519248.712196541018784
 30
0.0
  0
VERTEX
  5
1397
  8
SOILS
 10
429780.2413534680963494
 20
519215.669679441023618
 30
0.0
  0
VERTEX
  5
1398
  8
SOILS
 10
429780.1276098871021532
 20
519177.5773613190976903
 30
0.0
  0
VERTEX
  5
1399
  8
SOILS
 10
429774.9526129108271562
 20
519144.5832592807710171
 30
0.0
  0
VERTEX
  5
139A
  8
SOILS
 10
429777.3543504212284461
 20
519098.8625546633265913
 30
0.0
  0
VERTEX
  5
139B
  8
SOILS
 10
429789.9469740751083009
 20
519065.8008463464793749
 30
0.0
  0
VERTEX
  5
139C
  8
SOILS
 10
429806.2750549477059394
 20
519045.6988027071929537
 30
0.0
  0
VERTEX
  5
139D
  8
SOILS
 10
429798.626649001322221
 20
519038.3572012371732853
 30
0.0
  0
VERTEX
  5
139E
  8
SOILS
 10
429786.5334855073015206
 20
519027.1502683295984752
 30
0.0
  0
VERTEX
  5
139F
  8
SOILS
 10
429774.6676751442137174
 20
519016.2360291337827221
 30
0.0
  0
VERTEX
  5
13A0
  8
SOILS
 10
429763.8654975845711306
 20
519006.0912498529069126
 30
0.0
  0
VERTEX
  5
13A1
  8
SOILS
 10
429754.1274513957905583
 20
518996.7167304353206418
 30
0.0
  0
VERTEX
  5
13A2
  8
SOILS
 10
429745.4531381503911689
 20
518988.1114709302783012
 30
0.0
  0
VERTEX
  5
13A3
  8
SOILS
 10
429737.8427568991901353
 20
518980.2760710560833104
 30
0.0
  0
VERTEX
  5
13A4
  8
SOILS
 10
429731.2962076953263022
 20
518973.2105305696022697
 30
0.0
  0
VERTEX
  5
13A5
  8
SOILS
 10
429721.3946057811263017
 20
518961.3887276144232601
 30
0.0
  0
VERTEX
  5
13A6
  8
SOILS
 10
429712.3086929979035631
 20
518950.8812718273256905
 30
0.0
  0
VERTEX
  5
13A7
  8
SOILS
 10
429693.7599170638713986
 20
518934.2757459498243406
 30
0.0
  0
VERTEX
  5
13A8
  8
SOILS
 10
429678.1139290045830421
 20
518922.6425339928246103
 30
0.0
  0
VERTEX
  5
13A9
  8
SOILS
 10
429651.7579866399755701
 20
518905.573939920112025
 30
0.0
  0
VERTEX
  5
13AA
  8
SOILS
 10
429628.1385791830834933
 20
518892.6978919546236284
 30
0.0
  0
VERTEX
  5
13AB
  8
SOILS
 10
429607.7642428182880394
 20
518884.3206432032166049
 30
0.0
  0
VERTEX
  5
13AC
  8
SOILS
 10
429588.0211875807144679
 20
518875.6197569728828967
 30
0.0
  0
VERTEX
  5
13AD
  8
SOILS
 10
429566.2958246329217218
 20
518861.7718987392145209
 30
0.0
  0
VERTEX
  5
13AE
  8
SOILS
 10
429550.711000572075136
 20
518849.6804983001202345
 30
0.0
  0
VERTEX
  5
13AF
  8
SOILS
 10
429568.0474089226918295
 20
518820.8880368815734982
 30
0.0
  0
VERTEX
  5
13B0
  8
SOILS
 10
429583.2617069957195781
 20
518792.3309077463927679
 30
0.0
  0
VERTEX
  5
13B1
  8
SOILS
 10
429596.3534952796180733
 20
518764.0088110700016841
 30
0.0
  0
VERTEX
  5
13B2
  8
SOILS
 10
429607.3227728204219602
 20
518735.9223469087737612
 30
0.0
  0
VERTEX
  5
13B3
  8
SOILS
 10
429624.7996457553817891
 20
518699.1139322203234769
 30
0.0
  0
VERTEX
  5
13B4
  8
SOILS
 10
429647.5054498083773069
 20
518672.5955298343906179
 30
0.0
  0
VERTEX
  5
13B5
  8
SOILS
 10
429684.2784826913848519
 20
518649.127014257479459
 30
0.0
  0
VERTEX
  5
13B6
  8
SOILS
 10
429702.0615034641814418
 20
518633.959287385980133
 30
0.0
  0
VERTEX
  5
13B7
  8
SOILS
 10
429710.5977755106869154
 20
518625.0022761811269447
 30
0.0
  0
VERTEX
  5
13B8
  8
SOILS
 10
429734.785136251419317
 20
518592.6397495506098494
 30
0.0
  0
VERTEX
  5
13B9
  8
SOILS
 10
429744.8732304268050939
 20
518578.1303086666157469
 30
0.0
  0
VERTEX
  5
13BA
  8
SOILS
 10
429756.6924750052858144
 20
518551.6542105525149964
 30
0.0
  0
VERTEX
  5
13BB
  8
SOILS
 10
429763.2239360947278328
 20
518525.193929617817048
 30
0.0
  0
VERTEX
  5
13BC
  8
SOILS
 10
429768.4490439665969461
 20
518504.025584246206563
 30
0.0
  0
VERTEX
  5
13BD
  8
SOILS
 10
429769.6806558413081802
 20
518473.6150094880722463
 30
0.0
  0
VERTEX
  5
13BE
  8
SOILS
 10
429769.6060144946095534
 20
518448.4963713106117211
 30
0.0
  0
VERTEX
  5
13BF
  8
SOILS
 10
429772.179367370205
 20
518424.6918937287991866
 30
0.0
  0
VERTEX
  5
13C0
  8
SOILS
 10
429769.4841118971817195
 20
518407.5134877351229079
 30
0.0
  0
VERTEX
  5
13C1
  8
SOILS
 10
429768.6296343054855242
 20
518382.3063844949938357
 30
0.0
  0
VERTEX
  5
13C2
  8
SOILS
 10
429766.7087520344066434
 20
518363.3654455880750902
 30
0.0
  0
VERTEX
  5
13C3
  8
SOILS
 10
429767.6815964396228082
 20
518334.8063205137732439
 30
0.0
  0
VERTEX
  5
13C4
  8
SOILS
 10
429769.7526504421257414
 20
518319.9932231127168052
 30
0.0
  0
VERTEX
  5
13C5
  8
SOILS
 10
429772.8657385521801189
 20
518299.8890395690104924
 30
0.0
  0
VERTEX
  5
13C6
  8
SOILS
 10
429775.991443177103065
 20
518284.0151813311967999
 30
0.0
  0
VERTEX
  5
13C7
  8
SOILS
 10
429777.1449727023718879
 20
518269.4080289141274989
 30
0.0
  0
VERTEX
  5
13C8
  8
SOILS
 10
429792.7779570256825536
 20
518238.4869863312924281
 30
0.0
  0
VERTEX
  5
13C9
  8
SOILS
 10
429812.092378472792916
 20
518200.3987578215892427
 30
0.0
  0
VERTEX
  5
13CA
  8
SOILS
 10
429825.2751981560722925
 20
518182.07407777372282
 30
0.0
  0
VERTEX
  5
13CB
  8
SOILS
 10
429855.514266271085944
 20
518153.2687715353094973
 30
0.0
  0
VERTEX
  5
13CC
  8
SOILS
 10
429856.312364190001972
 20
518123.1570068615255877
 30
0.0
  0
VERTEX
  5
13CD
  8
SOILS
 10
429857.1837470651953481
 20
518090.2821916111279279
 30
0.0
  0
VERTEX
  5
13CE
  8
SOILS
 10
429839.1180392241803929
 20
518062.8545863829203881
 30
0.0
  0
VERTEX
  5
13CF
  8
SOILS
 10
429802.0337835564860143
 20
518023.5747173795825802
 30
0.0
  0
VERTEX
  5
13D0
  8
SOILS
 10
429782.7075209147878923
 20
518016.4564999354770407
 30
0.0
  0
VERTEX
  5
13D1
  8
SOILS
 10
429746.3023879016982391
 20
517991.376394267717842
 30
0.0
  0
VERTEX
  5
13D2
  8
SOILS
 10
429712.3273711478104815
 20
517947.0564994537853636
 30
0.0
  0
VERTEX
  5
13D3
  8
SOILS
 10
429702.1225516052218154
 20
517902.8042594520957209
 30
0.0
  0
VERTEX
  5
13D4
  8
SOILS
 10
429669.6827488786075264
 20
517890.4586824934231117
 30
0.0
  0
VERTEX
  5
13D5
  8
SOILS
 10
429631.5713332166778855
 20
517877.9059873779769987
 30
0.0
  0
VERTEX
  5
13D6
  8
SOILS
 10
429601.0595686046872288
 20
517860.2453132199007086
 30
0.0
  0
VERTEX
  5
13D7
  8
SOILS
 10
429578.1398008876130916
 20
517834.937246867979411
 30
0.0
  0
VERTEX
  5
13D8
  8
SOILS
 10
429552.6591608379967511
 20
517802.0201966892927885
 30
0.0
  0
VERTEX
  5
13D9
  8
SOILS
 10
429534.8008210639236495
 20
517771.6138067722204141
 30
0.0
  0
VERTEX
  5
13DA
  8
SOILS
 10
429524.5419244514778256
 20
517736.099536424910184
 30
0.0
  0
VERTEX
  5
13DB
  8
SOILS
 10
429519.3595579164102674
 20
517700.5657627286855131
 30
0.0
  0
VERTEX
  5
13DC
  8
SOILS
 10
429514.1848407885991037
 20
517667.5716027388116345
 30
0.0
  0
VERTEX
  5
13DD
  8
SOILS
 10
429514.0713477286044508
 20
517629.4792116829776205
 30
0.0
  0
VERTEX
  5
13DE
  8
SOILS
 10
429506.3509553804178722
 20
517593.9549941081204452
 30
0.0
  0
VERTEX
  5
13DF
  8
SOILS
 10
429483.4085159581154585
 20
517561.0284118119743653
 30
0.0
  0
VERTEX
  5
13E0
  8
SOILS
 10
429452.9043022118858062
 20
517545.907281105814036
 30
0.0
  0
VERTEX
  5
13E1
  8
SOILS
 10
429419.8769819117151201
 20
517535.8746308918925934
 30
0.0
  0
VERTEX
  5
13E2
  8
SOILS
 10
429384.33400961762527
 20
517533.4700717487721704
 30
0.0
  0
VERTEX
  5
13E3
  8
SOILS
 10
429308.1868511859211139
 20
517533.7595850796788
 30
0.0
  0
VERTEX
  5
13E4
  8
SOILS
 10
429270.1056738602928817
 20
517531.3648804588010535
 30
0.0
  0
VERTEX
  5
13E5
  8
SOILS
 10
429237.0480537945986725
 20
517511.1741922767250799
 30
0.0
  0
VERTEX
  5
13E6
  8
SOILS
 10
429206.5210958687821403
 20
517488.4344426068710163
 30
0.0
  0
VERTEX
  5
13E7
  8
SOILS
 10
429188.6702020827797242
 20
517460.567404193803668
 30
0.0
  0
VERTEX
  5
13E8
  8
SOILS
 10
429173.3426125497207977
 20
517427.6117930393083952
 30
0.0
  0
VERTEX
  5
13E9
  8
SOILS
 10
429168.1678773405146785
 20
517394.6175656773266383
 30
0.0
  0
VERTEX
  5
13EA
  8
SOILS
 10
429173.1461960240849294
 20
517361.5846198973013088
 30
0.0
  0
VERTEX
  5
13EB
  8
SOILS
 10
429180.6626260341145098
 20
517328.5422178984736092
 30
0.0
  0
VERTEX
  5
13EC
  8
SOILS
 10
429185.6183737199171446
 20
517287.890838576189708
 30
0.0
  0
VERTEX
  5
13ED
  8
SOILS
 10
429185.5124997615930624
 20
517252.3377902852953412
 30
0.0
  0
VERTEX
  5
13EE
  8
SOILS
 10
429182.8534970671171322
 20
517211.7152770744869485
 30
0.0
  0
VERTEX
  5
13EF
  8
SOILS
 10
429175.1329736122279428
 20
517176.1911973645910621
 30
0.0
  0
VERTEX
  5
13F0
  8
SOILS
 10
429159.760024152288679
 20
517127.9984360684757121
 30
0.0
  0
VERTEX
  5
13F1
  8
SOILS
 10
429146.9630655816290528
 20
517092.4936733649810776
 30
0.0
  0
VERTEX
  5
13F2
  8
SOILS
 10
429126.5741326863062568
 20
517064.6362142766010948
 30
0.0
  0
VERTEX
  5
13F3
  8
SOILS
 10
429093.5089442611206323
 20
517041.9059626642265357
 30
0.0
  0
VERTEX
  5
13F4
  8
SOILS
 10
429063.0047410210245289
 20
517026.7847870864206925
 30
0.0
  0
VERTEX
  5
13F5
  8
SOILS
 10
429029.9923544607008807
 20
517021.8310092136962339
 30
0.0
  0
VERTEX
  5
13F6
  8
SOILS
 10
428994.4343005942064337
 20
517014.347380073973909
 30
0.0
  0
VERTEX
  5
13F7
  8
SOILS
 10
428958.8838064883020706
 20
517009.4034612425020896
 30
0.0
  0
VERTEX
  5
13F8
  8
SOILS
 10
428920.7798894454026595
 20
516999.3898828431265429
 30
0.0
  0
VERTEX
  5
13F9
  8
SOILS
 10
428887.7676142482087016
 20
516994.4362090838258155
 30
0.0
  0
VERTEX
  5
13FA
  8
SOILS
 10
428854.7326704591978341
 20
516981.864010829012841
 30
0.0
  0
VERTEX
  5
13FB
  8
SOILS
 10
428819.1443027771892957
 20
516964.2224555431166664
 30
0.0
  0
VERTEX
  5
13FC
  8
SOILS
 10
428791.1555577754043043
 20
516941.472914825018961
 30
0.0
  0
VERTEX
  5
13FD
  8
SOILS
 10
428735.1631544263800606
 20
516890.8947280690772459
 30
0.0
  0
VERTEX
  5
13FE
  8
SOILS
 10
428714.7665709775174037
 20
516860.4977008659043349
 30
0.0
  0
VERTEX
  5
13FF
  8
SOILS
 10
428699.4390501984744333
 20
516827.5418530225288123
 30
0.0
  0
VERTEX
  5
1400
  8
SOILS
 10
428691.7187018488184549
 20
516792.0176248176721856
 30
0.0
  0
VERTEX
  5
1401
  8
SOILS
 10
428676.3985349404974841
 20
516761.6012885923846625
 30
0.0
  0
VERTEX
  5
1402
  8
SOILS
 10
428650.9178643011837266
 20
516728.6840832486050203
 30
0.0
  0
VERTEX
  5
1403
  8
SOILS
 10
428622.9217589318286628
 20
516703.3948624102049507
 30
0.0
  0
VERTEX
  5
1404
  8
SOILS
 10
428592.4173797360854223
 20
516688.2734309362713248
 30
0.0
  0
VERTEX
  5
1405
  8
SOILS
 10
428556.8743772063171491
 20
516685.8688529739738442
 30
0.0
  0
VERTEX
  5
1406
  8
SOILS
 10
428521.346395967004355
 20
516688.5432878714054823
 30
0.0
  0
VERTEX
  5
1407
  8
SOILS
 10
428488.3414098555222154
 20
516686.1289508895715699
 30
0.0
  0
VERTEX
  5
1408
  8
SOILS
 10
428447.7068797228275798
 20
516678.6645806633750908
 30
0.0
  0
VERTEX
  5
1409
  8
SOILS
 10
428417.2025131467962638
 20
516663.5431577886920422
 30
0.0
  0
VERTEX
  5
140A
  8
SOILS
 10
428394.2827382928226143
 20
516638.2348371944972314
 30
0.0
  0
VERTEX
  5
140B
  8
SOILS
 10
428381.493420661019627
 20
516605.2692651000106707
 30
0.0
  0
VERTEX
  5
140C
  8
SOILS
 10
428371.2424096078029834
 20
516572.2940353287267499
 30
0.0
  0
VERTEX
  5
140D
  8
SOILS
 10
428368.5984625589917414
 20
516536.7506212734733708
 30
0.0
  0
VERTEX
  5
140E
  8
SOILS
 10
428368.492821613617707
 20
516501.1972476387745701
 30
0.0
  0
VERTEX
  5
140F
  8
SOILS
 10
428376.0095643301028758
 20
516468.1546975015080534
 30
0.0
  0
VERTEX
  5
1410
  8
SOILS
 10
428380.9729742089984939
 20
516430.0426962784258649
 30
0.0
  0
VERTEX
  5
1411
  8
SOILS
 10
428373.2601573935244232
 20
516397.0579099836759269
 30
0.0
  0
VERTEX
  5
1412
  8
SOILS
 10
428345.2790726663079113
 20
516376.8477406253805384
 30
0.0
  0
VERTEX
  5
1413
  8
SOILS
 10
428309.7434519787202589
 20
516376.9824969699257053
 30
0.0
  0
VERTEX
  5
1414
  8
SOILS
 10
428276.7537036463036202
 20
516379.6471968349069357
 30
0.0
  0
VERTEX
  5
1415
  8
SOILS
 10
428241.2483326432993636
 20
516389.9401706244098023
 30
0.0
  0
VERTEX
  5
1416
  8
SOILS
 10
428196.8918668099213392
 20
516393.5230943678179756
 30
0.0
  0
VERTEX
  5
1417
  8
SOILS
 10
428196.9922456698841415
 20
516427.534342102415394
 30
0.0
  0
VERTEX
  5
1418
  8
SOILS
 10
428187.0873894073884003
 20
516457.5442990105948411
 30
0.0
  0
VERTEX
  5
1419
  8
SOILS
 10
428157.1659092904883437
 20
516477.6198377626715228
 30
0.0
  0
VERTEX
  5
141A
  8
SOILS
 10
428127.2445303428103216
 20
516497.6953735980787314
 30
0.0
  0
VERTEX
  5
141B
  8
SOILS
 10
428097.2934956481913105
 20
516507.7774758900050074
 30
0.0
  0
VERTEX
  5
141C
  8
SOILS
 10
428067.3426629565074109
 20
516517.8594769801711664
 30
0.0
  0
VERTEX
  5
141D
  8
SOILS
 10
427987.3947349669178948
 20
516518.0956318785902113
 30
0.0
  0
VERTEX
  5
141E
  8
SOILS
 10
427957.4438102851272561
 20
516528.1777291581965983
 30
0.0
  0
VERTEX
  5
141F
  8
SOILS
 10
427937.5453258951893076
 20
516558.2173208768945187
 30
0.0
  0
VERTEX
  5
1420
  8
SOILS
 10
427937.6634472243022174
 20
516598.1912259113159962
 30
0.0
  0
VERTEX
  5
1421
  8
SOILS
 10
427947.7455367788788863
 20
516628.1422505853115581
 30
0.0
  0
VERTEX
  5
1422
  8
SOILS
 10
427957.8276244510780089
 20
516658.0931768644950353
 30
0.0
  0
VERTEX
  5
1423
  8
SOILS
 10
427977.9031372127938084
 20
516688.01465200597886
 30
0.0
  0
VERTEX
  5
1424
  8
SOILS
 10
427997.9788488558842801
 20
516717.9359306007972918
 30
0.0
  0
VERTEX
  5
1425
  8
SOILS
 10
427998.0969537731143646
 20
516757.9100416998844594
 30
0.0
  0
VERTEX
  5
1426
  8
SOILS
 10
427988.1920773215824738
 20
516787.919975231285207
 30
0.0
  0
VERTEX
  5
1427
  8
SOILS
 10
427968.2936715087271295
 20
516817.9595563728944398
 30
0.0
  0
VERTEX
  5
1428
  8
SOILS
 10
427968.411866468610242
 20
516857.9334647919167764
 30
0.0
  0
VERTEX
  5
1429
  8
SOILS
 10
427988.4874645671225153
 20
516887.8549510671873577
 30
0.0
  0
VERTEX
  5
142A
  8
SOILS
 10
428008.5631616174941882
 20
516917.7762406665133312
 30
0.0
  0
VERTEX
  5
142B
  8
SOILS
 10
428028.6387573676765896
 20
516947.6976331109181046
 30
0.0
  0
VERTEX
  5
142C
  8
SOILS
 10
428058.7964157676906325
 20
517007.5698716032784432
 30
0.0
  0
VERTEX
  5
142D
  8
SOILS
 10
428068.8786773728206754
 20
517037.5208163299248554
 30
0.0
  0
VERTEX
  5
142E
  8
SOILS
 10
428068.9968500094255432
 20
517077.4948349865153432
 30
0.0
  0
VERTEX
  5
142F
  8
SOILS
 10
428049.0986179126775824
 20
517107.5344079959904775
 30
0.0
  0
VERTEX
  5
1430
  8
SOILS
 10
428039.2232544118887745
 20
517147.5379655269207433
 30
0.0
  0
VERTEX
  5
1431
  8
SOILS
 10
428029.3184472048887983
 20
517177.5478926061186939
 30
0.0
  0
VERTEX
  5
1432
  8
SOILS
 10
428019.4137377575971186
 20
517207.557918245496694
 30
0.0
  0
VERTEX
  5
1433
  8
SOILS
 10
427989.4923315803171135
 20
517227.6336915611173026
 30
0.0
  0
VERTEX
  5
1434
  8
SOILS
 10
427969.5939922332763672
 20
517257.6731509020901285
 30
0.0
  0
VERTEX
  5
1435
  8
SOILS
 10
427919.7743462717044167
 20
517307.7885708928224631
 30
0.0
  0
VERTEX
  5
1436
  8
SOILS
 10
427909.8696295106783509
 20
517337.7986848730943166
 30
0.0
  0
VERTEX
  5
1437
  8
SOILS
 10
427899.96491097350372
 20
517367.8085974960122257
 30
0.0
  0
VERTEX
  5
1438
  8
SOILS
 10
427890.0599902811227366
 20
517397.8187082093209028
 30
0.0
  0
VERTEX
  5
1439
  8
SOILS
 10
427890.1783260438824072
 20
517437.7928091312060133
 30
0.0
  0
VERTEX
  5
143A
  8
SOILS
 10
427860.2866507170256227
 20
517467.861983162292745
 30
0.0
  0
VERTEX
  5
143B
  8
SOILS
 10
427830.3357109791832045
 20
517477.9442049827193841
 30
0.0
  0
VERTEX
  5
143C
  8
SOILS
 10
427800.4143053137813695
 20
517498.0199481705785729
 30
0.0
  0
VERTEX
  5
143D
  8
SOILS
 10
427780.5160545185208321
 20
517528.0595794947003014
 30
0.0
  0
VERTEX
  5
143E
  8
SOILS
 10
427770.611324462282937
 20
517558.0696773849776946
 30
0.0
  0
VERTEX
  5
143F
  8
SOILS
 10
427750.7130704552982934
 20
517588.1094033453264274
 30
0.0
  0
VERTEX
  5
1440
  8
SOILS
 10
427740.8082365106092766
 20
517618.1195972673012875
 30
0.0
  0
VERTEX
  5
1441
  8
SOILS
 10
427730.9035007195780054
 20
517648.129589959513396
 30
0.0
  0
VERTEX
  5
1442
  8
SOILS
 10
427720.9987627600785345
 20
517678.139681079890579
 30
0.0
  0
VERTEX
  5
1443
  8
SOILS
 10
427711.1236490323208272
 20
517718.1433914265944622
 30
0.0
  0
VERTEX
  5
1444
  8
SOILS
 10
427771.2326067495741881
 20
517767.9333449098048732
 30
0.0
  0
VERTEX
  5
1445
  8
SOILS
 10
427791.3084259243914858
 20
517797.8546632524812594
 30
0.0
  0
VERTEX
  5
1446
  8
SOILS
 10
427811.3843439192278311
 20
517827.7758848476223648
 30
0.0
  0
VERTEX
  5
1447
  8
SOILS
 10
427841.4535845459904522
 20
517857.6676863289903849
 30
0.0
  0
VERTEX
  5
1448
  8
SOILS
 10
427871.4932032136130147
 20
517877.5658675510203466
 30
0.0
  0
VERTEX
  5
1449
  8
SOILS
 10
427901.5033012155909091
 20
517887.4705262829083949
 30
0.0
  0
VERTEX
  5
144A
  8
SOILS
 10
427931.5134011235204525
 20
517897.3752864454872906
 30
0.0
  0
VERTEX
  5
144B
  8
SOILS
 10
427961.5532245176727884
 20
517917.273475484282244
 30
0.0
  0
VERTEX
  5
144C
  8
SOILS
 10
427991.5928493458195589
 20
517937.1716672874754295
 30
0.0
  0
VERTEX
  5
144D
  8
SOILS
 10
428021.6324755963287316
 20
517957.069762188999448
 30
0.0
  0
VERTEX
  5
144E
  8
SOILS
 10
428051.6722029360244051
 20
517976.9679601773968898
 30
0.0
  0
VERTEX
  5
144F
  8
SOILS
 10
428081.7119316961034201
 20
517996.8660612644162029
 30
0.0
  0
VERTEX
  5
1450
  8
SOILS
 10
428111.7219427961972542
 20
518006.7707341883797199
 30
0.0
  0
VERTEX
  5
1451
  8
SOILS
 10
428131.7976614729268476
 20
518036.6919904478709213
 30
0.0
  0
VERTEX
  5
1452
  8
SOILS
 10
428161.8671109047718346
 20
518066.5836325121927075
 30
0.0
  0
VERTEX
  5
1453
  8
SOILS
 10
428171.9492950927233323
 20
518096.5344124453258701
 30
0.0
  0
VERTEX
  5
1454
  8
SOILS
 10
428182.0317770572728477
 20
518126.4851943104877137
 30
0.0
  0
VERTEX
  5
1455
  8
SOILS
 10
428192.1435721985180862
 20
518166.4296102877124213
 30
0.0
  0
VERTEX
  5
1456
  8
SOILS
 10
428202.2259494495810941
 20
518196.3803953492897563
 30
0.0
  0
VERTEX
  5
1457
  8
SOILS
 10
428202.3444045925280079
 20
518236.3543287265929393
 30
0.0
  0
VERTEX
  5
1458
  8
SOILS
 10
428202.4629557456937619
 20
518276.3281623399816453
 30
0.0
  0
VERTEX
  5
1459
  8
SOILS
 10
428202.5814027877058834
 20
518316.3020957838161848
 30
0.0
  0
VERTEX
  5
145A
  8
SOILS
 10
428202.6999455771874636
 20
518356.2761293210205622
 30
0.0
  0
VERTEX
  5
145B
  8
SOILS
 10
428212.8119181256042793
 20
518396.2203537381719798
 30
0.0
  0
VERTEX
  5
145C
  8
SOILS
 10
428222.8942784784012474
 20
518426.1711462793173268
 30
0.0
  0
VERTEX
  5
145D
  8
SOILS
 10
428220.4856311376206577
 20
518435.9288343684165739
 30
0.0
  0
VERTEX
  5
145E
  8
SOILS
 10
428244.7317657202947885
 20
518413.9451177744776942
 30
0.0
  0
VERTEX
  5
145F
  8
SOILS
 10
428262.4163962641032413
 20
518385.942830060783308
 30
0.0
  0
VERTEX
  5
1460
  8
SOILS
 10
428282.6390342314261943
 20
518357.9308911127736792
 30
0.0
  0
VERTEX
  5
1461
  8
SOILS
 10
428318.189850743918214
 20
518362.8747238225769252
 30
0.0
  0
VERTEX
  5
1462
  8
SOILS
 10
428348.694245281687472
 20
518377.995874868822284
 30
0.0
  0
VERTEX
  5
1463
  8
SOILS
 10
428361.4840138258878142
 20
518410.9612030272255652
 30
0.0
  0
VERTEX
  5
1464
  8
SOILS
 10
428359.044225770921912
 20
518443.9846202611224726
 30
0.0
  0
VERTEX
  5
1465
  8
SOILS
 10
428354.0659262153203599
 20
518477.0176843961235136
 30
0.0
  0
VERTEX
  5
1466
  8
SOILS
 10
428328.8803657048847526
 20
518543.1416942105861381
 30
0.0
  0
VERTEX
  5
1467
  8
SOILS
 10
428321.3640493204002269
 20
518576.1844019077834673
 30
0.0
  0
VERTEX
  5
1468
  8
SOILS
 10
428313.8552770618116483
 20
518611.7665134363924153
 30
0.0
  0
VERTEX
  5
1469
  8
SOILS
 10
428308.8772636711946689
 20
518644.7996720257215202
 30
0.0
  0
VERTEX
  5
146A
  8
SOILS
 10
428306.4374563561286777
 20
518677.8230834541027434
 30
0.0
  0
VERTEX
  5
146B
  8
SOILS
 10
428309.074163671117276
 20
518710.8271022965200245
 30
0.0
  0
VERTEX
  5
146C
  8
SOILS
 10
428316.7873855934012681
 20
518743.8118297604960389
 30
0.0
  0
VERTEX
  5
146D
  8
SOILS
 10
428321.9699416856747121
 20
518779.3457093561883084
 30
0.0
  0
VERTEX
  5
146E
  8
SOILS
 10
428319.5377681407262571
 20
518814.9087261909153312
 30
0.0
  0
VERTEX
  5
146F
  8
SOILS
 10
428312.0366192432120442
 20
518853.0304381306050345
 30
0.0
  0
VERTEX
  5
1470
  8
SOILS
 10
428299.4437600076198578
 20
518886.0924285704968497
 30
0.0
  0
VERTEX
  5
1471
  8
SOILS
 10
428271.5913687238935381
 20
518909.0543668032041751
 30
0.0
  0
VERTEX
  5
1472
  8
SOILS
 10
428243.7233891544747166
 20
518926.937391921703238
 30
0.0
  0
VERTEX
  5
1473
  8
SOILS
 10
428210.74127219512593
 20
518932.1420821488718502
 30
0.0
  0
VERTEX
  5
1474
  8
SOILS
 10
428177.7515133402193896
 20
518934.8073671489255503
 30
0.0
  0
VERTEX
  5
1475
  8
SOILS
 10
428144.7694017891190015
 20
518940.0120558338239789
 30
0.0
  0
VERTEX
  5
1476
  8
SOILS
 10
428109.2336967781884596
 20
518940.1473805133136921
 30
0.0
  0
VERTEX
  5
1477
  8
SOILS
 10
428076.2287574416259304
 20
518937.7336570178158581
 30
0.0
  0
VERTEX
  5
1478
  8
SOILS
 10
428043.2390101900091395
 20
518940.398640830127988
 30
0.0
  0
VERTEX
  5
1479
  8
SOILS
 10
427982.4116796086891554
 20
518971.1050465651787817
 30
0.0
  0
VERTEX
  5
147A
  8
SOILS
 10
427954.5590059160022065
 20
518994.0669599113753065
 30
0.0
  0
VERTEX
  5
147B
  8
SOILS
 10
427936.882189110678155
 20
519024.6091012976248749
 30
0.0
  0
VERTEX
  5
147C
  8
SOILS
 10
427926.8352769244811498
 20
519060.2011135417851619
 30
0.0
  0
VERTEX
  5
147D
  8
SOILS
 10
427924.395537054806482
 20
519093.2244906311971135
 30
0.0
  0
VERTEX
  5
147E
  8
SOILS
 10
427911.8178561804816127
 20
519131.3656458118930459
 30
0.0
  0
VERTEX
  5
147F
  8
SOILS
 10
427896.6868797835195437
 20
519164.4375370335765183
 30
0.0
  0
VERTEX
  5
1480
  8
SOILS
 10
427871.3951351215946488
 20
519195.0083952597924508
 30
0.0
  0
VERTEX
  5
1481
  8
SOILS
 10
427846.0884040422970429
 20
519220.5004455111920834
 30
0.0
  0
VERTEX
  5
1482
  8
SOILS
 10
427818.2433674546773545
 20
519246.0021350930910558
 30
0.0
  0
VERTEX
  5
1483
  8
SOILS
 10
427787.8447415715199895
 20
519266.434260088019073
 30
0.0
  0
VERTEX
  5
1484
  8
SOILS
 10
427757.4387742989929393
 20
519284.3270805981010199
 30
0.0
  0
VERTEX
  5
1485
  8
SOILS
 10
427729.578455991926603
 20
519304.7495572685147636
 30
0.0
  0
VERTEX
  5
1486
  8
SOILS
 10
427706.8099316981970333
 20
519330.2319491311209276
 30
0.0
  0
VERTEX
  5
1487
  8
SOILS
 10
427689.1254583147820085
 20
519358.2344552351278253
 30
0.0
  0
VERTEX
  5
1488
  8
SOILS
 10
427676.5328759924159385
 20
519391.2965776568744332
 30
0.0
  0
VERTEX
  5
1489
  8
SOILS
 10
427671.5624461206025444
 20
519426.8694740071077831
 30
0.0
  0
VERTEX
  5
148A
  8
SOILS
 10
427664.0538089344045147
 20
519462.4517110132146627
 30
0.0
  0
VERTEX
  5
148B
  8
SOILS
 10
427661.6141366304946132
 20
519495.4752636831835844
 30
0.0
  0
VERTEX
  5
148C
  8
SOILS
 10
427661.7204066495760344
 20
519531.0286761542083696
 30
0.0
  0
VERTEX
  5
148D
  8
SOILS
 10
427671.9721515778801404
 20
519564.0037255667266436
 30
0.0
  0
VERTEX
  5
148E
  8
SOILS
 10
427694.9074774142936803
 20
519594.3909735014894977
 30
0.0
  0
VERTEX
  5
148F
  8
SOILS
 10
427717.8277223350014538
 20
519619.6990226947818883
 30
0.0
  0
VERTEX
  5
1490
  8
SOILS
 10
427743.2787318814080209
 20
519642.458033352799248
 30
0.0
  0
VERTEX
  5
1491
  8
SOILS
 10
427771.2527675483725034
 20
519660.128303743316792
 30
0.0
  0
VERTEX
  5
1492
  8
SOILS
 10
427801.7573704476235434
 20
519675.2492349444073625
 30
0.0
  0
VERTEX
  5
1493
  8
SOILS
 10
427834.8155597174190916
 20
519695.4396328621078283
 30
0.0
  0
VERTEX
  5
1494
  8
SOILS
 10
427895.8401529261027463
 20
519730.7606129553751089
 30
0.0
  0
VERTEX
  5
1495
  8
SOILS
 10
427928.8830689660971984
 20
519745.8719149869284593
 30
0.0
  0
VERTEX
  5
1496
  8
SOILS
 10
427961.8956303909071721
 20
519750.8252081386162899
 30
0.0
  0
VERTEX
  5
1497
  8
SOILS
 10
427999.9847081343759783
 20
519755.7590234708040953
 30
0.0
  0
VERTEX
  5
1498
  8
SOILS
 10
428035.5279432518873364
 20
519758.1630757119273767
 30
0.0
  0
VERTEX
  5
1499
  8
SOILS
 10
428071.0862600801046938
 20
519765.6460354289738461
 30
0.0
  0
VERTEX
  5
149A
  8
SOILS
 10
428101.5908822935889475
 20
519780.7668863044818863
 30
0.0
  0
VERTEX
  5
149B
  8
SOILS
 10
428132.1183227684232406
 20
519803.5064512853859924
 30
0.0
  0
VERTEX
  5
149C
  8
SOILS
 10
428160.0999178055790253
 20
519823.7161545957205817
 30
0.0
  0
VERTEX
  5
149D
  8
SOILS
 10
428190.634899003081955
 20
519848.9952305271290243
 30
0.0
  0
VERTEX
  5
149E
  8
SOILS
 10
428216.0933648759964854
 20
519874.293487717397511
 30
0.0
  0
VERTEX
  5
149F
  8
SOILS
 10
428241.5443921115947887
 20
519897.0524435709812678
 30
0.0
  0
VERTEX
  5
14A0
  8
SOILS
 10
428267.0028582041850314
 20
519922.3507071259082295
 30
0.0
  0
VERTEX
  5
14A1
  8
SOILS
 10
428294.9843569577788003
 20
519942.5603257066104561
 30
0.0
  0
VERTEX
  5
14A2
  8
SOILS
 10
428322.9583187411772087
 20
519960.2304420325090177
 30
0.0
  0
VERTEX
  5
14A3
  8
SOILS
 10
428355.9936241984250955
 20
519972.8021741886041127
 30
0.0
  0
VERTEX
  5
14A4
  8
SOILS
 10
428391.5596036242786795
 20
519982.8246649602078833
 30
0.0
  0
VERTEX
  5
14A5
  8
SOILS
 10
428427.10267309169285
 20
519985.2285398431122303
 30
0.0
  0
VERTEX
  5
14A6
  8
SOILS
 10
428462.6383076409110799
 20
519985.0931091259117238
 30
0.0
  0
VERTEX
  5
14A7
  8
SOILS
 10
428498.1510324510745704
 20
519977.3389593868050724
 30
0.0
  0
VERTEX
  5
14A8
  8
SOILS
 10
428536.186794884793926
 20
519964.4960571023984812
 30
0.0
  0
SEQEND
  5
14A9
  8
SOILS
  0
POLYLINE
  5
E8
  8
SOILS
 66
     1
 10
0.0
 20
0.0
 30
0.0
 70
     1
  0
VERTEX
  5
14AA
  8
SOILS
 10
425720.9603716076235287
 20
513092.870226591185201
 30
0.0
  0
VERTEX
  5
14AB
  8
SOILS
 10
425719.7441974335815758
 20
513106.7052153549157083
 30
0.0
  0
VERTEX
  5
14AC
  8
SOILS
 10
425719.8578356116195209
 20
513144.7894429881125689
 30
0.0
  0
VERTEX
  5
14AD
  8
SOILS
 10
425717.4020502218045294
 20
513172.7274971582228318
 30
0.0
  0
VERTEX
  5
14AE
  8
SOILS
 10
425717.6065648628282361
 20
513241.2790865608258173
 30
0.0
  0
VERTEX
  5
14AF
  8
SOILS
 10
425715.1583540788269602
 20
513271.7562283796141855
 30
0.0
  0
VERTEX
  5
14B0
  8
SOILS
 10
425707.6317592955892906
 20
513302.2524292055168189
 30
0.0
  0
VERTEX
  5
14B1
  8
SOILS
 10
425697.5584899769746698
 20
513330.2194199668010697
 30
0.0
  0
VERTEX
  5
14B2
  8
SOILS
 10
425682.3993561273091473
 20
513355.6667796180117875
 30
0.0
  0
VERTEX
  5
14B3
  8
SOILS
 10
425634.5328727163141593
 20
513452.1498755525099114
 30
0.0
  0
VERTEX
  5
14B4
  8
SOILS
 10
425684.7032677421229891
 20
513503.0980104390182532
 30
0.0
  0
VERTEX
  5
14B5
  8
SOILS
 10
425732.7113012935151346
 20
513555.5109843948157504
 30
0.0
  0
VERTEX
  5
14B6
  8
SOILS
 10
425772.9110913099138997
 20
513594.477220298605971
 30
0.0
  0
VERTEX
  5
14B7
  8
SOILS
 10
425821.9460362535901368
 20
513637.892510385310743
 30
0.0
  0
VERTEX
  5
14B8
  8
SOILS
 10
425859.5444533551926725
 20
513669.3075807099230587
 30
0.0
  0
VERTEX
  5
14B9
  8
SOILS
 10
425915.6840321479248814
 20
513708.1098750105011277
 30
0.0
  0
VERTEX
  5
14BA
  8
SOILS
 10
425930.3548377755796537
 20
513685.9629101969185285
 30
0.0
  0
VERTEX
  5
14BB
  8
SOILS
 10
425960.3063342081732117
 20
513675.8812500836211257
 30
0.0
  0
VERTEX
  5
14BC
  8
SOILS
 10
425990.2578327826922759
 20
513665.7994885087828152
 30
0.0
  0
VERTEX
  5
14BD
  8
SOILS
 10
426020.2679908139980398
 20
513675.7050789311761037
 30
0.0
  0
VERTEX
  5
14BE
  8
SOILS
 10
426040.3433296607108787
 20
513705.6270541140111163
 30
0.0
  0
VERTEX
  5
14BF
  8
SOILS
 10
426050.4248894077027217
 20
513735.5785590272862464
 30
0.0
  0
VERTEX
  5
14C0
  8
SOILS
 10
426060.5066471308819018
 20
513765.5299658080912195
 30
0.0
  0
VERTEX
  5
14C1
  8
SOILS
 10
426050.6305722636170685
 20
513805.5338027487741783
 30
0.0
  0
VERTEX
  5
14C2
  8
SOILS
 10
426060.7122246249928139
 20
513835.4853111425181851
 30
0.0
  0
VERTEX
  5
14C3
  8
SOILS
 10
426080.7876533648814075
 20
513865.4072976753814146
 30
0.0
  0
VERTEX
  5
14C4
  8
SOILS
 10
426110.8565601037116721
 20
513895.2998641515732743
 30
0.0
  0
VERTEX
  5
14C5
  8
SOILS
 10
426140.8666217952850275
 20
513905.20537499448983
 30
0.0
  0
VERTEX
  5
14C6
  8
SOILS
 10
426170.8767854524194263
 20
513915.1108874682104215
 30
0.0
  0
VERTEX
  5
14C7
  8
SOILS
 10
426210.8512104183901101
 20
513914.9933975064777769
 30
0.0
  0
VERTEX
  5
14C8
  8
SOILS
 10
426240.8026342220255174
 20
513904.9116474945913069
 30
0.0
  0
VERTEX
  5
14C9
  8
SOILS
 10
426280.7770662675029598
 20
513904.7941564618959092
 30
0.0
  0
VERTEX
  5
14CA
  8
SOILS
 10
426310.7871406578924507
 20
513914.6996722624753602
 30
0.0
  0
VERTEX
  5
14CB
  8
SOILS
 10
426350.7909023943939246
 20
513924.5756675031152554
 30
0.0
  0
VERTEX
  5
14CC
  8
SOILS
 10
426380.8304035150213167
 20
513944.4747726956265979
 30
0.0
  0
VERTEX
  5
14CD
  8
SOILS
 10
426410.8699060557992198
 20
513964.3737809871090576
 30
0.0
  0
VERTEX
  5
14CE
  8
SOILS
 10
426440.8799888644716702
 20
513974.2793045687139966
 30
0.0
  0
VERTEX
  5
14CF
  8
SOILS
 10
426460.9553267054143362
 20
514004.2012269183760509
 30
0.0
  0
VERTEX
  5
14D0
  8
SOILS
 10
426490.994832354481332
 20
514024.1002437917049974
 30
0.0
  0
VERTEX
  5
14D1
  8
SOILS
 10
426511.0700689228833653
 20
514054.0222722797188908
 30
0.0
  0
VERTEX
  5
14D2
  8
SOILS
 10
426531.1454044407000765
 20
514083.9441040881210938
 30
0.0
  0
VERTEX
  5
14D3
  8
SOILS
 10
426541.2271481045754626
 20
514113.8955562984920107
 30
0.0
  0
VERTEX
  5
14D4
  8
SOILS
 10
426561.3024806285975501
 20
514143.817393449600786
 30
0.0
  0
VERTEX
  5
14D5
  8
SOILS
 10
426571.3842205252149142
 20
514173.7688494888134301
 30
0.0
  0
VERTEX
  5
14D6
  8
SOILS
 10
426581.4658587420126423
 20
514203.720107075991109
 30
0.0
  0
VERTEX
  5
14D7
  8
SOILS
 10
426591.5476946735288948
 20
514233.6714663879247382
 30
0.0
  0
VERTEX
  5
14D8
  8
SOILS
 10
426601.6295285901287571
 20
514263.6228272352018394
 30
0.0
  0
VERTEX
  5
14D9
  8
SOILS
 10
426621.7047529318952002
 20
514293.5446764745283872
 30
0.0
  0
VERTEX
  5
14DA
  8
SOILS
 10
426641.78017575701233
 20
514323.466628948925063
 30
0.0
  0
VERTEX
  5
14DB
  8
SOILS
 10
426671.8489909258205444
 20
514353.3591727644088678
 30
0.0
  0
VERTEX
  5
14DC
  8
SOILS
 10
426701.8885951658012345
 20
514373.2581270657829009
 30
0.0
  0
VERTEX
  5
14DD
  8
SOILS
 10
426731.9575112198945135
 20
514403.1505794288823381
 30
0.0
  0
VERTEX
  5
14DE
  8
SOILS
 10
426802.147557212098036
 20
514482.8932826406089589
 30
0.0
  0
VERTEX
  5
14DF
  8
SOILS
 10
426822.2229751737904735
 20
514512.8150585907278582
 30
0.0
  0
VERTEX
  5
14E0
  8
SOILS
 10
426822.3406031256890856
 20
514552.7892483358737081
 30
0.0
  0
VERTEX
  5
14E1
  8
SOILS
 10
426832.4518244371865876
 20
514592.7341326386085711
 30
0.0
  0
VERTEX
  5
14E2
  8
SOILS
 10
426832.6871599071891978
 20
514672.6826143802027218
 30
0.0
  0
VERTEX
  5
14E3
  8
SOILS
 10
426822.7818714074091986
 20
514702.6927102595218457
 30
0.0
  0
VERTEX
  5
14E4
  8
SOILS
 10
426812.8764809429994784
 20
514732.7028045075130649
 30
0.0
  0
VERTEX
  5
14E5
  8
SOILS
 10
426812.994186541007366
 20
514772.6769935531774536
 30
0.0
  0
VERTEX
  5
14E6
  8
SOILS
 10
426803.0888909209170379
 20
514802.6870854418957606
 30
0.0
  0
VERTEX
  5
14E7
  8
SOILS
 10
426823.2525816195993684
 20
514862.5895703911082819
 30
0.0
  0
VERTEX
  5
14E8
  8
SOILS
 10
426833.3344738492742181
 20
514892.5408651983016171
 30
0.0
  0
VERTEX
  5
14E9
  8
SOILS
 10
426853.4098622520104982
 20
514922.4627643540152349
 30
0.0
  0
VERTEX
  5
14EA
  8
SOILS
 10
426873.4853496028808877
 20
514952.3844668315723538
 30
0.0
  0
VERTEX
  5
14EB
  8
SOILS
 10
426913.5478348945034668
 20
514982.2473810000810772
 30
0.0
  0
VERTEX
  5
14EC
  8
SOILS
 10
426943.6168211398762651
 20
515012.1397960868780501
 30
0.0
  0
VERTEX
  5
14ED
  8
SOILS
 10
426973.6563134556054138
 20
515032.0385143664898351
 30
0.0
  0
VERTEX
  5
14EE
  8
SOILS
 10
427003.6958069315878674
 20
515051.9373356035212055
 30
0.0
  0
VERTEX
  5
14EF
  8
SOILS
 10
427033.7647949252859689
 20
515081.8296628980897367
 30
0.0
  0
VERTEX
  5
14F0
  8
SOILS
 10
427063.8043904108926654
 20
515101.7284910841262899
 30
0.0
  0
VERTEX
  5
14F1
  8
SOILS
 10
427093.8437874582014047
 20
515121.627222107083071
 30
0.0
  0
VERTEX
  5
14F2
  8
SOILS
 10
427123.8833856554119848
 20
515141.5259564187144861
 30
0.0
  0
VERTEX
  5
14F3
  8
SOILS
 10
427153.9228852132800967
 20
515161.4246936255949549
 30
0.0
  0
VERTEX
  5
14F4
  8
SOILS
 10
427183.9623860620195046
 20
515181.3234338614274748
 30
0.0
  0
VERTEX
  5
14F5
  8
SOILS
 10
427214.0018882001750171
 20
515201.2221771240001544
 30
0.0
  0
VERTEX
  5
14F6
  8
SOILS
 10
427253.9760204767226242
 20
515201.1043167560128495
 30
0.0
  0
VERTEX
  5
14F7
  8
SOILS
 10
427283.9271570486016572
 20
515191.0224370880168863
 30
0.0
  0
VERTEX
  5
14F8
  8
SOILS
 10
427323.9013962015160359
 20
515190.9046757068717852
 30
0.0
  0
VERTEX
  5
14F9
  8
SOILS
 10
427363.8754395482828841
 20
515190.7869140328257345
 30
0.0
  0
VERTEX
  5
14FA
  8
SOILS
 10
427393.8265841900720261
 20
515180.7050307546160184
 30
0.0
  0
VERTEX
  5
14FB
  8
SOILS
 10
427433.8006346161710098
 20
515180.5872680103057064
 30
0.0
  0
VERTEX
  5
14FC
  8
SOILS
 10
427473.7746892229188234
 20
515180.4694053041748703
 30
0.0
  0
VERTEX
  5
14FD
  8
SOILS
 10
427503.7258419350837357
 20
515170.3875184161006473
 30
0.0
  0
VERTEX
  5
14FE
  8
SOILS
 10
427543.670512362383306
 20
515160.2762387383263558
 30
0.0
  0
VERTEX
  5
14FF
  8
SOILS
 10
427573.6805521789938211
 20
515170.181481754174456
 30
0.0
  0
VERTEX
  5
1500
  8
SOILS
 10
427603.7198848681873642
 20
515190.0801435654866509
 30
0.0
  0
VERTEX
  5
1501
  8
SOILS
 10
427613.8017727271071635
 20
515220.031206215324346
 30
0.0
  0
VERTEX
  5
1502
  8
SOILS
 10
427633.9066653682966717
 20
515259.9463996646227315
 30
0.0
  0
VERTEX
  5
1503
  8
SOILS
 10
427634.0244183007162064
 20
515299.9203725215047598
 30
0.0
  0
VERTEX
  5
1504
  8
SOILS
 10
427624.1192620645160787
 20
515329.9304140965105034
 30
0.0
  0
VERTEX
  5
1505
  8
SOILS
 10
427624.2372076268075034
 20
515369.9044861887814477
 30
0.0
  0
VERTEX
  5
1506
  8
SOILS
 10
427634.3484674452920444
 20
515409.8490731790079735
 30
0.0
  0
VERTEX
  5
1507
  8
SOILS
 10
427644.4304392181802541
 20
515439.8002438672119752
 30
0.0
  0
VERTEX
  5
1508
  8
SOILS
 10
427674.4698638105764985
 20
515459.6988299948861822
 30
0.0
  0
VERTEX
  5
1509
  8
SOILS
 10
427704.5387726852204651
 20
515489.5909392281901091
 30
0.0
  0
VERTEX
  5
150A
  8
SOILS
 10
427734.5488167980220169
 20
515499.4960114656714723
 30
0.0
  0
VERTEX
  5
150B
  8
SOILS
 10
427794.5688110754126683
 20
515519.3062602455029264
 30
0.0
  0
VERTEX
  5
150C
  8
SOILS
 10
427824.6081431927159429
 20
515539.204859850986395
 30
0.0
  0
VERTEX
  5
150D
  8
SOILS
 10
427834.6901101790717803
 20
515569.1559483712771907
 30
0.0
  0
VERTEX
  5
150E
  8
SOILS
 10
427844.7720752839231864
 20
515599.1069384985021316
 30
0.0
  0
VERTEX
  5
150F
  8
SOILS
 10
427844.8898938933270983
 20
515639.0809330299962312
 30
0.0
  0
VERTEX
  5
1510
  8
SOILS
 10
427834.9848066400154494
 20
515669.0908824009820819
 30
0.0
  0
VERTEX
  5
1511
  8
SOILS
 10
427835.102717952511739
 20
515709.0649760374799371
 30
0.0
  0
VERTEX
  5
1512
  8
SOILS
 10
427845.2141488911001943
 20
515749.0094934693770483
 30
0.0
  0
VERTEX
  5
1513
  8
SOILS
 10
427855.296000694972463
 20
515778.96048888907535
 30
0.0
  0
VERTEX
  5
1514
  8
SOILS
 10
427865.3779504161211662
 20
515808.9114859771798365
 30
0.0
  0
VERTEX
  5
1515
  8
SOILS
 10
427895.4174733643885702
 20
515828.8100115581182763
 30
0.0
  0
VERTEX
  5
1516
  8
SOILS
 10
427925.4274236196069978
 20
515838.7151142457150854
 30
0.0
  0
VERTEX
  5
1517
  8
SOILS
 10
427955.4373760442831554
 20
515848.6201185070094652
 30
0.0
  0
VERTEX
  5
1518
  8
SOILS
 10
427975.5128499220008962
 20
515878.5416519364225678
 30
0.0
  0
VERTEX
  5
1519
  8
SOILS
 10
427995.5884226196212694
 20
515908.4630886160884984
 30
0.0
  0
VERTEX
  5
151A
  8
SOILS
 10
427995.706309893517755
 20
515948.4370987231959589
 30
0.0
  0
VERTEX
  5
151B
  8
SOILS
 10
427975.8078680511098355
 20
515978.4765226406161673
 30
0.0
  0
VERTEX
  5
151C
  8
SOILS
 10
427955.9092249280074611
 20
516008.5160431996919215
 30
0.0
  0
VERTEX
  5
151D
  8
SOILS
 10
427946.0042067150934599
 20
516038.5259919409872964
 30
0.0
  0
VERTEX
  5
151E
  8
SOILS
 10
427946.1222806419827975
 20
516078.4999973548110574
 30
0.0
  0
VERTEX
  5
151F
  8
SOILS
 10
427946.2402505922946148
 20
516118.4740026704967022
 30
0.0
  0
VERTEX
  5
1520
  8
SOILS
 10
427946.3582164911786094
 20
516158.4480080195935443
 30
0.0
  0
VERTEX
  5
1521
  8
SOILS
 10
427956.440239826682955
 20
516188.398921980522573
 30
0.0
  0
VERTEX
  5
1522
  8
SOILS
 10
427966.5518253920017742
 20
516228.343364417029079
 30
0.0
  0
VERTEX
  5
1523
  8
SOILS
 10
427976.6337438864284195
 20
516258.2943815054022707
 30
0.0
  0
VERTEX
  5
1524
  8
SOILS
 10
427996.7092878827825189
 20
516288.2158376589068212
 30
0.0
  0
VERTEX
  5
1525
  8
SOILS
 10
428026.7487970180809498
 20
516308.1142065324820578
 30
0.0
  0
VERTEX
  5
1526
  8
SOILS
 10
428056.7587454520980828
 20
516318.0192490507033654
 30
0.0
  0
VERTEX
  5
1527
  8
SOILS
 10
428116.7787486236775294
 20
516337.829138865985442
 30
0.0
  0
VERTEX
  5
1528
  8
SOILS
 10
428156.7822349513880908
 20
516347.7045248468057252
 30
0.0
  0
VERTEX
  5
1529
  8
SOILS
 10
428186.7921924265101552
 20
516357.609473691903986
 30
0.0
  0
VERTEX
  5
152A
  8
SOILS
 10
428196.8742068407009356
 20
516387.560411014885176
 30
0.0
  0
VERTEX
  5
152B
  8
SOILS
 10
428196.8918668099213392
 20
516393.5230943678179756
 30
0.0
  0
VERTEX
  5
152C
  8
SOILS
 10
428241.2483326432993636
 20
516389.9401706244098023
 30
0.0
  0
VERTEX
  5
152D
  8
SOILS
 10
428276.7537036463036202
 20
516379.6471968349069357
 30
0.0
  0
VERTEX
  5
152E
  8
SOILS
 10
428309.7434519787202589
 20
516376.9824969699257053
 30
0.0
  0
VERTEX
  5
152F
  8
SOILS
 10
428345.2790726663079113
 20
516376.8477406253805384
 30
0.0
  0
VERTEX
  5
1530
  8
SOILS
 10
428373.2601573935244232
 20
516397.0579099836759269
 30
0.0
  0
VERTEX
  5
1531
  8
SOILS
 10
428380.9729742089984939
 20
516430.0426962784258649
 30
0.0
  0
VERTEX
  5
1532
  8
SOILS
 10
428376.0095643301028758
 20
516468.1546975015080534
 30
0.0
  0
VERTEX
  5
1533
  8
SOILS
 10
428368.492821613617707
 20
516501.1972476387745701
 30
0.0
  0
VERTEX
  5
1534
  8
SOILS
 10
428368.5984625589917414
 20
516536.7506212734733708
 30
0.0
  0
VERTEX
  5
1535
  8
SOILS
 10
428371.2424096078029834
 20
516572.2940353287267499
 30
0.0
  0
VERTEX
  5
1536
  8
SOILS
 10
428381.493420661019627
 20
516605.2692651000106707
 30
0.0
  0
VERTEX
  5
1537
  8
SOILS
 10
428394.2827382928226143
 20
516638.2348371944972314
 30
0.0
  0
VERTEX
  5
1538
  8
SOILS
 10
428417.2025131467962638
 20
516663.5431577886920422
 30
0.0
  0
VERTEX
  5
1539
  8
SOILS
 10
428447.7068797228275798
 20
516678.6645806633750908
 30
0.0
  0
VERTEX
  5
153A
  8
SOILS
 10
428488.3414098555222154
 20
516686.1289508895715699
 30
0.0
  0
VERTEX
  5
153B
  8
SOILS
 10
428521.346395967004355
 20
516688.5432878714054823
 30
0.0
  0
VERTEX
  5
153C
  8
SOILS
 10
428556.8743772063171491
 20
516685.8688529739738442
 30
0.0
  0
VERTEX
  5
153D
  8
SOILS
 10
428592.4173797360854223
 20
516688.2734309362713248
 30
0.0
  0
VERTEX
  5
153E
  8
SOILS
 10
428622.9217589318286628
 20
516703.3948624102049507
 30
0.0
  0
VERTEX
  5
153F
  8
SOILS
 10
428650.9178643011837266
 20
516728.6840832486050203
 30
0.0
  0
VERTEX
  5
1540
  8
SOILS
 10
428676.3985349404974841
 20
516761.6012885923846625
 30
0.0
  0
VERTEX
  5
1541
  8
SOILS
 10
428691.7187018488184549
 20
516792.0176248176721856
 30
0.0
  0
VERTEX
  5
1542
  8
SOILS
 10
428699.4390501984744333
 20
516827.5418530225288123
 30
0.0
  0
VERTEX
  5
1543
  8
SOILS
 10
428714.7665709775174037
 20
516860.4977008659043349
 30
0.0
  0
VERTEX
  5
1544
  8
SOILS
 10
428735.1631544263800606
 20
516890.8947280690772459
 30
0.0
  0
VERTEX
  5
1545
  8
SOILS
 10
428791.1555577754043043
 20
516941.472914825018961
 30
0.0
  0
VERTEX
  5
1546
  8
SOILS
 10
428819.1443027771892957
 20
516964.2224555431166664
 30
0.0
  0
VERTEX
  5
1547
  8
SOILS
 10
428854.7326704591978341
 20
516981.864010829012841
 30
0.0
  0
VERTEX
  5
1548
  8
SOILS
 10
428887.7676142482087016
 20
516994.4362090838258155
 30
0.0
  0
VERTEX
  5
1549
  8
SOILS
 10
428920.7798894454026595
 20
516999.3898828431265429
 30
0.0
  0
VERTEX
  5
154A
  8
SOILS
 10
428958.8838064883020706
 20
517009.4034612425020896
 30
0.0
  0
VERTEX
  5
154B
  8
SOILS
 10
428994.4343005942064337
 20
517014.347380073973909
 30
0.0
  0
VERTEX
  5
154C
  8
SOILS
 10
429029.9923544607008807
 20
517021.8310092136962339
 30
0.0
  0
VERTEX
  5
154D
  8
SOILS
 10
429063.0047410210245289
 20
517026.7847870864206925
 30
0.0
  0
VERTEX
  5
154E
  8
SOILS
 10
429093.5089442611206323
 20
517041.9059626642265357
 30
0.0
  0
VERTEX
  5
154F
  8
SOILS
 10
429126.5741326863062568
 20
517064.6362142766010948
 30
0.0
  0
VERTEX
  5
1550
  8
SOILS
 10
429146.9630655816290528
 20
517092.4936733649810776
 30
0.0
  0
VERTEX
  5
1551
  8
SOILS
 10
429159.760024152288679
 20
517127.9984360684757121
 30
0.0
  0
VERTEX
  5
1552
  8
SOILS
 10
429175.1329736122279428
 20
517176.1911973645910621
 30
0.0
  0
VERTEX
  5
1553
  8
SOILS
 10
429182.8534970671171322
 20
517211.7152770744869485
 30
0.0
  0
VERTEX
  5
1554
  8
SOILS
 10
429185.5124997615930624
 20
517252.3377902852953412
 30
0.0
  0
VERTEX
  5
1555
  8
SOILS
 10
429185.6183737199171446
 20
517287.890838576189708
 30
0.0
  0
VERTEX
  5
1556
  8
SOILS
 10
429180.6626260341145098
 20
517328.5422178984736092
 30
0.0
  0
VERTEX
  5
1557
  8
SOILS
 10
429173.1461960240849294
 20
517361.5846198973013088
 30
0.0
  0
VERTEX
  5
1558
  8
SOILS
 10
429168.1678773405146785
 20
517394.6175656773266383
 30
0.0
  0
VERTEX
  5
1559
  8
SOILS
 10
429173.3426125497207977
 20
517427.6117930393083952
 30
0.0
  0
VERTEX
  5
155A
  8
SOILS
 10
429188.6702020827797242
 20
517460.567404193803668
 30
0.0
  0
VERTEX
  5
155B
  8
SOILS
 10
429206.5210958687821403
 20
517488.4344426068710163
 30
0.0
  0
VERTEX
  5
155C
  8
SOILS
 10
429237.0480537945986725
 20
517511.1741922767250799
 30
0.0
  0
VERTEX
  5
155D
  8
SOILS
 10
429270.1056738602928817
 20
517531.3648804588010535
 30
0.0
  0
VERTEX
  5
155E
  8
SOILS
 10
429308.1868511859211139
 20
517533.7595850796788
 30
0.0
  0
VERTEX
  5
155F
  8
SOILS
 10
429384.33400961762527
 20
517533.4700717487721704
 30
0.0
  0
VERTEX
  5
1560
  8
SOILS
 10
429419.8769819117151201
 20
517535.8746308918925934
 30
0.0
  0
VERTEX
  5
1561
  8
SOILS
 10
429452.9043022118858062
 20
517545.907281105814036
 30
0.0
  0
VERTEX
  5
1562
  8
SOILS
 10
429483.4085159581154585
 20
517561.0284118119743653
 30
0.0
  0
VERTEX
  5
1563
  8
SOILS
 10
429506.3509553804178722
 20
517593.9549941081204452
 30
0.0
  0
VERTEX
  5
1564
  8
SOILS
 10
429514.0713477286044508
 20
517629.4792116829776205
 30
0.0
  0
VERTEX
  5
1565
  8
SOILS
 10
429514.1848407885991037
 20
517667.5716027388116345
 30
0.0
  0
VERTEX
  5
1566
  8
SOILS
 10
429519.3595579164102674
 20
517700.5657627286855131
 30
0.0
  0
VERTEX
  5
1567
  8
SOILS
 10
429524.5419244514778256
 20
517736.099536424910184
 30
0.0
  0
VERTEX
  5
1568
  8
SOILS
 10
429534.8008210639236495
 20
517771.6138067722204141
 30
0.0
  0
VERTEX
  5
1569
  8
SOILS
 10
429552.6591608379967511
 20
517802.0201966892927885
 30
0.0
  0
VERTEX
  5
156A
  8
SOILS
 10
429578.1398008876130916
 20
517834.937246867979411
 30
0.0
  0
VERTEX
  5
156B
  8
SOILS
 10
429601.0595686046872288
 20
517860.2453132199007086
 30
0.0
  0
VERTEX
  5
156C
  8
SOILS
 10
429631.5713332166778855
 20
517877.9059873779769987
 30
0.0
  0
VERTEX
  5
156D
  8
SOILS
 10
429669.6827488786075264
 20
517890.4586824934231117
 30
0.0
  0
VERTEX
  5
156E
  8
SOILS
 10
429702.1225516052218154
 20
517902.8042594520957209
 30
0.0
  0
VERTEX
  5
156F
  8
SOILS
 10
429697.9391933219158091
 20
517884.6634816649020649
 30
0.0
  0
VERTEX
  5
1570
  8
SOILS
 10
429665.5292519017239101
 20
517858.3543223926099017
 30
0.0
  0
VERTEX
  5
1571
  8
SOILS
 10
429642.0862089628935792
 20
517799.1961081774206832
 30
0.0
  0
VERTEX
  5
1572
  8
SOILS
 10
429624.9951052936958149
 20
517742.1346778302104212
 30
0.0
  0
VERTEX
  5
1573
  8
SOILS
 10
429617.311803646502085
 20
517693.0023238597204909
 30
0.0
  0
VERTEX
  5
1574
  8
SOILS
 10
429598.7346792080206797
 20
517673.904587249213364
 30
0.0
  0
VERTEX
  5
1575
  8
SOILS
 10
429575.4085348271764815
 20
517620.4424176738248207
 30
0.0
  0
VERTEX
  5
1576
  8
SOILS
 10
429554.4033431124989875
 20
517580.9642130126012489
 30
0.0
  0
VERTEX
  5
1577
  8
SOILS
 10
429523.5460424575721845
 20
517535.7687966197263449
 30
0.0
  0
VERTEX
  5
1578
  8
SOILS
 10
429499.7772088801721111
 20
517511.9433878122945316
 30
0.0
  0
VERTEX
  5
1579
  8
SOILS
 10
429462.491662566375453
 20
517486.3545486552757211
 30
0.0
  0
VERTEX
  5
157A
  8
SOILS
 10
429415.8128784531727433
 20
517434.4542854438186623
 30
0.0
  0
VERTEX
  5
157B
  8
SOILS
 10
429360.5314165476011112
 20
517388.2319992887787521
 30
0.0
  0
VERTEX
  5
157C
  8
SOILS
 10
429334.6554941040812992
 20
517367.2061554159736261
 30
0.0
  0
VERTEX
  5
157D
  8
SOILS
 10
429314.1290171582950279
 20
517331.4795610011206008
 30
0.0
  0
VERTEX
  5
157E
  8
SOILS
 10
429312.2664419484790415
 20
517284.8614275319268927
 30
0.0
  0
VERTEX
  5
157F
  8
SOILS
 10
429321.4047333077760413
 20
517228.8408182188868523
 30
0.0
  0
VERTEX
  5
1580
  8
SOILS
 10
429328.8696371954865754
 20
517171.8806716704275459
 30
0.0
  0
VERTEX
  5
1581
  8
SOILS
 10
429320.3353712626849301
 20
517105.1773910889751278
 30
0.0
  0
VERTEX
  5
1582
  8
SOILS
 10
429337.5184109582914971
 20
517040.2014923921087757
 30
0.0
  0
VERTEX
  5
1583
  8
SOILS
 10
429310.9995586805744097
 20
517015.5754773737862706
 30
0.0
  0
VERTEX
  5
1584
  8
SOILS
 10
429262.5327378149959259
 20
516978.2540132575086318
 30
0.0
  0
VERTEX
  5
1585
  8
SOILS
 10
429230.5439486430841498
 20
516962.1604740092880093
 30
0.0
  0
VERTEX
  5
1586
  8
SOILS
 10
429191.2531684490968473
 20
516939.4972963090986013
 30
0.0
  0
VERTEX
  5
1587
  8
SOILS
 10
429157.3153814568067901
 20
516918.9010926252813078
 30
0.0
  0
VERTEX
  5
1588
  8
SOILS
 10
429138.7233810218167491
 20
516898.259189578006044
 30
0.0
  0
VERTEX
  5
1589
  8
SOILS
 10
429108.7749240511911921
 20
516864.6830334956757724
 30
0.0
  0
VERTEX
  5
158A
  8
SOILS
 10
429088.473426217911765
 20
516841.3837729863007553
 30
0.0
  0
VERTEX
  5
158B
  8
SOILS
 10
429076.1093902786960825
 20
516825.7045419954229146
 30
0.0
  0
VERTEX
  5
158C
  8
SOILS
 10
429065.0541679335874505
 20
516803.7521782451076433
 30
0.0
  0
VERTEX
  5
158D
  8
SOILS
 10
429057.8259821634856053
 20
516777.422646272520069
 30
0.0
  0
VERTEX
  5
158E
  8
SOILS
 10
429051.2942292190855369
 20
516754.2688788727973588
 30
0.0
  0
VERTEX
  5
158F
  8
SOILS
 10
429045.4587102913064882
 20
516734.290475785615854
 30
0.0
  0
VERTEX
  5
1590
  8
SOILS
 10
429040.3197252255049534
 20
516717.4877369424793869
 30
0.0
  0
VERTEX
  5
1591
  8
SOILS
 10
429026.7264351063058712
 20
516682.031018415291328
 30
0.0
  0
VERTEX
  5
1592
  8
SOILS
 10
428989.7876543228048831
 20
516639.1433096362743527
 30
0.0
  0
VERTEX
  5
1593
  8
SOILS
 10
428963.1849962327978574
 20
516607.3321283637196757
 30
0.0
  0
VERTEX
  5
1594
  8
SOILS
 10
428940.1698581905802712
 20
516574.3292076911893673
 30
0.0
  0
VERTEX
  5
1595
  8
SOILS
 10
428916.8252970689209178
 20
516535.5806333112996072
 30
0.0
  0
VERTEX
  5
1596
  8
SOILS
 10
428902.8984094705083407
 20
516514.0017510714824311
 30
0.0
  0
VERTEX
  5
1597
  8
SOILS
 10
428883.7566233024117537
 20
516460.5839071535738185
 30
0.0
  0
VERTEX
  5
1598
  8
SOILS
 10
428879.4165273229009472
 20
516428.8782986797159538
 30
0.0
  0
VERTEX
  5
1599
  8
SOILS
 10
428878.012915501720272
 20
516395.1390882955747657
 30
0.0
  0
VERTEX
  5
159A
  8
SOILS
 10
428875.0162902107113041
 20
516355.7933640006231144
 30
0.0
  0
VERTEX
  5
159B
  8
SOILS
 10
428867.8151936088106595
 20
516327.9898341753869317
 30
0.0
  0
VERTEX
  5
159C
  8
SOILS
 10
428851.2571936920867302
 20
516308.9017416185815819
 30
0.0
  0
VERTEX
  5
159D
  8
SOILS
 10
428813.1284657032811083
 20
516293.799711360828951
 30
0.0
  0
VERTEX
  5
159E
  8
SOILS
 10
428781.9779918878921308
 20
516276.0288364076986909
 30
0.0
  0
VERTEX
  5
159F
  8
SOILS
 10
428763.7622402476263233
 20
516258.5631232720916159
 30
0.0
  0
VERTEX
  5
15A0
  8
SOILS
 10
428735.1460503411944956
 20
516226.7866189568885602
 30
0.0
  0
VERTEX
  5
15A1
  8
SOILS
 10
428695.5264365265029483
 20
516180.0991638510022312
 30
0.0
  0
VERTEX
  5
15A2
  8
SOILS
 10
428657.9760852418257855
 20
516136.2826950909220614
 30
0.0
  0
VERTEX
  5
15A3
  8
SOILS
 10
428632.3619892104761675
 20
516106.0859254273236729
 30
0.0
  0
VERTEX
  5
15A4
  8
SOILS
 10
428618.3309262422844768
 20
516091.4705932207871228
 30
0.0
  0
VERTEX
  5
15A5
  8
SOILS
 10
428584.6388574491720647
 20
516058.9930515104206279
 30
0.0
  0
VERTEX
  5
15A6
  8
SOILS
 10
428546.7112235971144401
 20
516030.0779291169019416
 30
0.0
  0
VERTEX
  5
15A7
  8
SOILS
 10
428504.5477274294826202
 20
516004.7248258325853385
 30
0.0
  0
VERTEX
  5
15A8
  8
SOILS
 10
428458.1483703345875256
 20
515982.9342409722157754
 30
0.0
  0
VERTEX
  5
15A9
  8
SOILS
 10
428428.9472753409063444
 20
515969.8523320590029471
 30
0.0
  0
VERTEX
  5
15AA
  8
SOILS
 10
428384.4345810110098682
 20
515947.2258240376249887
 30
0.0
  0
VERTEX
  5
15AB
  8
SOILS
 10
428339.0681249016197398
 20
515920.9946631913771853
 30
0.0
  0
VERTEX
  5
15AC
  8
SOILS
 10
428311.2641670561861247
 20
515892.0351805440150201
 30
0.0
  0
VERTEX
  5
15AD
  8
SOILS
 10
428264.7205933048971929
 20
515842.5912889902829193
 30
0.0
  0
VERTEX
  5
15AE
  8
SOILS
 10
428245.9808770635863766
 20
515822.1071776024764404
 30
0.0
  0
VERTEX
  5
15AF
  8
SOILS
 10
428201.2355857553193346
 20
515768.4211767325177789
 30
0.0
  0
VERTEX
  5
15B0
  8
SOILS
 10
428182.1530909399152733
 20
515729.7243738629040308
 30
0.0
  0
VERTEX
  5
15B1
  8
SOILS
 10
428176.4141216211719438
 20
515697.4217207037727349
 30
0.0
  0
VERTEX
  5
15B2
  8
SOILS
 10
428177.2833984812023118
 20
515650.8935472753946669
 30
0.0
  0
VERTEX
  5
15B3
  8
SOILS
 10
428180.2364118869882077
 20
515604.1946263393037952
 30
0.0
  0
VERTEX
  5
15B4
  8
SOILS
 10
428185.0882100234739482
 20
515544.951613407174591
 30
0.0
  0
VERTEX
  5
15B5
  8
SOILS
 10
428187.7834568517864682
 20
515476.9908721059910022
 30
0.0
  0
VERTEX
  5
15B6
  8
SOILS
 10
428167.8459785985760391
 20
515423.6895503518753685
 30
0.0
  0
VERTEX
  5
15B7
  8
SOILS
 10
428158.7171469571185298
 20
515364.2517590802744962
 30
0.0
  0
VERTEX
  5
15B8
  8
SOILS
 10
428157.8621038009878248
 20
515283.8352286106091924
 30
0.0
  0
VERTEX
  5
15B9
  8
SOILS
 10
428147.0579468432115391
 20
515246.2295209186268039
 30
0.0
  0
VERTEX
  5
15BA
  8
SOILS
 10
428154.2835593930794857
 20
515180.1475814299774356
 30
0.0
  0
VERTEX
  5
15BB
  8
SOILS
 10
428153.8450458840816282
 20
515115.4139444489264861
 30
0.0
  0
VERTEX
  5
15BC
  8
SOILS
 10
428152.3834918178035878
 20
515032.0122445974848233
 30
0.0
  0
VERTEX
  5
15BD
  8
SOILS
 10
428152.2830501176067628
 20
514998.0334783156285994
 30
0.0
  0
VERTEX
  5
15BE
  8
SOILS
 10
428129.3963350686826743
 20
514920.8762923930189572
 30
0.0
  0
VERTEX
  5
15BF
  8
SOILS
 10
428089.1012483724043705
 20
514877.7493237169110216
 30
0.0
  0
VERTEX
  5
15C0
  8
SOILS
 10
428034.7761435857973993
 20
514827.439711743616499
 30
0.0
  0
VERTEX
  5
15C1
  8
SOILS
 10
427956.5253905284916982
 20
514814.0187501691980287
 30
0.0
  0
VERTEX
  5
15C2
  8
SOILS
 10
427883.7646462572156452
 20
514811.0645277692819946
 30
0.0
  0
VERTEX
  5
15C3
  8
SOILS
 10
427853.0170300116878934
 20
514781.7268739871215075
 30
0.0
  0
VERTEX
  5
15C4
  8
SOILS
 10
427814.2632555256132036
 20
514770.1630921788164414
 30
0.0
  0
VERTEX
  5
15C5
  8
SOILS
 10
427781.220185348414816
 20
514741.4299125415273011
 30
0.0
  0
VERTEX
  5
15C6
  8
SOILS
 10
427770.1658414728008211
 20
514688.8628832544200122
 30
0.0
  0
VERTEX
  5
15C7
  8
SOILS
 10
427745.3935440600034781
 20
514652.894887579313945
 30
0.0
  0
VERTEX
  5
15C8
  8
SOILS
 10
427717.4356614460120909
 20
514600.7619430695776828
 30
0.0
  0
VERTEX
  5
15C9
  8
SOILS
 10
427695.3235742602264509
 20
514551.102390794607345
 30
0.0
  0
VERTEX
  5
15CA
  8
SOILS
 10
427677.4343201185110956
 20
514504.0068408091901802
 30
0.0
  0
VERTEX
  5
15CB
  8
SOILS
 10
427657.0068325549946167
 20
514432.7006243317155167
 30
0.0
  0
VERTEX
  5
15CC
  8
SOILS
 10
427649.1200621664756909
 20
514384.0582662696833722
 30
0.0
  0
VERTEX
  5
15CD
  8
SOILS
 10
427604.0911434788722545
 20
514382.3016355293802917
 30
0.0
  0
VERTEX
  5
15CE
  8
SOILS
 10
427583.4021476802881807
 20
514381.0313866824726574
 30
0.0
  0
VERTEX
  5
15CF
  8
SOILS
 10
427571.1420899995137006
 20
514368.7151321679120883
 30
0.0
  0
VERTEX
  5
15D0
  8
SOILS
 10
427556.0820063065038994
 20
514344.0260353126795962
 30
0.0
  0
VERTEX
  5
15D1
  8
SOILS
 10
427507.0545045144972391
 20
514320.3531037318171002
 30
0.0
  0
VERTEX
  5
15D2
  8
SOILS
 10
427404.0628676646738313
 20
514293.1751225990010425
 30
0.0
  0
VERTEX
  5
15D3
  8
SOILS
 10
427368.0237687724875286
 20
514269.4637145161977969
 30
0.0
  0
VERTEX
  5
15D4
  8
SOILS
 10
427287.0428733521257527
 20
514252.2975885167252272
 30
0.0
  0
VERTEX
  5
15D5
  8
SOILS
 10
427193.086515995382797
 20
514239.74961124768015
 30
0.0
  0
VERTEX
  5
15D6
  8
SOILS
 10
427157.0313293639919721
 20
514210.5421223003068008
 30
0.0
  0
VERTEX
  5
15D7
  8
SOILS
 10
427150.9473643106175587
 20
514180.3301325046923012
 30
0.0
  0
VERTEX
  5
15D8
  8
SOILS
 10
427142.9110278767184354
 20
514165.6967724525020458
 30
0.0
  0
VERTEX
  5
15D9
  8
SOILS
 10
427085.979466037126258
 20
514172.2769590488751419
 30
0.0
  0
VERTEX
  5
15DA
  8
SOILS
 10
427046.5279666804126464
 20
514146.3153274895739742
 30
0.0
  0
VERTEX
  5
15DB
  8
SOILS
 10
427000.09257404319942
 20
514116.591459873423446
 30
0.0
  0
VERTEX
  5
15DC
  8
SOILS
 10
426962.2198201267747208
 20
514090.6542853516875766
 30
0.0
  0
VERTEX
  5
15DD
  8
SOILS
 10
426903.8911546815070324
 20
514089.452113157894928
 30
0.0
  0
VERTEX
  5
15DE
  8
SOILS
 10
426877.0936207920894958
 20
514028.448473745607771
 30
0.0
  0
VERTEX
  5
15DF
  8
SOILS
 10
426836.5030459113186225
 20
513999.1968326828209683
 30
0.0
  0
VERTEX
  5
15E0
  8
SOILS
 10
426791.2581884897081181
 20
513982.5047406228841282
 30
0.0
  0
VERTEX
  5
15E1
  8
SOILS
 10
426773.7931627951911651
 20
513960.1626876625814475
 30
0.0
  0
VERTEX
  5
15E2
  8
SOILS
 10
426770.9109363671741448
 20
513917.1377716645947658
 30
0.0
  0
VERTEX
  5
15E3
  8
SOILS
 10
426725.2337575341225602
 20
513857.0699326653848402
 30
0.0
  0
VERTEX
  5
15E4
  8
SOILS
 10
426692.3474909706274047
 20
513843.6547628184780478
 30
0.0
  0
VERTEX
  5
15E5
  8
SOILS
 10
426655.0927335416781716
 20
513796.7970000786008313
 30
0.0
  0
VERTEX
  5
15E6
  8
SOILS
 10
426600.6899081505835056
 20
513752.5644724011071958
 30
0.0
  0
VERTEX
  5
15E7
  8
SOILS
 10
426537.6220741621800698
 20
513669.2855704338871874
 30
0.0
  0
VERTEX
  5
15E8
  8
SOILS
 10
426441.8563333384809084
 20
513604.3839536241139285
 30
0.0
  0
VERTEX
  5
15E9
  8
SOILS
 10
426364.8280588799971156
 20
513540.6579891426954418
 30
0.0
  0
VERTEX
  5
15EA
  8
SOILS
 10
426309.1040656467084773
 20
513485.6435231792274863
 30
0.0
  0
VERTEX
  5
15EB
  8
SOILS
 10
426251.9909997808863409
 20
513425.3944077913183719
 30
0.0
  0
VERTEX
  5
15EC
  8
SOILS
 10
426218.107290958520025
 20
513356.875048593909014
 30
0.0
  0
VERTEX
  5
15ED
  8
SOILS
 10
426149.043712803395465
 20
513291.4651679644011892
 30
0.0
  0
VERTEX
  5
15EE
  8
SOILS
 10
426062.8464349128189497
 20
513271.1789241128135473
 30
0.0
  0
VERTEX
  5
15EF
  8
SOILS
 10
426004.8957194492104463
 20
513236.646254867897369
 30
0.0
  0
VERTEX
  5
15F0
  8
SOILS
 10
425944.7778442953131162
 20
513157.9771054349839687
 30
0.0
  0
VERTEX
  5
15F1
  8
SOILS
 10
425919.5100808200077154
 20
513102.2285063139279373
 30
0.0
  0
VERTEX
  5
15F2
  8
SOILS
 10
425820.8019628499750979
 20
513066.6490637232200243
 30
0.0
  0
SEQEND
  5
15F3
  8
SOILS
  0
POLYLINE
  5
103
  8
SOILS
 66
     1
 10
0.0
 20
0.0
 30
0.0
 70
     1
  0
VERTEX
  5
15F4
  8
SOILS
 10
427016.1533782003098167
 20
516978.7768704494228587
 30
0.0
  0
VERTEX
  5
15F5
  8
SOILS
 10
427069.1929256992880255
 20
516884.6330881947069429
 30
0.0
  0
VERTEX
  5
15F6
  8
SOILS
 10
427173.3810810435097665
 20
516912.1640445800730959
 30
0.0
  0
VERTEX
  5
15F7
  8
SOILS
 10
427259.1773982151062228
 20
516734.1097175878821872
 30
0.0
  0
VERTEX
  5
15F8
  8
SOILS
 10
427180.3426161761744879
 20
516693.7872339190798812
 30
0.0
  0
VERTEX
  5
15F9
  8
SOILS
 10
427364.6697114876005799
 20
516350.325198287377134
 30
0.0
  0
VERTEX
  5
15FA
  8
SOILS
 10
427128.0588427961920388
 20
516193.8120258240960538
 30
0.0
  0
VERTEX
  5
15FB
  8
SOILS
 10
427047.126764994522091
 20
516300.7567661416251212
 30
0.0
  0
VERTEX
  5
15FC
  8
SOILS
 10
426970.7776440579909831
 20
516242.6517528388067149
 30
0.0
  0
VERTEX
  5
15FD
  8
SOILS
 10
426897.3942246088990942
 20
516326.7170932171284221
 30
0.0
  0
VERTEX
  5
15FE
  8
SOILS
 10
426706.5632120987866074
 20
516195.4186671238858253
 30
0.0
  0
VERTEX
  5
15FF
  8
SOILS
 10
426539.5898757897084579
 20
516399.1724163091857918
 30
0.0
  0
VERTEX
  5
1600
  8
SOILS
 10
426613.362086922803428
 20
516444.5924841685919091
 30
0.0
  0
VERTEX
  5
1601
  8
SOILS
 10
426573.1702977403765544
 20
516589.4668056757072918
 30
0.0
  0
VERTEX
  5
1602
  8
SOILS
 10
426751.1916320595773868
 20
516682.7293372480780818
 30
0.0
  0
VERTEX
  5
1603
  8
SOILS
 10
426756.8190813597175293
 20
516865.5132914470741525
 30
0.0
  0
SEQEND
  5
1604
  8
SOILS
  0
POLYLINE
  5
11E
  8
SOILS
 66
     1
 10
0.0
 20
0.0
 30
0.0
 70
     1
  0
VERTEX
  5
1605
  8
SOILS
 10
425720.9603716076235287
 20
513092.870226591185201
 30
0.0
  0
VERTEX
  5
1606
  8
SOILS
 10
425714.9739152949186973
 20
513094.4424899285077117
 30
0.0
  0
VERTEX
  5
1607
  8
SOILS
 10
425637.8445884502725676
 20
513121.1711020257207565
 30
0.0
  0
VERTEX
  5
1608
  8
SOILS
 10
425613.2467629532911815
 20
513169.37002515909262
 30
0.0
  0
VERTEX
  5
1609
  8
SOILS
 10
425606.2410966022871435
 20
513231.0666083812830038
 30
0.0
  0
VERTEX
  5
160A
  8
SOILS
 10
425600.5664054456865415
 20
513276.3327179754851386
 30
0.0
  0
VERTEX
  5
160B
  8
SOILS
 10
425596.9518846434075385
 20
513344.8522262034239247
 30
0.0
  0
VERTEX
  5
160C
  8
SOILS
 10
425599.0122583474731073
 20
513368.1058264905004762
 30
0.0
  0
VERTEX
  5
160D
  8
SOILS
 10
425609.8249920018133707
 20
513407.2633368151145987
 30
0.0
  0
VERTEX
  5
160E
  8
SOILS
 10
425628.8672483714763075
 20
513446.3964088293141685
 30
0.0
  0
VERTEX
  5
160F
  8
SOILS
 10
425634.5328727163141593
 20
513452.1498755525099114
 30
0.0
  0
VERTEX
  5
1610
  8
SOILS
 10
425682.3993561273091473
 20
513355.6667796180117875
 30
0.0
  0
VERTEX
  5
1611
  8
SOILS
 10
425697.5584899769746698
 20
513330.2194199668010697
 30
0.0
  0
VERTEX
  5
1612
  8
SOILS
 10
425707.6317592955892906
 20
513302.2524292055168189
 30
0.0
  0
VERTEX
  5
1613
  8
SOILS
 10
425715.1583540788269602
 20
513271.7562283796141855
 30
0.0
  0
VERTEX
  5
1614
  8
SOILS
 10
425717.6065648628282361
 20
513241.2790865608258173
 30
0.0
  0
VERTEX
  5
1615
  8
SOILS
 10
425717.4020502218045294
 20
513172.7274971582228318
 30
0.0
  0
VERTEX
  5
1616
  8
SOILS
 10
425719.8578356116195209
 20
513144.7894429881125689
 30
0.0
  0
VERTEX
  5
1617
  8
SOILS
 10
425719.7441974335815758
 20
513106.7052153549157083
 30
0.0
  0
SEQEND
  5
1618
  8
SOILS
  0
POLYLINE
  5
13A
  8
SOILS
 66
     1
 10
0.0
 20
0.0
 30
0.0
 70
     1
  0
VERTEX
  5
1619
  8
SOILS
 10
427711.1236490323208272
 20
517718.1433914265944622
 30
0.0
  0
VERTEX
  5
161A
  8
SOILS
 10
427720.9987627600785345
 20
517678.139681079890579
 30
0.0
  0
VERTEX
  5
161B
  8
SOILS
 10
427730.9035007195780054
 20
517648.129589959513396
 30
0.0
  0
VERTEX
  5
161C
  8
SOILS
 10
427740.8082365106092766
 20
517618.1195972673012875
 30
0.0
  0
VERTEX
  5
161D
  8
SOILS
 10
427750.7130704552982934
 20
517588.1094033453264274
 30
0.0
  0
VERTEX
  5
161E
  8
SOILS
 10
427770.611324462282937
 20
517558.0696773849776946
 30
0.0
  0
VERTEX
  5
161F
  8
SOILS
 10
427780.5160545185208321
 20
517528.0595794947003014
 30
0.0
  0
VERTEX
  5
1620
  8
SOILS
 10
427800.4143053137813695
 20
517498.0199481705785729
 30
0.0
  0
VERTEX
  5
1621
  8
SOILS
 10
427830.3357109791832045
 20
517477.9442049827193841
 30
0.0
  0
VERTEX
  5
1622
  8
SOILS
 10
427860.2866507170256227
 20
517467.861983162292745
 30
0.0
  0
VERTEX
  5
1623
  8
SOILS
 10
427890.1783260438824072
 20
517437.7928091312060133
 30
0.0
  0
VERTEX
  5
1624
  8
SOILS
 10
427890.0599902811227366
 20
517397.8187082093209028
 30
0.0
  0
VERTEX
  5
1625
  8
SOILS
 10
427899.96491097350372
 20
517367.8085974960122257
 30
0.0
  0
VERTEX
  5
1626
  8
SOILS
 10
427909.8696295106783509
 20
517337.7986848730943166
 30
0.0
  0
VERTEX
  5
1627
  8
SOILS
 10
427919.7743462717044167
 20
517307.7885708928224631
 30
0.0
  0
VERTEX
  5
1628
  8
SOILS
 10
427969.5939922332763672
 20
517257.6731509020901285
 30
0.0
  0
VERTEX
  5
1629
  8
SOILS
 10
427989.4923315803171135
 20
517227.6336915611173026
 30
0.0
  0
VERTEX
  5
162A
  8
SOILS
 10
428019.4137377575971186
 20
517207.557918245496694
 30
0.0
  0
VERTEX
  5
162B
  8
SOILS
 10
428029.3184472048887983
 20
517177.5478926061186939
 30
0.0
  0
VERTEX
  5
162C
  8
SOILS
 10
428039.2232544118887745
 20
517147.5379655269207433
 30
0.0
  0
VERTEX
  5
162D
  8
SOILS
 10
428049.0986179126775824
 20
517107.5344079959904775
 30
0.0
  0
VERTEX
  5
162E
  8
SOILS
 10
428068.9968500094255432
 20
517077.4948349865153432
 30
0.0
  0
VERTEX
  5
162F
  8
SOILS
 10
428068.8786773728206754
 20
517037.5208163299248554
 30
0.0
  0
VERTEX
  5
1630
  8
SOILS
 10
428058.7964157676906325
 20
517007.5698716032784432
 30
0.0
  0
VERTEX
  5
1631
  8
SOILS
 10
428028.6387573676765896
 20
516947.6976331109181046
 30
0.0
  0
VERTEX
  5
1632
  8
SOILS
 10
428008.5631616174941882
 20
516917.7762406665133312
 30
0.0
  0
VERTEX
  5
1633
  8
SOILS
 10
427988.4874645671225153
 20
516887.8549510671873577
 30
0.0
  0
VERTEX
  5
1634
  8
SOILS
 10
427968.411866468610242
 20
516857.9334647919167764
 30
0.0
  0
VERTEX
  5
1635
  8
SOILS
 10
427968.2936715087271295
 20
516817.9595563728944398
 30
0.0
  0
VERTEX
  5
1636
  8
SOILS
 10
427988.1920773215824738
 20
516787.919975231285207
 30
0.0
  0
VERTEX
  5
1637
  8
SOILS
 10
427998.0969537731143646
 20
516757.9100416998844594
 30
0.0
  0
VERTEX
  5
1638
  8
SOILS
 10
427997.9788488558842801
 20
516717.9359306007972918
 30
0.0
  0
VERTEX
  5
1639
  8
SOILS
 10
427977.9031372127938084
 20
516688.01465200597886
 30
0.0
  0
VERTEX
  5
163A
  8
SOILS
 10
427957.8276244510780089
 20
516658.0931768644950353
 30
0.0
  0
VERTEX
  5
163B
  8
SOILS
 10
427947.7455367788788863
 20
516628.1422505853115581
 30
0.0
  0
VERTEX
  5
163C
  8
SOILS
 10
427937.6634472243022174
 20
516598.1912259113159962
 30
0.0
  0
VERTEX
  5
163D
  8
SOILS
 10
427937.5453258951893076
 20
516558.2173208768945187
 30
0.0
  0
VERTEX
  5
163E
  8
SOILS
 10
427957.4438102851272561
 20
516528.1777291581965983
 30
0.0
  0
VERTEX
  5
163F
  8
SOILS
 10
427987.3947349669178948
 20
516518.0956318785902113
 30
0.0
  0
VERTEX
  5
1640
  8
SOILS
 10
428067.3426629565074109
 20
516517.8594769801711664
 30
0.0
  0
VERTEX
  5
1641
  8
SOILS
 10
428097.2934956481913105
 20
516507.7774758900050074
 30
0.0
  0
VERTEX
  5
1642
  8
SOILS
 10
428127.2445303428103216
 20
516497.6953735980787314
 30
0.0
  0
VERTEX
  5
1643
  8
SOILS
 10
428157.1659092904883437
 20
516477.6198377626715228
 30
0.0
  0
VERTEX
  5
1644
  8
SOILS
 10
428187.0873894073884003
 20
516457.5442990105948411
 30
0.0
  0
VERTEX
  5
1645
  8
SOILS
 10
428196.9922456698841415
 20
516427.534342102415394
 30
0.0
  0
VERTEX
  5
1646
  8
SOILS
 10
428196.8918668099213392
 20
516393.5230943678179756
 30
0.0
  0
VERTEX
  5
1647
  8
SOILS
 10
428196.8742068407009356
 20
516387.560411014885176
 30
0.0
  0
VERTEX
  5
1648
  8
SOILS
 10
428186.7921924265101552
 20
516357.609473691903986
 30
0.0
  0
VERTEX
  5
1649
  8
SOILS
 10
428156.7822349513880908
 20
516347.7045248468057252
 30
0.0
  0
VERTEX
  5
164A
  8
SOILS
 10
428116.7787486236775294
 20
516337.829138865985442
 30
0.0
  0
VERTEX
  5
164B
  8
SOILS
 10
428056.7587454520980828
 20
516318.0192490507033654
 30
0.0
  0
VERTEX
  5
164C
  8
SOILS
 10
428026.7487970180809498
 20
516308.1142065324820578
 30
0.0
  0
VERTEX
  5
164D
  8
SOILS
 10
427996.7092878827825189
 20
516288.2158376589068212
 30
0.0
  0
VERTEX
  5
164E
  8
SOILS
 10
427976.6337438864284195
 20
516258.2943815054022707
 30
0.0
  0
VERTEX
  5
164F
  8
SOILS
 10
427966.5518253920017742
 20
516228.343364417029079
 30
0.0
  0
VERTEX
  5
1650
  8
SOILS
 10
427956.440239826682955
 20
516188.398921980522573
 30
0.0
  0
VERTEX
  5
1651
  8
SOILS
 10
427946.3582164911786094
 20
516158.4480080195935443
 30
0.0
  0
VERTEX
  5
1652
  8
SOILS
 10
427946.2402505922946148
 20
516118.4740026704967022
 30
0.0
  0
VERTEX
  5
1653
  8
SOILS
 10
427946.1222806419827975
 20
516078.4999973548110574
 30
0.0
  0
VERTEX
  5
1654
  8
SOILS
 10
427946.0042067150934599
 20
516038.5259919409872964
 30
0.0
  0
VERTEX
  5
1655
  8
SOILS
 10
427955.9092249280074611
 20
516008.5160431996919215
 30
0.0
  0
VERTEX
  5
1656
  8
SOILS
 10
427975.8078680511098355
 20
515978.4765226406161673
 30
0.0
  0
VERTEX
  5
1657
  8
SOILS
 10
427995.706309893517755
 20
515948.4370987231959589
 30
0.0
  0
VERTEX
  5
1658
  8
SOILS
 10
427995.5884226196212694
 20
515908.4630886160884984
 30
0.0
  0
VERTEX
  5
1659
  8
SOILS
 10
427975.5128499220008962
 20
515878.5416519364225678
 30
0.0
  0
VERTEX
  5
165A
  8
SOILS
 10
427955.4373760442831554
 20
515848.6201185070094652
 30
0.0
  0
VERTEX
  5
165B
  8
SOILS
 10
427925.4274236196069978
 20
515838.7151142457150854
 30
0.0
  0
VERTEX
  5
165C
  8
SOILS
 10
427895.4174733643885702
 20
515828.8100115581182763
 30
0.0
  0
VERTEX
  5
165D
  8
SOILS
 10
427865.3779504161211662
 20
515808.9114859771798365
 30
0.0
  0
VERTEX
  5
165E
  8
SOILS
 10
427855.296000694972463
 20
515778.96048888907535
 30
0.0
  0
VERTEX
  5
165F
  8
SOILS
 10
427845.2141488911001943
 20
515749.0094934693770483
 30
0.0
  0
VERTEX
  5
1660
  8
SOILS
 10
427835.102717952511739
 20
515709.0649760374799371
 30
0.0
  0
VERTEX
  5
1661
  8
SOILS
 10
427834.9848066400154494
 20
515669.0908824009820819
 30
0.0
  0
VERTEX
  5
1662
  8
SOILS
 10
427844.8898938933270983
 20
515639.0809330299962312
 30
0.0
  0
VERTEX
  5
1663
  8
SOILS
 10
427844.7720752839231864
 20
515599.1069384985021316
 30
0.0
  0
VERTEX
  5
1664
  8
SOILS
 10
427834.6901101790717803
 20
515569.1559483712771907
 30
0.0
  0
VERTEX
  5
1665
  8
SOILS
 10
427824.6081431927159429
 20
515539.204859850986395
 30
0.0
  0
VERTEX
  5
1666
  8
SOILS
 10
427794.5688110754126683
 20
515519.3062602455029264
 30
0.0
  0
VERTEX
  5
1667
  8
SOILS
 10
427734.5488167980220169
 20
515499.4960114656714723
 30
0.0
  0
VERTEX
  5
1668
  8
SOILS
 10
427704.5387726852204651
 20
515489.5909392281901091
 30
0.0
  0
VERTEX
  5
1669
  8
SOILS
 10
427674.4698638105764985
 20
515459.6988299948861822
 30
0.0
  0
VERTEX
  5
166A
  8
SOILS
 10
427644.4304392181802541
 20
515439.8002438672119752
 30
0.0
  0
VERTEX
  5
166B
  8
SOILS
 10
427634.3484674452920444
 20
515409.8490731790079735
 30
0.0
  0
VERTEX
  5
166C
  8
SOILS
 10
427624.2372076268075034
 20
515369.9044861887814477
 30
0.0
  0
VERTEX
  5
166D
  8
SOILS
 10
427624.1192620645160787
 20
515329.9304140965105034
 30
0.0
  0
VERTEX
  5
166E
  8
SOILS
 10
427634.0244183007162064
 20
515299.9203725215047598
 30
0.0
  0
VERTEX
  5
166F
  8
SOILS
 10
427633.9066653682966717
 20
515259.9463996646227315
 30
0.0
  0
VERTEX
  5
1670
  8
SOILS
 10
427613.8017727271071635
 20
515220.031206215324346
 30
0.0
  0
VERTEX
  5
1671
  8
SOILS
 10
427603.7198848681873642
 20
515190.0801435654866509
 30
0.0
  0
VERTEX
  5
1672
  8
SOILS
 10
427573.6805521789938211
 20
515170.181481754174456
 30
0.0
  0
VERTEX
  5
1673
  8
SOILS
 10
427543.670512362383306
 20
515160.2762387383263558
 30
0.0
  0
VERTEX
  5
1674
  8
SOILS
 10
427503.7258419350837357
 20
515170.3875184161006473
 30
0.0
  0
VERTEX
  5
1675
  8
SOILS
 10
427473.7746892229188234
 20
515180.4694053041748703
 30
0.0
  0
VERTEX
  5
1676
  8
SOILS
 10
427433.8006346161710098
 20
515180.5872680103057064
 30
0.0
  0
VERTEX
  5
1677
  8
SOILS
 10
427393.8265841900720261
 20
515180.7050307546160184
 30
0.0
  0
VERTEX
  5
1678
  8
SOILS
 10
427363.8754395482828841
 20
515190.7869140328257345
 30
0.0
  0
VERTEX
  5
1679
  8
SOILS
 10
427323.9013962015160359
 20
515190.9046757068717852
 30
0.0
  0
VERTEX
  5
167A
  8
SOILS
 10
427283.9271570486016572
 20
515191.0224370880168863
 30
0.0
  0
VERTEX
  5
167B
  8
SOILS
 10
427253.9760204767226242
 20
515201.1043167560128495
 30
0.0
  0
VERTEX
  5
167C
  8
SOILS
 10
427214.0018882001750171
 20
515201.2221771240001544
 30
0.0
  0
VERTEX
  5
167D
  8
SOILS
 10
427183.9623860620195046
 20
515181.3234338614274748
 30
0.0
  0
VERTEX
  5
167E
  8
SOILS
 10
427153.9228852132800967
 20
515161.4246936255949549
 30
0.0
  0
VERTEX
  5
167F
  8
SOILS
 10
427123.8833856554119848
 20
515141.5259564187144861
 30
0.0
  0
VERTEX
  5
1680
  8
SOILS
 10
427093.8437874582014047
 20
515121.627222107083071
 30
0.0
  0
VERTEX
  5
1681
  8
SOILS
 10
427063.8043904108926654
 20
515101.7284910841262899
 30
0.0
  0
VERTEX
  5
1682
  8
SOILS
 10
427033.7647949252859689
 20
515081.8296628980897367
 30
0.0
  0
VERTEX
  5
1683
  8
SOILS
 10
427003.6958069315878674
 20
515051.9373356035212055
 30
0.0
  0
VERTEX
  5
1684
  8
SOILS
 10
426973.6563134556054138
 20
515032.0385143664898351
 30
0.0
  0
VERTEX
  5
1685
  8
SOILS
 10
426943.6168211398762651
 20
515012.1397960868780501
 30
0.0
  0
VERTEX
  5
1686
  8
SOILS
 10
426913.5478348945034668
 20
514982.2473810000810772
 30
0.0
  0
VERTEX
  5
1687
  8
SOILS
 10
426873.4853496028808877
 20
514952.3844668315723538
 30
0.0
  0
VERTEX
  5
1688
  8
SOILS
 10
426853.4098622520104982
 20
514922.4627643540152349
 30
0.0
  0
VERTEX
  5
1689
  8
SOILS
 10
426833.3344738492742181
 20
514892.5408651983016171
 30
0.0
  0
VERTEX
  5
168A
  8
SOILS
 10
426823.2525816195993684
 20
514862.5895703911082819
 30
0.0
  0
VERTEX
  5
168B
  8
SOILS
 10
426803.0888909209170379
 20
514802.6870854418957606
 30
0.0
  0
VERTEX
  5
168C
  8
SOILS
 10
426812.994186541007366
 20
514772.6769935531774536
 30
0.0
  0
VERTEX
  5
168D
  8
SOILS
 10
426812.8764809429994784
 20
514732.7028045075130649
 30
0.0
  0
VERTEX
  5
168E
  8
SOILS
 10
426822.7818714074091986
 20
514702.6927102595218457
 30
0.0
  0
VERTEX
  5
168F
  8
SOILS
 10
426832.6871599071891978
 20
514672.6826143802027218
 30
0.0
  0
VERTEX
  5
1690
  8
SOILS
 10
426832.4518244371865876
 20
514592.7341326386085711
 30
0.0
  0
VERTEX
  5
1691
  8
SOILS
 10
426822.3406031256890856
 20
514552.7892483358737081
 30
0.0
  0
VERTEX
  5
1692
  8
SOILS
 10
426822.2229751737904735
 20
514512.8150585907278582
 30
0.0
  0
VERTEX
  5
1693
  8
SOILS
 10
426802.147557212098036
 20
514482.8932826406089589
 30
0.0
  0
VERTEX
  5
1694
  8
SOILS
 10
426731.9575112198945135
 20
514403.1505794288823381
 30
0.0
  0
VERTEX
  5
1695
  8
SOILS
 10
426701.8885951658012345
 20
514373.2581270657829009
 30
0.0
  0
VERTEX
  5
1696
  8
SOILS
 10
426671.8489909258205444
 20
514353.3591727644088678
 30
0.0
  0
VERTEX
  5
1697
  8
SOILS
 10
426641.78017575701233
 20
514323.466628948925063
 30
0.0
  0
VERTEX
  5
1698
  8
SOILS
 10
426621.7047529318952002
 20
514293.5446764745283872
 30
0.0
  0
VERTEX
  5
1699
  8
SOILS
 10
426601.6295285901287571
 20
514263.6228272352018394
 30
0.0
  0
VERTEX
  5
169A
  8
SOILS
 10
426591.5476946735288948
 20
514233.6714663879247382
 30
0.0
  0
VERTEX
  5
169B
  8
SOILS
 10
426581.4658587420126423
 20
514203.720107075991109
 30
0.0
  0
VERTEX
  5
169C
  8
SOILS
 10
426571.3842205252149142
 20
514173.7688494888134301
 30
0.0
  0
VERTEX
  5
169D
  8
SOILS
 10
426561.3024806285975501
 20
514143.817393449600786
 30
0.0
  0
VERTEX
  5
169E
  8
SOILS
 10
426541.2271481045754626
 20
514113.8955562984920107
 30
0.0
  0
VERTEX
  5
169F
  8
SOILS
 10
426531.1454044407000765
 20
514083.9441040881210938
 30
0.0
  0
VERTEX
  5
16A0
  8
SOILS
 10
426511.0700689228833653
 20
514054.0222722797188908
 30
0.0
  0
VERTEX
  5
16A1
  8
SOILS
 10
426490.994832354481332
 20
514024.1002437917049974
 30
0.0
  0
VERTEX
  5
16A2
  8
SOILS
 10
426460.9553267054143362
 20
514004.2012269183760509
 30
0.0
  0
VERTEX
  5
16A3
  8
SOILS
 10
426440.8799888644716702
 20
513974.2793045687139966
 30
0.0
  0
VERTEX
  5
16A4
  8
SOILS
 10
426410.8699060557992198
 20
513964.3737809871090576
 30
0.0
  0
VERTEX
  5
16A5
  8
SOILS
 10
426380.8304035150213167
 20
513944.4747726956265979
 30
0.0
  0
VERTEX
  5
16A6
  8
SOILS
 10
426350.7909023943939246
 20
513924.5756675031152554
 30
0.0
  0
VERTEX
  5
16A7
  8
SOILS
 10
426310.7871406578924507
 20
513914.6996722624753602
 30
0.0
  0
VERTEX
  5
16A8
  8
SOILS
 10
426280.7770662675029598
 20
513904.7941564618959092
 30
0.0
  0
VERTEX
  5
16A9
  8
SOILS
 10
426240.8026342220255174
 20
513904.9116474945913069
 30
0.0
  0
VERTEX
  5
16AA
  8
SOILS
 10
426210.8512104183901101
 20
513914.9933975064777769
 30
0.0
  0
VERTEX
  5
16AB
  8
SOILS
 10
426170.8767854524194263
 20
513915.1108874682104215
 30
0.0
  0
VERTEX
  5
16AC
  8
SOILS
 10
426140.8666217952850275
 20
513905.20537499448983
 30
0.0
  0
VERTEX
  5
16AD
  8
SOILS
 10
426110.8565601037116721
 20
513895.2998641515732743
 30
0.0
  0
VERTEX
  5
16AE
  8
SOILS
 10
426080.7876533648814075
 20
513865.4072976753814146
 30
0.0
  0
VERTEX
  5
16AF
  8
SOILS
 10
426060.7122246249928139
 20
513835.4853111425181851
 30
0.0
  0
VERTEX
  5
16B0
  8
SOILS
 10
426050.6305722636170685
 20
513805.5338027487741783
 30
0.0
  0
VERTEX
  5
16B1
  8
SOILS
 10
426060.5066471308819018
 20
513765.5299658080912195
 30
0.0
  0
VERTEX
  5
16B2
  8
SOILS
 10
426050.4248894077027217
 20
513735.5785590272862464
 30
0.0
  0
VERTEX
  5
16B3
  8
SOILS
 10
426040.3433296607108787
 20
513705.6270541140111163
 30
0.0
  0
VERTEX
  5
16B4
  8
SOILS
 10
426020.2679908139980398
 20
513675.7050789311761037
 30
0.0
  0
VERTEX
  5
16B5
  8
SOILS
 10
425990.2578327826922759
 20
513665.7994885087828152
 30
0.0
  0
VERTEX
  5
16B6
  8
SOILS
 10
425960.3063342081732117
 20
513675.8812500836211257
 30
0.0
  0
VERTEX
  5
16B7
  8
SOILS
 10
425930.3548377755796537
 20
513685.9629101969185285
 30
0.0
  0
VERTEX
  5
16B8
  8
SOILS
 10
425915.6840321479248814
 20
513708.1098750105011277
 30
0.0
  0
VERTEX
  5
16B9
  8
SOILS
 10
425920.3352993102744222
 20
513711.3247447729227133
 30
0.0
  0
VERTEX
  5
16BA
  8
SOILS
 10
425961.1219944620970637
 20
513754.1024497398757376
 30
0.0
  0
VERTEX
  5
16BB
  8
SOILS
 10
425961.6556036077090539
 20
513807.1658133057062514
 30
0.0
  0
VERTEX
  5
16BC
  8
SOILS
 10
425937.9006474930793047
 20
513873.906643584894482
 30
0.0
  0
VERTEX
  5
16BD
  8
SOILS
 10
425927.2556582047254778
 20
513905.6115098564769141
 30
0.0
  0
VERTEX
  5
16BE
  8
SOILS
 10
425908.3413321739062667
 20
513966.9070570016046986
 30
0.0
  0
VERTEX
  5
16BF
  8
SOILS
 10
425917.4446365563198924
 20
514015.1742505158181302
 30
0.0
  0
VERTEX
  5
16C0
  8
SOILS
 10
425947.0331242996035144
 20
514040.4292124783969484
 30
0.0
  0
VERTEX
  5
16C1
  8
SOILS
 10
426006.5579266846179962
 20
514055.4545319430762902
 30
0.0
  0
VERTEX
  5
16C2
  8
SOILS
 10
426031.9361928718280979
 20
514106.2215190451242961
 30
0.0
  0
VERTEX
  5
16C3
  8
SOILS
 10
426045.8051382225239649
 20
514150.609939371177461
 30
0.0
  0
VERTEX
  5
16C4
  8
SOILS
 10
426054.8737512787920423
 20
514234.6751589134801179
 30
0.0
  0
VERTEX
  5
16C5
  8
SOILS
 10
426057.8989796544192359
 20
514286.5384534525801428
 30
0.0
  0
VERTEX
  5
16C6
  8
SOILS
 10
426059.2827736585750245
 20
514316.3782823794754222
 30
0.0
  0
VERTEX
  5
16C7
  8
SOILS
 10
426056.593203320808243
 20
514387.1935260865138844
 30
0.0
  0
VERTEX
  5
16C8
  8
SOILS
 10
426058.1671142895938829
 20
514447.8020580536103807
 30
0.0
  0
VERTEX
  5
16C9
  8
SOILS
 10
426030.8779427048866637
 20
514509.7520766680827364
 30
0.0
  0
VERTEX
  5
16CA
  8
SOILS
 10
426030.6589730490231887
 20
514576.740887962107081
 30
0.0
  0
VERTEX
  5
16CB
  8
SOILS
 10
426023.8315288285957649
 20
514623.7792494000750594
 30
0.0
  0
VERTEX
  5
16CC
  8
SOILS
 10
425983.0219308047089726
 20
514654.6920040145050734
 30
0.0
  0
VERTEX
  5
16CD
  8
SOILS
 10
425932.5226788996951655
 20
514699.6680930269067176
 30
0.0
  0
VERTEX
  5
16CE
  8
SOILS
 10
425887.4775804512901232
 20
514757.4345379325095564
 30
0.0
  0
VERTEX
  5
16CF
  8
SOILS
 10
425874.433123471273575
 20
514816.9663853617967106
 30
0.0
  0
VERTEX
  5
16D0
  8
SOILS
 10
425861.5010349513031542
 20
514914.6521197179099545
 30
0.0
  0
VERTEX
  5
16D1
  8
SOILS
 10
425864.9568950302782468
 20
514965.7275230346131139
 30
0.0
  0
VERTEX
  5
16D2
  8
SOILS
 10
425881.6481296888086945
 20
515021.8664258325006813
 30
0.0
  0
VERTEX
  5
16D3
  8
SOILS
 10
425904.1517815996776335
 20
515076.2553988951840438
 30
0.0
  0
VERTEX
  5
16D4
  8
SOILS
 10
425924.9750019090133719
 20
515144.0302820684155449
 30
0.0
  0
VERTEX
  5
16D5
  8
SOILS
 10
425972.6475168209872209
 20
515226.7317408804083243
 30
0.0
  0
VERTEX
  5
16D6
  8
SOILS
 10
425965.4461583805968985
 20
515359.9549233522848226
 30
0.0
  0
VERTEX
  5
16D7
  8
SOILS
 10
425955.5741727545973845
 20
515432.8126684576272964
 30
0.0
  0
VERTEX
  5
16D8
  8
SOILS
 10
425913.9542741620098241
 20
515516.8545862212777138
 30
0.0
  0
VERTEX
  5
16D9
  8
SOILS
 10
425873.2167673374060541
 20
515593.9249412370263599
 30
0.0
  0
VERTEX
  5
16DA
  8
SOILS
 10
425789.6712608028901741
 20
515634.9795911313267425
 30
0.0
  0
VERTEX
  5
16DB
  8
SOILS
 10
425737.5257928108912893
 20
515659.3668431818950921
 30
0.0
  0
VERTEX
  5
16DC
  8
SOILS
 10
425698.5609147339127958
 20
515697.9871573168202303
 30
0.0
  0
VERTEX
  5
16DD
  8
SOILS
 10
425648.2850118564092554
 20
515763.5615934330271557
 30
0.0
  0
VERTEX
  5
16DE
  8
SOILS
 10
425616.3253527311026119
 20
515830.4379974139737897
 30
0.0
  0
VERTEX
  5
16DF
  8
SOILS
 10
425593.4392323581269011
 20
515914.8057376987999305
 30
0.0
  0
VERTEX
  5
16E0
  8
SOILS
 10
425550.5351593843079172
 20
515946.6494097472168505
 30
0.0
  0
VERTEX
  5
16E1
  8
SOILS
 10
425544.637812121596653
 20
515979.6453903028159402
 30
0.0
  0
VERTEX
  5
16E2
  8
SOILS
 10
425508.7609697628067806
 20
516010.8979940391727723
 30
0.0
  0
VERTEX
  5
16E3
  8
SOILS
 10
425468.9822514003026299
 20
516074.2242449522018433
 30
0.0
  0
VERTEX
  5
16E4
  8
SOILS
 10
425465.3110353972879238
 20
516184.1634930183063261
 30
0.0
  0
VERTEX
  5
16E5
  8
SOILS
 10
425492.1353005669079721
 20
516227.4281323585892096
 30
0.0
  0
VERTEX
  5
16E6
  8
SOILS
 10
425518.5639661854947917
 20
516284.7734505048138089
 30
0.0
  0
VERTEX
  5
16E7
  8
SOILS
 10
425473.8492715263855644
 20
516368.2683158502914011
 30
0.0
  0
VERTEX
  5
16E8
  8
SOILS
 10
425473.1104458774789236
 20
516456.2132042889716104
 30
0.0
  0
VERTEX
  5
16E9
  8
SOILS
 10
425475.2957913160789758
 20
516519.4154966177884489
 30
0.0
  0
VERTEX
  5
16EA
  8
SOILS
 10
425454.509757936175447
 20
516558.6019661066238768
 30
0.0
  0
VERTEX
  5
16EB
  8
SOILS
 10
425408.6655296076205559
 20
516624.9609092999016866
 30
0.0
  0
VERTEX
  5
16EC
  8
SOILS
 10
425403.8655506821232848
 20
516629.1683836170122959
 30
0.0
  0
VERTEX
  5
16ED
  8
SOILS
 10
425409.409040512284264
 20
516645.6365380433853716
 30
0.0
  0
VERTEX
  5
16EE
  8
SOILS
 10
425429.4848231596988626
 20
516675.5583197437226772
 30
0.0
  0
VERTEX
  5
16EF
  8
SOILS
 10
425449.5607042337069288
 20
516705.4803044769796543
 30
0.0
  0
VERTEX
  5
16F0
  8
SOILS
 10
425479.60069726977963
 20
516725.3788778514717706
 30
0.0
  0
VERTEX
  5
16F1
  8
SOILS
 10
425509.6702419015928172
 20
516755.2711188918910921
 30
0.0
  0
VERTEX
  5
16F2
  8
SOILS
 10
425529.7460212360019796
 20
516785.1930137085728347
 30
0.0
  0
VERTEX
  5
16F3
  8
SOILS
 10
425549.8219993163947947
 20
516815.1148119071731344
 30
0.0
  0
VERTEX
  5
16F4
  8
SOILS
 10
425579.8915423984872177
 20
516845.0071650382014923
 30
0.0
  0
VERTEX
  5
16F5
  8
SOILS
 10
425599.9674187139025889
 20
516874.9288700292818248
 30
0.0
  0
VERTEX
  5
16F6
  8
SOILS
 10
425630.0369612352224067
 20
516904.8211315904045478
 30
0.0
  0
VERTEX
  5
16F7
  8
SOILS
 10
425660.0768579557770863
 20
516924.7198290347005241
 30
0.0
  0
VERTEX
  5
16F8
  8
SOILS
 10
425690.0873104928759858
 20
516934.6247604750096798
 30
0.0
  0
VERTEX
  5
16F9
  8
SOILS
 10
425720.1567554593202658
 20
516964.5170332791167311
 30
0.0
  0
VERTEX
  5
16FA
  8
SOILS
 10
425750.2264004515018314
 20
516994.4092109720804729
 30
0.0
  0
VERTEX
  5
16FB
  8
SOILS
 10
425780.2663019662722945
 20
517014.3078213590197265
 30
0.0
  0
VERTEX
  5
16FC
  8
SOILS
 10
425810.306304830010049
 20
517034.2063349778181873
 30
0.0
  0
VERTEX
  5
16FD
  8
SOILS
 10
425840.3166661452269182
 20
517044.1112783682765439
 30
0.0
  0
VERTEX
  5
16FE
  8
SOILS
 10
425870.3861145738046616
 20
517074.0033710337011144
 30
0.0
  0
VERTEX
  5
16FF
  8
SOILS
 10
425900.4261211780831218
 20
517093.9019936603726819
 30
0.0
  0
VERTEX
  5
1700
  8
SOILS
 10
425930.4660291461041197
 20
517113.8006191850290634
 30
0.0
  0
VERTEX
  5
1701
  8
SOILS
 10
425960.5060384647222236
 20
517133.6991479382268153
 30
0.0
  0
VERTEX
  5
1702
  8
SOILS
 10
425990.5164087323937565
 20
517143.6041026466991752
 30
0.0
  0
VERTEX
  5
1703
  8
SOILS
 10
426020.5267811702215113
 20
517153.5089589288108982
 30
0.0
  0
VERTEX
  5
1704
  8
SOILS
 10
426050.5371555138844997
 20
517163.4139166413806379
 30
0.0
  0
VERTEX
  5
1705
  8
SOILS
 10
426090.5706510519958101
 20
517183.2828156080213375
 30
0.0
  0
VERTEX
  5
1706
  8
SOILS
 10
426120.6106690861051902
 20
517203.1813577085267752
 30
0.0
  0
VERTEX
  5
1707
  8
SOILS
 10
426150.620949880219996
 20
517213.0863215638091788
 30
0.0
  0
VERTEX
  5
1708
  8
SOILS
 10
426270.6919314349070191
 20
517262.699376747594215
 30
0.0
  0
VERTEX
  5
1709
  8
SOILS
 10
426310.6958071127883159
 20
517272.574811564409174
 30
0.0
  0
VERTEX
  5
170A
  8
SOILS
 10
426340.7061007790034637
 20
517282.4796855131280608
 30
0.0
  0
VERTEX
  5
170B
  8
SOILS
 10
426380.6805463121272624
 20
517282.361337504175026
 30
0.0
  0
VERTEX
  5
170C
  8
SOILS
 10
426410.6907450016005896
 20
517292.266313741216436
 30
0.0
  0
VERTEX
  5
170D
  8
SOILS
 10
426450.6651976319262758
 20
517292.1479666864033788
 30
0.0
  0
VERTEX
  5
170E
  8
SOILS
 10
426480.6754014053149149
 20
517302.0529454129282385
 30
0.0
  0
VERTEX
  5
170F
  8
SOILS
 10
426510.6858072042814456
 20
517311.9578259763075039
 30
0.0
  0
VERTEX
  5
1710
  8
SOILS
 10
426540.6961152441799641
 20
517321.8626079800887965
 30
0.0
  0
VERTEX
  5
1711
  8
SOILS
 10
426570.7063251297804527
 20
517331.76759121340001
 30
0.0
  0
VERTEX
  5
1712
  8
SOILS
 10
426600.7166372446808964
 20
517341.6723762233159505
 30
0.0
  0
VERTEX
  5
1713
  8
SOILS
 10
426630.7860216007102281
 20
517371.5643491087248549
 30
0.0
  0
VERTEX
  5
1714
  8
SOILS
 10
426660.8555059228092432
 20
517401.4563266814802773
 30
0.0
  0
VERTEX
  5
1715
  8
SOILS
 10
426690.9248903543921188
 20
517431.3483086794731207
 30
0.0
  0
VERTEX
  5
1716
  8
SOILS
 10
426711.000779261928983
 20
517461.2699278814834543
 30
0.0
  0
VERTEX
  5
1717
  8
SOILS
 10
426731.076667059212923
 20
517491.1914502013823949
 30
0.0
  0
VERTEX
  5
1718
  8
SOILS
 10
426751.1525537467096001
 20
517521.1128756433026865
 30
0.0
  0
VERTEX
  5
1719
  8
SOILS
 10
426771.2284390641143546
 20
517551.0344040606869385
 30
0.0
  0
VERTEX
  5
171A
  8
SOILS
 10
426801.2978206200059503
 20
517580.9264058272819966
 30
0.0
  0
VERTEX
  5
171B
  8
SOILS
 10
426821.3737040975829586
 20
517610.8478411678224802
 30
0.0
  0
VERTEX
  5
171C
  8
SOILS
 10
426851.4134567166911438
 20
517630.7463522771140561
 30
0.0
  0
VERTEX
  5
171D
  8
SOILS
 10
426881.483038492500782
 20
517660.638166600081604
 30
0.0
  0
VERTEX
  5
171E
  8
SOILS
 10
426911.5227934552240185
 20
517680.5364846707088873
 30
0.0
  0
VERTEX
  5
171F
  8
SOILS
 10
426941.5331228175782599
 20
517690.4413047255948186
 30
0.0
  0
VERTEX
  5
1720
  8
SOILS
 10
426971.5433544220868498
 20
517700.3460262215230614
 30
0.0
  0
VERTEX
  5
1721
  8
SOILS
 10
427001.553488002915401
 20
517710.2508490178734064
 30
0.0
  0
VERTEX
  5
1722
  8
SOILS
 10
427031.5637235507019795
 20
517720.1556734459009022
 30
0.0
  0
VERTEX
  5
1723
  8
SOILS
 10
427071.5379396586795337
 20
517720.0372690908261575
 30
0.0
  0
VERTEX
  5
1724
  8
SOILS
 10
427141.4335249104187824
 20
517699.8429736332036555
 30
0.0
  0
VERTEX
  5
1725
  8
SOILS
 10
427181.4076520783710293
 20
517699.7246669582091272
 30
0.0
  0
VERTEX
  5
1726
  8
SOILS
 10
427221.3818833568948321
 20
517699.6062604527105577
 30
0.0
  0
VERTEX
  5
1727
  8
SOILS
 10
427251.3921359032974578
 20
517709.511089552717749
 30
0.0
  0
VERTEX
  5
1728
  8
SOILS
 10
427281.4319167478824966
 20
517729.4093300130916759
 30
0.0
  0
VERTEX
  5
1729
  8
SOILS
 10
427311.4716987503925338
 20
517749.3076734283822589
 30
0.0
  0
VERTEX
  5
172A
  8
SOILS
 10
427341.4818571188952774
 20
517759.2124084976967424
 30
0.0
  0
VERTEX
  5
172B
  8
SOILS
 10
427371.4919175948016346
 20
517769.117144935997203
 30
0.0
  0
VERTEX
  5
172C
  8
SOILS
 10
427401.5021800972754136
 20
517779.0217832128982991
 30
0.0
  0
VERTEX
  5
172D
  8
SOILS
 10
427431.5123444474884309
 20
517788.9266227150219493
 30
0.0
  0
VERTEX
  5
172E
  8
SOILS
 10
427471.4865011840010993
 20
517788.808224982873071
 30
0.0
  0
VERTEX
  5
172F
  8
SOILS
 10
427501.4373219009721652
 20
517778.7259359150775708
 30
0.0
  0
VERTEX
  5
1730
  8
SOILS
 10
427531.3587193912244402
 20
517758.6501293174806051
 30
0.0
  0
VERTEX
  5
1731
  8
SOILS
 10
427561.2802180498256348
 20
517738.5743198047275655
 30
0.0
  0
VERTEX
  5
1732
  8
SOILS
 10
427601.2542881114059128
 20
517738.4558168419171125
 30
0.0
  0
VERTEX
  5
1733
  8
SOILS
 10
427641.2282620299956761
 20
517738.337513571488671
 30
0.0
  0
VERTEX
  5
1734
  8
SOILS
 10
427681.1727140392176807
 20
517728.2256903548841365
 30
0.0
  0
SEQEND
  5
1735
  8
SOILS
  0
POLYLINE
  5
13B
  8
SOILS
 66
     1
 10
0.0
 20
0.0
 30
0.0
 70
     1
  0
VERTEX
  5
1736
  8
SOILS
 10
427016.1533782003098167
 20
516978.7768704494228587
 30
0.0
  0
VERTEX
  5
1737
  8
SOILS
 10
426756.8190813597175293
 20
516865.5132914470741525
 30
0.0
  0
VERTEX
  5
1738
  8
SOILS
 10
426751.1916320595773868
 20
516682.7293372480780818
 30
0.0
  0
VERTEX
  5
1739
  8
SOILS
 10
426573.1702977403765544
 20
516589.4668056757072918
 30
0.0
  0
VERTEX
  5
173A
  8
SOILS
 10
426613.362086922803428
 20
516444.5924841685919091
 30
0.0
  0
VERTEX
  5
173B
  8
SOILS
 10
426539.5898757897084579
 20
516399.1724163091857918
 30
0.0
  0
VERTEX
  5
173C
  8
SOILS
 10
426706.5632120987866074
 20
516195.4186671238858253
 30
0.0
  0
VERTEX
  5
173D
  8
SOILS
 10
426897.3942246088990942
 20
516326.7170932171284221
 30
0.0
  0
VERTEX
  5
173E
  8
SOILS
 10
426970.7776440579909831
 20
516242.6517528388067149
 30
0.0
  0
VERTEX
  5
173F
  8
SOILS
 10
427047.126764994522091
 20
516300.7567661416251212
 30
0.0
  0
VERTEX
  5
1740
  8
SOILS
 10
427128.0588427961920388
 20
516193.8120258240960538
 30
0.0
  0
VERTEX
  5
1741
  8
SOILS
 10
427364.6697114876005799
 20
516350.325198287377134
 30
0.0
  0
VERTEX
  5
1742
  8
SOILS
 10
427180.3426161761744879
 20
516693.7872339190798812
 30
0.0
  0
VERTEX
  5
1743
  8
SOILS
 10
427259.1773982151062228
 20
516734.1097175878821872
 30
0.0
  0
VERTEX
  5
1744
  8
SOILS
 10
427173.3810810435097665
 20
516912.1640445800730959
 30
0.0
  0
VERTEX
  5
1745
  8
SOILS
 10
427069.1929256992880255
 20
516884.6330881947069429
 30
0.0
  0
SEQEND
  5
1746
  8
SOILS
  0
TEXT
  5
1057
  8
LABELS
 10
426071.5728244088822976
 20
518098.8293339674710296
 30
0.0
 40
65.0
  1
LCd1
  0
TEXT
  5
1059
  8
LABELS
 10
427143.8157525964779779
 20
519235.2594728848198429
 30
0.0
 40
65.0
  1
CBg2
  0
TEXT
  5
105A
  8
LABELS
 10
428631.8936698946054094
 20
518358.6804185736109503
 30
0.0
 40
65.0
  1
SId1
  0
TEXT
  5
105B
  8
LABELS
 10
426966.1966914082877338
 20
516562.804149733914528
 30
0.0
 40
65.0
  1
ZU
  0
TEXT
  5
105C
  8
LABELS
 10
426462.9343346303794533
 20
515756.0747120616724715
 30
0.0
 40
65.0
  1
LCe1
  0
TEXT
  5
105D
  8
LABELS
 10
427207.3953472268185578
 20
514722.5304024360957555
 30
0.0
 40
65.0
  1
LCf1
  0
ENDSEC
  0
EOF
