  0
SECTION
  2
HEADER
  9
$ACADVER
  1
AC1009
  9
$INSBASE
 10
0.0
 20
0.0
 30
0.0
  9
$EXTMIN
 10
424266.270144762005657
 20
513994.8349917622981593
 30
0.0
  9
$EXTMAX
 10
429829.5166666663717479
 20
520040.6459675562218763
 30
0.0
  9
$LIMMIN
 10
0.0
 20
0.0
  9
$LIMMAX
 10
12.0
 20
9.0
  9
$ORTHOMODE
 70
     0
  9
$REGENMODE
 70
     1
  9
$FILLMODE
 70
     1
  9
$QTEXTMODE
 70
     0
  9
$MIRRTEXT
 70
     1
  9
$DRAGMODE
 70
     2
  9
$LTSCALE
 40
1.0
  9
$OSMODE
 70
    37
  9
$ATTMODE
 70
     1
  9
$TEXTSIZE
 40
0.2
  9
$TRACEWID
 40
0.05
  9
$TEXTSTYLE
  7
STANDARD
  9
$CLAYER
  8
0
  9
$CELTYPE
  6
BYLAYER
  9
$CECOLOR
 62
   256
  9
$DIMSCALE
 40
1.0
  9
$DIMASZ
 40
0.18
  9
$DIMEXO
 40
0.0625
  9
$DIMDLI
 40
0.38
  9
$DIMRND
 40
0.0
  9
$DIMDLE
 40
0.0
  9
$DIMEXE
 40
0.18
  9
$DIMTP
 40
0.0
  9
$DIMTM
 40
0.0
  9
$DIMTXT
 40
0.18
  9
$DIMCEN
 40
0.09
  9
$DIMTSZ
 40
0.0
  9
$DIMTOL
 70
     0
  9
$DIMLIM
 70
     0
  9
$DIMTIH
 70
     1
  9
$DIMTOH
 70
     1
  9
$DIMSE1
 70
     0
  9
$DIMSE2
 70
     0
  9
$DIMTAD
 70
     0
  9
$DIMZIN
 70
     0
  9
$DIMBLK
  1

  9
$DIMASO
 70
     1
  9
$DIMSHO
 70
     1
  9
$DIMPOST
  1

  9
$DIMAPOST
  1

  9
$DIMALT
 70
     0
  9
$DIMALTD
 70
     2
  9
$DIMALTF
 40
25.3999999999999986
  9
$DIMLFAC
 40
1.0
  9
$DIMTOFL
 70
     0
  9
$DIMTVP
 40
0.0
  9
$DIMTIX
 70
     0
  9
$DIMSOXD
 70
     0
  9
$DIMSAH
 70
     0
  9
$DIMBLK1
  1

  9
$DIMBLK2
  1

  9
$DIMSTYLE
  2
STANDARD
  9
$DIMCLRD
 70
     0
  9
$DIMCLRE
 70
     0
  9
$DIMCLRT
 70
     0
  9
$DIMTFAC
 40
1.0
  9
$DIMGAP
 40
0.09
  9
$LUNITS
 70
     2
  9
$LUPREC
 70
     4
  9
$SKETCHINC
 40
0.1
  9
$FILLETRAD
 40
0.0
  9
$AUNITS
 70
     0
  9
$AUPREC
 70
     0
  9
$MENU
  1
.
  9
$ELEVATION
 40
0.0
  9
$PELEVATION
 40
0.0
  9
$THICKNESS
 40
0.0
  9
$LIMCHECK
 70
     0
  9
$BLIPMODE
 70
     0
  9
$CHAMFERA
 40
0.0
  9
$CHAMFERB
 40
0.0
  9
$SKPOLY
 70
     0
  9
$TDCREATE
 40
2460571.9913425929844379
  9
$TDUPDATE
 40
2460571.9984143520705402
  9
$TDINDWG
 40
0.0024537153
  9
$TDUSRTIMER
 40
0.0024537153
  9
$USRTIMER
 70
     1
  9
$ANGBASE
 50
0.0
  9
$ANGDIR
 70
     0
  9
$PDMODE
 70
    33
  9
$PDSIZE
 40
-3.0
  9
$PLINEWID
 40
0.0
  9
$COORDS
 70
     1
  9
$SPLFRAME
 70
     0
  9
$SPLINETYPE
 70
     6
  9
$SPLINESEGS
 70
     8
  9
$ATTDIA
 70
     1
  9
$ATTREQ
 70
     1
  9
$HANDLING
 70
     1
  9
$HANDSEED
  5
1344
  9
$SURFTAB1
 70
     6
  9
$SURFTAB2
 70
     6
  9
$SURFTYPE
 70
     6
  9
$SURFU
 70
     6
  9
$SURFV
 70
     6
  9
$UCSNAME
  2

  9
$UCSORG
 10
0.0
 20
0.0
 30
0.0
  9
$UCSXDIR
 10
1.0
 20
0.0
 30
0.0
  9
$UCSYDIR
 10
0.0
 20
1.0
 30
0.0
  9
$PUCSNAME
  2

  9
$PUCSORG
 10
0.0
 20
0.0
 30
0.0
  9
$PUCSXDIR
 10
1.0
 20
0.0
 30
0.0
  9
$PUCSYDIR
 10
0.0
 20
1.0
 30
0.0
  9
$USERI1
 70
     0
  9
$USERI2
 70
     0
  9
$USERI3
 70
     0
  9
$USERI4
 70
     0
  9
$USERI5
 70
     0
  9
$USERR1
 40
0.0
  9
$USERR2
 40
0.0
  9
$USERR3
 40
0.0
  9
$USERR4
 40
0.0
  9
$USERR5
 40
0.0
  9
$WORLDVIEW
 70
     1
  9
$SHADEDGE
 70
     3
  9
$SHADEDIF
 70
    70
  9
$TILEMODE
 70
     1
  9
$MAXACTVP
 70
    64
  9
$PLIMCHECK
 70
     0
  9
$PEXTMIN
 10
1.0000000000000000E+20
 20
1.0000000000000000E+20
 30
1.0000000000000000E+20
  9
$PEXTMAX
 10
-1.0000000000000000E+20
 20
-1.0000000000000000E+20
 30
-1.0000000000000000E+20
  9
$PLIMMIN
 10
0.0
 20
0.0
  9
$PLIMMAX
 10
12.0
 20
9.0
  9
$UNITMODE
 70
     0
  9
$VISRETAIN
 70
     1
  9
$PLINEGEN
 70
     0
  9
$PSLTSCALE
 70
     1
  0
ENDSEC
  0
SECTION
  2
TABLES
  0
TABLE
  2
VPORT
 70
     1
  0
VPORT
  2
*ACTIVE
 70
     0
 10
0.0
 20
0.0
 11
1.0
 21
1.0
 12
426414.8274265765212476
 22
516968.665734612790402
 13
0.0
 23
0.0
 14
0.5
 24
0.5
 15
0.5
 25
0.5
 16
0.0
 26
0.0
 36
1.0
 17
0.0
 27
0.0
 37
0.0
 40
10695.5464023674503551
 41
1.4758418740849191
 42
50.0
 43
0.0
 44
0.0
 50
0.0
 51
0.0
 71
     0
 72
   100
 73
     1
 74
     3
 75
     0
 76
     0
 77
     0
 78
     0
  0
ENDTAB
  0
TABLE
  2
LTYPE
 70
     2
  0
LTYPE
  2
CONTINUOUS
 70
     0
  3
Solid line
 72
    65
 73
     0
 40
0.0
  0
ENDTAB
  0
TABLE
  2
LAYER
 70
   267
  0
LAYER
  2
0
 70
     0
 62
     7
  6
CONTINUOUS
  0
LAYER
  2
LABELS
 70
     0
 62
     1
  6
CONTINUOUS
  0
LAYER
  2
SITES
 70
     0
 62
   120
  6
CONTINUOUS
  0
ENDTAB
  0
TABLE
  2
STYLE
 70
     1
  0
STYLE
  2
STANDARD
 70
     0
 40
0.0
 41
1.0
 50
0.0
 71
     0
 42
0.2
  3
txt
  4

  0
ENDTAB
  0
TABLE
  2
VIEW
 70
     0
  0
ENDTAB
  0
TABLE
  2
UCS
 70
     0
  0
ENDTAB
  0
TABLE
  2
APPID
 70
     6
  0
APPID
  2
ACAD
 70
     0
  0
APPID
  2
ACAECLAYERSTANDARD
 70
     0
  0
APPID
  2
ACCMTRANSPARENCY
 70
     0
  0
APPID
  2
ACAD_EXEMPT_FROM_CAD_STANDARDS
 70
     0
  0
APPID
  2
ACAD_NAV_VCDISPLAY
 70
     0
  0
APPID
  2
ACAD_MLEADERVER
 70
     0
  0
ENDTAB
  0
TABLE
  2
DIMSTYLE
 70
     2
  0
DIMSTYLE
  2
STANDARD
 70
     0
  3

  4

  5

  6

  7

 40
1.0
 41
0.18
 42
0.0625
 43
0.38
 44
0.18
 45
0.0
 46
0.0
 47
0.0
 48
0.0
140
0.18
141
0.09
142
0.0
143
25.3999999999999986
144
1.0
145
0.0
146
1.0
147
0.09
 71
     0
 72
     0
 73
     1
 74
     1
 75
     0
 76
     0
 77
     0
 78
     0
170
     0
171
     2
172
     0
173
     0
174
     0
175
     0
176
     0
177
     0
178
     0
  0
ENDTAB
  0
ENDSEC
  0
SECTION
  2
BLOCKS
  0
BLOCK
  8
0
  2
$MODEL_SPACE
 70
     0
 10
0.0
 20
0.0
 30
0.0
  3
$MODEL_SPACE
  1

  0
ENDBLK
  5
21
  8
0
  0
BLOCK
 67
     1
  8
0
  2
$PAPER_SPACE
 70
     0
 10
0.0
 20
0.0
 30
0.0
  3
$PAPER_SPACE
  1

  0
ENDBLK
  5
1D
 67
     1
  8
0
  0
BLOCK
  8
0
  2
MSURFACE
 70
     0
 10
0.0
 20
0.0
 30
0.0
  3
MSURFACE
  1

  0
POLYLINE
  5
41E
  8
SITES
 66
     1
 10
0.0
 20
0.0
 30
0.0
 70
     1
  0
VERTEX
  5
58D
  8
SITES
 10
426282.0897483400185592
 20
514055.6810599665041082
 30
0.0
  0
VERTEX
  5
58E
  8
SITES
 10
426287.0760591980069876
 20
514044.9134599252138287
 30
0.0
  0
VERTEX
  5
58F
  8
SITES
 10
426284.8832473203074187
 20
514030.5825898168841377
 30
0.0
  0
VERTEX
  5
590
  8
SITES
 10
426276.2323353727115318
 20
514014.1203600079170428
 30
0.0
  0
VERTEX
  5
591
  8
SITES
 10
426264.7288404732244089
 20
514002.6844205799279734
 30
0.0
  0
VERTEX
  5
592
  8
SITES
 10
426252.5189938785042614
 20
513994.8349917622981593
 30
0.0
  0
VERTEX
  5
593
  8
SITES
 10
426243.2062450782977976
 20
513997.0130333824781701
 30
0.0
  0
VERTEX
  5
594
  8
SITES
 10
426241.7851723248022608
 20
514001.3183992368285544
 30
0.0
  0
VERTEX
  5
595
  8
SITES
 10
426243.2590292288805358
 20
514014.9344465081812814
 30
0.0
  0
VERTEX
  5
596
  8
SITES
 10
426234.6842424856149592
 20
514024.2789053713204339
 30
0.0
  0
VERTEX
  5
597
  8
SITES
 10
426236.1538639182108454
 20
514036.4612754220142961
 30
0.0
  0
VERTEX
  5
598
  8
SITES
 10
426239.0657311975955963
 20
514051.5067652391735464
 30
0.0
  0
VERTEX
  5
599
  8
SITES
 10
426244.813243112701457
 20
514055.7909581888816319
 30
0.0
  0
VERTEX
  5
59A
  8
SITES
 10
426258.4504634594195522
 20
514061.4856884898035787
 30
0.0
  0
SEQEND
  5
59B
  8
SITES
  0
POLYLINE
  5
41F
  8
SITES
 66
     1
 10
0.0
 20
0.0
 30
0.0
 70
     1
  0
VERTEX
  5
59C
  8
SITES
 10
426753.804201023420319
 20
514548.2066634789225645
 30
0.0
  0
VERTEX
  5
59D
  8
SITES
 10
426756.6567940557724796
 20
514543.1802715489175171
 30
0.0
  0
VERTEX
  5
59E
  8
SITES
 10
426757.3481867614900693
 20
514534.5758314125123434
 30
0.0
  0
VERTEX
  5
59F
  8
SITES
 10
426754.4617309693712741
 20
514528.1326917922124267
 30
0.0
  0
VERTEX
  5
5A0
  8
SITES
 10
426742.2519794543040916
 20
514520.283237204013858
 30
0.0
  0
VERTEX
  5
5A1
  8
SITES
 10
426732.2053951367270201
 20
514516.7286201457027346
 30
0.0
  0
VERTEX
  5
5A2
  8
SITES
 10
426725.753690435201861
 20
514516.7476181772071868
 30
0.0
  0
VERTEX
  5
5A3
  8
SITES
 10
426720.7442303228890523
 20
514519.6298410120070912
 30
0.0
  0
VERTEX
  5
5A4
  8
SITES
 10
426715.7537681582034566
 20
514528.9637682953034528
 30
0.0
  0
VERTEX
  5
5A5
  8
SITES
 10
426719.3697114849928766
 20
514539.7059771906933747
 30
0.0
  0
VERTEX
  5
5A6
  8
SITES
 10
426727.278425317897927
 20
514547.568130390602164
 30
0.0
  0
VERTEX
  5
5A7
  8
SITES
 10
426738.0439650873886421
 20
514551.8374712388031185
 30
0.0
  0
SEQEND
  5
5A8
  8
SITES
  0
POLYLINE
  5
420
  8
SITES
 66
     1
 10
0.0
 20
0.0
 30
0.0
 70
     1
  0
VERTEX
  5
5A9
  8
SITES
 10
426749.3131660724175163
 20
514726.7182042308268137
 30
0.0
  0
VERTEX
  5
5AA
  8
SITES
 10
426757.8858145750127733
 20
514716.6568587474757805
 30
0.0
  0
VERTEX
  5
5AB
  8
SITES
 10
426759.3004987026215531
 20
514710.2009212800767273
 30
0.0
  0
VERTEX
  5
5AC
  8
SITES
 10
426751.3790906228823587
 20
514698.0377273086924106
 30
0.0
  0
VERTEX
  5
5AD
  8
SITES
 10
426750.6389737952849828
 20
514690.154409350710921
 30
0.0
  0
VERTEX
  5
5AE
  8
SITES
 10
426747.756753035413567
 20
514685.1448477018275298
 30
0.0
  0
VERTEX
  5
5AF
  8
SITES
 10
426738.4164286238956265
 20
514678.0039129621000029
 30
0.0
  0
VERTEX
  5
5B0
  8
SITES
 10
426732.6498207139084116
 20
514667.2680006831069477
 30
0.0
  0
VERTEX
  5
5B1
  8
SITES
 10
426719.0253894464112818
 20
514665.8744792205980048
 30
0.0
  0
VERTEX
  5
5B2
  8
SITES
 10
426714.0179944856208749
 20
514669.4735894338809885
 30
0.0
  0
VERTEX
  5
5B3
  8
SITES
 10
426710.4591415075119585
 20
514678.0863930424093269
 30
0.0
  0
VERTEX
  5
5B4
  8
SITES
 10
426708.3572944783954881
 20
514694.580447465821635
 30
0.0
  0
VERTEX
  5
5B5
  8
SITES
 10
426717.7483042384264991
 20
514718.925927652977407
 30
0.0
  0
VERTEX
  5
5B6
  8
SITES
 10
426724.212705293612089
 20
514723.2080694204196334
 30
0.0
  0
VERTEX
  5
5B7
  8
SITES
 10
426740.0025674419011921
 20
514729.6131209419108927
 30
0.0
  0
SEQEND
  5
5B8
  8
SITES
  0
POLYLINE
  5
421
  8
SITES
 66
     1
 10
0.0
 20
0.0
 30
0.0
 70
     1
  0
VERTEX
  5
5B9
  8
SITES
 10
427554.1702885014237836
 20
514711.3350662020966411
 30
0.0
  0
VERTEX
  5
5BA
  8
SITES
 10
427562.7556506551918574
 20
514705.5748454285785556
 30
0.0
  0
VERTEX
  5
5BB
  8
SITES
 10
427562.0218306572060101
 20
514699.8421839643269777
 30
0.0
  0
VERTEX
  5
5BC
  8
SITES
 10
427555.5511170270037837
 20
514693.4095608210773207
 30
0.0
  0
VERTEX
  5
5BD
  8
SITES
 10
427546.2278027490247041
 20
514692.003438821004238
 30
0.0
  0
VERTEX
  5
5BE
  8
SITES
 10
427536.9171856634202413
 20
514694.8983622927917168
 30
0.0
  0
VERTEX
  5
5BF
  8
SITES
 10
427531.9098801878863014
 20
514698.4973798459977843
 30
0.0
  0
VERTEX
  5
5C0
  8
SITES
 10
427532.6520646418794058
 20
514707.0975042438949458
 30
0.0
  0
VERTEX
  5
5C1
  8
SITES
 10
427538.4017545517999679
 20
514712.0985116572119296
 30
0.0
  0
SEQEND
  5
5C2
  8
SITES
  0
POLYLINE
  5
422
  8
SITES
 66
     1
 10
0.0
 20
0.0
 30
0.0
 70
     1
  0
VERTEX
  5
5C3
  8
SITES
 10
426175.4159585682209581
 20
515016.0573336763191037
 30
0.0
  0
VERTEX
  5
5C4
  8
SITES
 10
426186.8867198859807104
 20
514993.780744566814974
 30
0.0
  0
VERTEX
  5
5C5
  8
SITES
 10
426185.6235597489867359
 20
514991.83389746240573
 30
0.0
  0
VERTEX
  5
5C6
  8
SITES
 10
426182.1553946952917613
 20
514972.7410823344253004
 30
0.0
  0
VERTEX
  5
5C7
  8
SITES
 10
426166.3823836646042764
 20
514972.0709370854892768
 30
0.0
  0
VERTEX
  5
5C8
  8
SITES
 10
426159.9389506579027511
 20
514974.9573809204157442
 30
0.0
  0
VERTEX
  5
5C9
  8
SITES
 10
426148.5222762557095848
 20
514992.9125402446952648
 30
0.0
  0
VERTEX
  5
5CA
  8
SITES
 10
426147.8476989699993283
 20
515007.2518732364987954
 30
0.0
  0
VERTEX
  5
5CB
  8
SITES
 10
426152.1700845352024771
 20
515014.4077639217139222
 30
0.0
  0
VERTEX
  5
5CC
  8
SITES
 10
426158.6344731440767646
 20
515018.6899044720921665
 30
0.0
  0
SEQEND
  5
5CD
  8
SITES
  0
POLYLINE
  5
423
  8
SITES
 66
     1
 10
0.0
 20
0.0
 30
0.0
 70
     1
  0
VERTEX
  5
5CE
  8
SITES
 10
426333.758768288011197
 20
515332.1580420329119079
 30
0.0
  0
VERTEX
  5
5CF
  8
SITES
 10
426335.8733299535233527
 20
515319.965138801606372
 30
0.0
  0
VERTEX
  5
5D0
  8
SITES
 10
426334.3972527054138482
 20
515305.6321943164803088
 30
0.0
  0
VERTEX
  5
5D1
  8
SITES
 10
426324.3167452550842427
 20
515290.6079414628911763
 30
0.0
  0
VERTEX
  5
5D2
  8
SITES
 10
426317.1396981169236824
 20
515287.7617369663203135
 30
0.0
  0
VERTEX
  5
5D3
  8
SITES
 10
426307.8184802440810017
 20
515287.0723938263836317
 30
0.0
  0
VERTEX
  5
5D4
  8
SITES
 10
426303.532203451381065
 20
515292.1031047658761963
 30
0.0
  0
VERTEX
  5
5D5
  8
SITES
 10
426300.7007541133207269
 20
515304.2981720747193322
 30
0.0
  0
VERTEX
  5
5D6
  8
SITES
 10
426304.3486471368232742
 20
515325.793207258102484
 30
0.0
  0
VERTEX
  5
5D7
  8
SITES
 10
426324.4693243624060415
 20
515342.2215284294215962
 30
0.0
  0
SEQEND
  5
5D8
  8
SITES
  0
POLYLINE
  5
424
  8
SITES
 66
     1
 10
0.0
 20
0.0
 30
0.0
 70
     1
  0
VERTEX
  5
5D9
  8
SITES
 10
427848.5562069860170595
 20
515357.0699938739999197
 30
0.0
  0
VERTEX
  5
5DA
  8
SITES
 10
427848.5180377624928951
 20
515344.1666473132790998
 30
0.0
  0
VERTEX
  5
5DB
  8
SITES
 10
427842.7599911884753965
 20
515336.2982610405888408
 30
0.0
  0
VERTEX
  5
5DC
  8
SITES
 10
427822.6605858284165151
 20
515327.0385919400723651
 30
0.0
  0
VERTEX
  5
5DD
  8
SITES
 10
427812.6289361070957966
 20
515328.5018848471227102
 30
0.0
  0
VERTEX
  5
5DE
  8
SITES
 10
427796.8815403220942244
 20
515336.4339199574897066
 30
0.0
  0
VERTEX
  5
5DF
  8
SITES
 10
427794.0310946477111429
 20
515342.1772108976729214
 30
0.0
  0
VERTEX
  5
5E0
  8
SITES
 10
427794.0481143221841194
 20
515347.9120419762912206
 30
0.0
  0
VERTEX
  5
5E1
  8
SITES
 10
427804.8453490891843103
 20
515362.9340868453728035
 30
0.0
  0
VERTEX
  5
5E2
  8
SITES
 10
427837.1205825774231926
 20
515368.5734964074217714
 30
0.0
  0
SEQEND
  5
5E3
  8
SITES
  0
POLYLINE
  5
425
  8
SITES
 66
     1
 10
0.0
 20
0.0
 30
0.0
 70
     1
  0
VERTEX
  5
5E4
  8
SITES
 10
427955.4939071690896526
 20
515642.0623676042887382
 30
0.0
  0
VERTEX
  5
5E5
  8
SITES
 10
427962.6348862854065374
 20
515632.7220314355217852
 30
0.0
  0
VERTEX
  5
5E6
  8
SITES
 10
427963.3177465188200586
 20
515621.2503997907042503
 30
0.0
  0
VERTEX
  5
5E7
  8
SITES
 10
427961.1311753368936479
 20
515609.0702346169273369
 30
0.0
  0
VERTEX
  5
5E8
  8
SITES
 10
427949.6361344213946722
 20
515600.5020664291223511
 30
0.0
  0
VERTEX
  5
5E9
  8
SITES
 10
427937.4432829557918012
 20
515598.3874881201190874
 30
0.0
  0
VERTEX
  5
5EA
  8
SITES
 10
427925.2802347668912262
 20
515606.3088927295757458
 30
0.0
  0
VERTEX
  5
5EB
  8
SITES
 10
427921.72990852012299
 20
515617.789081055787392
 30
0.0
  0
VERTEX
  5
5EC
  8
SITES
 10
427923.8803833234123886
 20
515617.7827874823124148
 30
0.0
  0
VERTEX
  5
5ED
  8
SITES
 10
427946.8938716272241436
 20
515642.8046325267059729
 30
0.0
  0
SEQEND
  5
5EE
  8
SITES
  0
POLYLINE
  5
426
  8
SITES
 66
     1
 10
0.0
 20
0.0
 30
0.0
 70
     1
  0
VERTEX
  5
5EF
  8
SITES
 10
428008.1229754844098352
 20
515742.983204212912824
 30
0.0
  0
VERTEX
  5
5F0
  8
SITES
 10
428008.8143960554152727
 20
515734.3789386420976371
 30
0.0
  0
VERTEX
  5
5F1
  8
SITES
 10
428006.6172065217979252
 20
515718.6146124774822965
 30
0.0
  0
VERTEX
  5
5F2
  8
SITES
 10
427999.4169242950156331
 20
515707.8830790747888386
 30
0.0
  0
VERTEX
  5
5F3
  8
SITES
 10
427993.679926032491494
 20
515707.1832017258857377
 30
0.0
  0
VERTEX
  5
5F4
  8
SITES
 10
427982.9441645073820837
 20
515712.9498003015760332
 30
0.0
  0
VERTEX
  5
5F5
  8
SITES
 10
427980.0916477447026409
 20
515717.9761996521847323
 30
0.0
  0
VERTEX
  5
5F6
  8
SITES
 10
427980.8784605193068273
 20
515741.6301622241153382
 30
0.0
  0
VERTEX
  5
5F7
  8
SITES
 10
427982.3291579972137697
 20
515747.3606676217750646
 30
0.0
  0
VERTEX
  5
5F8
  8
SITES
 10
427988.0788414215785451
 20
515752.3616958765196614
 30
0.0
  0
VERTEX
  5
5F9
  8
SITES
 10
428000.2673653615056537
 20
515753.0424956224742346
 30
0.0
  0
SEQEND
  5
5FA
  8
SITES
  0
POLYLINE
  5
427
  8
SITES
 66
     1
 10
0.0
 20
0.0
 30
0.0
 70
     1
  0
VERTEX
  5
5FB
  8
SITES
 10
427933.6512786889798008
 20
515770.4441684689954855
 30
0.0
  0
VERTEX
  5
5FC
  8
SITES
 10
427937.2185233348864131
 20
515764.6987142895814031
 30
0.0
  0
VERTEX
  5
5FD
  8
SITES
 10
427938.6352927620755509
 20
515758.9597526700235903
 30
0.0
  0
VERTEX
  5
5FE
  8
SITES
 10
427938.6162148058065213
 20
515752.5080278959940188
 30
0.0
  0
VERTEX
  5
5FF
  8
SITES
 10
427929.2292673899792135
 20
515729.5964306239038706
 30
0.0
  0
VERTEX
  5
600
  8
SITES
 10
427917.7342301256721839
 20
515721.0281596732093021
 30
0.0
  0
VERTEX
  5
601
  8
SITES
 10
427904.1225468760239892
 20
515723.9359473927179351
 30
0.0
  0
VERTEX
  5
602
  8
SITES
 10
427899.8574901021784171
 20
515736.1350899221724831
 30
0.0
  0
VERTEX
  5
603
  8
SITES
 10
427899.8935823306092061
 20
515748.3215467992122285
 30
0.0
  0
VERTEX
  5
604
  8
SITES
 10
427905.6623427342856303
 20
515759.7740984128904529
 30
0.0
  0
VERTEX
  5
605
  8
SITES
 10
427914.2900122799910605
 20
515768.3509270335780457
 30
0.0
  0
VERTEX
  5
606
  8
SITES
 10
427925.0554717886261642
 20
515772.6201138017931953
 30
0.0
  0
SEQEND
  5
607
  8
SITES
  0
POLYLINE
  5
428
  8
SITES
 66
     1
 10
0.0
 20
0.0
 30
0.0
 70
     1
  0
VERTEX
  5
608
  8
SITES
 10
427981.6048605327960104
 20
516229.0899044321849942
 30
0.0
  0
VERTEX
  5
609
  8
SITES
 10
427983.0215370624209754
 20
516223.3508437310229056
 30
0.0
  0
VERTEX
  5
60A
  8
SITES
 10
427975.0895333163207397
 20
516207.6035229380941018
 30
0.0
  0
VERTEX
  5
60B
  8
SITES
 10
427961.4523834920837544
 20
516201.9090939760790206
 30
0.0
  0
VERTEX
  5
60C
  8
SITES
 10
427952.8523466935148463
 20
516202.6513467463082634
 30
0.0
  0
VERTEX
  5
60D
  8
SITES
 10
427937.8218191583873704
 20
516210.581286630302202
 30
0.0
  0
VERTEX
  5
60E
  8
SITES
 10
427938.5917953968164511
 20
516228.5004148054285906
 30
0.0
  0
VERTEX
  5
60F
  8
SITES
 10
427951.5226691156858578
 20
516237.7812660546042025
 30
0.0
  0
VERTEX
  5
610
  8
SITES
 10
427953.6710807731724344
 20
516237.0580842713243328
 30
0.0
  0
VERTEX
  5
611
  8
SITES
 10
427959.4143677685060538
 20
516239.9084442866151221
 30
0.0
  0
VERTEX
  5
612
  8
SITES
 10
427968.018731574586127
 20
516240.5997759288875386
 30
0.0
  0
SEQEND
  5
613
  8
SITES
  0
POLYLINE
  5
429
  8
SITES
 66
     1
 10
0.0
 20
0.0
 30
0.0
 70
     1
  0
VERTEX
  5
614
  8
SITES
 10
427968.3011452932842076
 20
516335.940774169692304
 30
0.0
  0
VERTEX
  5
615
  8
SITES
 10
427966.1038800138048828
 20
516320.1764460019767284
 30
0.0
  0
VERTEX
  5
616
  8
SITES
 10
427956.036147978506051
 20
516309.4534553930861875
 30
0.0
  0
VERTEX
  5
617
  8
SITES
 10
427938.7998992695938796
 20
516298.7516977016930468
 30
0.0
  0
VERTEX
  5
618
  8
SITES
 10
427930.9124278614181094
 20
516298.0582016840926372
 30
0.0
  0
VERTEX
  5
619
  8
SITES
 10
427925.1882109261932783
 20
516301.659465731587261
 30
0.0
  0
VERTEX
  5
61A
  8
SITES
 10
427923.0802004890865646
 20
516316.0027882477734238
 30
0.0
  0
VERTEX
  5
61B
  8
SITES
 10
427925.979415089415852
 20
516326.7470099941710941
 30
0.0
  0
VERTEX
  5
61C
  8
SITES
 10
427930.2868544053053483
 20
516328.8849057081970386
 30
0.0
  0
VERTEX
  5
61D
  8
SITES
 10
427948.2399936328874901
 20
516339.5845014086226001
 30
0.0
  0
VERTEX
  5
61E
  8
SITES
 10
427964.0170003155944869
 20
516341.6883867827709764
 30
0.0
  0
SEQEND
  5
61F
  8
SITES
  0
POLYLINE
  5
42A
  8
SITES
 66
     1
 10
0.0
 20
0.0
 30
0.0
 70
     1
  0
VERTEX
  5
620
  8
SITES
 10
428033.0214637285098433
 20
516404.5672047652187757
 30
0.0
  0
VERTEX
  5
621
  8
SITES
 10
428044.469802716281265
 20
516397.3646774213993922
 30
0.0
  0
VERTEX
  5
622
  8
SITES
 10
428052.3212039637728594
 20
516385.8717138497740962
 30
0.0
  0
VERTEX
  5
623
  8
SITES
 10
428053.7314936440088786
 20
516377.9821769716800191
 30
0.0
  0
VERTEX
  5
624
  8
SITES
 10
428050.1090982027235441
 20
516365.0895389380166307
 30
0.0
  0
VERTEX
  5
625
  8
SITES
 10
428040.7772254503215663
 20
516360.8160083299735561
 30
0.0
  0
VERTEX
  5
626
  8
SITES
 10
428028.5908642418216914
 20
516360.8520816403906792
 30
0.0
  0
VERTEX
  5
627
  8
SITES
 10
428008.5381617135135457
 20
516367.363275250303559
 30
0.0
  0
VERTEX
  5
628
  8
SITES
 10
427997.8066163033945486
 20
516374.5635397196165286
 30
0.0
  0
VERTEX
  5
629
  8
SITES
 10
427994.2457514564157464
 20
516382.4595646408270113
 30
0.0
  0
VERTEX
  5
62A
  8
SITES
 10
427994.2819237381918356
 20
516394.6460247365175746
 30
0.0
  0
VERTEX
  5
62B
  8
SITES
 10
428001.4758982739876956
 20
516403.2268954741884954
 30
0.0
  0
VERTEX
  5
62C
  8
SITES
 10
428012.2391903232201003
 20
516406.7793085937737487
 30
0.0
  0
SEQEND
  5
62D
  8
SITES
  0
POLYLINE
  5
42B
  8
SITES
 66
     1
 10
0.0
 20
0.0
 30
0.0
 70
     1
  0
VERTEX
  5
62E
  8
SITES
 10
428158.5677536783041432
 20
516437.1705058426014148
 30
0.0
  0
VERTEX
  5
62F
  8
SITES
 10
428169.2929157292819582
 20
516427.8195639281766489
 30
0.0
  0
VERTEX
  5
630
  8
SITES
 10
428171.4221617678995244
 20
516420.644753898086492
 30
0.0
  0
VERTEX
  5
631
  8
SITES
 10
428170.6819763518869877
 20
516412.7615040257223882
 30
0.0
  0
VERTEX
  5
632
  8
SITES
 10
428166.3681455132900737
 20
516408.4732297321897931
 30
0.0
  0
VERTEX
  5
633
  8
SITES
 10
428144.1224982698913664
 20
516400.6536717882845551
 30
0.0
  0
VERTEX
  5
634
  8
SITES
 10
428130.5001868254039437
 20
516399.9771778174908832
 30
0.0
  0
VERTEX
  5
635
  8
SITES
 10
428119.7665742235840298
 20
516406.4607516190735623
 30
0.0
  0
VERTEX
  5
636
  8
SITES
 10
428111.9258862200076692
 20
516421.5378768409718759
 30
0.0
  0
VERTEX
  5
637
  8
SITES
 10
428113.3808002850855701
 20
516428.702170564327389
 30
0.0
  0
VERTEX
  5
638
  8
SITES
 10
428118.4242002923856489
 20
516437.2894334209850058
 30
0.0
  0
VERTEX
  5
639
  8
SITES
 10
428127.0476340447203256
 20
516444.4324975620838813
 30
0.0
  0
VERTEX
  5
63A
  8
SITES
 10
428134.2183171475771815
 20
516445.1280599131714553
 30
0.0
  0
SEQEND
  5
63B
  8
SITES
  0
POLYLINE
  5
42C
  8
SITES
 66
     1
 10
0.0
 20
0.0
 30
0.0
 70
     1
  0
VERTEX
  5
63C
  8
SITES
 10
428794.573025737889111
 20
516759.0069261168246157
 30
0.0
  0
VERTEX
  5
63D
  8
SITES
 10
428792.3969969215104356
 20
516750.4110947531880811
 30
0.0
  0
VERTEX
  5
63E
  8
SITES
 10
428784.4988968974212185
 20
516746.1334222611039877
 30
0.0
  0
VERTEX
  5
63F
  8
SITES
 10
428776.6178965623839758
 20
516747.590495643496979
 30
0.0
  0
VERTEX
  5
640
  8
SITES
 10
428776.6391210231231526
 20
516754.7589275821228512
 30
0.0
  0
VERTEX
  5
641
  8
SITES
 10
428784.5435080793104135
 20
516761.1871796508785337
 30
0.0
  0
SEQEND
  5
642
  8
SITES
  0
POLYLINE
  5
42D
  8
SITES
 66
     1
 10
0.0
 20
0.0
 30
0.0
 70
     1
  0
VERTEX
  5
643
  8
SITES
 10
427485.0821271160966717
 20
516967.2485522123752162
 30
0.0
  0
VERTEX
  5
644
  8
SITES
 10
427481.4787146548042074
 20
516960.8075446020811796
 30
0.0
  0
VERTEX
  5
645
  8
SITES
 10
427465.6930822781287134
 20
516955.8362734711263329
 30
0.0
  0
VERTEX
  5
646
  8
SITES
 10
427459.2456890403991565
 20
516957.2891134225064889
 30
0.0
  0
VERTEX
  5
647
  8
SITES
 10
427457.1036646551219746
 20
516960.1629627228248864
 30
0.0
  0
VERTEX
  5
648
  8
SITES
 10
427459.9838000489980914
 20
516964.4555594429257326
 30
0.0
  0
VERTEX
  5
649
  8
SITES
 10
427469.3220387668116018
 20
516970.8795706885866821
 30
0.0
  0
VERTEX
  5
64A
  8
SITES
 10
427482.9485506496857852
 20
516972.9897650125203654
 30
0.0
  0
SEQEND
  5
64B
  8
SITES
  0
POLYLINE
  5
42E
  8
SITES
 66
     1
 10
0.0
 20
0.0
 30
0.0
 70
     1
  0
VERTEX
  5
64C
  8
SITES
 10
427483.0548493771930225
 20
517008.8323076245724224
 30
0.0
  0
VERTEX
  5
64D
  8
SITES
 10
427479.4578234325745143
 20
517004.5418721985770389
 30
0.0
  0
VERTEX
  5
64E
  8
SITES
 10
427476.6032317297067493
 20
517008.8514651180012152
 30
0.0
  0
VERTEX
  5
64F
  8
SITES
 10
427478.0432993051945232
 20
517010.9977137906244025
 30
0.0
  0
SEQEND
  5
650
  8
SITES
  0
POLYLINE
  5
42F
  8
SITES
 66
     1
 10
0.0
 20
0.0
 30
0.0
 70
     1
  0
VERTEX
  5
651
  8
SITES
 10
427855.5741921311127953
 20
516984.3406576173729263
 30
0.0
  0
VERTEX
  5
652
  8
SITES
 10
427854.9206317772041075
 20
516982.523799573071301
 30
0.0
  0
VERTEX
  5
653
  8
SITES
 10
427853.8749950515921228
 20
516980.5967079476104118
 30
0.0
  0
VERTEX
  5
654
  8
SITES
 10
427852.4957987403031439
 20
516978.6676819554995745
 30
0.0
  0
VERTEX
  5
655
  8
SITES
 10
427850.8751078452914953
 20
516976.8663494227221236
 30
0.0
  0
VERTEX
  5
656
  8
SITES
 10
427849.1395562543766573
 20
516975.3272798074176535
 30
0.0
  0
VERTEX
  5
657
  8
SITES
 10
427847.3735930030234158
 20
516974.1199338870937936
 30
0.0
  0
VERTEX
  5
658
  8
SITES
 10
427845.6646782830939628
 20
516973.3035836410126649
 30
0.0
  0
VERTEX
  5
659
  8
SITES
 10
427844.0705358454142697
 20
516972.9050853166263551
 30
0.0
  0
VERTEX
  5
65A
  8
SITES
 10
427842.512613094295375
 20
516972.8544861833797768
 30
0.0
  0
VERTEX
  5
65B
  8
SITES
 10
427840.6953713195980527
 20
516973.0365823186002672
 30
0.0
  0
VERTEX
  5
65C
  8
SITES
 10
427836.9808493556920439
 20
516974.0097356935148127
 30
0.0
  0
VERTEX
  5
65D
  8
SITES
 10
427835.430553981801495
 20
516974.6995184496045113
 30
0.0
  0
VERTEX
  5
65E
  8
SITES
 10
427834.1596338122035377
 20
516975.485397630778607
 30
0.0
  0
VERTEX
  5
65F
  8
SITES
 10
427833.2140938052907586
 20
516976.338453960372135
 30
0.0
  0
VERTEX
  5
660
  8
SITES
 10
427832.6137439531157725
 20
516977.2402264907141216
 30
0.0
  0
VERTEX
  5
661
  8
SITES
 10
427832.1895665989723057
 20
516978.90888219041517
 30
0.0
  0
VERTEX
  5
662
  8
SITES
 10
427832.1827057751943357
 20
516981.1025086285080761
 30
0.0
  0
VERTEX
  5
663
  8
SITES
 10
427832.5989663192885928
 20
516983.5845820949762128
 30
0.0
  0
VERTEX
  5
664
  8
SITES
 10
427833.3560794946970418
 20
516985.8402623335714452
 30
0.0
  0
VERTEX
  5
665
  8
SITES
 10
427834.4669072605902329
 20
516987.6620141707826406
 30
0.0
  0
VERTEX
  5
666
  8
SITES
 10
427836.1656331081176177
 20
516989.4704435588791966
 30
0.0
  0
VERTEX
  5
667
  8
SITES
 10
427838.4412812168011442
 20
516991.2530450827907771
 30
0.0
  0
VERTEX
  5
668
  8
SITES
 10
427841.2627057153731585
 20
516992.9853954815189354
 30
0.0
  0
VERTEX
  5
669
  8
SITES
 10
427845.4164139006170444
 20
516994.9214411536231637
 30
0.0
  0
VERTEX
  5
66A
  8
SITES
 10
427849.3462028392241336
 20
516996.1524971338221803
 30
0.0
  0
VERTEX
  5
66B
  8
SITES
 10
427850.9475180873996578
 20
516996.4148020595894195
 30
0.0
  0
VERTEX
  5
66C
  8
SITES
 10
427852.2958160571288317
 20
516996.4457414491917007
 30
0.0
  0
VERTEX
  5
66D
  8
SITES
 10
427853.3741091503179632
 20
516996.2450932618812658
 30
0.0
  0
VERTEX
  5
66E
  8
SITES
 10
427854.1745007876888849
 20
516995.8145459783263505
 30
0.0
  0
VERTEX
  5
66F
  8
SITES
 10
427854.7545753960148431
 20
516995.1345887429197319
 30
0.0
  0
VERTEX
  5
670
  8
SITES
 10
427855.2416358172195032
 20
516994.1335389890009537
 30
0.0
  0
VERTEX
  5
671
  8
SITES
 10
427855.8905044550192542
 20
516991.2773237021756358
 30
0.0
  0
VERTEX
  5
672
  8
SITES
 10
427856.01857658138033
 20
516987.6310914651257917
 30
0.0
  0
SEQEND
  5
673
  8
SITES
  0
POLYLINE
  5
430
  8
SITES
 66
     1
 10
0.0
 20
0.0
 30
0.0
 70
     1
  0
VERTEX
  5
674
  8
SITES
 10
429064.3001792333088815
 20
517065.019428409577813
 30
0.0
  0
VERTEX
  5
675
  8
SITES
 10
429064.9809207725920714
 20
517052.8309732206980698
 30
0.0
  0
VERTEX
  5
676
  8
SITES
 10
429059.9438076296937652
 20
517046.3942629607045092
 30
0.0
  0
VERTEX
  5
677
  8
SITES
 10
429049.1762686658184975
 20
517041.4082357448060066
 30
0.0
  0
VERTEX
  5
678
  8
SITES
 10
429031.967696639301721
 20
517040.0255344132892787
 30
0.0
  0
VERTEX
  5
679
  8
SITES
 10
429021.2257013079943135
 20
517043.6417314521968365
 30
0.0
  0
VERTEX
  5
67A
  8
SITES
 10
429015.5313283564173616
 20
517057.2788058267906308
 30
0.0
  0
VERTEX
  5
67B
  8
SITES
 10
429027.7368773230118677
 20
517063.6941967578022741
 30
0.0
  0
VERTEX
  5
67C
  8
SITES
 10
429052.1181098757078871
 20
517066.489267748198472
 30
0.0
  0
SEQEND
  5
67D
  8
SITES
  0
POLYLINE
  5
431
  8
SITES
 66
     1
 10
0.0
 20
0.0
 30
0.0
 70
     1
  0
VERTEX
  5
67E
  8
SITES
 10
427705.9862883811001666
 20
517107.043079862894956
 30
0.0
  0
VERTEX
  5
67F
  8
SITES
 10
427716.0008484036079608
 20
517099.8448022499796934
 30
0.0
  0
VERTEX
  5
680
  8
SITES
 10
427723.1523668658919632
 20
517094.0887541496776976
 30
0.0
  0
VERTEX
  5
681
  8
SITES
 10
427731.0122294513857923
 20
517085.4631788178230636
 30
0.0
  0
VERTEX
  5
682
  8
SITES
 10
427722.3823303686222062
 20
517076.1696336722816341
 30
0.0
  0
VERTEX
  5
683
  8
SITES
 10
427710.2044260089169256
 20
517079.0731498072855175
 30
0.0
  0
VERTEX
  5
684
  8
SITES
 10
427700.9172668746905401
 20
517089.8535221979254857
 30
0.0
  0
VERTEX
  5
685
  8
SITES
 10
427693.0637899694847874
 20
517100.6297704104217701
 30
0.0
  0
VERTEX
  5
686
  8
SITES
 10
427694.5187902268953621
 20
517107.7939593336195685
 30
0.0
  0
SEQEND
  5
687
  8
SITES
  0
POLYLINE
  5
432
  8
SITES
 66
     1
 10
0.0
 20
0.0
 30
0.0
 70
     1
  0
VERTEX
  5
688
  8
SITES
 10
427870.1513056597905234
 20
517108.7065095627913252
 30
0.0
  0
VERTEX
  5
689
  8
SITES
 10
427868.6750868551898748
 20
517094.3738019852899015
 30
0.0
  0
VERTEX
  5
68A
  8
SITES
 10
427860.7726855585933663
 20
517088.6623493633233011
 30
0.0
  0
VERTEX
  5
68B
  8
SITES
 10
427852.1662635263055563
 20
517087.2542079610866494
 30
0.0
  0
VERTEX
  5
68C
  8
SITES
 10
427843.5746743640047498
 20
517090.8640071210102178
 30
0.0
  0
VERTEX
  5
68D
  8
SITES
 10
427842.8748772370163351
 20
517096.6009010606212541
 30
0.0
  0
VERTEX
  5
68E
  8
SITES
 10
427840.7370733876014128
 20
517100.9084353928919882
 30
0.0
  0
VERTEX
  5
68F
  8
SITES
 10
427846.4931232928065583
 20
517108.0598563232924789
 30
0.0
  0
VERTEX
  5
690
  8
SITES
 10
427854.3891387771000154
 20
517111.6207345540169626
 30
0.0
  0
VERTEX
  5
691
  8
SITES
 10
427865.1482970746001229
 20
517113.7393828171188943
 30
0.0
  0
SEQEND
  5
692
  8
SITES
  0
POLYLINE
  5
433
  8
SITES
 66
     1
 10
0.0
 20
0.0
 30
0.0
 70
     1
  0
VERTEX
  5
693
  8
SITES
 10
428685.9459556649089791
 20
517113.4543359210947528
 30
0.0
  0
VERTEX
  5
694
  8
SITES
 10
428697.3921646634116769
 20
517105.5350238645914942
 30
0.0
  0
VERTEX
  5
695
  8
SITES
 10
428694.5140834907069802
 20
517101.9593056747107767
 30
0.0
  0
VERTEX
  5
696
  8
SITES
 10
428661.5604224720736966
 20
517109.2255783975124359
 30
0.0
  0
VERTEX
  5
697
  8
SITES
 10
428662.287924375210423
 20
517112.8076816247776151
 30
0.0
  0
VERTEX
  5
698
  8
SITES
 10
428671.6153805053909309
 20
517115.6474504597717896
 30
0.0
  0
SEQEND
  5
699
  8
SITES
  0
POLYLINE
  5
434
  8
SITES
 66
     1
 10
0.0
 20
0.0
 30
0.0
 70
     1
  0
VERTEX
  5
69A
  8
SITES
 10
427825.8385587764787488
 20
517153.2831107957754284
 30
0.0
  0
VERTEX
  5
69B
  8
SITES
 10
427834.4109928088146262
 20
517143.2216896686004475
 30
0.0
  0
VERTEX
  5
69C
  8
SITES
 10
427839.3736285264021717
 20
517124.5686786660226062
 30
0.0
  0
VERTEX
  5
69D
  8
SITES
 10
427834.3066677993047051
 20
517108.0960063657257706
 30
0.0
  0
VERTEX
  5
69E
  8
SITES
 10
427820.6567647198098712
 20
517098.1005993518047035
 30
0.0
  0
VERTEX
  5
69F
  8
SITES
 10
427811.3419994235737249
 20
517099.5618855415959843
 30
0.0
  0
VERTEX
  5
6A0
  8
SITES
 10
427806.3432152852183208
 20
517106.0284410167951137
 30
0.0
  0
VERTEX
  5
6A1
  8
SITES
 10
427803.5226081509026699
 20
517121.8076996863819659
 30
0.0
  0
VERTEX
  5
6A2
  8
SITES
 10
427805.7093319030245766
 20
517133.9877689924906008
 30
0.0
  0
VERTEX
  5
6A3
  8
SITES
 10
427809.329738283820916
 20
517146.1635150674846955
 30
0.0
  0
VERTEX
  5
6A4
  8
SITES
 10
427817.2405845620087348
 20
517154.7423339040251449
 30
0.0
  0
SEQEND
  5
6A5
  8
SITES
  0
POLYLINE
  5
435
  8
SITES
 66
     1
 10
0.0
 20
0.0
 30
0.0
 70
     1
  0
VERTEX
  5
6A6
  8
SITES
 10
427785.0482816952862777
 20
517177.0604431200772524
 30
0.0
  0
VERTEX
  5
6A7
  8
SITES
 10
427794.314128537196666
 20
517159.1115561880287714
 30
0.0
  0
VERTEX
  5
6A8
  8
SITES
 10
427791.3743652696139179
 20
517134.7470947189140134
 30
0.0
  0
VERTEX
  5
6A9
  8
SITES
 10
427789.889700636791531
 20
517117.5470242928131483
 30
0.0
  0
VERTEX
  5
6AA
  8
SITES
 10
427779.1050032657221891
 20
517106.8261795715079643
 30
0.0
  0
VERTEX
  5
6AB
  8
SITES
 10
427770.4836507810978219
 20
517100.3999984175898135
 30
0.0
  0
VERTEX
  5
6AC
  8
SITES
 10
427759.7351039117202163
 20
517101.8656077578198165
 30
0.0
  0
VERTEX
  5
6AD
  8
SITES
 10
427754.7405439601861872
 20
517109.7658450282760896
 30
0.0
  0
VERTEX
  5
6AE
  8
SITES
 10
427750.4798692013137043
 20
517123.3987511111190543
 30
0.0
  0
VERTEX
  5
6AF
  8
SITES
 10
427749.0972677913960069
 20
517140.6074667500797659
 30
0.0
  0
VERTEX
  5
6B0
  8
SITES
 10
427754.1705111237824894
 20
517159.2307098379824311
 30
0.0
  0
VERTEX
  5
6B1
  8
SITES
 10
427764.2532466921256855
 20
517174.9715566082159057
 30
0.0
  0
VERTEX
  5
6B2
  8
SITES
 10
427776.4545315970899537
 20
517179.9533483071136288
 30
0.0
  0
SEQEND
  5
6B3
  8
SITES
  0
POLYLINE
  5
436
  8
SITES
 66
     1
 10
0.0
 20
0.0
 30
0.0
 70
     1
  0
VERTEX
  5
6B4
  8
SITES
 10
426184.6021030921838246
 20
517224.7474062743713148
 30
0.0
  0
VERTEX
  5
6B5
  8
SITES
 10
426186.6973685972043313
 20
517206.1028205840848386
 30
0.0
  0
VERTEX
  5
6B6
  8
SITES
 10
426179.5032450275029987
 20
517197.521774178603664
 30
0.0
  0
VERTEX
  5
6B7
  8
SITES
 10
426172.32837540039327
 20
517195.3925244613783434
 30
0.0
  0
VERTEX
  5
6B8
  8
SITES
 10
426144.3986262786202133
 20
517204.7945752100786194
 30
0.0
  0
VERTEX
  5
6B9
  8
SITES
 10
426143.0117033350979909
 20
517220.5696436627185903
 30
0.0
  0
VERTEX
  5
6BA
  8
SITES
 10
426155.9491793466731906
 20
517232.0010514620807953
 30
0.0
  0
VERTEX
  5
6BB
  8
SITES
 10
426173.1600868282839656
 20
517234.1006407563108951
 30
0.0
  0
SEQEND
  5
6BC
  8
SITES
  0
POLYLINE
  5
437
  8
SITES
 66
     1
 10
0.0
 20
0.0
 30
0.0
 70
     1
  0
VERTEX
  5
6BD
  8
SITES
 10
427935.0614558731904253
 20
517241.1324108717963099
 30
0.0
  0
VERTEX
  5
6BE
  8
SITES
 10
427936.4101915115024894
 20
517233.1775453865993768
 30
0.0
  0
VERTEX
  5
6BF
  8
SITES
 10
427934.2998717547161505
 20
517226.0807470522122458
 30
0.0
  0
VERTEX
  5
6C0
  8
SITES
 10
427914.9406741344719194
 20
517224.7043258629273623
 30
0.0
  0
VERTEX
  5
6C1
  8
SITES
 10
427908.4974957266240381
 20
517227.590846364677418
 30
0.0
  0
VERTEX
  5
6C2
  8
SITES
 10
427907.8063423539861105
 20
517236.1953075936762616
 30
0.0
  0
VERTEX
  5
6C3
  8
SITES
 10
427912.1158384050941095
 20
517239.0499048064812087
 30
0.0
  0
VERTEX
  5
6C4
  8
SITES
 10
427928.6139539913856424
 20
517242.585247821174562
 30
0.0
  0
SEQEND
  5
6C5
  8
SITES
  0
POLYLINE
  5
438
  8
SITES
 66
     1
 10
0.0
 20
0.0
 30
0.0
 70
     1
  0
VERTEX
  5
6C6
  8
SITES
 10
428974.7568609807058237
 20
517273.4733567339135334
 30
0.0
  0
VERTEX
  5
6C7
  8
SITES
 10
428982.5843368801870383
 20
517272.1451315712183714
 30
0.0
  0
VERTEX
  5
6C8
  8
SITES
 10
428983.8779401393258013
 20
517268.2264060321031138
 30
0.0
  0
VERTEX
  5
6C9
  8
SITES
 10
428983.8623739361064509
 20
517263.0065934745944105
 30
0.0
  0
VERTEX
  5
6CA
  8
SITES
 10
428981.2325601803022437
 20
517256.4895853599882685
 30
0.0
  0
VERTEX
  5
6CB
  8
SITES
 10
428976.0078570098266937
 20
517255.2000723375240341
 30
0.0
  0
VERTEX
  5
6CC
  8
SITES
 10
428969.4817676043021493
 20
517255.2194285860750824
 30
0.0
  0
VERTEX
  5
6CD
  8
SITES
 10
428959.0400446825078689
 20
517255.2504585629794747
 30
0.0
  0
VERTEX
  5
6CE
  8
SITES
 10
428953.8192333572078496
 20
517255.2659236500039697
 30
0.0
  0
VERTEX
  5
6CF
  8
SITES
 10
428949.9113829212146811
 20
517257.887553398788441
 30
0.0
  0
VERTEX
  5
6D0
  8
SITES
 10
428948.6254631268093362
 20
517264.4161345862085
 30
0.0
  0
VERTEX
  5
6D1
  8
SITES
 10
428948.6332461585989222
 20
517267.0260905981995165
 30
0.0
  0
VERTEX
  5
6D2
  8
SITES
 10
428952.5605541968834586
 20
517270.9293510420829989
 30
0.0
  0
VERTEX
  5
6D3
  8
SITES
 10
428959.0904350267956033
 20
517272.2148730370099656
 30
0.0
  0
VERTEX
  5
6D4
  8
SITES
 10
428965.6204157588072121
 20
517273.5004951345035806
 30
0.0
  0
SEQEND
  5
6D5
  8
SITES
  0
POLYLINE
  5
439
  8
SITES
 66
     1
 10
0.0
 20
0.0
 30
0.0
 70
     1
  0
VERTEX
  5
6D6
  8
SITES
 10
429038.8700443676207215
 20
517298.396959058882203
 30
0.0
  0
VERTEX
  5
6D7
  8
SITES
 10
429044.5899636339163408
 20
517293.3620116601232439
 30
0.0
  0
VERTEX
  5
6D8
  8
SITES
 10
429044.5708104735822417
 20
517286.91036842338508
 30
0.0
  0
VERTEX
  5
6D9
  8
SITES
 10
429040.2420490139047615
 20
517277.6042192263994366
 30
0.0
  0
VERTEX
  5
6DA
  8
SITES
 10
429020.8489130956004374
 20
517264.7583936856826767
 30
0.0
  0
VERTEX
  5
6DB
  8
SITES
 10
428997.9163014838122763
 20
517266.977042913378682
 30
0.0
  0
VERTEX
  5
6DC
  8
SITES
 10
428995.0786880609230138
 20
517277.0213993756915443
 30
0.0
  0
VERTEX
  5
6DD
  8
SITES
 10
428997.263252597884275
 20
517288.4845126604195684
 30
0.0
  0
VERTEX
  5
6DE
  8
SITES
 10
429001.5770830707042478
 20
517292.772805557877291
 30
0.0
  0
VERTEX
  5
6DF
  8
SITES
 10
429009.4751816018833779
 20
517297.0504913189797662
 30
0.0
  0
VERTEX
  5
6E0
  8
SITES
 10
429028.842778756399639
 20
517301.2940941284759901
 30
0.0
  0
SEQEND
  5
6E1
  8
SITES
  0
POLYLINE
  5
43A
  8
SITES
 66
     1
 10
0.0
 20
0.0
 30
0.0
 70
     1
  0
VERTEX
  5
6E2
  8
SITES
 10
427938.8669065281865187
 20
517315.6740386572782882
 30
0.0
  0
VERTEX
  5
6E3
  8
SITES
 10
427950.3024911475949921
 20
517304.1703890882781707
 30
0.0
  0
VERTEX
  5
6E4
  8
SITES
 10
427955.2799660555901937
 20
517290.5353165253181942
 30
0.0
  0
VERTEX
  5
6E5
  8
SITES
 10
427953.829290991590824
 20
517284.8048057238920592
 30
0.0
  0
VERTEX
  5
6E6
  8
SITES
 10
427944.5145217168028466
 20
517286.2661879620281979
 30
0.0
  0
VERTEX
  5
6E7
  8
SITES
 10
427926.6485271106939763
 20
517304.9574073575786315
 30
0.0
  0
VERTEX
  5
6E8
  8
SITES
 10
427923.8130814252072014
 20
517315.7187279160716571
 30
0.0
  0
VERTEX
  5
6E9
  8
SITES
 10
427929.5585217520128936
 20
517319.2858951821108349
 30
0.0
  0
SEQEND
  5
6EA
  8
SITES
  0
POLYLINE
  5
43B
  8
SITES
 66
     1
 10
0.0
 20
0.0
 30
0.0
 70
     1
  0
VERTEX
  5
6EB
  8
SITES
 10
427438.5846561426878907
 20
517483.5244655215064995
 30
0.0
  0
VERTEX
  5
6EC
  8
SITES
 10
427435.6427545665064827
 20
517458.4431326154735871
 30
0.0
  0
VERTEX
  5
6ED
  8
SITES
 10
427432.0457340381108224
 20
517454.1525936535908841
 30
0.0
  0
VERTEX
  5
6EE
  8
SITES
 10
427409.0724518456845544
 20
517442.7510981136001647
 30
0.0
  0
VERTEX
  5
6EF
  8
SITES
 10
427402.6185742021771148
 20
517442.053457586793229
 30
0.0
  0
VERTEX
  5
6F0
  8
SITES
 10
427392.5954712004167959
 20
517446.3843579569947906
 30
0.0
  0
VERTEX
  5
6F1
  8
SITES
 10
427387.5987478760071099
 20
517453.5676928535103798
 30
0.0
  0
VERTEX
  5
6F2
  8
SITES
 10
427389.0622848310158588
 20
517463.5994402918731794
 30
0.0
  0
VERTEX
  5
6F3
  8
SITES
 10
427404.1778614351060241
 20
517484.3433878656942397
 30
0.0
  0
VERTEX
  5
6F4
  8
SITES
 10
427412.8013608388137072
 20
517491.4863623462733813
 30
0.0
  0
VERTEX
  5
6F5
  8
SITES
 10
427428.5827624665107578
 20
517495.0238728087861091
 30
0.0
  0
SEQEND
  5
6F6
  8
SITES
  0
POLYLINE
  5
43C
  8
SITES
 66
     1
 10
0.0
 20
0.0
 30
0.0
 70
     1
  0
VERTEX
  5
6F7
  8
SITES
 10
427548.4226380822947249
 20
517536.9626445649191737
 30
0.0
  0
VERTEX
  5
6F8
  8
SITES
 10
427551.2286182013922371
 20
517535.4459970371099189
 30
0.0
  0
VERTEX
  5
6F9
  8
SITES
 10
427552.7152399778133258
 20
517534.0825146855786443
 30
0.0
  0
VERTEX
  5
6FA
  8
SITES
 10
427553.5656257095979527
 20
517532.3292785242083482
 30
0.0
  0
VERTEX
  5
6FB
  8
SITES
 10
427554.1361560159130022
 20
517529.7771467274287716
 30
0.0
  0
VERTEX
  5
6FC
  8
SITES
 10
427554.2215171392890625
 20
517528.23096224560868
 30
0.0
  0
VERTEX
  5
6FD
  8
SITES
 10
427554.0294129974208772
 20
517526.5802894989028573
 30
0.0
  0
VERTEX
  5
6FE
  8
SITES
 10
427553.5617191189085133
 20
517524.8428183146752417
 30
0.0
  0
VERTEX
  5
6FF
  8
SITES
 10
427552.8258927878923714
 20
517523.0471380375092849
 30
0.0
  0
VERTEX
  5
700
  8
SITES
 10
427551.8215192781062797
 20
517521.2047399263246916
 30
0.0
  0
VERTEX
  5
701
  8
SITES
 10
427550.5876651668222621
 20
517519.3963174624950625
 30
0.0
  0
VERTEX
  5
702
  8
SITES
 10
427549.1703085625194944
 20
517517.6899821477127261
 30
0.0
  0
VERTEX
  5
703
  8
SITES
 10
427547.6439781215740368
 20
517516.1760669557261281
 30
0.0
  0
VERTEX
  5
704
  8
SITES
 10
427544.8541910378844477
 20
517514.0953042046166956
 30
0.0
  0
VERTEX
  5
705
  8
SITES
 10
427541.8985451178159565
 20
517512.6089002288063057
 30
0.0
  0
VERTEX
  5
706
  8
SITES
 10
427540.0036699207848869
 20
517512.0186436552903615
 30
0.0
  0
VERTEX
  5
707
  8
SITES
 10
427537.8985179726732895
 20
517511.6018882230273448
 30
0.0
  0
VERTEX
  5
708
  8
SITES
 10
427535.7287481760140508
 20
517511.3870041590998881
 30
0.0
  0
VERTEX
  5
709
  8
SITES
 10
427533.6229521668865345
 20
517511.3866505842888728
 30
0.0
  0
VERTEX
  5
70A
  8
SITES
 10
427531.7223371131112799
 20
517511.5947165212710388
 30
0.0
  0
VERTEX
  5
70B
  8
SITES
 10
427530.0515974874724634
 20
517512.0019408743828535
 30
0.0
  0
VERTEX
  5
70C
  8
SITES
 10
427528.6572151788859628
 20
517512.596792658616323
 30
0.0
  0
VERTEX
  5
70D
  8
SITES
 10
427527.5636870259186253
 20
517513.3683117383043282
 30
0.0
  0
VERTEX
  5
70E
  8
SITES
 10
427526.1789594414876774
 20
517515.1395361967151985
 30
0.0
  0
VERTEX
  5
70F
  8
SITES
 10
427525.022182445100043
 20
517517.6652200499083847
 30
0.0
  0
VERTEX
  5
710
  8
SITES
 10
427524.2452716198167764
 20
517520.6210935013950802
 30
0.0
  0
VERTEX
  5
711
  8
SITES
 10
427524.0091865740250796
 20
517523.4148899405263364
 30
0.0
  0
VERTEX
  5
712
  8
SITES
 10
427524.4824334924924187
 20
517526.4086712314165197
 30
0.0
  0
VERTEX
  5
713
  8
SITES
 10
427525.7201036580954678
 20
517529.5790261510992423
 30
0.0
  0
VERTEX
  5
714
  8
SITES
 10
427527.5674240551888943
 20
517532.5310342885204591
 30
0.0
  0
VERTEX
  5
715
  8
SITES
 10
427529.778090063482523
 20
517534.8674571660812944
 30
0.0
  0
VERTEX
  5
716
  8
SITES
 10
427531.5157130815205164
 20
517536.0421908657881431
 30
0.0
  0
VERTEX
  5
717
  8
SITES
 10
427534.8045706143020652
 20
517537.7199940988793969
 30
0.0
  0
VERTEX
  5
718
  8
SITES
 10
427537.6762564567034133
 20
517539.1451321758213453
 30
0.0
  0
VERTEX
  5
719
  8
SITES
 10
427539.8262644864735194
 20
517539.4944945342722349
 30
0.0
  0
VERTEX
  5
71A
  8
SITES
 10
427542.3212033861200325
 20
517539.2496322600054555
 30
0.0
  0
VERTEX
  5
71B
  8
SITES
 10
427545.1600700882845558
 20
517538.4134419584879652
 30
0.0
  0
SEQEND
  5
71C
  8
SITES
  0
POLYLINE
  5
43D
  8
SITES
 66
     1
 10
0.0
 20
0.0
 30
0.0
 70
     1
  0
VERTEX
  5
71D
  8
SITES
 10
427615.2409315343247727
 20
517587.6611417232779786
 30
0.0
  0
VERTEX
  5
71E
  8
SITES
 10
427615.7831100639887154
 20
517586.6170960771851242
 30
0.0
  0
VERTEX
  5
71F
  8
SITES
 10
427616.0705173332826234
 20
517585.1549156635883264
 30
0.0
  0
VERTEX
  5
720
  8
SITES
 10
427615.9365136715932749
 20
517580.4904698003083467
 30
0.0
  0
VERTEX
  5
721
  8
SITES
 10
427615.3834909974248149
 20
517576.0692023304873146
 30
0.0
  0
VERTEX
  5
722
  8
SITES
 10
427614.4527852679020725
 20
517572.6056572954985313
 30
0.0
  0
VERTEX
  5
723
  8
SITES
 10
427613.8605297603062354
 20
517571.2892223460949026
 30
0.0
  0
VERTEX
  5
724
  8
SITES
 10
427613.1862664619111456
 20
517570.2528802171000279
 30
0.0
  0
VERTEX
  5
725
  8
SITES
 10
427612.4325885464204475
 20
517569.5004315851838328
 30
0.0
  0
VERTEX
  5
726
  8
SITES
 10
427611.6012923815869726
 20
517569.0336775138857774
 30
0.0
  0
VERTEX
  5
727
  8
SITES
 10
427610.1149452201789245
 20
517568.7340474253869615
 30
0.0
  0
VERTEX
  5
728
  8
SITES
 10
427608.2391375934821554
 20
517568.7696686653071083
 30
0.0
  0
VERTEX
  5
729
  8
SITES
 10
427606.2240955660236068
 20
517569.1369710480794311
 30
0.0
  0
VERTEX
  5
72A
  8
SITES
 10
427604.4349424407118931
 20
517569.771777915826533
 30
0.0
  0
VERTEX
  5
72B
  8
SITES
 10
427602.1309205520083196
 20
517571.2753912174957804
 30
0.0
  0
VERTEX
  5
72C
  8
SITES
 10
427600.1445005679852329
 20
517573.3687988810124807
 30
0.0
  0
VERTEX
  5
72D
  8
SITES
 10
427598.8173333550221287
 20
517575.6737177763134241
 30
0.0
  0
VERTEX
  5
72E
  8
SITES
 10
427597.9376512338058092
 20
517578.2810060827177949
 30
0.0
  0
VERTEX
  5
72F
  8
SITES
 10
427597.6658837372087874
 20
517580.6982251557055861
 30
0.0
  0
VERTEX
  5
730
  8
SITES
 10
427598.0216191600775346
 20
517582.694265594414901
 30
0.0
  0
VERTEX
  5
731
  8
SITES
 10
427598.5383167103282176
 20
517583.7139135389006697
 30
0.0
  0
VERTEX
  5
732
  8
SITES
 10
427599.3258488452993333
 20
517584.7886763737187721
 30
0.0
  0
VERTEX
  5
733
  8
SITES
 10
427601.6186399512225762
 20
517586.9847075939178467
 30
0.0
  0
VERTEX
  5
734
  8
SITES
 10
427603.2137508440064266
 20
517588.093702266109176
 30
0.0
  0
VERTEX
  5
735
  8
SITES
 10
427604.9021898178034462
 20
517588.9773798452806659
 30
0.0
  0
VERTEX
  5
736
  8
SITES
 10
427606.5475466257776134
 20
517589.5651123314746656
 30
0.0
  0
VERTEX
  5
737
  8
SITES
 10
427608.0788031896227039
 20
517589.8330238771159202
 30
0.0
  0
VERTEX
  5
738
  8
SITES
 10
427610.2186612269724719
 20
517589.767669319990091
 30
0.0
  0
VERTEX
  5
739
  8
SITES
 10
427612.377701555902604
 20
517589.3231105249142274
 30
0.0
  0
VERTEX
  5
73A
  8
SITES
 10
427614.1028197644045576
 20
517588.597085090528708
 30
0.0
  0
SEQEND
  5
73B
  8
SITES
  0
POLYLINE
  5
43E
  8
SITES
 66
     1
 10
0.0
 20
0.0
 30
0.0
 70
     1
  0
VERTEX
  5
73C
  8
SITES
 10
428930.9483401114121079
 20
517542.12163020047592
 30
0.0
  0
VERTEX
  5
73D
  8
SITES
 10
428931.6396014585043304
 20
517533.5173471939051524
 30
0.0
  0
VERTEX
  5
73E
  8
SITES
 10
428918.6917369005968794
 20
517518.5019826674251817
 30
0.0
  0
VERTEX
  5
73F
  8
SITES
 10
428906.5074092317954637
 20
517519.2550138243823312
 30
0.0
  0
VERTEX
  5
740
  8
SITES
 10
428902.2191148604033515
 20
517523.5688407819834538
 30
0.0
  0
VERTEX
  5
741
  8
SITES
 10
428901.5342369232093915
 20
517534.3236035255831666
 30
0.0
  0
VERTEX
  5
742
  8
SITES
 10
428915.1905496107065119
 20
517546.4695331680122763
 30
0.0
  0
VERTEX
  5
743
  8
SITES
 10
428925.2327412439044565
 20
517548.590259624121245
 30
0.0
  0
SEQEND
  5
744
  8
SITES
  0
POLYLINE
  5
43F
  8
SITES
 66
     1
 10
0.0
 20
0.0
 30
0.0
 70
     1
  0
VERTEX
  5
745
  8
SITES
 10
428997.6107184090069495
 20
517540.4899693913175724
 30
0.0
  0
VERTEX
  5
746
  8
SITES
 10
428994.6922793231788091
 20
517523.2941668364801444
 30
0.0
  0
VERTEX
  5
747
  8
SITES
 10
428987.4876054229098372
 20
517511.1290860460721888
 30
0.0
  0
VERTEX
  5
748
  8
SITES
 10
428980.3042419622070156
 20
517506.1325415121973492
 30
0.0
  0
VERTEX
  5
749
  8
SITES
 10
428973.140028485271614
 20
517507.5874394073034637
 30
0.0
  0
VERTEX
  5
74A
  8
SITES
 10
428967.4435790234711021
 20
517520.5077120303176343
 30
0.0
  0
VERTEX
  5
74B
  8
SITES
 10
428968.1966102248989046
 20
517532.6919415532029234
 30
0.0
  0
VERTEX
  5
74C
  8
SITES
 10
428982.5846458654268645
 20
517549.8536672560148872
 30
0.0
  0
VERTEX
  5
74D
  8
SITES
 10
428989.7573038437985815
 20
517551.2660444817738608
 30
0.0
  0
SEQEND
  5
74E
  8
SITES
  0
POLYLINE
  5
440
  8
SITES
 66
     1
 10
0.0
 20
0.0
 30
0.0
 70
     1
  0
VERTEX
  5
74F
  8
SITES
 10
428877.3190726502798498
 20
517587.4425896718748845
 30
0.0
  0
VERTEX
  5
750
  8
SITES
 10
428883.7472430482157506
 20
517579.5381138368975371
 30
0.0
  0
VERTEX
  5
751
  8
SITES
 10
428883.0026573623181321
 20
517570.2212603645748459
 30
0.0
  0
VERTEX
  5
752
  8
SITES
 10
428875.7980868829763494
 20
517558.0561822634772398
 30
0.0
  0
VERTEX
  5
753
  8
SITES
 10
428870.7715892523992807
 20
517555.2037354385247454
 30
0.0
  0
VERTEX
  5
754
  8
SITES
 10
428861.4547364077880047
 20
517555.9482215896132402
 30
0.0
  0
VERTEX
  5
755
  8
SITES
 10
428859.3127002562978305
 20
517558.8219779778737575
 30
0.0
  0
VERTEX
  5
756
  8
SITES
 10
428856.5007116253837012
 20
517577.4685492601129226
 30
0.0
  0
VERTEX
  5
757
  8
SITES
 10
428865.12836326030083
 20
517586.0451384551124647
 30
0.0
  0
VERTEX
  5
758
  8
SITES
 10
428870.1526996318716556
 20
517588.1807921685976908
 30
0.0
  0
SEQEND
  5
759
  8
SITES
  0
POLYLINE
  5
441
  8
SITES
 66
     1
 10
0.0
 20
0.0
 30
0.0
 70
     1
  0
VERTEX
  5
75A
  8
SITES
 10
428963.3532549529918469
 20
517591.4882401169161312
 30
0.0
  0
VERTEX
  5
75B
  8
SITES
 10
428966.2100246243062429
 20
517587.8954287411179394
 30
0.0
  0
VERTEX
  5
75C
  8
SITES
 10
428964.0339127611950971
 20
517579.2996887834160589
 30
0.0
  0
VERTEX
  5
75D
  8
SITES
 10
428953.9618669539922848
 20
517567.1431517358287238
 30
0.0
  0
VERTEX
  5
75E
  8
SITES
 10
428948.9418512929114513
 20
517566.4411849871976301
 30
0.0
  0
VERTEX
  5
75F
  8
SITES
 10
428941.7563283386989497
 20
517560.7277464047074318
 30
0.0
  0
VERTEX
  5
760
  8
SITES
 10
428937.4574283130932599
 20
517561.4573058427195065
 30
0.0
  0
VERTEX
  5
761
  8
SITES
 10
428937.4616502849967219
 20
517562.8909928150242195
 30
0.0
  0
VERTEX
  5
762
  8
SITES
 10
428933.877482662210241
 20
517562.9016976890270598
 30
0.0
  0
VERTEX
  5
763
  8
SITES
 10
428928.8722940217121504
 20
517567.2176853498094715
 30
0.0
  0
VERTEX
  5
764
  8
SITES
 10
428927.4662994423997588
 20
517576.5409226688789204
 30
0.0
  0
VERTEX
  5
765
  8
SITES
 10
428946.8679645346710458
 20
517592.2540347630856559
 30
0.0
  0
SEQEND
  5
766
  8
SITES
  0
POLYLINE
  5
442
  8
SITES
 66
     1
 10
0.0
 20
0.0
 30
0.0
 70
     1
  0
VERTEX
  5
767
  8
SITES
 10
427863.4187275797012262
 20
517650.5319031864055432
 30
0.0
  0
VERTEX
  5
768
  8
SITES
 10
427866.9944421377149411
 20
517647.6539329338120297
 30
0.0
  0
VERTEX
  5
769
  8
SITES
 10
427868.3940525118960068
 20
517636.1800462572136894
 30
0.0
  0
VERTEX
  5
76A
  8
SITES
 10
427859.7641631423030049
 20
517626.8865857401979156
 30
0.0
  0
VERTEX
  5
76B
  8
SITES
 10
427842.5639881049282849
 20
517628.3713285828125663
 30
0.0
  0
VERTEX
  5
76C
  8
SITES
 10
427840.4241176405921578
 20
517631.9619686785154045
 30
0.0
  0
VERTEX
  5
76D
  8
SITES
 10
427842.6173081973101944
 20
517646.2926167044206522
 30
0.0
  0
VERTEX
  5
76E
  8
SITES
 10
427855.5354812343139201
 20
517651.2722632433287799
 30
0.0
  0
SEQEND
  5
76F
  8
SITES
  0
POLYLINE
  5
443
  8
SITES
 66
     1
 10
0.0
 20
0.0
 30
0.0
 70
     1
  0
VERTEX
  5
770
  8
SITES
 10
427760.9539244411280379
 20
517665.8903137453016825
 30
0.0
  0
VERTEX
  5
771
  8
SITES
 10
427763.0830910193035379
 20
517658.7154175968025811
 30
0.0
  0
VERTEX
  5
772
  8
SITES
 10
427762.3428311421885155
 20
517650.8321732569020241
 30
0.0
  0
VERTEX
  5
773
  8
SITES
 10
427755.1467270526918583
 20
517641.5344933824962936
 30
0.0
  0
VERTEX
  5
774
  8
SITES
 10
427742.9453486024285667
 20
517636.5526875474024564
 30
0.0
  0
VERTEX
  5
775
  8
SITES
 10
427738.6442006519064307
 20
517636.5654523260891438
 30
0.0
  0
VERTEX
  5
776
  8
SITES
 10
427730.7738216361030936
 20
517641.6068604754982516
 30
0.0
  0
VERTEX
  5
777
  8
SITES
 10
427730.0910029633087106
 20
517653.0785823100013658
 30
0.0
  0
VERTEX
  5
778
  8
SITES
 10
427732.9711328764096834
 20
517657.3711870702099986
 30
0.0
  0
VERTEX
  5
779
  8
SITES
 10
427738.003997532883659
 20
517662.3742010560818017
 30
0.0
  0
VERTEX
  5
77A
  8
SITES
 10
427750.9286490962840617
 20
517669.5044209975749254
 30
0.0
  0
SEQEND
  5
77B
  8
SITES
  0
POLYLINE
  5
444
  8
SITES
 66
     1
 10
0.0
 20
0.0
 30
0.0
 70
     1
  0
VERTEX
  5
77C
  8
SITES
 10
429406.0637416152167134
 20
517730.6759454025886953
 30
0.0
  0
VERTEX
  5
77D
  8
SITES
 10
429417.5055626822868362
 20
517721.3228476793738082
 30
0.0
  0
VERTEX
  5
77E
  8
SITES
 10
429416.7653006255277433
 20
517713.4396701998193748
 30
0.0
  0
VERTEX
  5
77F
  8
SITES
 10
429403.1346040928037837
 20
517709.8959517714101821
 30
0.0
  0
VERTEX
  5
780
  8
SITES
 10
429394.5452362517244183
 20
517714.2225463495124131
 30
0.0
  0
VERTEX
  5
781
  8
SITES
 10
429382.3674754287931137
 20
517717.1261556508252397
 30
0.0
  0
VERTEX
  5
782
  8
SITES
 10
429371.640389176318422
 20
517725.7601977622834966
 30
0.0
  0
VERTEX
  5
783
  8
SITES
 10
429367.3648515724926256
 20
517734.3750933308037929
 30
0.0
  0
VERTEX
  5
784
  8
SITES
 10
429389.5912964104209095
 20
517735.7428013267926872
 30
0.0
  0
SEQEND
  5
785
  8
SITES
  0
POLYLINE
  5
445
  8
SITES
 66
     1
 10
0.0
 20
0.0
 30
0.0
 70
     1
  0
VERTEX
  5
786
  8
SITES
 10
427850.0107370531768538
 20
517845.8598588482709602
 30
0.0
  0
VERTEX
  5
787
  8
SITES
 10
427854.2521939417929389
 20
517825.7751330586033873
 30
0.0
  0
VERTEX
  5
788
  8
SITES
 10
427845.5988437599153258
 20
517808.5964617182034999
 30
0.0
  0
VERTEX
  5
789
  8
SITES
 10
427832.6743916886043735
 20
517801.466035935387481
 30
0.0
  0
VERTEX
  5
78A
  8
SITES
 10
427825.5164790168055333
 20
517805.0717982522910461
 30
0.0
  0
VERTEX
  5
78B
  8
SITES
 10
427821.2301535864826292
 20
517810.1026014356175438
 30
0.0
  0
VERTEX
  5
78C
  8
SITES
 10
427820.5304461204796098
 20
517815.8393940452951938
 30
0.0
  0
VERTEX
  5
78D
  8
SITES
 10
427828.4689641117001884
 20
517833.7373160723946057
 30
0.0
  0
VERTEX
  5
78E
  8
SITES
 10
427844.2802257399889641
 20
517847.3105254158144817
 30
0.0
  0
SEQEND
  5
78F
  8
SITES
  0
POLYLINE
  5
446
  8
SITES
 66
     1
 10
0.0
 20
0.0
 30
0.0
 70
     1
  0
VERTEX
  5
790
  8
SITES
 10
428818.3651190035743639
 20
517924.3997949386830442
 30
0.0
  0
VERTEX
  5
791
  8
SITES
 10
428825.5250107953906991
 20
517921.5111185318091884
 30
0.0
  0
VERTEX
  5
792
  8
SITES
 10
428834.120849592378363
 20
517919.3350148817989975
 30
0.0
  0
VERTEX
  5
793
  8
SITES
 10
428842.6995060002082027
 20
517911.4241641865228303
 30
0.0
  0
VERTEX
  5
794
  8
SITES
 10
428841.9507074683788233
 20
517900.673624370014295
 30
0.0
  0
VERTEX
  5
795
  8
SITES
 10
428818.2755848374217749
 20
517894.292276265390683
 30
0.0
  0
VERTEX
  5
796
  8
SITES
 10
428818.2799055281211622
 20
517895.7259629453765228
 30
0.0
  0
VERTEX
  5
797
  8
SITES
 10
428811.8304262586752884
 20
517896.4619994711247273
 30
0.0
  0
VERTEX
  5
798
  8
SITES
 10
428802.5241758762276731
 20
517900.7907437338726595
 30
0.0
  0
VERTEX
  5
799
  8
SITES
 10
428795.3834277195273899
 20
517910.1310596098192036
 30
0.0
  0
VERTEX
  5
79A
  8
SITES
 10
428793.2648528491845354
 20
517920.8901394378044643
 30
0.0
  0
VERTEX
  5
79B
  8
SITES
 10
428794.6985393058275804
 20
517920.8859187747002579
 30
0.0
  0
VERTEX
  5
79C
  8
SITES
 10
428793.9881270040059462
 20
517923.0385589316138066
 30
0.0
  0
VERTEX
  5
79D
  8
SITES
 10
428807.6145800049998797
 20
517925.148592873418238
 30
0.0
  0
SEQEND
  5
79E
  8
SITES
  0
POLYLINE
  5
447
  8
SITES
 66
     1
 10
0.0
 20
0.0
 30
0.0
 70
     1
  0
VERTEX
  5
79F
  8
SITES
 10
428248.569931281672325
 20
517959.0687778678839095
 30
0.0
  0
VERTEX
  5
7A0
  8
SITES
 10
428265.0616741428966634
 20
517960.4534770842874423
 30
0.0
  0
VERTEX
  5
7A1
  8
SITES
 10
428269.3478062803042121
 20
517955.4227695123990998
 30
0.0
  0
VERTEX
  5
7A2
  8
SITES
 10
428267.8629755246220157
 20
517938.2226747589884326
 30
0.0
  0
VERTEX
  5
7A3
  8
SITES
 10
428261.3943626197869889
 20
517932.50707894860534
 30
0.0
  0
VERTEX
  5
7A4
  8
SITES
 10
428247.0509364194003865
 20
517930.3991076949168928
 30
0.0
  0
VERTEX
  5
7A5
  8
SITES
 10
428236.3302567446953617
 20
517941.1837957135867327
 30
0.0
  0
VERTEX
  5
7A6
  8
SITES
 10
428237.059810571023263
 20
517945.482788793684449
 30
0.0
  0
VERTEX
  5
7A7
  8
SITES
 10
428249.2910439306870103
 20
517960.5004021347267553
 30
0.0
  0
SEQEND
  5
7A8
  8
SITES
  0
POLYLINE
  5
448
  8
SITES
 66
     1
 10
0.0
 20
0.0
 30
0.0
 70
     1
  0
VERTEX
  5
7A9
  8
SITES
 10
427459.8057844046852551
 20
518094.3411861431086436
 30
0.0
  0
VERTEX
  5
7AA
  8
SITES
 10
427468.2150946296169423
 20
518094.7873770712176338
 30
0.0
  0
VERTEX
  5
7AB
  8
SITES
 10
427481.0842704235110432
 20
518083.279443554696627
 30
0.0
  0
VERTEX
  5
7AC
  8
SITES
 10
427472.4287799603189342
 20
518065.3836919396999292
 30
0.0
  0
VERTEX
  5
7AD
  8
SITES
 10
427449.4575727200135589
 20
518054.6991502767778002
 30
0.0
  0
VERTEX
  5
7AE
  8
SITES
 10
427424.3721150564961135
 20
518056.2074332801275887
 30
0.0
  0
VERTEX
  5
7AF
  8
SITES
 10
427421.5131921975989826
 20
518059.0833364560967311
 30
0.0
  0
VERTEX
  5
7B0
  8
SITES
 10
427422.2832833228167146
 20
518077.0025455569848418
 30
0.0
  0
VERTEX
  5
7B1
  8
SITES
 10
427433.7976954682962969
 20
518092.0222922525717877
 30
0.0
  0
VERTEX
  5
7B2
  8
SITES
 10
427455.3139194370014593
 20
518095.5426472775870934
 30
0.0
  0
SEQEND
  5
7B3
  8
SITES
  0
POLYLINE
  5
449
  8
SITES
 66
     1
 10
0.0
 20
0.0
 30
0.0
 70
     1
  0
VERTEX
  5
7B4
  8
SITES
 10
428906.7480689907097258
 20
517995.1054295254289173
 30
0.0
  0
VERTEX
  5
7B5
  8
SITES
 10
428913.8888211584999226
 20
517985.7651125299162231
 30
0.0
  0
VERTEX
  5
7B6
  8
SITES
 10
428910.2981732225161977
 20
517983.6252330802963115
 30
0.0
  0
VERTEX
  5
7B7
  8
SITES
 10
428903.8167890590266325
 20
517973.6085665911086835
 30
0.0
  0
VERTEX
  5
7B8
  8
SITES
 10
428890.1732511364971288
 20
517965.7637829688028432
 30
0.0
  0
VERTEX
  5
7B9
  8
SITES
 10
428874.3983756270026788
 20
517964.3769213493796997
 30
0.0
  0
VERTEX
  5
7BA
  8
SITES
 10
428858.6810266770771705
 20
517982.3449808883015066
 30
0.0
  0
VERTEX
  5
7BB
  8
SITES
 10
428857.9897556843934581
 20
517990.9492615833878517
 30
0.0
  0
VERTEX
  5
7BC
  8
SITES
 10
428859.4234423750895076
 20
517990.9450411715079099
 30
0.0
  0
VERTEX
  5
7BD
  8
SITES
 10
428860.8763707856996916
 20
517997.3923613058286719
 30
0.0
  0
VERTEX
  5
7BE
  8
SITES
 10
428865.1881319686071947
 20
518000.9637672489043325
 30
0.0
  0
SEQEND
  5
7BF
  8
SITES
  0
POLYLINE
  5
44A
  8
SITES
 66
     1
 10
0.0
 20
0.0
 30
0.0
 70
     1
  0
VERTEX
  5
7C0
  8
SITES
 10
427535.6757982667768374
 20
518120.3937151781283319
 30
0.0
  0
VERTEX
  5
7C1
  8
SITES
 10
427540.6617361333919689
 20
518109.626030886778608
 30
0.0
  0
VERTEX
  5
7C2
  8
SITES
 10
427549.9020000856253318
 20
518083.074884639820084
 30
0.0
  0
VERTEX
  5
7C3
  8
SITES
 10
427542.6801900130230933
 20
518065.1749098246218637
 30
0.0
  0
VERTEX
  5
7C4
  8
SITES
 10
427534.7692688314127736
 20
518056.5961783822858706
 30
0.0
  0
VERTEX
  5
7C5
  8
SITES
 10
427512.5447894086828455
 20
518055.9453486768179573
 30
0.0
  0
VERTEX
  5
7C6
  8
SITES
 10
427502.5237368426751345
 20
518060.9931255494011566
 30
0.0
  0
VERTEX
  5
7C7
  8
SITES
 10
427497.5697008494753391
 20
518082.5135729048051871
 30
0.0
  0
VERTEX
  5
7C8
  8
SITES
 10
427499.0759215913712978
 20
518106.8822439074865542
 30
0.0
  0
VERTEX
  5
7C9
  8
SITES
 10
427510.6029944021720439
 20
518126.2031397665850818
 30
0.0
  0
VERTEX
  5
7CA
  8
SITES
 10
427527.1012855154112913
 20
518129.7384166700066999
 30
0.0
  0
SEQEND
  5
7CB
  8
SITES
  0
POLYLINE
  5
44B
  8
SITES
 66
     1
 10
0.0
 20
0.0
 30
0.0
 70
     1
  0
VERTEX
  5
7CC
  8
SITES
 10
427961.7030910226749256
 20
518144.3464253906859085
 30
0.0
  0
VERTEX
  5
7CD
  8
SITES
 10
427970.2690738057717681
 20
518132.1343467892147601
 30
0.0
  0
VERTEX
  5
7CE
  8
SITES
 10
427970.9219676079810597
 20
518110.6267338694888167
 30
0.0
  0
VERTEX
  5
7CF
  8
SITES
 10
427966.5952975887921639
 20
518102.0372924978728406
 30
0.0
  0
VERTEX
  5
7D0
  8
SITES
 10
427960.8584034924278967
 20
518101.3375804520910606
 30
0.0
  0
VERTEX
  5
7D1
  8
SITES
 10
427952.9964540218934417
 20
518109.2463490957743488
 30
0.0
  0
VERTEX
  5
7D2
  8
SITES
 10
427950.8629585261805914
 20
518114.9874628472025506
 30
0.0
  0
VERTEX
  5
7D3
  8
SITES
 10
427949.4697137183975428
 20
518128.6119254517834634
 30
0.0
  0
VERTEX
  5
7D4
  8
SITES
 10
427947.3469173085177317
 20
518137.9373976421775296
 30
0.0
  0
VERTEX
  5
7D5
  8
SITES
 10
427947.3532971144886687
 20
518140.0878728479146957
 30
0.0
  0
VERTEX
  5
7D6
  8
SITES
 10
427953.1008902431931347
 20
518144.3719440813874826
 30
0.0
  0
SEQEND
  5
7D7
  8
SITES
  0
POLYLINE
  5
44C
  8
SITES
 66
     1
 10
0.0
 20
0.0
 30
0.0
 70
     1
  0
VERTEX
  5
7D8
  8
SITES
 10
427914.7275541648850776
 20
518155.2134705209755339
 30
0.0
  0
VERTEX
  5
7D9
  8
SITES
 10
427917.713440491585061
 20
518151.4594567610183731
 30
0.0
  0
VERTEX
  5
7DA
  8
SITES
 10
427922.1845580431981944
 20
518143.2067951433709823
 30
0.0
  0
VERTEX
  5
7DB
  8
SITES
 10
427925.9019713379093446
 20
518133.4583130144164898
 30
0.0
  0
VERTEX
  5
7DC
  8
SITES
 10
427927.3760137351928279
 20
518125.2146206119214185
 30
0.0
  0
VERTEX
  5
7DD
  8
SITES
 10
427928.850056097493507
 20
518116.9708282229257748
 30
0.0
  0
VERTEX
  5
7DE
  8
SITES
 10
427928.838967346411664
 20
518113.225683924916666
 30
0.0
  0
VERTEX
  5
7DF
  8
SITES
 10
427928.067420995386783
 20
518105.7377125793718733
 30
0.0
  0
VERTEX
  5
7E0
  8
SITES
 10
427923.5584022857947275
 20
518101.2569040207890794
 30
0.0
  0
VERTEX
  5
7E1
  8
SITES
 10
427919.7943165714968927
 20
518095.2758405280183069
 30
0.0
  0
VERTEX
  5
7E2
  8
SITES
 10
427916.7949241239111871
 20
518094.5357414038735442
 30
0.0
  0
VERTEX
  5
7E3
  8
SITES
 10
427912.3082831737119704
 20
518097.545221641776152
 30
0.0
  0
VERTEX
  5
7E4
  8
SITES
 10
427910.8320236948784441
 20
518105.0398450316279195
 30
0.0
  0
VERTEX
  5
7E5
  8
SITES
 10
427907.8705331038217992
 20
518117.0332160625257529
 30
0.0
  0
VERTEX
  5
7E6
  8
SITES
 10
427907.8972459096112289
 20
518126.0215420479071327
 30
0.0
  0
VERTEX
  5
7E7
  8
SITES
 10
427907.9261763027170673
 20
518135.7588369005243294
 30
0.0
  0
VERTEX
  5
7E8
  8
SITES
 10
427907.9440178443910554
 20
518141.7510875810985453
 30
0.0
  0
VERTEX
  5
7E9
  8
SITES
 10
427906.4588866042904556
 20
518146.2497353553189896
 30
0.0
  0
VERTEX
  5
7EA
  8
SITES
 10
427907.2304321447154507
 20
518153.7377063761232421
 30
0.0
  0
VERTEX
  5
7EB
  8
SITES
 10
427907.9841361662256531
 20
518155.2335266710724682
 30
0.0
  0
VERTEX
  5
7EC
  8
SITES
 10
427910.983428512874525
 20
518155.973626108490862
 30
0.0
  0
SEQEND
  5
7ED
  8
SITES
  0
POLYLINE
  5
44D
  8
SITES
 66
     1
 10
0.0
 20
0.0
 30
0.0
 70
     1
  0
VERTEX
  5
7EE
  8
SITES
 10
427977.5717633693129756
 20
518177.2746295867254958
 30
0.0
  0
VERTEX
  5
7EF
  8
SITES
 10
427981.8622148439753801
 20
518173.6776116795954295
 30
0.0
  0
VERTEX
  5
7F0
  8
SITES
 10
427980.4030131492763758
 20
518165.079630071122665
 30
0.0
  0
VERTEX
  5
7F1
  8
SITES
 10
427976.8058951960992999
 20
518160.789178560487926
 30
0.0
  0
VERTEX
  5
7F2
  8
SITES
 10
427966.7530315562034957
 20
518155.0841826385003515
 30
0.0
  0
VERTEX
  5
7F3
  8
SITES
 10
427950.9779935121187009
 20
518153.6974161447142251
 30
0.0
  0
VERTEX
  5
7F4
  8
SITES
 10
427942.3971915388829075
 20
518160.8914518767851405
 30
0.0
  0
VERTEX
  5
7F5
  8
SITES
 10
427940.986866521416232
 20
518168.7810803246102296
 30
0.0
  0
VERTEX
  5
7F6
  8
SITES
 10
427953.1967839938006364
 20
518176.6301721215713769
 30
0.0
  0
VERTEX
  5
7F7
  8
SITES
 10
427961.8032044940046035
 20
518178.0383375895908102
 30
0.0
  0
SEQEND
  5
7F8
  8
SITES
  0
POLYLINE
  5
44E
  8
SITES
 66
     1
 10
0.0
 20
0.0
 30
0.0
 70
     1
  0
VERTEX
  5
7F9
  8
SITES
 10
425503.6829494782723486
 20
518088.6779418967198581
 30
0.0
  0
VERTEX
  5
7FA
  8
SITES
 10
425518.4563480257056653
 20
518086.4459886968834326
 30
0.0
  0
VERTEX
  5
7FB
  8
SITES
 10
425524.1677873271983117
 20
518078.5433487861882895
 30
0.0
  0
VERTEX
  5
7FC
  8
SITES
 10
425515.5271600621053949
 20
518065.6655966124963015
 30
0.0
  0
VERTEX
  5
7FD
  8
SITES
 10
425494.7211491524940357
 20
518059.9924376520793885
 30
0.0
  0
VERTEX
  5
7FE
  8
SITES
 10
425486.1209619643050246
 20
518060.7349446244188584
 30
0.0
  0
VERTEX
  5
7FF
  8
SITES
 10
425474.6491062332061119
 20
518060.052117154118605
 30
0.0
  0
VERTEX
  5
800
  8
SITES
 10
425463.1942302956013009
 20
518065.1044870901969261
 30
0.0
  0
VERTEX
  5
801
  8
SITES
 10
425459.6333541196072474
 20
518073.000446283724159
 30
0.0
  0
VERTEX
  5
802
  8
SITES
 10
425468.2612199513241649
 20
518081.5772733499179594
 30
0.0
  0
VERTEX
  5
803
  8
SITES
 10
425490.3048008882906288
 20
518088.501753457414452
 30
0.0
  0
VERTEX
  5
804
  8
SITES
 10
425494.4278748108772561
 20
518089.6176490464131348
 30
0.0
  0
SEQEND
  5
805
  8
SITES
  0
POLYLINE
  5
44F
  8
SITES
 66
     1
 10
0.0
 20
0.0
 30
0.0
 70
     1
  0
VERTEX
  5
806
  8
SITES
 10
428029.2105924615170807
 20
518185.7233244854724035
 30
0.0
  0
VERTEX
  5
807
  8
SITES
 10
428030.5739015275030397
 20
518162.0630728633259423
 30
0.0
  0
VERTEX
  5
808
  8
SITES
 10
428029.1103796630050056
 20
518152.0314064100966789
 30
0.0
  0
VERTEX
  5
809
  8
SITES
 10
428024.7964691816014238
 20
518147.7431144323199987
 30
0.0
  0
VERTEX
  5
80A
  8
SITES
 10
428019.0617342563928105
 20
518147.7601935571874492
 30
0.0
  0
VERTEX
  5
80B
  8
SITES
 10
428010.4744513987097889
 20
518152.8036550555261783
 30
0.0
  0
VERTEX
  5
80C
  8
SITES
 10
428009.7852379194810055
 20
518162.1248087370186113
 30
0.0
  0
VERTEX
  5
80D
  8
SITES
 10
428009.0833649949054234
 20
518167.1449115055729635
 30
0.0
  0
VERTEX
  5
80E
  8
SITES
 10
428006.9860852988786064
 20
518185.0725868120789528
 30
0.0
  0
VERTEX
  5
80F
  8
SITES
 10
428006.9988442583126016
 20
518189.3736378035973758
 30
0.0
  0
VERTEX
  5
810
  8
SITES
 10
428015.6266638046945445
 20
518197.9503223128267564
 30
0.0
  0
VERTEX
  5
811
  8
SITES
 10
428021.3657182503957301
 20
518199.3669277185108513
 30
0.0
  0
SEQEND
  5
812
  8
SITES
  0
POLYLINE
  5
450
  8
SITES
 66
     1
 10
0.0
 20
0.0
 30
0.0
 70
     1
  0
VERTEX
  5
813
  8
SITES
 10
428292.329317799594719
 20
518090.1222340925014578
 30
0.0
  0
VERTEX
  5
814
  8
SITES
 10
428294.9740192884928547
 20
518087.8424198552966118
 30
0.0
  0
VERTEX
  5
815
  8
SITES
 10
428294.4991783684818074
 20
518083.4725098296185024
 30
0.0
  0
VERTEX
  5
816
  8
SITES
 10
428290.7506136088049971
 20
518082.7346277445903979
 30
0.0
  0
VERTEX
  5
817
  8
SITES
 10
428288.5028055093134753
 20
518082.7412802504259162
 30
0.0
  0
VERTEX
  5
818
  8
SITES
 10
428281.7528275185031816
 20
518080.5143291871063411
 30
0.0
  0
VERTEX
  5
819
  8
SITES
 10
428276.5035064165131189
 20
518079.0318126783240587
 30
0.0
  0
VERTEX
  5
81A
  8
SITES
 10
428270.50048023450654
 20
518076.0535746234236285
 30
0.0
  0
VERTEX
  5
81B
  8
SITES
 10
428267.4966493939864449
 20
518073.8154359915060923
 30
0.0
  0
VERTEX
  5
81C
  8
SITES
 10
428261.4981590718962252
 20
518072.3351372759789228
 30
0.0
  0
VERTEX
  5
81D
  8
SITES
 10
428254.7547351774992421
 20
518072.3551948923268355
 30
0.0
  0
VERTEX
  5
81E
  8
SITES
 10
428251.7665292429737747
 20
518075.3602428153972141
 30
0.0
  0
VERTEX
  5
81F
  8
SITES
 10
428251.7799362119985744
 20
518079.8543598097166978
 30
0.0
  0
VERTEX
  5
820
  8
SITES
 10
428254.0411510206758976
 20
518084.3418243118212558
 30
0.0
  0
VERTEX
  5
821
  8
SITES
 10
428259.2926896932767704
 20
518086.5733103351085447
 30
0.0
  0
VERTEX
  5
822
  8
SITES
 10
428262.2896670137997717
 20
518086.5644402272882871
 30
0.0
  0
VERTEX
  5
823
  8
SITES
 10
428265.2889621731010266
 20
518087.3045397904934362
 30
0.0
  0
VERTEX
  5
824
  8
SITES
 10
428269.0375266817864031
 20
518088.0424218727275729
 30
0.0
  0
VERTEX
  5
825
  8
SITES
 10
428274.2824121426092461
 20
518088.0267995049944147
 30
0.0
  0
VERTEX
  5
826
  8
SITES
 10
428283.2779801422148012
 20
518089.4981286206748337
 30
0.0
  0
VERTEX
  5
827
  8
SITES
 10
428287.7758141792146489
 20
518090.2337932693189941
 30
0.0
  0
SEQEND
  5
828
  8
SITES
  0
POLYLINE
  5
451
  8
SITES
 66
     1
 10
0.0
 20
0.0
 30
0.0
 70
     1
  0
VERTEX
  5
829
  8
SITES
 10
428088.130715559294913
 20
518232.1437982353963889
 30
0.0
  0
VERTEX
  5
82A
  8
SITES
 10
428086.6714146704180166
 20
518223.5459138944279402
 30
0.0
  0
VERTEX
  5
82B
  8
SITES
 10
428070.1434641546220519
 20
518209.9747412077849731
 30
0.0
  0
VERTEX
  5
82C
  8
SITES
 10
428063.6853573953849263
 20
518207.8434032335062511
 30
0.0
  0
VERTEX
  5
82D
  8
SITES
 10
428053.6494704721844755
 20
518207.8732400921289809
 30
0.0
  0
VERTEX
  5
82E
  8
SITES
 10
428050.8246981559786946
 20
518222.2187174733844586
 30
0.0
  0
VERTEX
  5
82F
  8
SITES
 10
428058.0273731125053018
 20
518233.6669909079209901
 30
0.0
  0
VERTEX
  5
830
  8
SITES
 10
428071.6666573677794077
 20
518240.0781835489906371
 30
0.0
  0
VERTEX
  5
831
  8
SITES
 10
428079.5562883201055229
 20
518241.488410644873511
 30
0.0
  0
SEQEND
  5
832
  8
SITES
  0
POLYLINE
  5
452
  8
SITES
 66
     1
 10
0.0
 20
0.0
 30
0.0
 70
     1
  0
VERTEX
  5
833
  8
SITES
 10
425743.242618017073255
 20
518266.9443953759036958
 30
0.0
  0
VERTEX
  5
834
  8
SITES
 10
425748.2520936465007253
 20
518264.0620271568186581
 30
0.0
  0
VERTEX
  5
835
  8
SITES
 10
425753.244492206373252
 20
518255.4448568496154621
 30
0.0
  0
VERTEX
  5
836
  8
SITES
 10
425753.88885164167732
 20
518231.0695139368763193
 30
0.0
  0
VERTEX
  5
837
  8
SITES
 10
425750.2704578309785575
 20
518219.6105084989103489
 30
0.0
  0
VERTEX
  5
838
  8
SITES
 10
425744.5078798783943057
 20
518210.3083456914173439
 30
0.0
  0
VERTEX
  5
839
  8
SITES
 10
425738.7709184092818759
 20
518209.6085357472766191
 30
0.0
  0
VERTEX
  5
83A
  8
SITES
 10
425729.4688559459755197
 20
518215.3711136989877559
 30
0.0
  0
VERTEX
  5
83B
  8
SITES
 10
425721.611067526799161
 20
518224.7137102839769796
 30
0.0
  0
VERTEX
  5
83C
  8
SITES
 10
425718.0801209915080108
 20
518242.6458007654873654
 30
0.0
  0
VERTEX
  5
83D
  8
SITES
 10
425726.0336938981781714
 20
518265.5618505906895734
 30
0.0
  0
VERTEX
  5
83E
  8
SITES
 10
425731.7749743313761428
 20
518267.6953368348185904
 30
0.0
  0
SEQEND
  5
83F
  8
SITES
  0
POLYLINE
  5
453
  8
SITES
 66
     1
 10
0.0
 20
0.0
 30
0.0
 70
     1
  0
VERTEX
  5
840
  8
SITES
 10
428144.1941720260074362
 20
518282.1569849480874836
 30
0.0
  0
VERTEX
  5
841
  8
SITES
 10
428146.3383693181094714
 20
518280.0000298260711133
 30
0.0
  0
VERTEX
  5
842
  8
SITES
 10
428147.0317052404861897
 20
518272.1125571135198697
 30
0.0
  0
VERTEX
  5
843
  8
SITES
 10
428140.5395426729228348
 20
518258.5116445398889482
 30
0.0
  0
VERTEX
  5
844
  8
SITES
 10
428129.7548662790213712
 20
518247.7908590157749131
 30
0.0
  0
VERTEX
  5
845
  8
SITES
 10
428120.44440842239419
 20
518250.6860033742850646
 30
0.0
  0
VERTEX
  5
846
  8
SITES
 10
428116.156014567182865
 20
518254.9998136985232122
 30
0.0
  0
VERTEX
  5
847
  8
SITES
 10
428115.4583596988813952
 20
518261.4536016755155288
 30
0.0
  0
VERTEX
  5
848
  8
SITES
 10
428125.5369414535816759
 20
518275.7608071984141134
 30
0.0
  0
VERTEX
  5
849
  8
SITES
 10
428134.162602303782478
 20
518283.6205041563953273
 30
0.0
  0
SEQEND
  5
84A
  8
SITES
  0
POLYLINE
  5
454
  8
SITES
 66
     1
 10
0.0
 20
0.0
 30
0.0
 70
     1
  0
VERTEX
  5
84B
  8
SITES
 10
428047.4152337865089066
 20
518281.0110526112257503
 30
0.0
  0
VERTEX
  5
84C
  8
SITES
 10
428048.8446983395842835
 20
518279.5730495728203095
 30
0.0
  0
VERTEX
  5
84D
  8
SITES
 10
428048.838319287810009
 20
518277.4225738085224293
 30
0.0
  0
VERTEX
  5
84E
  8
SITES
 10
428045.2029278750997037
 20
518260.2287664263276383
 30
0.0
  0
VERTEX
  5
84F
  8
SITES
 10
428038.729903953615576
 20
518253.0794845190248452
 30
0.0
  0
VERTEX
  5
850
  8
SITES
 10
428025.8095726150204428
 20
518247.3830240726238117
 30
0.0
  0
VERTEX
  5
851
  8
SITES
 10
428017.9626365297008306
 20
518260.3098341773147695
 30
0.0
  0
VERTEX
  5
852
  8
SITES
 10
428020.8683780762949027
 20
518273.2045489412266761
 30
0.0
  0
VERTEX
  5
853
  8
SITES
 10
428023.7486033529858105
 20
518277.4971615286776796
 30
0.0
  0
VERTEX
  5
854
  8
SITES
 10
428028.0560335873160511
 20
518279.6348792096832767
 30
0.0
  0
VERTEX
  5
855
  8
SITES
 10
428030.2108285023714416
 20
518281.062184009118937
 30
0.0
  0
VERTEX
  5
856
  8
SITES
 10
428044.5606240641209297
 20
518285.3206426185788587
 30
0.0
  0
SEQEND
  5
857
  8
SITES
  0
POLYLINE
  5
455
  8
SITES
 66
     1
 10
0.0
 20
0.0
 30
0.0
 70
     1
  0
VERTEX
  5
858
  8
SITES
 10
425562.4554775048745796
 20
518177.357331425009761
 30
0.0
  0
VERTEX
  5
859
  8
SITES
 10
425568.548988409282174
 20
518156.1328699571895413
 30
0.0
  0
VERTEX
  5
85A
  8
SITES
 10
425560.38575130677782
 20
518141.7797004939056933
 30
0.0
  0
VERTEX
  5
85B
  8
SITES
 10
425540.1049803848727606
 20
518134.4118431467795745
 30
0.0
  0
VERTEX
  5
85C
  8
SITES
 10
425533.6512347206007689
 20
518133.7138947860803455
 30
0.0
  0
VERTEX
  5
85D
  8
SITES
 10
425525.0678254556842148
 20
518140.1912984632072039
 30
0.0
  0
VERTEX
  5
85E
  8
SITES
 10
425522.2345334521960467
 20
518151.6695350182126276
 30
0.0
  0
VERTEX
  5
85F
  8
SITES
 10
425528.0036889264010824
 20
518163.122154074604623
 30
0.0
  0
VERTEX
  5
860
  8
SITES
 10
425545.259419709618669
 20
518180.2758154841139913
 30
0.0
  0
VERTEX
  5
861
  8
SITES
 10
425551.7218048328068107
 20
518183.8409144774195738
 30
0.0
  0
VERTEX
  5
862
  8
SITES
 10
425556.7418763656169176
 20
518184.5427835048176348
 30
0.0
  0
SEQEND
  5
863
  8
SITES
  0
POLYLINE
  5
456
  8
SITES
 66
     1
 10
0.0
 20
0.0
 30
0.0
 70
     1
  0
VERTEX
  5
864
  8
SITES
 10
425703.1454188989009708
 20
518282.8346619274234399
 30
0.0
  0
VERTEX
  5
865
  8
SITES
 10
425703.7897799602942541
 20
518258.4593221353716217
 30
0.0
  0
VERTEX
  5
866
  8
SITES
 10
425707.3314252914860845
 20
518244.1115707510034554
 30
0.0
  0
VERTEX
  5
867
  8
SITES
 10
425700.1224151760106906
 20
518230.512502167490311
 30
0.0
  0
VERTEX
  5
868
  8
SITES
 10
425700.1180958010954782
 20
518229.0788267722819
 30
0.0
  0
VERTEX
  5
869
  8
SITES
 10
425693.6600280349957757
 20
518226.9474010865087621
 30
0.0
  0
VERTEX
  5
86A
  8
SITES
 10
425690.0714705549762584
 20
518225.5243242604192346
 30
0.0
  0
VERTEX
  5
86B
  8
SITES
 10
425684.3344099741079845
 20
518224.8245140557992272
 30
0.0
  0
VERTEX
  5
86C
  8
SITES
 10
425673.5943540246225893
 20
518229.1576349919196218
 30
0.0
  0
VERTEX
  5
86D
  8
SITES
 10
425667.8914483208209276
 20
518239.9276261698105372
 30
0.0
  0
VERTEX
  5
86E
  8
SITES
 10
425667.2214730315026827
 20
518255.7006127258064225
 30
0.0
  0
VERTEX
  5
86F
  8
SITES
 10
425670.1336753804935142
 20
518270.7461136301280931
 30
0.0
  0
VERTEX
  5
870
  8
SITES
 10
425680.2038552642916329
 20
518282.1859810248133726
 30
0.0
  0
VERTEX
  5
871
  8
SITES
 10
425692.4032022752217017
 20
518286.4508938532089815
 30
0.0
  0
SEQEND
  5
872
  8
SITES
  0
POLYLINE
  5
457
  8
SITES
 66
     1
 10
0.0
 20
0.0
 30
0.0
 70
     1
  0
VERTEX
  5
873
  8
SITES
 10
428192.3381633496028371
 20
518320.7239661767962389
 30
0.0
  0
VERTEX
  5
874
  8
SITES
 10
428195.9053475473774597
 20
518314.9785308603895828
 30
0.0
  0
VERTEX
  5
875
  8
SITES
 10
428193.0081444962997921
 20
518304.951178812305443
 30
0.0
  0
VERTEX
  5
876
  8
SITES
 10
428185.8140074951807037
 20
518296.3703687787055969
 30
0.0
  0
VERTEX
  5
877
  8
SITES
 10
428173.6041850988985971
 20
518288.5212688319734298
 30
0.0
  0
VERTEX
  5
878
  8
SITES
 10
428167.1546156298718415
 20
518289.2572975652874447
 30
0.0
  0
VERTEX
  5
879
  8
SITES
 10
428161.4347961466992274
 20
518294.2922195324790664
 30
0.0
  0
VERTEX
  5
87A
  8
SITES
 10
428168.6566074750153348
 20
518312.1921265858109109
 30
0.0
  0
VERTEX
  5
87B
  8
SITES
 10
428173.6873098424985074
 20
518316.4783622117247432
 30
0.0
  0
VERTEX
  5
87C
  8
SITES
 10
428185.8865338122122921
 20
518320.7432023140718229
 30
0.0
  0
SEQEND
  5
87D
  8
SITES
  0
POLYLINE
  5
458
  8
SITES
 66
     1
 10
0.0
 20
0.0
 30
0.0
 70
     1
  0
VERTEX
  5
87E
  8
SITES
 10
428130.7169159103068523
 20
518330.2263862317777239
 30
0.0
  0
VERTEX
  5
87F
  8
SITES
 10
428130.697679863718804
 20
518323.7747576112160459
 30
0.0
  0
VERTEX
  5
880
  8
SITES
 10
428125.6541206352994777
 20
518315.187469927710481
 30
0.0
  0
VERTEX
  5
881
  8
SITES
 10
428112.7082719542086124
 20
518300.8889019069029018
 30
0.0
  0
VERTEX
  5
882
  8
SITES
 10
428105.5419114939286374
 20
518301.6269900504266843
 30
0.0
  0
VERTEX
  5
883
  8
SITES
 10
428093.3810627129278146
 20
518310.2654072769801132
 30
0.0
  0
VERTEX
  5
884
  8
SITES
 10
428093.3959798314026557
 20
518315.2833512179786339
 30
0.0
  0
VERTEX
  5
885
  8
SITES
 10
428112.7977744310046546
 20
518330.9965670345118269
 30
0.0
  0
VERTEX
  5
886
  8
SITES
 10
428127.1454129954217933
 20
518334.5381362697225995
 30
0.0
  0
SEQEND
  5
887
  8
SITES
  0
POLYLINE
  5
459
  8
SITES
 66
     1
 10
0.0
 20
0.0
 30
0.0
 70
     1
  0
VERTEX
  5
888
  8
SITES
 10
425833.8608959069242701
 20
518365.6022127905162051
 30
0.0
  0
VERTEX
  5
889
  8
SITES
 10
425849.6082759210839868
 20
518357.6698380598099902
 30
0.0
  0
VERTEX
  5
88A
  8
SITES
 10
425857.472448447602801
 20
518350.4778048436273821
 30
0.0
  0
VERTEX
  5
88B
  8
SITES
 10
425862.4584717858233489
 20
518339.7100694141117856
 30
0.0
  0
VERTEX
  5
88C
  8
SITES
 10
425863.8559361940715462
 20
518327.5192553492961451
 30
0.0
  0
VERTEX
  5
88D
  8
SITES
 10
425863.1049960210220888
 20
518316.0516078359214589
 30
0.0
  0
VERTEX
  5
88E
  8
SITES
 10
425837.2831143977819011
 20
518311.1103353964863345
 30
0.0
  0
VERTEX
  5
88F
  8
SITES
 10
425815.0861046714126132
 20
518319.7787352186860517
 30
0.0
  0
VERTEX
  5
890
  8
SITES
 10
425802.9571179409977049
 20
518339.1701186164864339
 30
0.0
  0
VERTEX
  5
891
  8
SITES
 10
425805.8671587493736297
 20
518353.4987374541233294
 30
0.0
  0
VERTEX
  5
892
  8
SITES
 10
425808.7538450583815575
 20
518359.9419902805821039
 30
0.0
  0
VERTEX
  5
893
  8
SITES
 10
425820.2470045653171837
 20
518367.7933056692127138
 30
0.0
  0
SEQEND
  5
894
  8
SITES
  0
POLYLINE
  5
45A
  8
SITES
 66
     1
 10
0.0
 20
0.0
 30
0.0
 70
     1
  0
VERTEX
  5
895
  8
SITES
 10
424985.0970902788103558
 20
518367.4095832930179313
 30
0.0
  0
VERTEX
  5
896
  8
SITES
 10
424998.6961368456250057
 20
518360.2004907039809041
 30
0.0
  0
VERTEX
  5
897
  8
SITES
 10
425007.9641331140883267
 20
518342.9681447171024047
 30
0.0
  0
VERTEX
  5
898
  8
SITES
 10
425006.4813924701884389
 20
518326.4845767403021455
 30
0.0
  0
VERTEX
  5
899
  8
SITES
 10
425002.877925083914306
 20
518320.0434967636829242
 30
0.0
  0
VERTEX
  5
89A
  8
SITES
 10
424986.3752222536713816
 20
518315.0744608219247311
 30
0.0
  0
VERTEX
  5
89B
  8
SITES
 10
424971.3232687446288764
 20
518315.8360967793269083
 30
0.0
  0
VERTEX
  5
89C
  8
SITES
 10
424959.1578965074149892
 20
518323.0409713014960289
 30
0.0
  0
VERTEX
  5
89D
  8
SITES
 10
424952.014847464277409
 20
518331.6646016796003096
 30
0.0
  0
VERTEX
  5
89E
  8
SITES
 10
424947.0608271574019454
 20
518353.1854064592043869
 30
0.0
  0
VERTEX
  5
89F
  8
SITES
 10
424956.4204779893043451
 20
518366.7780733578256331
 30
0.0
  0
VERTEX
  5
8A0
  8
SITES
 10
424964.3144649624009617
 20
518369.6220650520990603
 30
0.0
  0
SEQEND
  5
8A1
  8
SITES
  0
POLYLINE
  5
45B
  8
SITES
 66
     1
 10
0.0
 20
0.0
 30
0.0
 70
     1
  0
VERTEX
  5
8A2
  8
SITES
 10
427516.2325891142245382
 20
518382.7563257453148253
 30
0.0
  0
VERTEX
  5
8A3
  8
SITES
 10
427522.5085056711104698
 20
518371.8414401030750014
 30
0.0
  0
VERTEX
  5
8A4
  8
SITES
 10
427521.3274685515207238
 20
518360.3751800457248464
 30
0.0
  0
VERTEX
  5
8A5
  8
SITES
 10
427517.8729311834904365
 20
518355.7976234522066079
 30
0.0
  0
VERTEX
  5
8A6
  8
SITES
 10
427511.5560729462886229
 20
518352.9489831934915856
 30
0.0
  0
VERTEX
  5
8A7
  8
SITES
 10
427493.7730554229929112
 20
518351.2813806236954406
 30
0.0
  0
VERTEX
  5
8A8
  8
SITES
 10
427477.7395258207106963
 20
518359.3579113151063211
 30
0.0
  0
VERTEX
  5
8A9
  8
SITES
 10
427473.7455481275101192
 20
518366.2515567286172882
 30
0.0
  0
VERTEX
  5
8AA
  8
SITES
 10
427473.7745568742975593
 20
518376.0007325676269829
 30
0.0
  0
VERTEX
  5
8AB
  8
SITES
 10
427479.5316020516911522
 20
518383.438962125685066
 30
0.0
  0
VERTEX
  5
8AC
  8
SITES
 10
427485.2817570957122371
 20
518388.5832209956133738
 30
0.0
  0
VERTEX
  5
8AD
  8
SITES
 10
427502.4964240089175291
 20
518391.9729510006145574
 30
0.0
  0
SEQEND
  5
8AE
  8
SITES
  0
POLYLINE
  5
45C
  8
SITES
 66
     1
 10
0.0
 20
0.0
 30
0.0
 70
     1
  0
VERTEX
  5
8AF
  8
SITES
 10
425736.49827830522554
 20
518409.6205464361119084
 30
0.0
  0
VERTEX
  5
8B0
  8
SITES
 10
425742.9243554449058138
 20
518400.9990594502887689
 30
0.0
  0
VERTEX
  5
8B1
  8
SITES
 10
425745.7555968236993067
 20
518388.8039306090795435
 30
0.0
  0
VERTEX
  5
8B2
  8
SITES
 10
425742.8561549407895654
 20
518378.0595522627118044
 30
0.0
  0
VERTEX
  5
8B3
  8
SITES
 10
425739.2612192679080181
 20
518374.4859107456868514
 30
0.0
  0
VERTEX
  5
8B4
  8
SITES
 10
425727.7765999478870071
 20
518369.5020475490018725
 30
0.0
  0
VERTEX
  5
8B5
  8
SITES
 10
425715.5835311231785454
 20
518367.38769466499798
 30
0.0
  0
VERTEX
  5
8B6
  8
SITES
 10
425701.9696438353857957
 20
518369.5787868021870963
 30
0.0
  0
VERTEX
  5
8B7
  8
SITES
 10
425687.6517258657258935
 20
518376.0731640061130747
 30
0.0
  0
VERTEX
  5
8B8
  8
SITES
 10
425681.2297691165003926
 20
518386.1283252536086366
 30
0.0
  0
VERTEX
  5
8B9
  8
SITES
 10
425687.0137357143103145
 20
518402.5990655189962126
 30
0.0
  0
VERTEX
  5
8BA
  8
SITES
 10
425700.6617724655079655
 20
518411.8776770780095831
 30
0.0
  0
VERTEX
  5
8BB
  8
SITES
 10
425709.9851307208882645
 20
518413.2836807947023772
 30
0.0
  0
VERTEX
  5
8BC
  8
SITES
 10
425724.3287621845956892
 20
518415.3916570107103325
 30
0.0
  0
SEQEND
  5
8BD
  8
SITES
  0
POLYLINE
  5
45D
  8
SITES
 66
     1
 10
0.0
 20
0.0
 30
0.0
 70
     1
  0
VERTEX
  5
8BE
  8
SITES
 10
427348.7389842636184767
 20
518416.2949572812067345
 30
0.0
  0
VERTEX
  5
8BF
  8
SITES
 10
427355.1629280589986593
 20
518406.9566443779040128
 30
0.0
  0
VERTEX
  5
8C0
  8
SITES
 10
427358.702433580881916
 20
518391.8921435049851425
 30
0.0
  0
VERTEX
  5
8C1
  8
SITES
 10
427354.3821547364932485
 20
518385.4532841931795701
 30
0.0
  0
VERTEX
  5
8C2
  8
SITES
 10
427350.0746326245134696
 20
518383.3154688925715163
 30
0.0
  0
VERTEX
  5
8C3
  8
SITES
 10
427337.896629681577906
 20
518386.2191417787107639
 30
0.0
  0
VERTEX
  5
8C4
  8
SITES
 10
427327.1524083021795377
 20
518389.1184957675868645
 30
0.0
  0
VERTEX
  5
8C5
  8
SITES
 10
427321.4666500861058012
 20
518405.6231548612122424
 30
0.0
  0
VERTEX
  5
8C6
  8
SITES
 10
427319.3395316558890045
 20
518413.5149295172886923
 30
0.0
  0
VERTEX
  5
8C7
  8
SITES
 10
427327.9631126095191576
 20
518420.6578230346203782
 30
0.0
  0
VERTEX
  5
8C8
  8
SITES
 10
427340.1537718155886978
 20
518422.0552948453114368
 30
0.0
  0
SEQEND
  5
8C9
  8
SITES
  0
POLYLINE
  5
45E
  8
SITES
 66
     1
 10
0.0
 20
0.0
 30
0.0
 70
     1
  0
VERTEX
  5
8CA
  8
SITES
 10
425003.1543718570028432
 20
518369.7072822158806957
 30
0.0
  0
VERTEX
  5
8CB
  8
SITES
 10
425006.7280066614039242
 20
518366.1123531886842102
 30
0.0
  0
VERTEX
  5
8CC
  8
SITES
 10
425007.4235988822183572
 20
518358.9415299937827513
 30
0.0
  0
VERTEX
  5
8CD
  8
SITES
 10
424987.2533454893855378
 20
518326.0256215945119038
 30
0.0
  0
VERTEX
  5
8CE
  8
SITES
 10
424980.7866519956151024
 20
518321.0267525800736621
 30
0.0
  0
VERTEX
  5
8CF
  8
SITES
 10
424968.599984378204681
 20
518321.0630639218725264
 30
0.0
  0
VERTEX
  5
8D0
  8
SITES
 10
424962.1696024668053724
 20
518328.2508625229820609
 30
0.0
  0
VERTEX
  5
8D1
  8
SITES
 10
424960.0445573349134065
 20
518336.8595765691716224
 30
0.0
  0
VERTEX
  5
8D2
  8
SITES
 10
424962.1994351980974898
 20
518338.2868708479218185
 30
0.0
  0
VERTEX
  5
8D3
  8
SITES
 10
424977.3217500954051502
 20
518361.1816848242888227
 30
0.0
  0
VERTEX
  5
8D4
  8
SITES
 10
424986.6665854274760932
 20
518369.756348600727506
 30
0.0
  0
VERTEX
  5
8D5
  8
SITES
 10
424997.4280184642993845
 20
518372.5918029663152993
 30
0.0
  0
SEQEND
  5
8D6
  8
SITES
  0
POLYLINE
  5
45F
  8
SITES
 66
     1
 10
0.0
 20
0.0
 30
0.0
 70
     1
  0
VERTEX
  5
8D7
  8
SITES
 10
425408.4916015192284249
 20
518446.4838251182809472
 30
0.0
  0
VERTEX
  5
8D8
  8
SITES
 10
425410.6101736613200046
 20
518435.7244404542725533
 30
0.0
  0
VERTEX
  5
8D9
  8
SITES
 10
425401.2163649353897199
 20
518410.6620625770883635
 30
0.0
  0
VERTEX
  5
8DA
  8
SITES
 10
425398.3382197332102805
 20
518407.0863643306074664
 30
0.0
  0
VERTEX
  5
8DB
  8
SITES
 10
425387.5767760180169716
 20
518404.2509062194731086
 30
0.0
  0
VERTEX
  5
8DC
  8
SITES
 10
425378.2597035177750513
 20
518404.9954648676211946
 30
0.0
  0
VERTEX
  5
8DD
  8
SITES
 10
425373.2694656524108723
 20
518414.3295121854753233
 30
0.0
  0
VERTEX
  5
8DE
  8
SITES
 10
425372.5803497587912716
 20
518423.6509032077738084
 30
0.0
  0
VERTEX
  5
8DF
  8
SITES
 10
425380.5190900570014492
 20
518441.548927418072708
 30
0.0
  0
VERTEX
  5
8E0
  8
SITES
 10
425391.3018261475954205
 20
518451.5529573702951893
 30
0.0
  0
VERTEX
  5
8E1
  8
SITES
 10
425399.9083897813106887
 20
518452.9611203108215705
 30
0.0
  0
SEQEND
  5
8E2
  8
SITES
  0
POLYLINE
  5
460
  8
SITES
 66
     1
 10
0.0
 20
0.0
 30
0.0
 70
     1
  0
VERTEX
  5
8E3
  8
SITES
 10
427570.7156538226990961
 20
518525.4433337491936982
 30
0.0
  0
VERTEX
  5
8E4
  8
SITES
 10
427571.4218489364720881
 20
518521.8569193397997878
 30
0.0
  0
VERTEX
  5
8E5
  8
SITES
 10
427567.8183609739062376
 20
518515.4158958838088438
 30
0.0
  0
VERTEX
  5
8E6
  8
SITES
 10
427564.9466783824027516
 20
518513.9907505923183635
 30
0.0
  0
VERTEX
  5
8E7
  8
SITES
 10
427555.6382910085958429
 20
518517.6027753829839639
 30
0.0
  0
VERTEX
  5
8E8
  8
SITES
 10
427554.9470103408093564
 20
518526.2071267932187766
 30
0.0
  0
VERTEX
  5
8E9
  8
SITES
 10
427557.8208519277977757
 20
518528.3491631710785441
 30
0.0
  0
SEQEND
  5
8EA
  8
SITES
  0
POLYLINE
  5
461
  8
SITES
 66
     1
 10
0.0
 20
0.0
 30
0.0
 70
     1
  0
VERTEX
  5
8EB
  8
SITES
 10
425415.7762754608993419
 20
518555.3813357857870869
 30
0.0
  0
VERTEX
  5
8EC
  8
SITES
 10
425424.3465348414028995
 20
518544.6028194699902087
 30
0.0
  0
VERTEX
  5
8ED
  8
SITES
 10
425427.8967247426044196
 20
518533.1224294375861064
 30
0.0
  0
VERTEX
  5
8EE
  8
SITES
 10
425424.2805019193910994
 20
518522.3802178432815708
 30
0.0
  0
VERTEX
  5
8EF
  8
SITES
 10
425410.6430732202716172
 20
518516.6858444677782245
 30
0.0
  0
VERTEX
  5
8F0
  8
SITES
 10
425389.1330417533172294
 20
518515.3161448098253459
 30
0.0
  0
VERTEX
  5
8F1
  8
SITES
 10
425371.2264791819034144
 20
518520.3874330429243855
 30
0.0
  0
VERTEX
  5
8F2
  8
SITES
 10
425366.2233838745160028
 20
518525.4203563746996224
 30
0.0
  0
VERTEX
  5
8F3
  8
SITES
 10
425366.2468342977226712
 20
518533.3058138709748164
 30
0.0
  0
VERTEX
  5
8F4
  8
SITES
 10
425369.8695334224030375
 20
518546.1986851969268173
 30
0.0
  0
VERTEX
  5
8F5
  8
SITES
 10
425384.2408200884237885
 20
518557.6257964860997163
 30
0.0
  0
VERTEX
  5
8F6
  8
SITES
 10
425404.3171769598848186
 20
518558.9997166717075743
 30
0.0
  0
SEQEND
  5
8F7
  8
SITES
  0
POLYLINE
  5
462
  8
SITES
 66
     1
 10
0.0
 20
0.0
 30
0.0
 70
     1
  0
VERTEX
  5
8F8
  8
SITES
 10
429494.0297650787979364
 20
518572.6387567655183375
 30
0.0
  0
VERTEX
  5
8F9
  8
SITES
 10
429494.6975988001795486
 20
518556.149223180313129
 30
0.0
  0
VERTEX
  5
8FA
  8
SITES
 10
429492.5235641432227567
 20
518548.2703607126022689
 30
0.0
  0
VERTEX
  5
8FB
  8
SITES
 10
429481.732580553914886
 20
518535.3991473310161382
 30
0.0
  0
VERTEX
  5
8FC
  8
SITES
 10
429466.6383706646738574
 20
518521.8238955404958688
 30
0.0
  0
VERTEX
  5
8FD
  8
SITES
 10
429445.1395142361870967
 20
518524.0384560963721015
 30
0.0
  0
VERTEX
  5
8FE
  8
SITES
 10
429442.9974678867729381
 20
518526.9122115477803163
 30
0.0
  0
VERTEX
  5
8FF
  8
SITES
 10
429441.59792656468926
 20
518538.3859411986195482
 30
0.0
  0
VERTEX
  5
900
  8
SITES
 10
429448.8068958162912168
 20
518551.9846438562963158
 30
0.0
  0
VERTEX
  5
901
  8
SITES
 10
429472.5202112114056945
 20
518571.2690422086161561
 30
0.0
  0
VERTEX
  5
902
  8
SITES
 10
429476.8212783046183176
 20
518571.256187359278556
 30
0.0
  0
VERTEX
  5
903
  8
SITES
 10
429480.4161465791985393
 20
518574.8297641641111113
 30
0.0
  0
VERTEX
  5
904
  8
SITES
 10
429487.5889099760097452
 20
518576.242161845206283
 30
0.0
  0
SEQEND
  5
905
  8
SITES
  0
POLYLINE
  5
463
  8
SITES
 66
     1
 10
0.0
 20
0.0
 30
0.0
 70
     1
  0
VERTEX
  5
906
  8
SITES
 10
427656.9190151387010701
 20
518586.1197835872881114
 30
0.0
  0
VERTEX
  5
907
  8
SITES
 10
427654.7450915892259218
 20
518578.2407577584963292
 30
0.0
  0
VERTEX
  5
908
  8
SITES
 10
427646.8362383233034052
 20
518570.3789046342717484
 30
0.0
  0
VERTEX
  5
909
  8
SITES
 10
427642.5330320852808654
 20
518569.6748681258177385
 30
0.0
  0
VERTEX
  5
90A
  8
SITES
 10
427642.5287140047876164
 20
518568.2410857531940565
 30
0.0
  0
VERTEX
  5
90B
  8
SITES
 10
427634.6454702279879712
 20
518568.9814270947827026
 30
0.0
  0
VERTEX
  5
90C
  8
SITES
 10
427628.9234955245046876
 20
518573.299646912724711
 30
0.0
  0
VERTEX
  5
90D
  8
SITES
 10
427626.0816401242045686
 20
518581.9103770740912296
 30
0.0
  0
VERTEX
  5
90E
  8
SITES
 10
427624.6479578813887201
 20
518581.9145953058032319
 30
0.0
  0
VERTEX
  5
90F
  8
SITES
 10
427627.5345541335991584
 20
518588.357779297104571
 30
0.0
  0
VERTEX
  5
910
  8
SITES
 10
427641.8822727564838715
 20
518591.8993537754286081
 30
0.0
  0
VERTEX
  5
911
  8
SITES
 10
427647.6213203985244036
 20
518593.3159635987249203
 30
0.0
  0
SEQEND
  5
912
  8
SITES
  0
POLYLINE
  5
464
  8
SITES
 66
     1
 10
0.0
 20
0.0
 30
0.0
 70
     1
  0
VERTEX
  5
913
  8
SITES
 10
425462.4617222797241993
 20
518585.3507588396896608
 30
0.0
  0
VERTEX
  5
914
  8
SITES
 10
425478.2070328252739273
 20
518576.701613156881649
 30
0.0
  0
VERTEX
  5
915
  8
SITES
 10
425481.7721377158886753
 20
518570.2391326914075762
 30
0.0
  0
VERTEX
  5
916
  8
SITES
 10
425480.2999999268213287
 20
518557.3399801551131532
 30
0.0
  0
VERTEX
  5
917
  8
SITES
 10
425469.5172640536911786
 20
518547.3359450686257333
 30
0.0
  0
VERTEX
  5
918
  8
SITES
 10
425454.4461596363107674
 20
518541.6458884233143181
 30
0.0
  0
VERTEX
  5
919
  8
SITES
 10
425436.5332164276042022
 20
518544.5666148146265186
 30
0.0
  0
VERTEX
  5
91A
  8
SITES
 10
425427.2395925277960487
 20
518553.1966289721895009
 30
0.0
  0
VERTEX
  5
91B
  8
SITES
 10
425421.5346224007080309
 20
518563.2497217758209445
 30
0.0
  0
VERTEX
  5
91C
  8
SITES
 10
425424.4382750421063974
 20
518575.4277670746087097
 30
0.0
  0
VERTEX
  5
91D
  8
SITES
 10
425434.4999036384979263
 20
518584.0002864585840143
 30
0.0
  0
VERTEX
  5
91E
  8
SITES
 10
425448.1266371589736082
 20
518586.1103265039855614
 30
0.0
  0
SEQEND
  5
91F
  8
SITES
  0
POLYLINE
  5
465
  8
SITES
 66
     1
 10
0.0
 20
0.0
 30
0.0
 70
     1
  0
VERTEX
  5
920
  8
SITES
 10
427653.0218868713127449
 20
518635.7259741335874423
 30
0.0
  0
VERTEX
  5
921
  8
SITES
 10
427655.3573614745982923
 20
518634.5498742937925272
 30
0.0
  0
VERTEX
  5
922
  8
SITES
 10
427655.3486980897141621
 20
518631.6271487838821486
 30
0.0
  0
VERTEX
  5
923
  8
SITES
 10
427655.9176889599184506
 20
518626.3645502027939074
 30
0.0
  0
VERTEX
  5
924
  8
SITES
 10
427654.7378228188026696
 20
518622.8608044267748483
 30
0.0
  0
VERTEX
  5
925
  8
SITES
 10
427653.5527585800155066
 20
518617.6034033873002045
 30
0.0
  0
VERTEX
  5
926
  8
SITES
 10
427650.6186375310062431
 20
518614.1048549572005868
 30
0.0
  0
VERTEX
  5
927
  8
SITES
 10
427649.449167622893583
 20
518614.1083198674023151
 30
0.0
  0
VERTEX
  5
928
  8
SITES
 10
427647.1119605952990241
 20
518614.6997348174918443
 30
0.0
  0
VERTEX
  5
929
  8
SITES
 10
427644.7817841047071852
 20
518617.6294901237124577
 30
0.0
  0
VERTEX
  5
92A
  8
SITES
 10
427644.7939130084123462
 20
518621.7212857421254739
 30
0.0
  0
VERTEX
  5
92B
  8
SITES
 10
427645.3994902070262469
 20
518628.7340744279208593
 30
0.0
  0
VERTEX
  5
92C
  8
SITES
 10
427645.9998692905064672
 20
518633.9932078833808191
 30
0.0
  0
VERTEX
  5
92D
  8
SITES
 10
427649.5134771296870895
 20
518635.7363686683238484
 30
0.0
  0
SEQEND
  5
92E
  8
SITES
  0
POLYLINE
  5
466
  8
SITES
 66
     1
 10
0.0
 20
0.0
 30
0.0
 70
     1
  0
VERTEX
  5
92F
  8
SITES
 10
429604.6368483860860579
 20
518643.9945221287198365
 30
0.0
  0
VERTEX
  5
930
  8
SITES
 10
429614.6427484495798126
 20
518633.9288690974935889
 30
0.0
  0
VERTEX
  5
931
  8
SITES
 10
429616.0466113371076062
 20
518623.8887244120123796
 30
0.0
  0
VERTEX
  5
932
  8
SITES
 10
429612.4133787546888925
 20
518607.4120402839034796
 30
0.0
  0
VERTEX
  5
933
  8
SITES
 10
429605.2171630631200969
 20
518598.1143994044978172
 30
0.0
  0
VERTEX
  5
934
  8
SITES
 10
429580.8360060520935804
 20
518595.3196301189018413
 30
0.0
  0
VERTEX
  5
935
  8
SITES
 10
429567.9563518929062411
 20
518603.2432356397039257
 30
0.0
  0
VERTEX
  5
936
  8
SITES
 10
429562.9703754779184237
 20
518614.0108691906789318
 30
0.0
  0
VERTEX
  5
937
  8
SITES
 10
429562.2813486394006759
 20
518623.3319590559112839
 30
0.0
  0
VERTEX
  5
938
  8
SITES
 10
429570.2263432356994599
 20
518643.3800605472060852
 30
0.0
  0
VERTEX
  5
939
  8
SITES
 10
429578.1286570352967829
 20
518649.0912689057877287
 30
0.0
  0
VERTEX
  5
93A
  8
SITES
 10
429586.7328524435870349
 20
518649.7825553867733106
 30
0.0
  0
SEQEND
  5
93B
  8
SITES
  0
POLYLINE
  5
467
  8
SITES
 66
     1
 10
0.0
 20
0.0
 30
0.0
 70
     1
  0
VERTEX
  5
93C
  8
SITES
 10
429198.7311222846037708
 20
518552.663878726598341
 30
0.0
  0
VERTEX
  5
93D
  8
SITES
 10
429208.0223749639117159
 20
518543.3171871224767528
 30
0.0
  0
VERTEX
  5
93E
  8
SITES
 10
429208.7029624183778651
 20
518531.1287295065121725
 30
0.0
  0
VERTEX
  5
93F
  8
SITES
 10
429204.3677507266984321
 20
518519.6719805516768247
 30
0.0
  0
VERTEX
  5
940
  8
SITES
 10
429198.6117061722907238
 20
518512.5206144360126927
 30
0.0
  0
VERTEX
  5
941
  8
SITES
 10
429193.5959074170095846
 20
518513.2524231282877736
 30
0.0
  0
VERTEX
  5
942
  8
SITES
 10
429187.1571169652743265
 20
518517.5727202596026473
 30
0.0
  0
VERTEX
  5
943
  8
SITES
 10
429185.7405029609217308
 20
518523.311690645175986
 30
0.0
  0
VERTEX
  5
944
  8
SITES
 10
429182.1861621583229862
 20
518533.3582024599891156
 30
0.0
  0
VERTEX
  5
945
  8
SITES
 10
429180.7717070641228929
 20
518539.8140666920226067
 30
0.0
  0
VERTEX
  5
946
  8
SITES
 10
429182.2501380111789331
 20
518554.863521731516812
 30
0.0
  0
VERTEX
  5
947
  8
SITES
 10
429189.4271145733073354
 20
518557.7095060084247962
 30
0.0
  0
SEQEND
  5
948
  8
SITES
  0
POLYLINE
  5
468
  8
SITES
 66
     1
 10
0.0
 20
0.0
 30
0.0
 70
     1
  0
VERTEX
  5
949
  8
SITES
 10
427587.6426135810906999
 20
518673.0656351015204564
 30
0.0
  0
VERTEX
  5
94A
  8
SITES
 10
427594.0558724885922857
 20
518660.143165084591601
 30
0.0
  0
VERTEX
  5
94B
  8
SITES
 10
427594.0110344390850514
 20
518645.0892520807101391
 30
0.0
  0
VERTEX
  5
94C
  8
SITES
 10
427591.1308162924833596
 20
518640.7966414339025505
 30
0.0
  0
VERTEX
  5
94D
  8
SITES
 10
427586.8276107797282748
 20
518640.0926042547216639
 30
0.0
  0
VERTEX
  5
94E
  8
SITES
 10
427578.2339537544758059
 20
518642.9856762451818213
 30
0.0
  0
VERTEX
  5
94F
  8
SITES
 10
427573.9498792270896956
 20
518648.7332585211261176
 30
0.0
  0
VERTEX
  5
950
  8
SITES
 10
427572.5374867907958105
 20
518655.9059870063210838
 30
0.0
  0
VERTEX
  5
951
  8
SITES
 10
427568.2513530636788346
 20
518660.9367780692991801
 30
0.0
  0
VERTEX
  5
952
  8
SITES
 10
427566.1200103149749339
 20
518667.394874275487382
 30
0.0
  0
VERTEX
  5
953
  8
SITES
 10
427572.5908601589035243
 20
518673.8272634539753199
 30
0.0
  0
VERTEX
  5
954
  8
SITES
 10
427581.9184795652981848
 20
518676.6669618256855756
 30
0.0
  0
SEQEND
  5
955
  8
SITES
  0
POLYLINE
  5
469
  8
SITES
 66
     1
 10
0.0
 20
0.0
 30
0.0
 70
     1
  0
VERTEX
  5
956
  8
SITES
 10
426275.6128528806730174
 20
518661.7862647749134339
 30
0.0
  0
VERTEX
  5
957
  8
SITES
 10
426296.3590471288189292
 20
518647.3872817034134641
 30
0.0
  0
VERTEX
  5
958
  8
SITES
 10
426303.4700426566996612
 20
518628.0108960822108202
 30
0.0
  0
VERTEX
  5
959
  8
SITES
 10
426299.1326075128163211
 20
518615.8371412336127833
 30
0.0
  0
VERTEX
  5
95A
  8
SITES
 10
426287.6266848064842634
 20
518603.6846769214025699
 30
0.0
  0
VERTEX
  5
95B
  8
SITES
 10
426276.1420523737906478
 20
518598.7008002456277609
 30
0.0
  0
VERTEX
  5
95C
  8
SITES
 10
426268.2608947771950625
 20
518600.1580268233083189
 30
0.0
  0
VERTEX
  5
95D
  8
SITES
 10
426256.8146252523874864
 20
518608.0775464301113971
 30
0.0
  0
VERTEX
  5
95E
  8
SITES
 10
426253.2580490289255977
 20
518617.4072940238984302
 30
0.0
  0
VERTEX
  5
95F
  8
SITES
 10
426249.6994134981068783
 20
518626.0202528468798846
 30
0.0
  0
VERTEX
  5
960
  8
SITES
 10
426246.8575665400130674
 20
518634.6310524889850058
 30
0.0
  0
VERTEX
  5
961
  8
SITES
 10
426246.9087811966892332
 20
518651.8355800827848725
 30
0.0
  0
VERTEX
  5
962
  8
SITES
 10
426249.0742595478077419
 20
518656.8472238060785457
 30
0.0
  0
VERTEX
  5
963
  8
SITES
 10
426267.7338540325290523
 20
518663.9602788637275808
 30
0.0
  0
SEQEND
  5
964
  8
SITES
  0
POLYLINE
  5
46A
  8
SITES
 66
     1
 10
0.0
 20
0.0
 30
0.0
 70
     1
  0
VERTEX
  5
965
  8
SITES
 10
428816.0512033177074045
 20
518592.5128150989185087
 30
0.0
  0
VERTEX
  5
966
  8
SITES
 10
428821.7561224160017446
 20
518582.4598358917864971
 30
0.0
  0
VERTEX
  5
967
  8
SITES
 10
428820.2775940191932023
 20
518567.4103943142108619
 30
0.0
  0
VERTEX
  5
968
  8
SITES
 10
428808.0975853044074029
 20
518569.5971795758814551
 30
0.0
  0
VERTEX
  5
969
  8
SITES
 10
428798.8191958931856789
 20
518583.2450207571964711
 30
0.0
  0
VERTEX
  5
96A
  8
SITES
 10
428797.4089595556724817
 20
518591.1345650512957945
 30
0.0
  0
VERTEX
  5
96B
  8
SITES
 10
428802.4460444523137994
 20
518597.5711909494129941
 30
0.0
  0
VERTEX
  5
96C
  8
SITES
 10
428807.470374645316042
 20
518599.7068572071148083
 30
0.0
  0
SEQEND
  5
96D
  8
SITES
  0
POLYLINE
  5
46B
  8
SITES
 66
     1
 10
0.0
 20
0.0
 30
0.0
 70
     1
  0
VERTEX
  5
96E
  8
SITES
 10
427255.1851759151904844
 20
518776.4360146539984271
 30
0.0
  0
VERTEX
  5
96F
  8
SITES
 10
427265.9124282912816852
 20
518767.8018478284939192
 30
0.0
  0
VERTEX
  5
970
  8
SITES
 10
427269.4519467927748337
 20
518752.7373535013175569
 30
0.0
  0
VERTEX
  5
971
  8
SITES
 10
427271.5513074602931738
 20
518735.5265049426234327
 30
0.0
  0
VERTEX
  5
972
  8
SITES
 10
427272.9466300256899558
 20
518722.6187582346028648
 30
0.0
  0
VERTEX
  5
973
  8
SITES
 10
427267.8944551149033941
 20
518711.1641217828146182
 30
0.0
  0
VERTEX
  5
974
  8
SITES
 10
427259.2666628984152339
 20
518702.5875420505763032
 30
0.0
  0
VERTEX
  5
975
  8
SITES
 10
427244.1894155169720761
 20
518694.7468832122976892
 30
0.0
  0
VERTEX
  5
976
  8
SITES
 10
427233.4407764414791018
 20
518696.2127468960243277
 30
0.0
  0
VERTEX
  5
977
  8
SITES
 10
427227.0817927381722257
 20
518704.397961579321418
 30
0.0
  0
VERTEX
  5
978
  8
SITES
 10
427225.0153146153897978
 20
518707.5679871453903615
 30
0.0
  0
VERTEX
  5
979
  8
SITES
 10
427221.6734041683957912
 20
518715.6541270349989645
 30
0.0
  0
VERTEX
  5
97A
  8
SITES
 10
427219.7566772805876099
 20
518725.645673016377259
 30
0.0
  0
VERTEX
  5
97B
  8
SITES
 10
427218.5235426846775226
 20
518742.1359698920277879
 30
0.0
  0
VERTEX
  5
97C
  8
SITES
 10
427230.0805985886836424
 20
518771.4928370845154859
 30
0.0
  0
VERTEX
  5
97D
  8
SITES
 10
427242.286264814727474
 20
518777.9081527878879569
 30
0.0
  0
SEQEND
  5
97E
  8
SITES
  0
POLYLINE
  5
46C
  8
SITES
 66
     1
 10
0.0
 20
0.0
 30
0.0
 70
     1
  0
VERTEX
  5
97F
  8
SITES
 10
425421.5814983968157321
 20
518819.8875804853742011
 30
0.0
  0
VERTEX
  5
980
  8
SITES
 10
425425.8697697577881627
 20
518815.5736058154143393
 30
0.0
  0
VERTEX
  5
981
  8
SITES
 10
425426.5674293299089186
 20
518809.1197627307847142
 30
0.0
  0
VERTEX
  5
982
  8
SITES
 10
425417.9331040687975474
 20
518798.3924589778762311
 30
0.0
  0
VERTEX
  5
983
  8
SITES
 10
425406.4420234392164275
 20
518791.2580259467940778
 30
0.0
  0
VERTEX
  5
984
  8
SITES
 10
425392.8089165189885534
 20
518786.9973178328946233
 30
0.0
  0
VERTEX
  5
985
  8
SITES
 10
425381.3434403800056316
 20
518788.4652305179042742
 30
0.0
  0
VERTEX
  5
986
  8
SITES
 10
425372.0477536204271019
 20
518796.3784507517120801
 30
0.0
  0
VERTEX
  5
987
  8
SITES
 10
425370.6310486971051432
 20
518802.1175644713221118
 30
0.0
  0
VERTEX
  5
988
  8
SITES
 10
425384.2855410210904665
 20
518813.546743885090109
 30
0.0
  0
VERTEX
  5
989
  8
SITES
 10
425409.3948170630028471
 20
518819.9238765864283778
 30
0.0
  0
SEQEND
  5
98A
  8
SITES
  0
POLYLINE
  5
46D
  8
SITES
 66
     1
 10
0.0
 20
0.0
 30
0.0
 70
     1
  0
VERTEX
  5
98B
  8
SITES
 10
426509.8198398994863965
 20
518833.1360501637100242
 30
0.0
  0
VERTEX
  5
98C
  8
SITES
 10
426519.1005435899132863
 20
518820.2048837015754543
 30
0.0
  0
VERTEX
  5
98D
  8
SITES
 10
426523.3632229223148897
 20
518807.2887270824285224
 30
0.0
  0
VERTEX
  5
98E
  8
SITES
 10
426522.6079777926788665
 20
518794.387481001787819
 30
0.0
  0
VERTEX
  5
98F
  8
SITES
 10
426516.8368669464252889
 20
518782.2180349677801132
 30
0.0
  0
VERTEX
  5
990
  8
SITES
 10
426510.3809473878936842
 20
518780.8034850553958677
 30
0.0
  0
VERTEX
  5
991
  8
SITES
 10
426494.622939033608418
 20
518785.1516109770163894
 30
0.0
  0
VERTEX
  5
992
  8
SITES
 10
426486.7545286522945389
 20
518790.9098692028201185
 30
0.0
  0
VERTEX
  5
993
  8
SITES
 10
426481.0474786814884283
 20
518800.2460966742946766
 30
0.0
  0
VERTEX
  5
994
  8
SITES
 10
426478.9438019025255926
 20
518816.0232322618248872
 30
0.0
  0
VERTEX
  5
995
  8
SITES
 10
426483.2705398041871376
 20
518824.6127494000829756
 30
0.0
  0
VERTEX
  5
996
  8
SITES
 10
426493.334248980099801
 20
518833.901987049728632
 30
0.0
  0
VERTEX
  5
997
  8
SITES
 10
426498.3565898344968446
 20
518835.3207551778759807
 30
0.0
  0
SEQEND
  5
998
  8
SITES
  0
POLYLINE
  5
46E
  8
SITES
 66
     1
 10
0.0
 20
0.0
 30
0.0
 70
     1
  0
VERTEX
  5
999
  8
SITES
 10
425042.1282420438947156
 20
518848.0198204510961659
 30
0.0
  0
VERTEX
  5
99A
  8
SITES
 10
425050.7178284160909243
 20
518843.6929991915239953
 30
0.0
  0
VERTEX
  5
99B
  8
SITES
 10
425061.4152030406985432
 20
518825.0225719090085477
 30
0.0
  0
VERTEX
  5
99C
  8
SITES
 10
425054.9293870414840057
 20
518813.5720154304872267
 30
0.0
  0
VERTEX
  5
99D
  8
SITES
 10
425045.5952525422908366
 20
518808.581771937024314
 30
0.0
  0
VERTEX
  5
99E
  8
SITES
 10
425035.5633594390819781
 20
518810.0453652702271938
 30
0.0
  0
VERTEX
  5
99F
  8
SITES
 10
425014.0938627492287196
 20
518822.2959926634212025
 30
0.0
  0
VERTEX
  5
9A0
  8
SITES
 10
425011.9560550203896128
 20
518826.6035868275212124
 30
0.0
  0
VERTEX
  5
9A1
  8
SITES
 10
425013.4303405763930641
 20
518840.2197115171002224
 30
0.0
  0
VERTEX
  5
9A2
  8
SITES
 10
425014.1599782818229869
 20
518844.5187713950872421
 30
0.0
  0
VERTEX
  5
9A3
  8
SITES
 10
425023.4920530280214734
 20
518848.7921290335943922
 30
0.0
  0
SEQEND
  5
9A4
  8
SITES
  0
POLYLINE
  5
46F
  8
SITES
 66
     1
 10
0.0
 20
0.0
 30
0.0
 70
     1
  0
VERTEX
  5
9A5
  8
SITES
 10
425328.0762451136251912
 20
518955.6535972246201709
 30
0.0
  0
VERTEX
  5
9A6
  8
SITES
 10
425339.5352453097002581
 20
518952.035128453921061
 30
0.0
  0
VERTEX
  5
9A7
  8
SITES
 10
425348.8288759178249165
 20
518943.4051255356753245
 30
0.0
  0
VERTEX
  5
9A8
  8
SITES
 10
425353.0958639922901057
 20
518931.9224828017759137
 30
0.0
  0
VERTEX
  5
9A9
  8
SITES
 10
425350.9111683156806976
 20
518920.4591655571130104
 30
0.0
  0
VERTEX
  5
9AA
  8
SITES
 10
425340.8579827506910078
 20
518914.7541871942812577
 30
0.0
  0
VERTEX
  5
9AB
  8
SITES
 10
425315.7594046767917462
 20
518911.9613843631232157
 30
0.0
  0
VERTEX
  5
9AC
  8
SITES
 10
425294.9939260801766068
 20
518919.9087350156041794
 30
0.0
  0
VERTEX
  5
9AD
  8
SITES
 10
425287.8509577413205989
 20
518928.5324621141771786
 30
0.0
  0
VERTEX
  5
9AE
  8
SITES
 10
425290.0378111529280432
 20
518940.7126645114040002
 30
0.0
  0
VERTEX
  5
9AF
  8
SITES
 10
425315.1726796485017985
 20
518955.692047415592242
 30
0.0
  0
SEQEND
  5
9B0
  8
SITES
  0
POLYLINE
  5
470
  8
SITES
 66
     1
 10
0.0
 20
0.0
 30
0.0
 70
     1
  0
VERTEX
  5
9B1
  8
SITES
 10
424904.015085649676621
 20
518929.4371604634798132
 30
0.0
  0
VERTEX
  5
9B2
  8
SITES
 10
424925.4483866089140065
 20
518904.9997761747799814
 30
0.0
  0
VERTEX
  5
9B3
  8
SITES
 10
424929.0071165531990118
 20
518896.386748926481232
 30
0.0
  0
VERTEX
  5
9B4
  8
SITES
 10
424928.9793564780266024
 20
518887.0676274570869282
 30
0.0
  0
VERTEX
  5
9B5
  8
SITES
 10
424923.227398673305288
 20
518881.3498051993083209
 30
0.0
  0
VERTEX
  5
9B6
  8
SITES
 10
424903.1488088822225109
 20
518879.258983812702354
 30
0.0
  0
VERTEX
  5
9B7
  8
SITES
 10
424893.1213360317051411
 20
518882.1562474283855408
 30
0.0
  0
VERTEX
  5
9B8
  8
SITES
 10
424880.9602725924924016
 20
518890.7948755385004915
 30
0.0
  0
VERTEX
  5
9B9
  8
SITES
 10
424873.1110183764249086
 20
518903.0050831632106565
 30
0.0
  0
VERTEX
  5
9BA
  8
SITES
 10
424870.2884006613167003
 20
518918.0677261644159444
 30
0.0
  0
VERTEX
  5
9BB
  8
SITES
 10
424877.4869798062136397
 20
518928.0824485342018306
 30
0.0
  0
VERTEX
  5
9BC
  8
SITES
 10
424886.1000058979261667
 20
518931.6410788294742815
 30
0.0
  0
SEQEND
  5
9BD
  8
SITES
  0
POLYLINE
  5
471
  8
SITES
 66
     1
 10
0.0
 20
0.0
 30
0.0
 70
     1
  0
VERTEX
  5
9BE
  8
SITES
 10
429327.7518017463735305
 20
518926.9119358357856981
 30
0.0
  0
VERTEX
  5
9BF
  8
SITES
 10
429329.8617726161028259
 20
518913.28556946630124
 30
0.0
  0
VERTEX
  5
9C0
  8
SITES
 10
429327.6856874537770636
 20
518904.6898141565034166
 30
0.0
  0
VERTEX
  5
9C1
  8
SITES
 10
429322.6570350693073124
 20
518901.1205526365083642
 30
0.0
  0
VERTEX
  5
9C2
  8
SITES
 10
429305.4421809363993816
 20
518897.5875867945724167
 30
0.0
  0
VERTEX
  5
9C3
  8
SITES
 10
429297.5590034514898434
 20
518898.3278250945149921
 30
0.0
  0
VERTEX
  5
9C4
  8
SITES
 10
429282.5351453638868406
 20
518908.4084729817113839
 30
0.0
  0
VERTEX
  5
9C5
  8
SITES
 10
429278.9722598277730867
 20
518915.5876072224928066
 30
0.0
  0
VERTEX
  5
9C6
  8
SITES
 10
429279.7040635595913045
 20
518920.6034078425145708
 30
0.0
  0
VERTEX
  5
9C7
  8
SITES
 10
429281.1591369744855911
 20
518927.7675325553282164
 30
0.0
  0
VERTEX
  5
9C8
  8
SITES
 10
429296.234199590922799
 20
518934.8911460121162236
 30
0.0
  0
VERTEX
  5
9C9
  8
SITES
 10
429306.2763938123243861
 20
518937.0118098047096282
 30
0.0
  0
SEQEND
  5
9CA
  8
SITES
  0
POLYLINE
  5
472
  8
SITES
 66
     1
 10
0.0
 20
0.0
 30
0.0
 70
     1
  0
VERTEX
  5
9CB
  8
SITES
 10
429597.8164223902276717
 20
518960.6784344884799793
 30
0.0
  0
VERTEX
  5
9CC
  8
SITES
 10
429601.3686192217282951
 20
518949.9151210582931526
 30
0.0
  0
VERTEX
  5
9CD
  8
SITES
 10
429600.6389736324199475
 20
518945.6162110472796485
 30
0.0
  0
VERTEX
  5
9CE
  8
SITES
 10
429594.1703531406237744
 20
518939.9006794887245633
 30
0.0
  0
VERTEX
  5
9CF
  8
SITES
 10
429584.847104799177032
 20
518938.4947503035073169
 30
0.0
  0
VERTEX
  5
9D0
  8
SITES
 10
429576.9639215370989405
 20
518939.2350882742903195
 30
0.0
  0
VERTEX
  5
9D1
  8
SITES
 10
429574.8198128535877913
 20
518941.3920478235813789
 30
0.0
  0
VERTEX
  5
9D2
  8
SITES
 10
429573.4331097599933855
 20
518957.1668481327942573
 30
0.0
  0
VERTEX
  5
9D3
  8
SITES
 10
429579.9060466398950666
 20
518964.3159692243207246
 30
0.0
  0
VERTEX
  5
9D4
  8
SITES
 10
429592.8113099701004103
 20
518964.9944119856809266
 30
0.0
  0
SEQEND
  5
9D5
  8
SITES
  0
POLYLINE
  5
473
  8
SITES
 66
     1
 10
0.0
 20
0.0
 30
0.0
 70
     1
  0
VERTEX
  5
9D6
  8
SITES
 10
428819.8845106220105663
 20
519033.9828790004248731
 30
0.0
  0
VERTEX
  5
9D7
  8
SITES
 10
428854.9929187471279874
 20
519028.1434755048248917
 30
0.0
  0
VERTEX
  5
9D8
  8
SITES
 10
428860.7126578076859005
 20
519023.108455142180901
 30
0.0
  0
VERTEX
  5
9D9
  8
SITES
 10
428864.2691664902959019
 20
519013.7788492364925332
 30
0.0
  0
VERTEX
  5
9DA
  8
SITES
 10
428864.2158077239873819
 20
518995.8577140048146248
 30
0.0
  0
VERTEX
  5
9DB
  8
SITES
 10
428854.1586165116750635
 20
518988.719097217079252
 30
0.0
  0
VERTEX
  5
9DC
  8
SITES
 10
428843.4015990553889424
 20
518987.3174860003055073
 30
0.0
  0
VERTEX
  5
9DD
  8
SITES
 10
428816.1786189955892041
 20
518993.133351095020771
 30
0.0
  0
VERTEX
  5
9DE
  8
SITES
 10
428806.183321429300122
 20
519006.7833409789018333
 30
0.0
  0
VERTEX
  5
9DF
  8
SITES
 10
428804.7859265638981014
 20
519018.9739438383840024
 30
0.0
  0
VERTEX
  5
9E0
  8
SITES
 10
428812.7160773649811745
 20
519034.0042619470041245
 30
0.0
  0
SEQEND
  5
9E1
  8
SITES
  0
POLYLINE
  5
474
  8
SITES
 66
     1
 10
0.0
 20
0.0
 30
0.0
 70
     1
  0
VERTEX
  5
9E2
  8
SITES
 10
428878.7768974826904014
 20
519071.0837576101184823
 30
0.0
  0
VERTEX
  5
9E3
  8
SITES
 10
428891.6481059385114349
 20
519060.2926076322910376
 30
0.0
  0
VERTEX
  5
9E4
  8
SITES
 10
428894.4621231009950861
 20
519042.3629380019847304
 30
0.0
  0
VERTEX
  5
9E5
  8
SITES
 10
428892.2944764601998031
 20
519036.6345651214942336
 30
0.0
  0
VERTEX
  5
9E6
  8
SITES
 10
428882.9583952164975926
 20
519030.9275753176771104
 30
0.0
  0
VERTEX
  5
9E7
  8
SITES
 10
428867.1856814317870885
 20
519030.2577645017881878
 30
0.0
  0
VERTEX
  5
9E8
  8
SITES
 10
428849.2816129749990068
 20
519036.0458691224921495
 30
0.0
  0
VERTEX
  5
9E9
  8
SITES
 10
428840.7136249738978222
 20
519047.5410624687210657
 30
0.0
  0
VERTEX
  5
9EA
  8
SITES
 10
428840.0309637967147864
 20
519059.0127146532176994
 30
0.0
  0
VERTEX
  5
9EB
  8
SITES
 10
428845.8063172399997711
 20
519072.615722852293402
 30
0.0
  0
VERTEX
  5
9EC
  8
SITES
 10
428854.4127542384085245
 20
519074.023810955521185
 30
0.0
  0
VERTEX
  5
9ED
  8
SITES
 10
428863.0212497634929605
 20
519076.1486924666096456
 30
0.0
  0
SEQEND
  5
9EE
  8
SITES
  0
POLYLINE
  5
475
  8
SITES
 66
     1
 10
0.0
 20
0.0
 30
0.0
 70
     1
  0
VERTEX
  5
9EF
  8
SITES
 10
429809.7268988628056832
 20
519108.434683630883228
 30
0.0
  0
VERTEX
  5
9F0
  8
SITES
 10
429811.8689514232100919
 20
519105.5609286262770183
 30
0.0
  0
VERTEX
  5
9F1
  8
SITES
 10
429808.9332082273904234
 20
519082.630517246783711
 30
0.0
  0
VERTEX
  5
9F2
  8
SITES
 10
429806.0466036070138216
 20
519076.1874940330744721
 30
0.0
  0
VERTEX
  5
9F3
  8
SITES
 10
429793.8303712230990641
 20
519066.1880526642780751
 30
0.0
  0
VERTEX
  5
9F4
  8
SITES
 10
429785.9387504362966865
 20
519064.0610083207720891
 30
0.0
  0
VERTEX
  5
9F5
  8
SITES
 10
429775.9243019446148537
 20
519071.259374605899211
 30
0.0
  0
VERTEX
  5
9F6
  8
SITES
 10
429773.1060611073044129
 20
519087.755294039787259
 30
0.0
  0
VERTEX
  5
9F7
  8
SITES
 10
429788.2344946006196551
 20
519112.7998996155802161
 30
0.0
  0
VERTEX
  5
9F8
  8
SITES
 10
429796.8430102688143961
 20
519114.9247868619277142
 30
0.0
  0
SEQEND
  5
9F9
  8
SITES
  0
POLYLINE
  5
476
  8
SITES
 66
     1
 10
0.0
 20
0.0
 30
0.0
 70
     1
  0
VERTEX
  5
9FA
  8
SITES
 10
428660.5403834981843829
 20
519206.5022082088980824
 30
0.0
  0
VERTEX
  5
9FB
  8
SITES
 10
428662.6759567453991622
 20
519201.4778829113929532
 30
0.0
  0
VERTEX
  5
9FC
  8
SITES
 10
428662.628980720997788
 20
519185.7072358755976893
 30
0.0
  0
VERTEX
  5
9FD
  8
SITES
 10
428640.3640363006852567
 20
519171.4365741285146214
 30
0.0
  0
VERTEX
  5
9FE
  8
SITES
 10
428631.0450273784226738
 20
519171.4643286474165507
 30
0.0
  0
VERTEX
  5
9FF
  8
SITES
 10
428618.1567600317066535
 20
519176.5207241356256418
 30
0.0
  0
VERTEX
  5
A00
  8
SITES
 10
428615.3042943847249262
 20
519181.5472069418756291
 30
0.0
  0
VERTEX
  5
A01
  8
SITES
 10
428618.2229584946180694
 20
519198.7429061665898189
 30
0.0
  0
VERTEX
  5
A02
  8
SITES
 10
428628.278081952710636
 20
519205.1646312428056262
 30
0.0
  0
VERTEX
  5
A03
  8
SITES
 10
428638.3245737233082764
 20
519208.7189845009124838
 30
0.0
  0
VERTEX
  5
A04
  8
SITES
 10
428652.6657499014982022
 20
519210.1100110483239405
 30
0.0
  0
SEQEND
  5
A05
  8
SITES
  0
POLYLINE
  5
477
  8
SITES
 66
     1
 10
0.0
 20
0.0
 30
0.0
 70
     1
  0
VERTEX
  5
A06
  8
SITES
 10
425311.4984027080936357
 20
519271.6030048542888835
 30
0.0
  0
VERTEX
  5
A07
  8
SITES
 10
425318.6520678909146227
 20
519266.563618260610383
 30
0.0
  0
VERTEX
  5
A08
  8
SITES
 10
425321.487448823696468
 20
519255.8021823366289027
 30
0.0
  0
VERTEX
  5
A09
  8
SITES
 10
425317.1286656408919953
 20
519236.4597809113911353
 30
0.0
  0
VERTEX
  5
A0A
  8
SITES
 10
425305.6396537786931731
 20
519230.0421238145790994
 30
0.0
  0
VERTEX
  5
A0B
  8
SITES
 10
425299.9090738702798262
 20
519231.4929605373181403
 30
0.0
  0
VERTEX
  5
A0C
  8
SITES
 10
425288.4969444540911354
 20
519250.8824329380877316
 30
0.0
  0
VERTEX
  5
A0D
  8
SITES
 10
425288.5246960379881784
 20
519260.2015629538800567
 30
0.0
  0
VERTEX
  5
A0E
  8
SITES
 10
425297.8802083965274505
 20
519272.3604895430034958
 30
0.0
  0
SEQEND
  5
A0F
  8
SITES
  0
POLYLINE
  5
478
  8
SITES
 66
     1
 10
0.0
 20
0.0
 30
0.0
 70
     1
  0
VERTEX
  5
A10
  8
SITES
 10
429790.0142921839142218
 20
519228.9239888075971976
 30
0.0
  0
VERTEX
  5
A11
  8
SITES
 10
429800.7519129725988023
 20
519223.8740534756216221
 30
0.0
  0
VERTEX
  5
A12
  8
SITES
 10
429804.2848968682810664
 20
519206.6590807902975939
 30
0.0
  0
VERTEX
  5
A13
  8
SITES
 10
429800.6621769543853588
 20
519193.7666586142149754
 30
0.0
  0
VERTEX
  5
A14
  8
SITES
 10
429795.6080244203913026
 20
519181.5953480363823473
 30
0.0
  0
VERTEX
  5
A15
  8
SITES
 10
429788.4352575286757201
 20
519180.1829383032745682
 30
0.0
  0
VERTEX
  5
A16
  8
SITES
 10
429775.5791228886228055
 20
519195.9919747457024641
 30
0.0
  0
VERTEX
  5
A17
  8
SITES
 10
429778.5148592591867782
 20
519218.9223850757116452
 30
0.0
  0
VERTEX
  5
A18
  8
SITES
 10
429783.5647944684023969
 20
519229.6600055217859335
 30
0.0
  0
SEQEND
  5
A19
  8
SITES
  0
POLYLINE
  5
479
  8
SITES
 66
     1
 10
0.0
 20
0.0
 30
0.0
 70
     1
  0
VERTEX
  5
A1A
  8
SITES
 10
429581.4474022859940305
 20
519241.0151706602773629
 30
0.0
  0
VERTEX
  5
A1B
  8
SITES
 10
429590.0238437377265655
 20
519232.3873386309132911
 30
0.0
  0
VERTEX
  5
A1C
  8
SITES
 10
429590.7086688650888391
 20
519221.6326596185099334
 30
0.0
  0
VERTEX
  5
A1D
  8
SITES
 10
429583.5039359644870274
 20
519209.4676291253999807
 30
0.0
  0
VERTEX
  5
A1E
  8
SITES
 10
429570.5793511844240129
 20
519202.337725899880752
 30
0.0
  0
VERTEX
  5
A1F
  8
SITES
 10
429561.2561042918241583
 20
519200.9317906039068475
 30
0.0
  0
VERTEX
  5
A20
  8
SITES
 10
429556.9764163531945087
 20
519208.1129854301107116
 30
0.0
  0
VERTEX
  5
A21
  8
SITES
 10
429556.2915915150078945
 20
519218.8677634748164564
 30
0.0
  0
VERTEX
  5
A22
  8
SITES
 10
429561.365061195101589
 20
519237.4907194062834606
 30
0.0
  0
VERTEX
  5
A23
  8
SITES
 10
429569.2653082626056857
 20
519242.4851449296111241
 30
0.0
  0
SEQEND
  5
A24
  8
SITES
  0
POLYLINE
  5
47A
  8
SITES
 66
     1
 10
0.0
 20
0.0
 30
0.0
 70
     1
  0
VERTEX
  5
A25
  8
SITES
 10
429287.9850547338137403
 20
519273.4502124974969774
 30
0.0
  0
VERTEX
  5
A26
  8
SITES
 10
429305.7971565402112901
 20
519236.8377605503774248
 30
0.0
  0
VERTEX
  5
A27
  8
SITES
 10
429317.1577075588866137
 20
519200.2445274209021591
 30
0.0
  0
VERTEX
  5
A28
  8
SITES
 10
429317.8361574764130637
 20
519187.3391732146847062
 30
0.0
  0
VERTEX
  5
A29
  8
SITES
 10
429274.0786990692722611
 20
519177.4336944769020192
 30
0.0
  0
VERTEX
  5
A2A
  8
SITES
 10
429273.4088815578143112
 20
519193.2064240169129334
 30
0.0
  0
VERTEX
  5
A2B
  8
SITES
 10
429253.4632665382814594
 20
519235.5600016477983445
 30
0.0
  0
VERTEX
  5
A2C
  8
SITES
 10
429252.7613780032261275
 20
519240.5800184580148198
 30
0.0
  0
VERTEX
  5
A2D
  8
SITES
 10
429232.0690547002013773
 20
519272.8999322255840525
 30
0.0
  0
VERTEX
  5
A2E
  8
SITES
 10
429232.7923223460093141
 20
519275.0483566126786172
 30
0.0
  0
VERTEX
  5
A2F
  8
SITES
 10
429255.8039004569873214
 20
519299.3527051489218138
 30
0.0
  0
VERTEX
  5
A30
  8
SITES
 10
429264.4125034752069041
 20
519301.4775938027887605
 30
0.0
  0
SEQEND
  5
A31
  8
SITES
  0
POLYLINE
  5
47B
  8
SITES
 66
     1
 10
0.0
 20
0.0
 30
0.0
 70
     1
  0
VERTEX
  5
A32
  8
SITES
 10
425591.9679958149208687
 20
519330.2670730841928162
 30
0.0
  0
VERTEX
  5
A33
  8
SITES
 10
425601.2636984668206424
 20
519322.3538608970120549
 30
0.0
  0
VERTEX
  5
A34
  8
SITES
 10
425601.2187866385211237
 20
519307.2998234910191968
 30
0.0
  0
VERTEX
  5
A35
  8
SITES
 10
425591.8633679184131324
 20
519295.1409868503105827
 30
0.0
  0
VERTEX
  5
A36
  8
SITES
 10
425578.9405739461071789
 20
519288.7277389622176997
 30
0.0
  0
VERTEX
  5
A37
  8
SITES
 10
425571.7634684849181212
 20
519285.8816667727078311
 30
0.0
  0
VERTEX
  5
A38
  8
SITES
 10
425559.5790400271071121
 20
519286.6348361184936948
 30
0.0
  0
VERTEX
  5
A39
  8
SITES
 10
425543.8337102981749922
 20
519295.2841552990139462
 30
0.0
  0
VERTEX
  5
A3A
  8
SITES
 10
425543.8572453411179595
 20
519303.1696166057954542
 30
0.0
  0
VERTEX
  5
A3B
  8
SITES
 10
425551.0664159461157396
 20
519316.7685000147903338
 30
0.0
  0
VERTEX
  5
A3C
  8
SITES
 10
425563.2850672141066752
 20
519327.4851304091862403
 30
0.0
  0
VERTEX
  5
A3D
  8
SITES
 10
425575.4866572263999842
 20
519332.466861953784246
 30
0.0
  0
SEQEND
  5
A3E
  8
SITES
  0
POLYLINE
  5
47C
  8
SITES
 66
     1
 10
0.0
 20
0.0
 30
0.0
 70
     1
  0
VERTEX
  5
A3F
  8
SITES
 10
426442.0442476579919457
 20
519424.0318810116732493
 30
0.0
  0
VERTEX
  5
A40
  8
SITES
 10
426455.6411063295090571
 20
519416.1058086571283638
 30
0.0
  0
VERTEX
  5
A41
  8
SITES
 10
426460.6247088972013444
 20
519404.6211807021754794
 30
0.0
  0
VERTEX
  5
A42
  8
SITES
 10
426459.1525943196029402
 20
519391.7220929324976169
 30
0.0
  0
VERTEX
  5
A43
  8
SITES
 10
426449.8015726290177554
 20
519380.9971061780815944
 30
0.0
  0
VERTEX
  5
A44
  8
SITES
 10
426436.8980703810229897
 20
519381.0355429647024721
 30
0.0
  0
VERTEX
  5
A45
  8
SITES
 10
426426.1537659139721654
 20
519383.9349630302167498
 30
0.0
  0
VERTEX
  5
A46
  8
SITES
 10
426425.4433499393053353
 20
519386.0874877696041949
 30
0.0
  0
VERTEX
  5
A47
  8
SITES
 10
426415.4351528753177263
 20
519395.4365507490001619
 30
0.0
  0
VERTEX
  5
A48
  8
SITES
 10
426404.6973214255995117
 20
519400.486637132416945
 30
0.0
  0
VERTEX
  5
A49
  8
SITES
 10
426400.3982453024946153
 20
519401.2163713516201824
 30
0.0
  0
VERTEX
  5
A4A
  8
SITES
 10
426403.3042371681076474
 20
519414.111142402922269
 30
0.0
  0
VERTEX
  5
A4B
  8
SITES
 10
426415.5121246522758156
 20
519421.2435537091223523
 30
0.0
  0
VERTEX
  5
A4C
  8
SITES
 10
426428.4261139233713038
 20
519424.7894629213842563
 30
0.0
  0
SEQEND
  5
A4D
  8
SITES
  0
POLYLINE
  5
47D
  8
SITES
 66
     1
 10
0.0
 20
0.0
 30
0.0
 70
     1
  0
VERTEX
  5
A4E
  8
SITES
 10
427871.5897345860139467
 20
519309.2130532861920074
 30
0.0
  0
VERTEX
  5
A4F
  8
SITES
 10
427872.268186132190749
 20
519296.3075465512811206
 30
0.0
  0
VERTEX
  5
A50
  8
SITES
 10
427869.3473743321956135
 20
519278.3948874290799722
 30
0.0
  0
VERTEX
  5
A51
  8
SITES
 10
427862.8678980200784281
 20
519269.0951169779873453
 30
0.0
  0
VERTEX
  5
A52
  8
SITES
 10
427857.8478991006850265
 20
519268.3931304707075469
 30
0.0
  0
VERTEX
  5
A53
  8
SITES
 10
427855.7593012556899339
 20
519289.1882599301752634
 30
0.0
  0
VERTEX
  5
A54
  8
SITES
 10
427859.4075929718092084
 20
519310.6830186517909169
 30
0.0
  0
VERTEX
  5
A55
  8
SITES
 10
427858.724925548885949
 20
519322.1547418946283869
 30
0.0
  0
SEQEND
  5
A56
  8
SITES
  0
POLYLINE
  5
47E
  8
SITES
 66
     1
 10
0.0
 20
0.0
 30
0.0
 70
     1
  0
VERTEX
  5
A57
  8
SITES
 10
425466.5709496625931934
 20
519348.562447372591123
 30
0.0
  0
VERTEX
  5
A58
  8
SITES
 10
425471.5526802857057191
 20
519336.360860564513132
 30
0.0
  0
VERTEX
  5
A59
  8
SITES
 10
425473.6583307675900869
 20
519321.3004549674806185
 30
0.0
  0
VERTEX
  5
A5A
  8
SITES
 10
425472.9243819275870919
 20
519315.5677145844092593
 30
0.0
  0
VERTEX
  5
A5B
  8
SITES
 10
425464.3071310395025648
 20
519310.5752963403938338
 30
0.0
  0
VERTEX
  5
A5C
  8
SITES
 10
425458.5743908754084259
 20
519311.3092452536220662
 30
0.0
  0
VERTEX
  5
A5D
  8
SITES
 10
425449.9870480796089396
 20
519316.3529482646845281
 30
0.0
  0
VERTEX
  5
A5E
  8
SITES
 10
425442.1271812024060637
 20
519324.9787293599802069
 30
0.0
  0
VERTEX
  5
A5F
  8
SITES
 10
425438.6006021535140462
 20
519344.3446721205255017
 30
0.0
  0
VERTEX
  5
A60
  8
SITES
 10
425442.1998416868154891
 20
519349.3519943014835007
 30
0.0
  0
VERTEX
  5
A61
  8
SITES
 10
425454.4057429753011093
 20
519355.7673995628138073
 30
0.0
  0
SEQEND
  5
A62
  8
SITES
  0
POLYLINE
  5
47F
  8
SITES
 66
     1
 10
0.0
 20
0.0
 30
0.0
 70
     1
  0
VERTEX
  5
A63
  8
SITES
 10
424559.0879692102898844
 20
519372.7731710739899427
 30
0.0
  0
VERTEX
  5
A64
  8
SITES
 10
424569.8046742525184527
 20
519360.5544519934919663
 30
0.0
  0
VERTEX
  5
A65
  8
SITES
 10
424570.5022415005951189
 20
519354.10052372852806
 30
0.0
  0
VERTEX
  5
A66
  8
SITES
 10
424564.0227219238877296
 20
519344.8005293143214658
 30
0.0
  0
VERTEX
  5
A67
  8
SITES
 10
424554.6842904810910113
 20
519338.3765081596793607
 30
0.0
  0
VERTEX
  5
A68
  8
SITES
 10
424543.2016753521747887
 20
519334.1095169399050064
 30
0.0
  0
VERTEX
  5
A69
  8
SITES
 10
424521.695709039689973
 20
519334.1735462328069843
 30
0.0
  0
VERTEX
  5
A6A
  8
SITES
 10
424513.1082862815237604
 20
519339.2172365519800223
 30
0.0
  0
VERTEX
  5
A6B
  8
SITES
 10
424507.3926207954064012
 20
519345.6861671584192663
 30
0.0
  0
VERTEX
  5
A6C
  8
SITES
 10
424506.7056420278968289
 20
519355.7243218783987686
 30
0.0
  0
VERTEX
  5
A6D
  8
SITES
 10
424517.490688607620541
 20
519366.4452407393255271
 30
0.0
  0
VERTEX
  5
A6E
  8
SITES
 10
424549.056186186207924
 20
519374.2367483709240332
 30
0.0
  0
SEQEND
  5
A6F
  8
SITES
  0
POLYLINE
  5
480
  8
SITES
 66
     1
 10
0.0
 20
0.0
 30
0.0
 70
     1
  0
VERTEX
  5
A70
  8
SITES
 10
429586.0004984140978195
 20
519325.5897008742904291
 30
0.0
  0
VERTEX
  5
A71
  8
SITES
 10
429587.4107519940007478
 20
519317.7002432981971651
 30
0.0
  0
VERTEX
  5
A72
  8
SITES
 10
429588.8444415045087226
 20
519317.6959277390269563
 30
0.0
  0
VERTEX
  5
A73
  8
SITES
 10
429588.095479640411213
 20
519306.9454644310753793
 30
0.0
  0
VERTEX
  5
A74
  8
SITES
 10
429588.7909961449913681
 20
519299.7748593621072359
 30
0.0
  0
VERTEX
  5
A75
  8
SITES
 10
429578.6697557287989184
 20
519271.1310803974047303
 30
0.0
  0
VERTEX
  5
A76
  8
SITES
 10
429568.6210826450842433
 20
519266.8599224921199493
 30
0.0
  0
VERTEX
  5
A77
  8
SITES
 10
429563.620282955293078
 20
519272.6095852442085743
 30
0.0
  0
VERTEX
  5
A78
  8
SITES
 10
429560.0617039893986657
 20
519281.2224107757792808
 30
0.0
  0
VERTEX
  5
A79
  8
SITES
 10
429557.9154357421211898
 20
519282.6624737228848971
 30
0.0
  0
VERTEX
  5
A7A
  8
SITES
 10
429555.7884880268829875
 20
519290.5541887846775353
 30
0.0
  0
VERTEX
  5
A7B
  8
SITES
 10
429554.3547986400080845
 20
519290.5585044411709532
 30
0.0
  0
VERTEX
  5
A7C
  8
SITES
 10
429549.3902818767819554
 20
519308.4944758990895934
 30
0.0
  0
VERTEX
  5
A7D
  8
SITES
 10
429550.8495649364194833
 20
519317.0922962095937692
 30
0.0
  0
VERTEX
  5
A7E
  8
SITES
 10
429556.6142312480951659
 20
519327.1110592607874423
 30
0.0
  0
VERTEX
  5
A7F
  8
SITES
 10
429565.2206829822971486
 20
519328.5190554109867662
 30
0.0
  0
VERTEX
  5
A80
  8
SITES
 10
429565.224898571788799
 20
519329.9527447160799056
 30
0.0
  0
VERTEX
  5
A81
  8
SITES
 10
429577.4133662279928103
 20
519330.6332572745741345
 30
0.0
  0
SEQEND
  5
A82
  8
SITES
  0
POLYLINE
  5
481
  8
SITES
 66
     1
 10
0.0
 20
0.0
 30
0.0
 70
     1
  0
VERTEX
  5
A83
  8
SITES
 10
425406.1250085316132754
 20
519419.6612726463936269
 30
0.0
  0
VERTEX
  5
A84
  8
SITES
 10
425408.1660335898050107
 20
519416.4666496979771182
 30
0.0
  0
VERTEX
  5
A85
  8
SITES
 10
425408.5337299393140711
 20
519413.1443221882218495
 30
0.0
  0
VERTEX
  5
A86
  8
SITES
 10
425408.5154106076224707
 20
519406.9980193724040873
 30
0.0
  0
VERTEX
  5
A87
  8
SITES
 10
425408.4898233648855239
 20
519398.393175522913225
 30
0.0
  0
VERTEX
  5
A88
  8
SITES
 10
425406.0084794064750895
 20
519391.0249189052265137
 30
0.0
  0
VERTEX
  5
A89
  8
SITES
 10
425402.1439889576286077
 20
519383.4595887477044016
 30
0.0
  0
VERTEX
  5
A8A
  8
SITES
 10
425397.5813436951721087
 20
519381.4233649988891557
 30
0.0
  0
VERTEX
  5
A8B
  8
SITES
 10
425391.2489524864940904
 20
519389.8396991869085468
 30
0.0
  0
VERTEX
  5
A8C
  8
SITES
 10
425388.807931756018661
 20
519395.9932685131789185
 30
0.0
  0
VERTEX
  5
A8D
  8
SITES
 10
425390.0632392382249236
 20
519404.5944286700105295
 30
0.0
  0
VERTEX
  5
A8E
  8
SITES
 10
425390.0815586065873504
 20
519410.7407311986899003
 30
0.0
  0
VERTEX
  5
A8F
  8
SITES
 10
425392.5592183449189179
 20
519416.8796671507880092
 30
0.0
  0
VERTEX
  5
A90
  8
SITES
 10
425397.4888507695286535
 20
519420.5527954716235399
 30
0.0
  0
VERTEX
  5
A91
  8
SITES
 10
425402.0288463120232336
 20
519421.2678403292084113
 30
0.0
  0
SEQEND
  5
A92
  8
SITES
  0
POLYLINE
  5
482
  8
SITES
 66
     1
 10
0.0
 20
0.0
 30
0.0
 70
     1
  0
VERTEX
  5
A93
  8
SITES
 10
425365.694473534298595
 20
519416.2485586178954691
 30
0.0
  0
VERTEX
  5
A94
  8
SITES
 10
425377.123673539084848
 20
519402.5940837112721056
 30
0.0
  0
VERTEX
  5
A95
  8
SITES
 10
425377.8255578178213909
 20
519397.573916531400755
 30
0.0
  0
VERTEX
  5
A96
  8
SITES
 10
425373.5115900409873575
 20
519393.2855393881909549
 30
0.0
  0
VERTEX
  5
A97
  8
SITES
 10
425364.9007149143726565
 20
519390.4437817728030495
 30
0.0
  0
VERTEX
  5
A98
  8
SITES
 10
425354.1521242849994451
 20
519391.9095193690736778
 30
0.0
  0
VERTEX
  5
A99
  8
SITES
 10
425343.4269670650246553
 20
519401.2607140825712122
 30
0.0
  0
VERTEX
  5
A9A
  8
SITES
 10
425339.87263731402345
 20
519411.3075200900784694
 30
0.0
  0
VERTEX
  5
A9B
  8
SITES
 10
425340.6151145632029511
 20
519419.9077067921170965
 30
0.0
  0
VERTEX
  5
A9C
  8
SITES
 10
425348.5091019124956802
 20
519422.7516223309794441
 30
0.0
  0
SEQEND
  5
A9D
  8
SITES
  0
POLYLINE
  5
483
  8
SITES
 66
     1
 10
0.0
 20
0.0
 30
0.0
 70
     1
  0
VERTEX
  5
A9E
  8
SITES
 10
429083.5529782843077555
 20
519470.4766682325862348
 30
0.0
  0
VERTEX
  5
A9F
  8
SITES
 10
429139.3621802686247975
 20
519435.1845805249758996
 30
0.0
  0
VERTEX
  5
AA0
  8
SITES
 10
429161.52026447490789
 20
519413.612976980919484
 30
0.0
  0
VERTEX
  5
AA1
  8
SITES
 10
429188.6427650024998002
 20
519374.105317133886274
 30
0.0
  0
VERTEX
  5
AA2
  8
SITES
 10
429200.0738305525155738
 20
519361.168001624813769
 30
0.0
  0
VERTEX
  5
AA3
  8
SITES
 10
429216.4843151335953735
 20
519335.3123882577056065
 30
0.0
  0
VERTEX
  5
AA4
  8
SITES
 10
429220.7148727171006612
 20
519311.6437375394161791
 30
0.0
  0
VERTEX
  5
AA5
  8
SITES
 10
429209.2304632373852655
 20
519306.6600040897028521
 30
0.0
  0
VERTEX
  5
AA6
  8
SITES
 10
429187.7550517678027973
 20
519316.7599543713149615
 30
0.0
  0
VERTEX
  5
AA7
  8
SITES
 10
429166.3073922197218053
 20
519336.178825126378797
 30
0.0
  0
VERTEX
  5
AA8
  8
SITES
 10
429155.5633138793054968
 20
519339.0782672560890205
 30
0.0
  0
VERTEX
  5
AA9
  8
SITES
 10
429113.9627321161096916
 20
519331.3168838844285347
 30
0.0
  0
VERTEX
  5
AAA
  8
SITES
 10
429099.6365438391221687
 20
519334.9438083746936172
 30
0.0
  0
VERTEX
  5
AAB
  8
SITES
 10
429078.8950932542211376
 20
519350.7763470677891746
 30
0.0
  0
VERTEX
  5
AAC
  8
SITES
 10
429078.9250011909753084
 20
519360.812260321516078
 30
0.0
  0
VERTEX
  5
AAD
  8
SITES
 10
429081.8094381929840893
 20
519366.5383800261188298
 30
0.0
  0
VERTEX
  5
AAE
  8
SITES
 10
429102.647085934993811
 20
519382.9638654228765517
 30
0.0
  0
VERTEX
  5
AAF
  8
SITES
 10
429106.2783236221875995
 20
519398.7237420114106499
 30
0.0
  0
VERTEX
  5
AB0
  8
SITES
 10
429103.4729192128870636
 20
519419.5207943419227377
 30
0.0
  0
VERTEX
  5
AB1
  8
SITES
 10
429099.1910744201741181
 20
519425.9852845083805732
 30
0.0
  0
VERTEX
  5
AB2
  8
SITES
 10
429090.6103243014076725
 20
519433.1793139515211806
 30
0.0
  0
VERTEX
  5
AB3
  8
SITES
 10
429079.1536686007166281
 20
519437.5145980538218282
 30
0.0
  0
VERTEX
  5
AB4
  8
SITES
 10
429039.0039447225863114
 20
519435.4837405589059927
 30
0.0
  0
VERTEX
  5
AB5
  8
SITES
 10
429034.6900368563947268
 20
519431.1955235539935529
 30
0.0
  0
VERTEX
  5
AB6
  8
SITES
 10
429017.4836302833282389
 20
519430.5299117608228698
 30
0.0
  0
VERTEX
  5
AB7
  8
SITES
 10
429011.0469900713069364
 20
519435.5670857658842579
 30
0.0
  0
VERTEX
  5
AB8
  8
SITES
 10
429006.7693612967268564
 20
519443.4651615988113917
 30
0.0
  0
VERTEX
  5
AB9
  8
SITES
 10
429004.6337831389973871
 20
519448.4894899897044525
 30
0.0
  0
VERTEX
  5
ABA
  8
SITES
 10
429006.8057395027717575
 20
519455.6515542027773336
 30
0.0
  0
VERTEX
  5
ABB
  8
SITES
 10
429022.6083636175026186
 20
519466.357194100623019
 30
0.0
  0
VERTEX
  5
ABC
  8
SITES
 10
429043.4246291748131625
 20
519475.6142448565806262
 30
0.0
  0
VERTEX
  5
ABD
  8
SITES
 10
429057.0490254642791115
 20
519477.0073400344117545
 30
0.0
  0
SEQEND
  5
ABE
  8
SITES
  0
POLYLINE
  5
484
  8
SITES
 66
     1
 10
0.0
 20
0.0
 30
0.0
 70
     1
  0
VERTEX
  5
ABF
  8
SITES
 10
425429.8071112718898803
 20
519520.7198687710915692
 30
0.0
  0
VERTEX
  5
AC0
  8
SITES
 10
425441.9766346911201254
 20
519514.9487964445725083
 30
0.0
  0
VERTEX
  5
AC1
  8
SITES
 10
425432.5591621238272637
 20
519482.0010310832876712
 30
0.0
  0
VERTEX
  5
AC2
  8
SITES
 10
425431.8338451150921173
 20
519479.1358397656003945
 30
0.0
  0
VERTEX
  5
AC3
  8
SITES
 10
425424.6588012424181215
 20
519477.0065522760851309
 30
0.0
  0
VERTEX
  5
AC4
  8
SITES
 10
425417.4986593932844698
 20
519479.8952749344171025
 30
0.0
  0
VERTEX
  5
AC5
  8
SITES
 10
425412.5277117706718855
 20
519495.6811941700289026
 30
0.0
  0
VERTEX
  5
AC6
  8
SITES
 10
425415.4528089790837839
 20
519515.0279178897035308
 30
0.0
  0
VERTEX
  5
AC7
  8
SITES
 10
425421.2048650725046173
 20
519520.7455567619181238
 30
0.0
  0
SEQEND
  5
AC8
  8
SITES
  0
POLYLINE
  5
485
  8
SITES
 66
     1
 10
0.0
 20
0.0
 30
0.0
 70
     1
  0
VERTEX
  5
AC9
  8
SITES
 10
425256.3781266675214283
 20
519538.4418260403908789
 30
0.0
  0
VERTEX
  5
ACA
  8
SITES
 10
425259.9410879546776414
 20
519531.2625708195264451
 30
0.0
  0
VERTEX
  5
ACB
  8
SITES
 10
425260.6322871210286394
 20
519522.6580709731206298
 30
0.0
  0
VERTEX
  5
ACC
  8
SITES
 10
425258.4518238545279019
 20
519512.6284267415176146
 30
0.0
  0
VERTEX
  5
ACD
  8
SITES
 10
425253.4081276070210151
 20
519504.0410856669186614
 30
0.0
  0
VERTEX
  5
ACE
  8
SITES
 10
425243.3592674788087606
 20
519499.7698675240972079
 30
0.0
  0
VERTEX
  5
ACF
  8
SITES
 10
425237.6392744050826877
 20
519504.8049342156737112
 30
0.0
  0
VERTEX
  5
AD0
  8
SITES
 10
425233.3787428686046042
 20
519518.4381280993111432
 30
0.0
  0
VERTEX
  5
AD1
  8
SITES
 10
425235.5635204978170805
 20
519529.9014454832067713
 30
0.0
  0
VERTEX
  5
AD2
  8
SITES
 10
425239.8796425448963419
 20
519534.9067094895290211
 30
0.0
  0
VERTEX
  5
AD3
  8
SITES
 10
425246.3442678942228667
 20
519539.188615026010666
 30
0.0
  0
SEQEND
  5
AD4
  8
SITES
  0
POLYLINE
  5
486
  8
SITES
 66
     1
 10
0.0
 20
0.0
 30
0.0
 70
     1
  0
VERTEX
  5
AD5
  8
SITES
 10
424785.4725825421046466
 20
519564.2192858827183954
 30
0.0
  0
VERTEX
  5
AD6
  8
SITES
 10
424789.0398546464857645
 20
519558.4737115977914073
 30
0.0
  0
VERTEX
  5
AD7
  8
SITES
 10
424783.2579067908227444
 20
519542.7198771978146397
 30
0.0
  0
VERTEX
  5
AD8
  8
SITES
 10
424769.6162001010961831
 20
519535.5918055854272097
 30
0.0
  0
VERTEX
  5
AD9
  8
SITES
 10
424744.4597149192122743
 20
519513.443946217186749
 30
0.0
  0
VERTEX
  5
ADA
  8
SITES
 10
424738.010098977771122
 20
519514.1799481437192298
 30
0.0
  0
VERTEX
  5
ADB
  8
SITES
 10
424735.8659131419844925
 20
519516.3369778539054096
 30
0.0
  0
VERTEX
  5
ADC
  8
SITES
 10
424730.8734994605183601
 20
519524.9543100403971039
 30
0.0
  0
VERTEX
  5
ADD
  8
SITES
 10
424729.4739443485159427
 20
519536.4283992372220382
 30
0.0
  0
VERTEX
  5
ADE
  8
SITES
 10
424732.3585461843758821
 20
519542.154757535783574
 30
0.0
  0
VERTEX
  5
ADF
  8
SITES
 10
424752.4798693265183829
 20
519558.5827309648157097
 30
0.0
  0
VERTEX
  5
AE0
  8
SITES
 10
424774.7282212791033089
 20
519567.1188883279100992
 30
0.0
  0
SEQEND
  5
AE1
  8
SITES
  0
POLYLINE
  5
487
  8
SITES
 66
     1
 10
0.0
 20
0.0
 30
0.0
 70
     1
  0
VERTEX
  5
AE2
  8
SITES
 10
429184.8802966813091189
 20
519554.7629520809859969
 30
0.0
  0
VERTEX
  5
AE3
  8
SITES
 10
429189.8832531591760926
 20
519549.7300924808951095
 30
0.0
  0
VERTEX
  5
AE4
  8
SITES
 10
429191.2741936050006188
 20
519535.3888974286965095
 30
0.0
  0
VERTEX
  5
AE5
  8
SITES
 10
429184.7755845618085004
 20
519519.6375458692200482
 30
0.0
  0
VERTEX
  5
AE6
  8
SITES
 10
429181.1806274097762071
 20
519516.0640628797118552
 30
0.0
  0
VERTEX
  5
AE7
  8
SITES
 10
429169.6982791809132323
 20
519511.7971178800798953
 30
0.0
  0
VERTEX
  5
AE8
  8
SITES
 10
429150.3649165697861463
 20
519519.0233080817270093
 30
0.0
  0
VERTEX
  5
AE9
  8
SITES
 10
429143.928273071476724
 20
519524.0604823587927967
 30
0.0
  0
VERTEX
  5
AEA
  8
SITES
 10
429139.6485835844068788
 20
519531.2417660534265451
 30
0.0
  0
VERTEX
  5
AEB
  8
SITES
 10
429141.8375984334852546
 20
519544.1384846080909483
 30
0.0
  0
VERTEX
  5
AEC
  8
SITES
 10
429159.7993368076859042
 20
519557.705135460710153
 30
0.0
  0
VERTEX
  5
AED
  8
SITES
 10
429165.5383033273974434
 20
519559.1216645514941774
 30
0.0
  0
SEQEND
  5
AEE
  8
SITES
  0
POLYLINE
  5
488
  8
SITES
 66
     1
 10
0.0
 20
0.0
 30
0.0
 70
     1
  0
VERTEX
  5
AEF
  8
SITES
 10
424684.4654555179877207
 20
519588.1771879111183807
 30
0.0
  0
VERTEX
  5
AF0
  8
SITES
 10
424690.1918134978041053
 20
519585.2925870799226686
 30
0.0
  0
VERTEX
  5
AF1
  8
SITES
 10
424693.0293560135760345
 20
519575.2479564393870533
 30
0.0
  0
VERTEX
  5
AF2
  8
SITES
 10
424690.8424255994032137
 20
519563.0677686405833811
 30
0.0
  0
VERTEX
  5
AF3
  8
SITES
 10
424684.3543798840837553
 20
519550.9003246452775784
 30
0.0
  0
VERTEX
  5
AF4
  8
SITES
 10
424669.2574324887245893
 20
519536.6079107929253951
 30
0.0
  0
VERTEX
  5
AF5
  8
SITES
 10
424660.6401019967161119
 20
519531.6154976180987433
 30
0.0
  0
VERTEX
  5
AF6
  8
SITES
 10
424649.1703295424813405
 20
519531.649714267172385
 30
0.0
  0
VERTEX
  5
AF7
  8
SITES
 10
424643.6210500174202025
 20
519534.8350311596877873
 30
0.0
  0
VERTEX
  5
AF8
  8
SITES
 10
424642.0636327879037708
 20
519552.4601739706122316
 30
0.0
  0
VERTEX
  5
AF9
  8
SITES
 10
424659.3389798236894421
 20
519576.0653311074129306
 30
0.0
  0
VERTEX
  5
AFA
  8
SITES
 10
424670.8364962452906184
 20
519585.3503312083194032
 30
0.0
  0
VERTEX
  5
AFB
  8
SITES
 10
424676.5800114058074541
 20
519588.2007170133874752
 30
0.0
  0
SEQEND
  5
AFC
  8
SITES
  0
POLYLINE
  5
489
  8
SITES
 66
     1
 10
0.0
 20
0.0
 30
0.0
 70
     1
  0
VERTEX
  5
AFD
  8
SITES
 10
424507.4215669721015729
 20
519595.8737674399162643
 30
0.0
  0
VERTEX
  5
AFE
  8
SITES
 10
424515.2771071884781122
 20
519585.8141411800170317
 30
0.0
  0
VERTEX
  5
AFF
  8
SITES
 10
424518.8251623274991289
 20
519573.6168012574198656
 30
0.0
  0
VERTEX
  5
B00
  8
SITES
 10
424514.4897337126894854
 20
519562.1597760674194433
 30
0.0
  0
VERTEX
  5
B01
  8
SITES
 10
424509.4652634417288937
 20
519560.024120130110532
 30
0.0
  0
VERTEX
  5
B02
  8
SITES
 10
424500.8607801215839572
 20
519559.3329214421100914
 30
0.0
  0
VERTEX
  5
B03
  8
SITES
 10
424490.8482127931201831
 20
519567.2483630285714753
 30
0.0
  0
VERTEX
  5
B04
  8
SITES
 10
424483.0012023692834191
 20
519580.1754308848758228
 30
0.0
  0
VERTEX
  5
B05
  8
SITES
 10
424484.4690883266739547
 20
519591.6409839689149521
 30
0.0
  0
VERTEX
  5
B06
  8
SITES
 10
424491.6591147357248701
 20
519598.7882670586113818
 30
0.0
  0
VERTEX
  5
B07
  8
SITES
 10
424498.1172556485980749
 20
519600.9196090309997089
 30
0.0
  0
SEQEND
  5
B08
  8
SITES
  0
POLYLINE
  5
48A
  8
SITES
 66
     1
 10
0.0
 20
0.0
 30
0.0
 70
     1
  0
VERTEX
  5
B09
  8
SITES
 10
429455.9198723011068068
 20
519578.327582620375324
 30
0.0
  0
VERTEX
  5
B0A
  8
SITES
 10
429462.3373054416151717
 20
519566.8388546294881962
 30
0.0
  0
VERTEX
  5
B0B
  8
SITES
 10
429459.435709701385349
 20
519555.3779718512087129
 30
0.0
  0
VERTEX
  5
B0C
  8
SITES
 10
429453.6945816117804497
 20
519553.2445473033003509
 30
0.0
  0
VERTEX
  5
B0D
  8
SITES
 10
429441.5146475841174833
 20
519555.4314059296739288
 30
0.0
  0
VERTEX
  5
B0E
  8
SITES
 10
429432.2363092345185578
 20
519569.0792462744284421
 30
0.0
  0
VERTEX
  5
B0F
  8
SITES
 10
429432.9809490508050658
 20
519578.3960169260972179
 30
0.0
  0
VERTEX
  5
B10
  8
SITES
 10
429435.8546988912275992
 20
519580.537971003272105
 30
0.0
  0
VERTEX
  5
B11
  8
SITES
 10
429450.1937455335864797
 20
519581.2121191822225228
 30
0.0
  0
SEQEND
  5
B12
  8
SITES
  0
POLYLINE
  5
48B
  8
SITES
 66
     1
 10
0.0
 20
0.0
 30
0.0
 70
     1
  0
VERTEX
  5
B13
  8
SITES
 10
427665.9811207614839077
 20
519592.9843321007210761
 30
0.0
  0
VERTEX
  5
B14
  8
SITES
 10
427664.5089075334835798
 20
519580.0853041227092035
 30
0.0
  0
VERTEX
  5
B15
  8
SITES
 10
427660.1928592172916979
 20
519575.0801091709872708
 30
0.0
  0
VERTEX
  5
B16
  8
SITES
 10
427651.5948790815891698
 20
519576.5394789344863966
 30
0.0
  0
VERTEX
  5
B17
  8
SITES
 10
427650.1975701772025786
 20
519588.7302442787913606
 30
0.0
  0
VERTEX
  5
B18
  8
SITES
 10
427654.5157755260006525
 20
519594.4522305499995127
 30
0.0
  0
VERTEX
  5
B19
  8
SITES
 10
427662.4097081110230647
 20
519597.2960658664233051
 30
0.0
  0
SEQEND
  5
B1A
  8
SITES
  0
POLYLINE
  5
48C
  8
SITES
 66
     1
 10
0.0
 20
0.0
 30
0.0
 70
     1
  0
VERTEX
  5
B1B
  8
SITES
 10
425015.0672910789144225
 20
519630.2035088383709081
 30
0.0
  0
VERTEX
  5
B1C
  8
SITES
 10
425009.9894860996864736
 20
519610.1463888058206066
 30
0.0
  0
VERTEX
  5
B1D
  8
SITES
 10
425002.7844501907238737
 20
519597.9810912471148185
 30
0.0
  0
VERTEX
  5
B1E
  8
SITES
 10
424993.4610125935869291
 20
519596.5751617957721464
 30
0.0
  0
VERTEX
  5
B1F
  8
SITES
 10
424981.29787302861223
 20
519604.4969839337281883
 30
0.0
  0
VERTEX
  5
B20
  8
SITES
 10
424981.3149303520913236
 20
519610.2318748692050576
 30
0.0
  0
VERTEX
  5
B21
  8
SITES
 10
424987.8266075212741271
 20
519630.2847793652908877
 30
0.0
  0
VERTEX
  5
B22
  8
SITES
 10
424990.6982673808815889
 20
519631.7099236177746207
 30
0.0
  0
VERTEX
  5
B23
  8
SITES
 10
425002.178735303285066
 20
519635.260041818022728
 30
0.0
  0
SEQEND
  5
B24
  8
SITES
  0
POLYLINE
  5
48D
  8
SITES
 66
     1
 10
0.0
 20
0.0
 30
0.0
 70
     1
  0
VERTEX
  5
B25
  8
SITES
 10
428242.4049633424729109
 20
519617.0721184978028759
 30
0.0
  0
VERTEX
  5
B26
  8
SITES
 10
428255.2846952097024769
 20
519609.1483729361207224
 30
0.0
  0
VERTEX
  5
B27
  8
SITES
 10
428258.8389554065070115
 20
519599.1017941429163329
 30
0.0
  0
VERTEX
  5
B28
  8
SITES
 10
428257.3838981349836104
 20
519591.937585444713477
 30
0.0
  0
VERTEX
  5
B29
  8
SITES
 10
428252.3382073562825099
 20
519582.6334863104857504
 30
0.0
  0
VERTEX
  5
B2A
  8
SITES
 10
428203.3937002206221223
 20
519516.1120046377182007
 30
0.0
  0
VERTEX
  5
B2B
  8
SITES
 10
428194.0683293071924709
 20
519513.9891744020860642
 30
0.0
  0
VERTEX
  5
B2C
  8
SITES
 10
428188.3420213597128168
 20
519516.8737023195135407
 30
0.0
  0
VERTEX
  5
B2D
  8
SITES
 10
428194.1495098454179242
 20
519541.229478137276601
 30
0.0
  0
VERTEX
  5
B2E
  8
SITES
 10
428210.0056319821160287
 20
519569.8564056311734021
 30
0.0
  0
VERTEX
  5
B2F
  8
SITES
 10
428223.7369629706954584
 20
519607.0918145449832082
 30
0.0
  0
VERTEX
  5
B30
  8
SITES
 10
428230.218494558474049
 20
519617.1084911620127968
 30
0.0
  0
VERTEX
  5
B31
  8
SITES
 10
428235.2449693165835924
 20
519619.9609597037779167
 30
0.0
  0
SEQEND
  5
B32
  8
SITES
  0
POLYLINE
  5
48E
  8
SITES
 66
     1
 10
0.0
 20
0.0
 30
0.0
 70
     1
  0
VERTEX
  5
B33
  8
SITES
 10
429522.7573477196856402
 20
519635.4762214256916195
 30
0.0
  0
VERTEX
  5
B34
  8
SITES
 10
429525.5947250325116329
 20
519625.4318676976836286
 30
0.0
  0
VERTEX
  5
B35
  8
SITES
 10
429524.1269197278888896
 20
519613.9666682970128022
 30
0.0
  0
VERTEX
  5
B36
  8
SITES
 10
429519.8086939557106234
 20
519608.244754828279838
 30
0.0
  0
VERTEX
  5
B37
  8
SITES
 10
429510.4919213447137736
 20
519608.9893939666217193
 30
0.0
  0
VERTEX
  5
B38
  8
SITES
 10
429499.7862621482927352
 20
519624.7920336220995523
 30
0.0
  0
VERTEX
  5
B39
  8
SITES
 10
429497.6699940725229681
 20
519636.267918630677741
 30
0.0
  0
VERTEX
  5
B3A
  8
SITES
 10
429499.1143692723126151
 20
519639.8478770775836892
 30
0.0
  0
VERTEX
  5
B3B
  8
SITES
 10
429507.0081385590019636
 20
519642.6917260710033588
 30
0.0
  0
SEQEND
  5
B3C
  8
SITES
  0
POLYLINE
  5
48F
  8
SITES
 66
     1
 10
0.0
 20
0.0
 30
0.0
 70
     1
  0
VERTEX
  5
B3D
  8
SITES
 10
427745.763118852628395
 20
519663.7152251523220912
 30
0.0
  0
VERTEX
  5
B3E
  8
SITES
 10
427741.4470706966239959
 20
519658.7100282603059895
 30
0.0
  0
VERTEX
  5
B3F
  8
SITES
 10
427734.2807140132063068
 20
519659.4482909496873617
 30
0.0
  0
VERTEX
  5
B40
  8
SITES
 10
427731.4454053884837776
 20
519670.2095900520216674
 30
0.0
  0
VERTEX
  5
B41
  8
SITES
 10
427741.4854989034938626
 20
519671.6133731357986107
 30
0.0
  0
SEQEND
  5
B42
  8
SITES
  0
POLYLINE
  5
490
  8
SITES
 66
     1
 10
0.0
 20
0.0
 30
0.0
 70
     1
  0
VERTEX
  5
B43
  8
SITES
 10
424460.420658957620617
 20
519700.6770130207878537
 30
0.0
  0
VERTEX
  5
B44
  8
SITES
 10
424463.2774157488020137
 20
519697.0841579149710014
 30
0.0
  0
VERTEX
  5
B45
  8
SITES
 10
424472.5582005307078362
 20
519684.1527790683903731
 30
0.0
  0
VERTEX
  5
B46
  8
SITES
 10
424475.3999582066899166
 20
519675.5418255283148028
 30
0.0
  0
VERTEX
  5
B47
  8
SITES
 10
424471.7728901162045076
 20
519661.2153016058728099
 30
0.0
  0
VERTEX
  5
B48
  8
SITES
 10
424468.1800346642849036
 20
519658.3585450885002501
 30
0.0
  0
VERTEX
  5
B49
  8
SITES
 10
424453.864096658595372
 20
519665.5699402826139703
 30
0.0
  0
VERTEX
  5
B4A
  8
SITES
 10
424446.7147558956057765
 20
519672.0430794106796384
 30
0.0
  0
VERTEX
  5
B4B
  8
SITES
 10
424439.6145262892823666
 20
519695.0040822454029694
 30
0.0
  0
VERTEX
  5
B4C
  8
SITES
 10
424445.3664653358864598
 20
519700.7219094607862644
 30
0.0
  0
SEQEND
  5
B4D
  8
SITES
  0
POLYLINE
  5
491
  8
SITES
 66
     1
 10
0.0
 20
0.0
 30
0.0
 70
     1
  0
VERTEX
  5
B4E
  8
SITES
 10
427758.0051576176774688
 20
519682.3169309389195405
 30
0.0
  0
VERTEX
  5
B4F
  8
SITES
 10
427760.8533093343721703
 20
519675.8567797224968672
 30
0.0
  0
VERTEX
  5
B50
  8
SITES
 10
427753.6698954030289315
 20
519670.8602109425119124
 30
0.0
  0
VERTEX
  5
B51
  8
SITES
 10
427751.5236354839289561
 20
519672.3002651507849805
 30
0.0
  0
VERTEX
  5
B52
  8
SITES
 10
427752.2724834549007937
 20
519683.0508790615131147
 30
0.0
  0
SEQEND
  5
B53
  8
SITES
  0
POLYLINE
  5
492
  8
SITES
 66
     1
 10
0.0
 20
0.0
 30
0.0
 70
     1
  0
VERTEX
  5
B54
  8
SITES
 10
428178.055321543419268
 20
519673.178758196416311
 30
0.0
  0
VERTEX
  5
B55
  8
SITES
 10
428173.7093686931184493
 20
519658.1377653243253008
 30
0.0
  0
VERTEX
  5
B56
  8
SITES
 10
428145.0653829199727625
 20
519668.259140822396148
 30
0.0
  0
VERTEX
  5
B57
  8
SITES
 10
428141.4960222722729668
 20
519673.2877711374894716
 30
0.0
  0
VERTEX
  5
B58
  8
SITES
 10
428145.1081252624862827
 20
519682.5960832345881499
 30
0.0
  0
VERTEX
  5
B59
  8
SITES
 10
428159.4621246042079292
 20
519688.2881782717886381
 30
0.0
  0
SEQEND
  5
B5A
  8
SITES
  0
POLYLINE
  5
493
  8
SITES
 66
     1
 10
0.0
 20
0.0
 30
0.0
 70
     1
  0
VERTEX
  5
B5B
  8
SITES
 10
424910.6641874720226042
 20
519717.2559837484150194
 30
0.0
  0
VERTEX
  5
B5C
  8
SITES
 10
424916.3777077923878096
 20
519710.0702655034838244
 30
0.0
  0
VERTEX
  5
B5D
  8
SITES
 10
424922.0270179836079478
 20
519681.378658929374069
 30
0.0
  0
VERTEX
  5
B5E
  8
SITES
 10
424914.8519843043759465
 20
519679.249470382113941
 30
0.0
  0
VERTEX
  5
B5F
  8
SITES
 10
424899.0938293039798737
 20
519683.5976423242827877
 30
0.0
  0
VERTEX
  5
B60
  8
SITES
 10
424890.5278638098970987
 20
519695.8099921466200612
 30
0.0
  0
VERTEX
  5
B61
  8
SITES
 10
424884.8463988120784052
 20
519713.7486031479784288
 30
0.0
  0
VERTEX
  5
B62
  8
SITES
 10
424889.1646717325202189
 20
519719.4706510495743714
 30
0.0
  0
VERTEX
  5
B63
  8
SITES
 10
424891.3173872280749492
 20
519720.1811663415282965
 30
0.0
  0
VERTEX
  5
B64
  8
SITES
 10
424892.757530584698543
 20
519722.3274111403734423
 30
0.0
  0
VERTEX
  5
B65
  8
SITES
 10
424894.1934599311789498
 20
519723.0399835595744662
 30
0.0
  0
SEQEND
  5
B66
  8
SITES
  0
POLYLINE
  5
494
  8
SITES
 66
     1
 10
0.0
 20
0.0
 30
0.0
 70
     1
  0
VERTEX
  5
B67
  8
SITES
 10
425391.7357880600029603
 20
519735.1766127927112393
 30
0.0
  0
VERTEX
  5
B68
  8
SITES
 10
425401.7504384376807138
 20
519727.9780442852061242
 30
0.0
  0
VERTEX
  5
B69
  8
SITES
 10
425402.4352710142848082
 20
519717.2230802195263095
 30
0.0
  0
VERTEX
  5
B6A
  8
SITES
 10
425398.1019936507800594
 20
519706.4829150438890792
 30
0.0
  0
VERTEX
  5
B6B
  8
SITES
 10
425393.0732987985829823
 20
519702.9135783683741465
 30
0.0
  0
VERTEX
  5
B6C
  8
SITES
 10
425385.9004136269795708
 20
519701.5012740640086122
 30
0.0
  0
VERTEX
  5
B6D
  8
SITES
 10
425377.3065964143024758
 20
519704.3944063285016455
 30
0.0
  0
VERTEX
  5
B6E
  8
SITES
 10
425378.8194785185041837
 20
519730.9139150768169202
 30
0.0
  0
VERTEX
  5
B6F
  8
SITES
 10
425383.1334427188267
 20
519735.2022959825117141
 30
0.0
  0
SEQEND
  5
B70
  8
SITES
  0
POLYLINE
  5
495
  8
SITES
 66
     1
 10
0.0
 20
0.0
 30
0.0
 70
     1
  0
VERTEX
  5
B71
  8
SITES
 10
427748.7544956956990063
 20
519705.2838979499065317
 30
0.0
  0
VERTEX
  5
B72
  8
SITES
 10
427750.8793851336813532
 20
519696.675329897319898
 30
0.0
  0
VERTEX
  5
B73
  8
SITES
 10
427742.9748660416807979
 20
519690.2472351557807997
 30
0.0
  0
VERTEX
  5
B74
  8
SITES
 10
427734.3811978099984117
 20
519693.1402855461928993
 30
0.0
  0
VERTEX
  5
B75
  8
SITES
 10
427733.6856772277969867
 20
519700.3108563416171819
 30
0.0
  0
VERTEX
  5
B76
  8
SITES
 10
427738.0018247041734867
 20
519705.3160537243820727
 30
0.0
  0
VERTEX
  5
B77
  8
SITES
 10
427742.3093442599056289
 20
519707.4536856745835394
 30
0.0
  0
SEQEND
  5
B78
  8
SITES
  0
POLYLINE
  5
496
  8
SITES
 66
     1
 10
0.0
 20
0.0
 30
0.0
 70
     1
  0
VERTEX
  5
B79
  8
SITES
 10
424939.4027465885155834
 20
519738.6762943788780831
 30
0.0
  0
VERTEX
  5
B7A
  8
SITES
 10
424942.2466656357864849
 20
519730.7822173552121967
 30
0.0
  0
VERTEX
  5
B7B
  8
SITES
 10
424940.7509413023944944
 20
519709.9975284195970744
 30
0.0
  0
VERTEX
  5
B7C
  8
SITES
 10
424934.2906367948744446
 20
519707.1492960238829255
 30
0.0
  0
VERTEX
  5
B7D
  8
SITES
 10
424927.1284448291989975
 20
519709.321324594609905
 30
0.0
  0
VERTEX
  5
B7E
  8
SITES
 10
424917.8499056134023704
 20
519722.9695042492239736
 30
0.0
  0
VERTEX
  5
B7F
  8
SITES
 10
424917.1800720024039038
 20
519738.7425589438062161
 30
0.0
  0
VERTEX
  5
B80
  8
SITES
 10
424919.339158434595447
 20
519741.6036331460927613
 30
0.0
  0
VERTEX
  5
B81
  8
SITES
 10
424933.6828546210890636
 20
519743.711453799623996
 30
0.0
  0
SEQEND
  5
B82
  8
SITES
  0
POLYLINE
  5
497
  8
SITES
 66
     1
 10
0.0
 20
0.0
 30
0.0
 70
     1
  0
VERTEX
  5
B83
  8
SITES
 10
424283.5475209177820943
 20
519765.7228453974239528
 30
0.0
  0
VERTEX
  5
B84
  8
SITES
 10
424292.1157323207007721
 20
519754.227401157899294
 30
0.0
  0
VERTEX
  5
B85
  8
SITES
 10
424290.6328535804059356
 20
519737.7437571437912993
 30
0.0
  0
VERTEX
  5
B86
  8
SITES
 10
424285.5933886312996037
 20
519730.590104284521658
 30
0.0
  0
VERTEX
  5
B87
  8
SITES
 10
424276.2741823688265868
 20
519730.6178443020908162
 30
0.0
  0
VERTEX
  5
B88
  8
SITES
 10
424269.8309441959136166
 20
519733.5045968543854542
 30
0.0
  0
VERTEX
  5
B89
  8
SITES
 10
424266.270144762005657
 20
519741.4008172700996511
 30
0.0
  0
VERTEX
  5
B8A
  8
SITES
 10
424268.4634378448245116
 20
519755.7316481805755757
 30
0.0
  0
VERTEX
  5
B8B
  8
SITES
 10
424269.193164118216373
 20
519760.030701854324434
 30
0.0
  0
VERTEX
  5
B8C
  8
SITES
 10
424274.9451996664865874
 20
519765.7485277022933587
 30
0.0
  0
SEQEND
  5
B8D
  8
SITES
  0
POLYLINE
  5
498
  8
SITES
 66
     1
 10
0.0
 20
0.0
 30
0.0
 70
     1
  0
VERTEX
  5
B8E
  8
SITES
 10
429423.456089579674881
 20
519749.7514908579760231
 30
0.0
  0
VERTEX
  5
B8F
  8
SITES
 10
429431.3114302463945933
 20
519739.6921413657837547
 30
0.0
  0
VERTEX
  5
B90
  8
SITES
 10
429435.529071896802634
 20
519711.7224150272086263
 30
0.0
  0
VERTEX
  5
B91
  8
SITES
 10
429431.9298999612219632
 20
519706.7152391959098168
 30
0.0
  0
VERTEX
  5
B92
  8
SITES
 10
429424.765769648598507
 20
519708.170298996323254
 30
0.0
  0
VERTEX
  5
B93
  8
SITES
 10
429417.6443808558979072
 20
519723.9622473475174047
 30
0.0
  0
VERTEX
  5
B94
  8
SITES
 10
429415.570850785006769
 20
519749.7750179966096766
 30
0.0
  0
VERTEX
  5
B95
  8
SITES
 10
429417.0087537443032488
 20
519751.2043927909107879
 30
0.0
  0
SEQEND
  5
B96
  8
SITES
  0
POLYLINE
  5
499
  8
SITES
 66
     1
 10
0.0
 20
0.0
 30
0.0
 70
     1
  0
VERTEX
  5
B97
  8
SITES
 10
424974.6444486050750129
 20
519777.2820690281805582
 30
0.0
  0
VERTEX
  5
B98
  8
SITES
 10
424988.9410955565981567
 20
519763.6189905874780379
 30
0.0
  0
VERTEX
  5
B99
  8
SITES
 10
424992.4719052119762637
 20
519745.6867462192894891
 30
0.0
  0
VERTEX
  5
B9A
  8
SITES
 10
424988.8705179244861938
 20
519739.9625396695919335
 30
0.0
  0
VERTEX
  5
B9B
  8
SITES
 10
424973.8164041111012921
 20
519740.0074349304195493
 30
0.0
  0
VERTEX
  5
B9C
  8
SITES
 10
424963.1084038770059124
 20
519755.093601958011277
 30
0.0
  0
VERTEX
  5
B9D
  8
SITES
 10
424957.4227213292033412
 20
519771.5985427972045727
 30
0.0
  0
VERTEX
  5
B9E
  8
SITES
 10
424960.3136920713004656
 20
519779.4754650993854739
 30
0.0
  0
SEQEND
  5
B9F
  8
SITES
  0
POLYLINE
  5
49A
  8
SITES
 66
     1
 10
0.0
 20
0.0
 30
0.0
 70
     1
  0
VERTEX
  5
BA0
  8
SITES
 10
425342.5161623717285693
 20
519817.0462631225236692
 30
0.0
  0
VERTEX
  5
BA1
  8
SITES
 10
425351.7883442079182714
 20
519801.2475098358117975
 30
0.0
  0
VERTEX
  5
BA2
  8
SITES
 10
425351.5124597082030959
 20
519799.4074712913134135
 30
0.0
  0
VERTEX
  5
BA3
  8
SITES
 10
425349.5842622682102956
 20
519783.3324040601728484
 30
0.0
  0
VERTEX
  5
BA4
  8
SITES
 10
425339.509720319416374
 20
519770.4588334278087132
 30
0.0
  0
VERTEX
  5
BA5
  8
SITES
 10
425333.772667286277283
 20
519769.7591013219207525
 30
0.0
  0
VERTEX
  5
BA6
  8
SITES
 10
425322.3221869703265838
 20
519776.2450942795840092
 30
0.0
  0
VERTEX
  5
BA7
  8
SITES
 10
425313.7583664446137846
 20
519789.1742422921815887
 30
0.0
  0
VERTEX
  5
BA8
  8
SITES
 10
425308.7852509755757637
 20
519804.2432665940723382
 30
0.0
  0
VERTEX
  5
BA9
  8
SITES
 10
425308.8087758299079724
 20
519812.12872331001563
 30
0.0
  0
VERTEX
  5
BAA
  8
SITES
 10
425312.410165018227417
 20
519817.8529351336183026
 30
0.0
  0
VERTEX
  5
BAB
  8
SITES
 10
425327.4791892901994288
 20
519822.8260516853770241
 30
0.0
  0
SEQEND
  5
BAC
  8
SITES
  0
POLYLINE
  5
49B
  8
SITES
 66
     1
 10
0.0
 20
0.0
 30
0.0
 70
     1
  0
VERTEX
  5
BAD
  8
SITES
 10
428527.106220857182052
 20
519894.3622697535902262
 30
0.0
  0
VERTEX
  5
BAE
  8
SITES
 10
428533.5428592505049892
 20
519889.3250094564282335
 30
0.0
  0
VERTEX
  5
BAF
  8
SITES
 10
428539.2455506410915405
 20
519878.5552629117737524
 30
0.0
  0
VERTEX
  5
BB0
  8
SITES
 10
428537.7648159945965745
 20
519862.7889339674147777
 30
0.0
  0
VERTEX
  5
BB1
  8
SITES
 10
428533.4445478661218658
 20
519856.3501392686739564
 30
0.0
  0
VERTEX
  5
BB2
  8
SITES
 10
428526.2696493563125841
 20
519854.2209287728182971
 30
0.0
  0
VERTEX
  5
BB3
  8
SITES
 10
428512.6644837752101012
 20
519859.2794574315194041
 30
0.0
  0
VERTEX
  5
BB4
  8
SITES
 10
428504.0901085510267876
 20
519868.6241449590888806
 30
0.0
  0
VERTEX
  5
BB5
  8
SITES
 10
428499.1149942757911049
 20
519882.9760977445985191
 30
0.0
  0
VERTEX
  5
BB6
  8
SITES
 10
428496.975099760282319
 20
519886.5667317510233261
 30
0.0
  0
VERTEX
  5
BB7
  8
SITES
 10
428506.3284133825218305
 20
519898.0084787760861218
 30
0.0
  0
SEQEND
  5
BB8
  8
SITES
  0
POLYLINE
  5
49C
  8
SITES
 66
     1
 10
0.0
 20
0.0
 30
0.0
 70
     1
  0
VERTEX
  5
BB9
  8
SITES
 10
424488.3457729063811712
 20
519929.9922024153056554
 30
0.0
  0
VERTEX
  5
BBA
  8
SITES
 10
424490.0054444284760393
 20
519928.8739900275249965
 30
0.0
  0
VERTEX
  5
BBB
  8
SITES
 10
424491.667197362112347
 20
519927.1599103686749004
 30
0.0
  0
VERTEX
  5
BBC
  8
SITES
 10
424493.3317888770252466
 20
519924.8821412035031244
 30
0.0
  0
VERTEX
  5
BBD
  8
SITES
 10
424495.488748857518658
 20
519921.3685107746277936
 30
0.0
  0
VERTEX
  5
BBE
  8
SITES
 10
424496.8567552510066889
 20
519918.7095269801211543
 30
0.0
  0
VERTEX
  5
BBF
  8
SITES
 10
424497.9553454035194591
 20
519915.7542030328186229
 30
0.0
  0
VERTEX
  5
BC0
  8
SITES
 10
424498.7857225034967996
 20
519912.4994427543715574
 30
0.0
  0
VERTEX
  5
BC1
  8
SITES
 10
424499.3496945588267408
 20
519908.938153641007375
 30
0.0
  0
VERTEX
  5
BC2
  8
SITES
 10
424499.6479415050125681
 20
519905.0852258470258676
 30
0.0
  0
VERTEX
  5
BC3
  8
SITES
 10
424499.6867190691991709
 20
519900.894800691283308
 30
0.0
  0
VERTEX
  5
BC4
  8
SITES
 10
424499.4675703697139397
 20
519896.3332045102724805
 30
0.0
  0
VERTEX
  5
BC5
  8
SITES
 10
424498.9831989142112434
 20
519891.2495366206858307
 30
0.0
  0
VERTEX
  5
BC6
  8
SITES
 10
424498.2524528707144782
 20
519886.1295712493010797
 30
0.0
  0
VERTEX
  5
BC7
  8
SITES
 10
424497.2994531797012314
 20
519881.6291668122285046
 30
0.0
  0
VERTEX
  5
BC8
  8
SITES
 10
424496.0957946208072826
 20
519877.6156817121081986
 30
0.0
  0
VERTEX
  5
BC9
  8
SITES
 10
424494.6307263434864581
 20
519874.0576245507108979
 30
0.0
  0
VERTEX
  5
BCA
  8
SITES
 10
424493.3278973725973628
 20
519871.5983876095851883
 30
0.0
  0
VERTEX
  5
BCB
  8
SITES
 10
424491.7245191857218742
 20
519869.0372293893015012
 30
0.0
  0
VERTEX
  5
BCC
  8
SITES
 10
424487.4300214182003401
 20
519863.3260089781251736
 30
0.0
  0
VERTEX
  5
BCD
  8
SITES
 10
424483.7081252405187115
 20
519858.5930349685950205
 30
0.0
  0
VERTEX
  5
BCE
  8
SITES
 10
424481.6465269214240834
 20
519856.298882198985666
 30
0.0
  0
VERTEX
  5
BCF
  8
SITES
 10
424479.4941771146841347
 20
519854.4743713032221422
 30
0.0
  0
VERTEX
  5
BD0
  8
SITES
 10
424477.3639312437735498
 20
519853.3198059783899225
 30
0.0
  0
VERTEX
  5
BD1
  8
SITES
 10
424474.9304195374133997
 20
519852.6103210563887842
 30
0.0
  0
VERTEX
  5
BD2
  8
SITES
 10
424472.1963695992017165
 20
519852.2472912864759564
 30
0.0
  0
VERTEX
  5
BD3
  8
SITES
 10
424469.3469153441255912
 20
519852.2554420339874923
 30
0.0
  0
VERTEX
  5
BD4
  8
SITES
 10
424466.6088926725788042
 20
519852.6350710698752664
 30
0.0
  0
VERTEX
  5
BD5
  8
SITES
 10
424464.0140910857007839
 20
519853.3005819310783409
 30
0.0
  0
VERTEX
  5
BD6
  8
SITES
 10
424462.3119935094728135
 20
519854.0815821950091049
 30
0.0
  0
VERTEX
  5
BD7
  8
SITES
 10
424461.2157878346042708
 20
519855.0687296442920342
 30
0.0
  0
VERTEX
  5
BD8
  8
SITES
 10
424460.2942360423039645
 20
519856.5278658919269219
 30
0.0
  0
VERTEX
  5
BD9
  8
SITES
 10
424458.0364611630793661
 20
519862.6968474749010056
 30
0.0
  0
VERTEX
  5
BDA
  8
SITES
 10
424455.3839853332028724
 20
519869.0072084072162397
 30
0.0
  0
VERTEX
  5
BDB
  8
SITES
 10
424453.594012966088485
 20
519874.0037506229709834
 30
0.0
  0
VERTEX
  5
BDC
  8
SITES
 10
424452.3519151245127432
 20
519878.5664257229072973
 30
0.0
  0
VERTEX
  5
BDD
  8
SITES
 10
424451.6445790759753436
 20
519882.788249367615208
 30
0.0
  0
VERTEX
  5
BDE
  8
SITES
 10
424451.280163237825036
 20
519887.5674212644225918
 30
0.0
  0
VERTEX
  5
BDF
  8
SITES
 10
424451.2860856907209381
 20
519891.8856124199228361
 30
0.0
  0
VERTEX
  5
BE0
  8
SITES
 10
424451.6624902921030298
 20
519895.7854922381811775
 30
0.0
  0
VERTEX
  5
BE1
  8
SITES
 10
424452.4105671287979931
 20
519899.2739573147264309
 30
0.0
  0
VERTEX
  5
BE2
  8
SITES
 10
424453.4964993704925291
 20
519902.3062954971101135
 30
0.0
  0
VERTEX
  5
BE3
  8
SITES
 10
424455.0927971557248384
 20
519905.5411580711952411
 30
0.0
  0
VERTEX
  5
BE4
  8
SITES
 10
424457.208088334009517
 20
519909.0287201760802418
 30
0.0
  0
VERTEX
  5
BE5
  8
SITES
 10
424460.3388388543971814
 20
519913.5877432026900351
 30
0.0
  0
VERTEX
  5
BE6
  8
SITES
 10
424465.65682011062745
 20
519921.2601930839009583
 30
0.0
  0
VERTEX
  5
BE7
  8
SITES
 10
424469.0762459833058529
 20
519925.3749162456952035
 30
0.0
  0
VERTEX
  5
BE8
  8
SITES
 10
424470.8477673250017688
 20
519927.0494353584945202
 30
0.0
  0
VERTEX
  5
BE9
  8
SITES
 10
424472.6055586604052223
 20
519928.3737891574273817
 30
0.0
  0
VERTEX
  5
BEA
  8
SITES
 10
424474.3719818886020221
 20
519929.3646949527901597
 30
0.0
  0
VERTEX
  5
BEB
  8
SITES
 10
424476.1590199450729415
 20
519930.0285638598143123
 30
0.0
  0
VERTEX
  5
BEC
  8
SITES
 10
424479.6875065893982537
 20
519930.7644688974833116
 30
0.0
  0
VERTEX
  5
BED
  8
SITES
 10
424483.0946203476050869
 20
519931.0136657140101306
 30
0.0
  0
VERTEX
  5
BEE
  8
SITES
 10
424486.0128592302789912
 20
519930.7511894460185431
 30
0.0
  0
SEQEND
  5
BEF
  8
SITES
  0
POLYLINE
  5
49D
  8
SITES
 66
     1
 10
0.0
 20
0.0
 30
0.0
 70
     1
  0
VERTEX
  5
BF0
  8
SITES
 10
425032.5151952172745951
 20
519952.0253201564773917
 30
0.0
  0
VERTEX
  5
BF1
  8
SITES
 10
425033.610136523086112
 20
519950.7087071778951213
 30
0.0
  0
VERTEX
  5
BF2
  8
SITES
 10
425034.6499333385145292
 20
519949.0756496588001028
 30
0.0
  0
VERTEX
  5
BF3
  8
SITES
 10
425038.2201953363255598
 20
519941.9721571491099894
 30
0.0
  0
VERTEX
  5
BF4
  8
SITES
 10
425039.965015685709659
 20
519939.4780461139744148
 30
0.0
  0
VERTEX
  5
BF5
  8
SITES
 10
425044.7763455811073072
 20
519933.8496216657804325
 30
0.0
  0
VERTEX
  5
BF6
  8
SITES
 10
425046.6257199614192359
 20
519931.3331640235846862
 30
0.0
  0
VERTEX
  5
BF7
  8
SITES
 10
425047.922036784584634
 20
519928.6309135106857866
 30
0.0
  0
VERTEX
  5
BF8
  8
SITES
 10
425048.1893887568730861
 20
519927.3792662607738748
 30
0.0
  0
VERTEX
  5
BF9
  8
SITES
 10
425048.2091618306003511
 20
519926.1711623577866703
 30
0.0
  0
VERTEX
  5
BFA
  8
SITES
 10
425047.5781023728195578
 20
519923.289608609280549
 30
0.0
  0
VERTEX
  5
BFB
  8
SITES
 10
425046.2321599415154196
 20
519920.1780812360811979
 30
0.0
  0
VERTEX
  5
BFC
  8
SITES
 10
425044.4281836671871133
 20
519917.4194978853920475
 30
0.0
  0
VERTEX
  5
BFD
  8
SITES
 10
425042.4422208686009981
 20
519915.4354176202905364
 30
0.0
  0
VERTEX
  5
BFE
  8
SITES
 10
425041.2671448768815026
 20
519914.6913096735952422
 30
0.0
  0
VERTEX
  5
BFF
  8
SITES
 10
425039.876365102478303
 20
519914.068331083690282
 30
0.0
  0
VERTEX
  5
C00
  8
SITES
 10
425036.5318894499214366
 20
519913.2193483986193314
 30
0.0
  0
VERTEX
  5
C01
  8
SITES
 10
425032.6516288017155603
 20
519912.957139148726128
 30
0.0
  0
VERTEX
  5
C02
  8
SITES
 10
425028.8154080809908919
 20
519913.3254336218815297
 30
0.0
  0
VERTEX
  5
C03
  8
SITES
 10
425026.013505234324839
 20
519914.0264473835122772
 30
0.0
  0
VERTEX
  5
C04
  8
SITES
 10
425023.4318572512129322
 20
519915.0216386265819892
 30
0.0
  0
VERTEX
  5
C05
  8
SITES
 10
425021.2428288151859306
 20
519916.2433825171901844
 30
0.0
  0
VERTEX
  5
C06
  8
SITES
 10
425019.5090238185948692
 20
519917.6543881737161428
 30
0.0
  0
VERTEX
  5
C07
  8
SITES
 10
425017.8351687862887047
 20
519919.8317205911735073
 30
0.0
  0
VERTEX
  5
C08
  8
SITES
 10
425015.9418443507747725
 20
519923.3999627414741553
 30
0.0
  0
VERTEX
  5
C09
  8
SITES
 10
425014.4002205631113611
 20
519926.9270965657779016
 30
0.0
  0
VERTEX
  5
C0A
  8
SITES
 10
425013.161045579414349
 20
519930.631799844908528
 30
0.0
  0
VERTEX
  5
C0B
  8
SITES
 10
425012.287625115015544
 20
519934.3227935435133986
 30
0.0
  0
VERTEX
  5
C0C
  8
SITES
 10
425011.8077985916170292
 20
519937.878701685112901
 30
0.0
  0
VERTEX
  5
C0D
  8
SITES
 10
425011.7326354025281034
 20
519941.1645360576803796
 30
0.0
  0
VERTEX
  5
C0E
  8
SITES
 10
425012.0543508901027963
 20
519944.1728917778818868
 30
0.0
  0
VERTEX
  5
C0F
  8
SITES
 10
425012.7683010675827973
 20
519946.8636916211107746
 30
0.0
  0
VERTEX
  5
C10
  8
SITES
 10
425013.8683212510077283
 20
519949.2134444148978218
 30
0.0
  0
VERTEX
  5
C11
  8
SITES
 10
425015.3399550314061344
 20
519951.5013300679856911
 30
0.0
  0
VERTEX
  5
C12
  8
SITES
 10
425016.7611664870055392
 20
519953.3011010803747922
 30
0.0
  0
VERTEX
  5
C13
  8
SITES
 10
425018.1876227292232215
 20
519954.6833797210128978
 30
0.0
  0
VERTEX
  5
C14
  8
SITES
 10
425019.622421661100816
 20
519955.6480701221735217
 30
0.0
  0
VERTEX
  5
C15
  8
SITES
 10
425022.6552171887014993
 20
519956.8048219077754766
 30
0.0
  0
VERTEX
  5
C16
  8
SITES
 10
425024.0931507069035433
 20
519957.0565300037269481
 30
0.0
  0
VERTEX
  5
C17
  8
SITES
 10
425025.3616263046860695
 20
519957.0646908649941906
 30
0.0
  0
VERTEX
  5
C18
  8
SITES
 10
425026.8754644013824873
 20
519956.6624697165098041
 30
0.0
  0
VERTEX
  5
C19
  8
SITES
 10
425028.500509837991558
 20
519955.7370715240831487
 30
0.0
  0
VERTEX
  5
C1A
  8
SITES
 10
425030.2339334039133973
 20
519954.3122754319920205
 30
0.0
  0
SEQEND
  5
C1B
  8
SITES
  0
POLYLINE
  5
49E
  8
SITES
 66
     1
 10
0.0
 20
0.0
 30
0.0
 70
     1
  0
VERTEX
  5
C1C
  8
SITES
 10
425108.0274623102159239
 20
520032.8060713200829923
 30
0.0
  0
VERTEX
  5
C1D
  8
SITES
 10
425110.7534235215280205
 20
520032.4072408556821756
 30
0.0
  0
VERTEX
  5
C1E
  8
SITES
 10
425113.5276804263121448
 20
520031.6047645041835494
 30
0.0
  0
VERTEX
  5
C1F
  8
SITES
 10
425116.3580305486102588
 20
520030.396254226390738
 30
0.0
  0
VERTEX
  5
C20
  8
SITES
 10
425119.2597712483839132
 20
520028.7753347036195919
 30
0.0
  0
VERTEX
  5
C21
  8
SITES
 10
425122.1980881217750721
 20
520026.772038551105652
 30
0.0
  0
VERTEX
  5
C22
  8
SITES
 10
425125.2712858538143337
 20
520024.3289362987270579
 30
0.0
  0
VERTEX
  5
C23
  8
SITES
 10
425128.5260713011957705
 20
520021.4152114990865812
 30
0.0
  0
VERTEX
  5
C24
  8
SITES
 10
425132.3558233035146259
 20
520017.6792342634289525
 30
0.0
  0
VERTEX
  5
C25
  8
SITES
 10
425136.688382838096004
 20
520013.2054489299189299
 30
0.0
  0
VERTEX
  5
C26
  8
SITES
 10
425139.5484389145276509
 20
520009.7693813269142993
 30
0.0
  0
VERTEX
  5
C27
  8
SITES
 10
425141.6769256065017544
 20
520006.4825448776246049
 30
0.0
  0
VERTEX
  5
C28
  8
SITES
 10
425143.0658946058247238
 20
520003.309954349999316
 30
0.0
  0
VERTEX
  5
C29
  8
SITES
 10
425143.9679893755237572
 20
520000.3084008661098778
 30
0.0
  0
VERTEX
  5
C2A
  8
SITES
 10
425144.4741927405120805
 20
519997.8977017304860055
 30
0.0
  0
VERTEX
  5
C2B
  8
SITES
 10
425144.6439334336901084
 20
519995.7951386017957702
 30
0.0
  0
VERTEX
  5
C2C
  8
SITES
 10
425144.4718341159750707
 20
519993.9864147109910846
 30
0.0
  0
VERTEX
  5
C2D
  8
SITES
 10
425143.6277415098738857
 20
519991.399268242821563
 30
0.0
  0
VERTEX
  5
C2E
  8
SITES
 10
425142.2215284554986283
 20
519988.8312693465268239
 30
0.0
  0
VERTEX
  5
C2F
  8
SITES
 10
425140.5145915072062053
 20
519986.7506244102260098
 30
0.0
  0
VERTEX
  5
C30
  8
SITES
 10
425138.7112630738993175
 20
519985.4012263308977708
 30
0.0
  0
VERTEX
  5
C31
  8
SITES
 10
425137.0661758761270903
 20
519984.8469636950176209
 30
0.0
  0
VERTEX
  5
C32
  8
SITES
 10
425134.9660220901714638
 20
519984.668832270312123
 30
0.0
  0
VERTEX
  5
C33
  8
SITES
 10
425132.4456070674932562
 20
519984.8436944474815391
 30
0.0
  0
VERTEX
  5
C34
  8
SITES
 10
425128.6752499415888451
 20
519985.4311170930159278
 30
0.0
  0
VERTEX
  5
C35
  8
SITES
 10
425124.7690033029066399
 20
519986.313348890398629
 30
0.0
  0
VERTEX
  5
C36
  8
SITES
 10
425121.0726497661089525
 20
519987.6185519195860252
 30
0.0
  0
VERTEX
  5
C37
  8
SITES
 10
425117.8032352128066123
 20
519989.2689673699787818
 30
0.0
  0
VERTEX
  5
C38
  8
SITES
 10
425115.0719556591939181
 20
519991.2066830578260124
 30
0.0
  0
VERTEX
  5
C39
  8
SITES
 10
425113.3273580631939694
 20
519992.9218555213883519
 30
0.0
  0
VERTEX
  5
C3A
  8
SITES
 10
425111.6173457829863764
 20
519995.0858502343762666
 30
0.0
  0
VERTEX
  5
C3B
  8
SITES
 10
425109.9116073396871798
 20
519997.7240091111161746
 30
0.0
  0
VERTEX
  5
C3C
  8
SITES
 10
425107.9332798857940361
 20
520001.2641602543881163
 30
0.0
  0
VERTEX
  5
C3D
  8
SITES
 10
425106.3406844171113335
 20
520004.7207784000784159
 30
0.0
  0
VERTEX
  5
C3E
  8
SITES
 10
425104.9722842468181625
 20
520008.7429838585085236
 30
0.0
  0
VERTEX
  5
C3F
  8
SITES
 10
425103.8112815645872615
 20
520013.2622039379202761
 30
0.0
  0
VERTEX
  5
C40
  8
SITES
 10
425102.2561106896027923
 20
520020.6365500452229753
 30
0.0
  0
VERTEX
  5
C41
  8
SITES
 10
425100.7860448932042345
 20
520025.9057238674722612
 30
0.0
  0
VERTEX
  5
C42
  8
SITES
 10
425100.6625720391748473
 20
520027.3224414301221259
 30
0.0
  0
VERTEX
  5
C43
  8
SITES
 10
425100.8459579169866629
 20
520028.5263155201100744
 30
0.0
  0
VERTEX
  5
C44
  8
SITES
 10
425101.408119230880402
 20
520029.9978946042247117
 30
0.0
  0
VERTEX
  5
C45
  8
SITES
 10
425102.1250077271834016
 20
520031.2879077745019458
 30
0.0
  0
VERTEX
  5
C46
  8
SITES
 10
425102.9073958246153779
 20
520032.2379518348025158
 30
0.0
  0
VERTEX
  5
C47
  8
SITES
 10
425103.7262427057139575
 20
520032.8189095864072442
 30
0.0
  0
VERTEX
  5
C48
  8
SITES
 10
425105.1751579099218361
 20
520033.0787266007973813
 30
0.0
  0
SEQEND
  5
C49
  8
SITES
  0
POLYLINE
  5
49F
  8
SITES
 66
     1
 10
0.0
 20
0.0
 30
0.0
 70
     1
  0
VERTEX
  5
C4A
  8
SITES
 10
428286.6711694789119065
 20
520037.7337124093901366
 30
0.0
  0
VERTEX
  5
C4B
  8
SITES
 10
428301.3515028621186502
 20
520029.069073262216989
 30
0.0
  0
VERTEX
  5
C4C
  8
SITES
 10
428294.8151781026972458
 20
519988.0342016129870899
 30
0.0
  0
VERTEX
  5
C4D
  8
SITES
 10
428280.7245345257106237
 20
519966.7829188184114173
 30
0.0
  0
VERTEX
  5
C4E
  8
SITES
 10
428274.2730032316176221
 20
519966.8021282610716298
 30
0.0
  0
VERTEX
  5
C4F
  8
SITES
 10
428254.9480021796189249
 20
519976.8957486135768704
 30
0.0
  0
VERTEX
  5
C50
  8
SITES
 10
428247.8181968400022015
 20
519989.8204761291272007
 30
0.0
  0
VERTEX
  5
C51
  8
SITES
 10
428248.5627241603797302
 20
519999.1374194865929894
 30
0.0
  0
VERTEX
  5
C52
  8
SITES
 10
428271.6259556146105751
 20
520040.6459675562218763
 30
0.0
  0
SEQEND
  5
C53
  8
SITES
  0
POLYLINE
  5
4A0
  8
SITES
 66
     1
 10
0.0
 20
0.0
 30
0.0
 70
     1
  0
VERTEX
  5
C54
  8
SITES
 10
428162.4178637319128029
 20
519194.7311530968290754
 30
0.0
  0
VERTEX
  5
C55
  8
SITES
 10
428155.7142816724954173
 20
519203.1592540402780287
 30
0.0
  0
VERTEX
  5
C56
  8
SITES
 10
428155.749312506581191
 20
519214.9306142333080061
 30
0.0
  0
VERTEX
  5
C57
  8
SITES
 10
428160.8258776121074334
 20
519225.0052979107713327
 30
0.0
  0
VERTEX
  5
C58
  8
SITES
 10
428175.9653520291903988
 20
519224.960193921928294
 30
0.0
  0
VERTEX
  5
C59
  8
SITES
 10
428180.986826557724271
 20
519216.5370823690900579
 30
0.0
  0
VERTEX
  5
C5A
  8
SITES
 10
428179.2545170456287451
 20
519199.7258845986798406
 30
0.0
  0
VERTEX
  5
C5B
  8
SITES
 10
428177.5523479850962758
 20
519193.0044392655254342
 30
0.0
  0
VERTEX
  5
C5C
  8
SITES
 10
428169.141506573476363
 20
519193.0294865856994875
 30
0.0
  0
SEQEND
  5
C5D
  8
SITES
  0
POLYLINE
  5
4A1
  8
SITES
 66
     1
 10
0.0
 20
0.0
 30
0.0
 70
     1
  0
VERTEX
  5
C5E
  8
SITES
 10
428144.2779049639939331
 20
519644.6052579334937036
 30
0.0
  0
VERTEX
  5
C5F
  8
SITES
 10
428150.7423770613968372
 20
519648.8870962177170441
 30
0.0
  0
VERTEX
  5
C60
  8
SITES
 10
428158.6149474497069605
 20
519644.5625146448728628
 30
0.0
  0
VERTEX
  5
C61
  8
SITES
 10
428161.4694730556220748
 20
519640.2528330439818092
 30
0.0
  0
VERTEX
  5
C62
  8
SITES
 10
428162.8796282135881484
 20
519632.3633049253257923
 30
0.0
  0
VERTEX
  5
C63
  8
SITES
 10
428158.5635750808869489
 20
519627.3581031286157668
 30
0.0
  0
VERTEX
  5
C64
  8
SITES
 10
428148.5319995487807319
 20
519628.8217881752061658
 30
0.0
  0
VERTEX
  5
C65
  8
SITES
 10
428144.9669537396985106
 20
519635.2841031872085296
 30
0.0
  0
SEQEND
  5
C66
  8
SITES
  0
ENDBLK
  5
4A3
  8
0
  0
ENDSEC
  0
SECTION
  2
ENTITIES
  0
TEXT
  5
F1
  8
LABELS
 10
426259.7593000000924803
 20
514031.1872000005096197
 30
0.0
 40
10.0
  1
345S
  0
TEXT
  5
F6
  8
LABELS
 10
426736.7028000000864267
 20
514534.2793000004021451
 30
0.0
 40
10.0
  1
361S
  0
TEXT
  5
FB
  8
LABELS
 10
426731.94089999969583
 20
514698.8266000003204681
 30
0.0
 40
10.0
  1
428S
  0
TEXT
  5
100
  8
LABELS
 10
427546.8898999997763894
 20
514702.383899999782443
 30
0.0
 40
10.0
  1
149S
  0
TEXT
  5
105
  8
LABELS
 10
426167.0308999996050261
 20
514995.2530000004917383
 30
0.0
 40
10.0
  1
757S
  0
TEXT
  5
10A
  8
LABELS
 10
426318.4727999996975996
 20
515312.9102999995811842
 30
0.0
 40
10.0
  1
765S
  0
TEXT
  5
10F
  8
LABELS
 10
427822.1862000004039146
 20
515347.8803000004263595
 30
0.0
 40
10.0
  1
157S
  0
TEXT
  5
114
  8
LABELS
 10
427944.9977000001817942
 20
515619.2492999993264675
 30
0.0
 40
10.0
  1
260S
  0
TEXT
  5
119
  8
LABELS
 10
427994.0724000000045635
 20
515730.7542000003159046
 30
0.0
 40
10.0
  1
283S
  0
TEXT
  5
11E
  8
LABELS
 10
427918.9324999999953434
 20
515747.0644000004976988
 30
0.0
 40
10.0
  1
290S
  0
TEXT
  5
123
  8
LABELS
 10
427959.7085999996052124
 20
516221.0397999993874691
 30
0.0
 40
10.0
  1
288S
  0
TEXT
  5
128
  8
LABELS
 10
427945.0994999996037222
 20
516320.3714000005275011
 30
0.0
 40
10.0
  1
287S
  0
TEXT
  5
12D
  8
LABELS
 10
428023.9517999999807216
 20
516383.7114000003784895
 30
0.0
 40
10.0
  1
286S
  0
TEXT
  5
132
  8
LABELS
 10
428140.7768999999971129
 20
516421.8671000003232621
 30
0.0
 40
10.0
  1
285S
  0
TEXT
  5
137
  8
LABELS
 10
428785.1606999998912215
 20
516753.5854999999864958
 30
0.0
 40
10.0
  1
743S
  0
TEXT
  5
13C
  8
LABELS
 10
427471.738599999807775
 20
516964.2444999999715947
 30
0.0
 40
10.0
  1
405S
  0
TEXT
  5
141
  8
LABELS
 10
427479.5481000003055669
 20
517008.1259000002755783
 30
0.0
 40
10.0
  1
406S
  0
TEXT
  5
146
  8
LABELS
 10
427844.5608000000938773
 20
516984.3284000008716248
 30
0.0
 40
10.0
  1
048S
  0
TEXT
  5
14B
  8
LABELS
 10
429041.4053999995230697
 20
517053.625399999320507
 30
0.0
 40
10.0
  1
106S
  0
TEXT
  5
150
  8
LABELS
 10
427711.3256999999284744
 20
517092.1125000006868504
 30
0.0
 40
10.0
  1
409S
  0
TEXT
  5
155
  8
LABELS
 10
427856.3410000000149012
 20
517100.305800000205636
 30
0.0
 40
10.0
  1
414S
  0
TEXT
  5
15A
  8
LABELS
 10
428679.5395000000135042
 20
517109.3133000003872439
 30
0.0
 40
10.0
  1
061S
  0
TEXT
  5
15F
  8
LABELS
 10
427820.7459000003873371
 20
517125.7226999998092651
 30
0.0
 40
10.0
  1
412S
  0
TEXT
  5
164
  8
LABELS
 10
427771.7052999996230938
 20
517140.1097999996272847
 30
0.0
 40
10.0
  1
410S
  0
TEXT
  5
169
  8
LABELS
 10
426165.7188999996869825
 20
517214.8877000007778406
 30
0.0
 40
10.0
  1
116S
  0
TEXT
  5
16E
  8
LABELS
 10
427922.6025999999255873
 20
517233.2306999993743375
 30
0.0
 40
10.0
  1
342S
  0
TEXT
  5
173
  8
LABELS
 10
428966.7104000002145767
 20
517264.1135000009089708
 30
0.0
 40
10.0
  1
130S
  0
TEXT
  5
178
  8
LABELS
 10
429019.2884000000194646
 20
517283.0763000007718801
 30
0.0
 40
10.0
  1
131S
  0
TEXT
  5
17D
  8
LABELS
 10
427939.9963999995961785
 20
517302.3127999996067956
 30
0.0
 40
10.0
  1
340S
  0
TEXT
  5
182
  8
LABELS
 10
427414.4287000001058914
 20
517467.4919000007794239
 30
0.0
 40
10.0
  1
324S
  0
TEXT
  5
187
  8
LABELS
 10
427538.7989999997080304
 20
517525.3087000009254552
 30
0.0
 40
10.0
  1
326S
  0
TEXT
  5
18C
  8
LABELS
 10
427607.4848999995738268
 20
517579.5283000004128553
 30
0.0
 40
10.0
  1
325S
  0
TEXT
  5
191
  8
LABELS
 10
428916.5820000004023314
 20
517533.035399999585934
 30
0.0
 40
10.0
  1
460S
  0
TEXT
  5
196
  8
LABELS
 10
428982.3768999996827915
 20
517528.5340999998152256
 30
0.0
 40
10.0
  1
458S
  0
TEXT
  5
19B
  8
LABELS
 10
428869.9504000004963018
 20
517571.9002000000909902
 30
0.0
 40
10.0
  1
461S
  0
TEXT
  5
1A0
  8
LABELS
 10
428946.6070999996154569
 20
517577.5052000004798174
 30
0.0
 40
10.0
  1
420S
  0
TEXT
  5
1A5
  8
LABELS
 10
427854.4698000000789762
 20
517638.8813000004738569
 30
0.0
 40
10.0
  1
173S
  0
TEXT
  5
1AA
  8
LABELS
 10
427746.6824000002816319
 20
517652.5684999990044162
 30
0.0
 40
10.0
  1
231S
  0
TEXT
  5
1AF
  8
LABELS
 10
429394.0165999996825121
 20
517723.8424999992712401
 30
0.0
 40
10.0
  1
147S
  0
TEXT
  5
1B4
  8
LABELS
 10
427838.042699999990873
 20
517823.3765999990864657
 30
0.0
 40
10.0
  1
336S
  0
TEXT
  5
1B9
  8
LABELS
 10
428817.760200000309851
 20
517910.4567000010283664
 30
0.0
 40
10.0
  1
454S
  0
TEXT
  5
1BE
  8
LABELS
 10
428254.1909999997005798
 20
517945.5889999996870756
 30
0.0
 40
10.0
  1
181S
  0
TEXT
  5
1C3
  8
LABELS
 10
427449.3339000000851229
 20
518075.1543000005185604
 30
0.0
 40
10.0
  1
257S
  0
TEXT
  5
1C8
  8
LABELS
 10
428883.698499999998603
 20
517983.6096000000834465
 30
0.0
 40
10.0
  1
453S
  0
TEXT
  5
1CD
  8
LABELS
 10
427522.0363999996916391
 20
518090.2057000006898306
 30
0.0
 40
10.0
  1
256S
  0
TEXT
  5
1D2
  8
LABELS
 10
427959.8547000000835396
 20
518123.8682000003755093
 30
0.0
 40
10.0
  1
329S
  0
TEXT
  5
1D7
  8
LABELS
 10
427917.0054000003146939
 20
518124.6973000001162291
 30
0.0
 40
10.0
  1
334S
  0
TEXT
  5
1DC
  8
LABELS
 10
427961.5355000002891757
 20
518166.4537000004202127
 30
0.0
 40
10.0
  1
330S
  0
TEXT
  5
1E1
  8
LABELS
 10
425492.2556999995722435
 20
518074.3570000007166527
 30
0.0
 40
10.0
  1
618S
  0
TEXT
  5
1E6
  8
LABELS
 10
428019.1141999996034428
 20
518172.7908999993815087
 30
0.0
 40
10.0
  1
331S
  0
TEXT
  5
1EB
  8
LABELS
 10
428270.8057000003755093
 20
518082.0179999992833473
 30
0.0
 40
10.0
  1
178S
  0
TEXT
  5
1F0
  8
LABELS
 10
428068.853000000002794
 20
518224.4013999999151565
 30
0.0
 40
10.0
  1
328S
  0
TEXT
  5
1F5
  8
LABELS
 10
425737.0602000001817942
 20
518239.9082999993115664
 30
0.0
 40
10.0
  1
623S
  0
TEXT
  5
1FA
  8
LABELS
 10
428131.6847999999881722
 20
518265.9467999989865348
 30
0.0
 40
10.0
  1
239S
  0
TEXT
  5
1FF
  8
LABELS
 10
428033.5431000004173256
 20
518267.023700000718236
 30
0.0
 40
10.0
  1
327S
  0
TEXT
  5
204
  8
LABELS
 10
425546.0943999998853542
 20
518157.2707999999984168
 30
0.0
 40
10.0
  1
621S
  0
TEXT
  5
209
  8
LABELS
 10
425687.1076999995857477
 20
518254.7843999993056059
 30
0.0
 40
10.0
  1
624S
  0
TEXT
  5
20E
  8
LABELS
 10
428178.8156000003218651
 20
518305.1338000001269393
 30
0.0
 40
10.0
  1
320S
  0
TEXT
  5
213
  8
LABELS
 10
428112.9752999999909662
 20
518317.6002999990014359
 30
0.0
 40
10.0
  1
321S
  0
TEXT
  5
218
  8
LABELS
 10
425833.8631999996141531
 20
518338.6259000003919937
 30
0.0
 40
10.0
  1
724S
  0
TEXT
  5
21D
  8
LABELS
 10
424977.8930000002146699
 20
518342.1786999999894761
 30
0.0
 40
10.0
  1
614S
  0
TEXT
  5
222
  8
LABELS
 10
427498.1957000000984408
 20
518370.7482999992207624
 30
0.0
 40
10.0
  1
252S
  0
TEXT
  5
227
  8
LABELS
 10
425714.6270000003860332
 20
518390.8765999990864657
 30
0.0
 40
10.0
  1
723S
  0
TEXT
  5
22C
  8
LABELS
 10
427339.3069000003160909
 20
518402.7049000003025867
 30
0.0
 40
10.0
  1
243S
  0
TEXT
  5
231
  8
LABELS
 10
424983.9978999999002554
 20
518346.2465000004740432
 30
0.0
 40
10.0
  1
613S
  0
TEXT
  5
236
  8
LABELS
 10
425391.5465000001713634
 20
518427.8878000006079674
 30
0.0
 40
10.0
  1
661S
  0
TEXT
  5
23B
  8
LABELS
 10
427562.7823999999091029
 20
518521.4801000003935769
 30
0.0
 40
10.0
  1
214S
  0
TEXT
  5
240
  8
LABELS
 10
425396.8035000003874302
 20
518536.3405000009806827
 30
0.0
 40
10.0
  1
632S
  0
TEXT
  5
245
  8
LABELS
 10
429469.2702999999164604
 20
518547.6089999991818331
 30
0.0
 40
10.0
  1
546S
  0
TEXT
  5
24A
  8
LABELS
 10
427640.8976999996230006
 20
518581.0328000002191402
 30
0.0
 40
10.0
  1
218S
  0
TEXT
  5
24F
  8
LABELS
 10
425451.6744999997899868
 20
518564.7026000004261732
 30
0.0
 40
10.0
  1
631S
  0
TEXT
  5
254
  8
LABELS
 10
427650.1067000004113652
 20
518625.4174000006169081
 30
0.0
 40
10.0
  1
213S
  0
TEXT
  5
259
  8
LABELS
 10
429589.0149999997229315
 20
518622.0879999995813705
 30
0.0
 40
10.0
  1
547S
  0
TEXT
  5
25E
  8
LABELS
 10
429194.3771999998716637
 20
518535.5525000002235174
 30
0.0
 40
10.0
  1
522S
  0
TEXT
  5
263
  8
LABELS
 10
427581.8372000000090338
 20
518658.6553000006824732
 30
0.0
 40
10.0
  1
212S
  0
TEXT
  5
268
  8
LABELS
 10
426273.493300000205636
 20
518631.7744999993010424
 30
0.0
 40
10.0
  1
551S
  0
TEXT
  5
26D
  8
LABELS
 10
428810.1268999996245839
 20
518583.2956000008271076
 30
0.0
 40
10.0
  1
493S
  0
TEXT
  5
272
  8
LABELS
 10
427245.6454999995767139
 20
518736.2874999996856786
 30
0.0
 40
10.0
  1
165S
  0
TEXT
  5
277
  8
LABELS
 10
425399.0933999996050261
 20
518803.9812000002712011
 30
0.0
 40
10.0
  1
637S
  0
TEXT
  5
27C
  8
LABELS
 10
426501.8448000000789762
 20
518807.8366999999270774
 30
0.0
 40
10.0
  1
310S
  0
TEXT
  5
281
  8
LABELS
 10
425035.936700000485871
 20
518829.6031999997794628
 30
0.0
 40
10.0
  1
691S
  0
TEXT
  5
286
  8
LABELS
 10
425321.5514000002876855
 20
518933.2697000001207925
 30
0.0
 40
10.0
  1
647S
  0
TEXT
  5
28B
  8
LABELS
 10
424899.2400000002235174
 20
518904.5657999999821186
 30
0.0
 40
10.0
  1
690S
  0
TEXT
  5
290
  8
LABELS
 10
429304.9611999997869134
 20
518916.8271999991848134
 30
0.0
 40
10.0
  1
544S
  0
TEXT
  5
295
  8
LABELS
 10
429586.8448000000789762
 20
518951.5427999998792075
 30
0.0
 40
10.0
  1
539S
  0
TEXT
  5
29A
  8
LABELS
 10
428835.1708000004873611
 20
519010.7873999996809289
 30
0.0
 40
10.0
  1
521S
  0
TEXT
  5
29F
  8
LABELS
 10
428866.9340000004158355
 20
519052.4134999997913837
 30
0.0
 40
10.0
  1
520S
  0
TEXT
  5
2A4
  8
LABELS
 10
429792.849999999627471
 20
519089.5549999995855615
 30
0.0
 40
10.0
  1
537S
  0
TEXT
  5
2A9
  8
LABELS
 10
428639.476800000295043
 20
519190.9738999996916391
 30
0.0
 40
10.0
  1
591S
  0
TEXT
  5
2AE
  8
LABELS
 10
425305.250799999688752
 20
519252.5724999997764826
 30
0.0
 40
10.0
  1
576S
  0
TEXT
  5
2B3
  8
LABELS
 10
429789.9058999997214414
 20
519205.710000001010485
 30
0.0
 40
10.0
  1
536S
  0
TEXT
  5
2B8
  8
LABELS
 10
429572.5859000002965331
 20
519222.2597000002861023
 30
0.0
 40
10.0
  1
497S
  0
TEXT
  5
2BD
  8
LABELS
 10
429277.2720999997109175
 20
519238.3582000005990267
 30
0.0
 40
10.0
  1
626S
  0
TEXT
  5
2C2
  8
LABELS
 10
425573.5059000002220273
 20
519308.853000000002794
 30
0.0
 40
10.0
  1
560S
  0
TEXT
  5
2C7
  8
LABELS
 10
426433.4298000000999309
 20
519403.7877999991178513
 30
0.0
 40
10.0
  1
163S
  0
TEXT
  5
2CC
  8
LABELS
 10
427863.7187000000849366
 20
519293.6131999996141531
 30
0.0
 40
10.0
  1
666S
  0
TEXT
  5
2D1
  8
LABELS
 10
425456.726400000101421
 20
519332.8172999994130805
 30
0.0
 40
10.0
  1
562S
  0
TEXT
  5
2D6
  8
LABELS
 10
424538.6114999997080304
 20
519353.415899999497924
 30
0.0
 40
10.0
  1
716S
  0
TEXT
  5
2DB
  8
LABELS
 10
429570.1017000005231239
 20
519302.305800000205636
 30
0.0
 40
10.0
  1
498S
  0
TEXT
  5
2E0
  8
LABELS
 10
425399.1527000003843568
 20
519402.5545000006095506
 30
0.0
 40
10.0
  1
577S
  0
TEXT
  5
2E5
  8
LABELS
 10
425357.7297999997972511
 20
519405.8939999993890524
 30
0.0
 40
10.0
  1
582S
  0
TEXT
  5
2EA
  8
LABELS
 10
429121.8715000004158355
 20
519393.5361999999731779
 30
0.0
 40
10.0
  1
597S
  0
TEXT
  5
2EF
  8
LABELS
 10
425426.0088000000105239
 20
519500.4686999992118217
 30
0.0
 40
10.0
  1
571S
  0
TEXT
  5
2F4
  8
LABELS
 10
425247.2496999995782971
 20
519520.4925999994738959
 30
0.0
 40
10.0
  1
584S
  0
TEXT
  5
2F9
  8
LABELS
 10
424757.4105000002891757
 20
519542.1373999994248152
 30
0.0
 40
10.0
  1
732S
  0
TEXT
  5
2FE
  8
LABELS
 10
429166.6640999997034669
 20
519535.9352000002982095
 30
0.0
 40
10.0
  1
595S
  0
TEXT
  5
303
  8
LABELS
 10
424667.8015999998897314
 20
519559.3981999998213723
 30
0.0
 40
10.0
  1
729S
  0
TEXT
  5
308
  8
LABELS
 10
424500.9062999999150634
 20
519579.6207999996840954
 30
0.0
 40
10.0
  1
711S
  0
TEXT
  5
30D
  8
LABELS
 10
429447.3491000003996305
 20
519567.8531999997794628
 30
0.0
 40
10.0
  1
511S
  0
TEXT
  5
312
  8
LABELS
 10
427658.2149000000790693
 20
519585.9287000001058914
 30
0.0
 40
10.0
  1
656S
  0
TEXT
  5
317
  8
LABELS
 10
424997.6728999997139908
 20
519616.2873999996809289
 30
0.0
 40
10.0
  1
565S
  0
TEXT
  5
31C
  8
LABELS
 10
428224.4959000005037524
 20
519570.4156000000075437
 30
0.0
 40
10.0
  1
566S
  0
TEXT
  5
321
  8
LABELS
 10
429512.2514000004157424
 20
519625.9003999998094514
 30
0.0
 40
10.0
  1
512S
  0
TEXT
  5
326
  8
LABELS
 10
427738.4516999999759719
 20
519665.2123000007122755
 30
0.0
 40
10.0
  1
663S
  0
TEXT
  5
32B
  8
LABELS
 10
424458.1978000001981854
 20
519681.2339999992982484
 30
0.0
 40
10.0
  1
708S
  0
TEXT
  5
330
  8
LABELS
 10
427755.4384000003919937
 20
519677.2715000006719492
 30
0.0
 40
10.0
  1
662S
  0
TEXT
  5
335
  8
LABELS
 10
428160.1991999996826053
 20
519673.3806999996886589
 30
0.0
 40
10.0
  1
668S
  0
TEXT
  5
33A
  8
LABELS
 10
424903.8759000002755783
 20
519701.0443999990820885
 30
0.0
 40
10.0
  1
478S
  0
TEXT
  5
33F
  8
LABELS
 10
425389.1814000001177192
 20
519718.496099999290891
 30
0.0
 40
10.0
  1
587S
  0
TEXT
  5
344
  8
LABELS
 10
427742.0965999996988103
 20
519698.8588999992934987
 30
0.0
 40
10.0
  1
605S
  0
TEXT
  5
349
  8
LABELS
 10
424930.2006000000983477
 20
519726.4036999996751547
 30
0.0
 40
10.0
  1
517S
  0
TEXT
  5
34E
  8
LABELS
 10
424279.245299999602139
 20
519747.6747999992221594
 30
0.0
 40
10.0
  1
705S
  0
TEXT
  5
353
  8
LABELS
 10
429425.2633999994723126
 20
519728.6889999993145466
 30
0.0
 40
10.0
  1
513S
  0
TEXT
  5
358
  8
LABELS
 10
424975.2207000004127622
 20
519759.116100000217557
 30
0.0
 40
10.0
  1
515S
  0
TEXT
  5
35D
  8
LABELS
 10
425330.5777000003727153
 20
519797.5698000006959774
 30
0.0
 40
10.0
  1
479S
  0
TEXT
  5
362
  8
LABELS
 10
428519.5713000000105239
 20
519876.831100000126753
 30
0.0
 40
10.0
  1
672S
  0
TEXT
  5
367
  8
LABELS
 10
424475.9425999997183681
 20
519891.8441000002785586
 30
0.0
 40
10.0
  1
649S
  0
TEXT
  5
36C
  8
LABELS
 10
425028.525299999921117
 20
519933.3610999993979931
 30
0.0
 40
10.0
  1
481S
  0
TEXT
  5
371
  8
LABELS
 10
425122.1979000000865199
 20
520007.6928000004263595
 30
0.0
 40
10.0
  1
488S
  0
TEXT
  5
376
  8
LABELS
 10
428275.522400000190828
 20
520003.4160999989835545
 30
0.0
 40
10.0
  1
675S
  0
TEXT
  5
37B
  8
LABELS
 10
428168.4994999999180436
 20
519209.3800000008195639
 30
0.0
 40
10.0
  1
593S
  0
TEXT
  5
380
  8
LABELS
 10
428153.2626000000163913
 20
519637.5844999998807907
 30
0.0
 40
10.0
  1
655S
  0
POLYLINE
  5
4A6
  8
SITES
 66
     1
 10
0.0
 20
0.0
 30
0.0
 70
     1
  0
VERTEX
  5
C67
  8
SITES
 10
426282.0897483400185592
 20
514055.6810599665041082
 30
0.0
  0
VERTEX
  5
C68
  8
SITES
 10
426287.0760591980069876
 20
514044.9134599252138287
 30
0.0
  0
VERTEX
  5
C69
  8
SITES
 10
426284.8832473203074187
 20
514030.5825898168841377
 30
0.0
  0
VERTEX
  5
C6A
  8
SITES
 10
426276.2323353727115318
 20
514014.1203600079170428
 30
0.0
  0
VERTEX
  5
C6B
  8
SITES
 10
426264.7288404732244089
 20
514002.6844205799279734
 30
0.0
  0
VERTEX
  5
C6C
  8
SITES
 10
426252.5189938785042614
 20
513994.8349917622981593
 30
0.0
  0
VERTEX
  5
C6D
  8
SITES
 10
426243.2062450782977976
 20
513997.0130333824781701
 30
0.0
  0
VERTEX
  5
C6E
  8
SITES
 10
426241.7851723248022608
 20
514001.3183992368285544
 30
0.0
  0
VERTEX
  5
C6F
  8
SITES
 10
426243.2590292288805358
 20
514014.9344465081812814
 30
0.0
  0
VERTEX
  5
C70
  8
SITES
 10
426234.6842424856149592
 20
514024.2789053713204339
 30
0.0
  0
VERTEX
  5
C71
  8
SITES
 10
426236.1538639182108454
 20
514036.4612754220142961
 30
0.0
  0
VERTEX
  5
C72
  8
SITES
 10
426239.0657311975955963
 20
514051.5067652391735464
 30
0.0
  0
VERTEX
  5
C73
  8
SITES
 10
426244.813243112701457
 20
514055.7909581888816319
 30
0.0
  0
VERTEX
  5
C74
  8
SITES
 10
426258.4504634594195522
 20
514061.4856884898035787
 30
0.0
  0
SEQEND
  5
C75
  8
SITES
  0
POLYLINE
  5
4A7
  8
SITES
 66
     1
 10
0.0
 20
0.0
 30
0.0
 70
     1
  0
VERTEX
  5
C76
  8
SITES
 10
426753.804201023420319
 20
514548.2066634789225645
 30
0.0
  0
VERTEX
  5
C77
  8
SITES
 10
426756.6567940557724796
 20
514543.1802715489175171
 30
0.0
  0
VERTEX
  5
C78
  8
SITES
 10
426757.3481867614900693
 20
514534.5758314125123434
 30
0.0
  0
VERTEX
  5
C79
  8
SITES
 10
426754.4617309693712741
 20
514528.1326917922124267
 30
0.0
  0
VERTEX
  5
C7A
  8
SITES
 10
426742.2519794543040916
 20
514520.283237204013858
 30
0.0
  0
VERTEX
  5
C7B
  8
SITES
 10
426732.2053951367270201
 20
514516.7286201457027346
 30
0.0
  0
VERTEX
  5
C7C
  8
SITES
 10
426725.753690435201861
 20
514516.7476181772071868
 30
0.0
  0
VERTEX
  5
C7D
  8
SITES
 10
426720.7442303228890523
 20
514519.6298410120070912
 30
0.0
  0
VERTEX
  5
C7E
  8
SITES
 10
426715.7537681582034566
 20
514528.9637682953034528
 30
0.0
  0
VERTEX
  5
C7F
  8
SITES
 10
426719.3697114849928766
 20
514539.7059771906933747
 30
0.0
  0
VERTEX
  5
C80
  8
SITES
 10
426727.278425317897927
 20
514547.568130390602164
 30
0.0
  0
VERTEX
  5
C81
  8
SITES
 10
426738.0439650873886421
 20
514551.8374712388031185
 30
0.0
  0
SEQEND
  5
C82
  8
SITES
  0
POLYLINE
  5
4A8
  8
SITES
 66
     1
 10
0.0
 20
0.0
 30
0.0
 70
     1
  0
VERTEX
  5
C83
  8
SITES
 10
426749.3131660724175163
 20
514726.7182042308268137
 30
0.0
  0
VERTEX
  5
C84
  8
SITES
 10
426757.8858145750127733
 20
514716.6568587474757805
 30
0.0
  0
VERTEX
  5
C85
  8
SITES
 10
426759.3004987026215531
 20
514710.2009212800767273
 30
0.0
  0
VERTEX
  5
C86
  8
SITES
 10
426751.3790906228823587
 20
514698.0377273086924106
 30
0.0
  0
VERTEX
  5
C87
  8
SITES
 10
426750.6389737952849828
 20
514690.154409350710921
 30
0.0
  0
VERTEX
  5
C88
  8
SITES
 10
426747.756753035413567
 20
514685.1448477018275298
 30
0.0
  0
VERTEX
  5
C89
  8
SITES
 10
426738.4164286238956265
 20
514678.0039129621000029
 30
0.0
  0
VERTEX
  5
C8A
  8
SITES
 10
426732.6498207139084116
 20
514667.2680006831069477
 30
0.0
  0
VERTEX
  5
C8B
  8
SITES
 10
426719.0253894464112818
 20
514665.8744792205980048
 30
0.0
  0
VERTEX
  5
C8C
  8
SITES
 10
426714.0179944856208749
 20
514669.4735894338809885
 30
0.0
  0
VERTEX
  5
C8D
  8
SITES
 10
426710.4591415075119585
 20
514678.0863930424093269
 30
0.0
  0
VERTEX
  5
C8E
  8
SITES
 10
426708.3572944783954881
 20
514694.580447465821635
 30
0.0
  0
VERTEX
  5
C8F
  8
SITES
 10
426717.7483042384264991
 20
514718.925927652977407
 30
0.0
  0
VERTEX
  5
C90
  8
SITES
 10
426724.212705293612089
 20
514723.2080694204196334
 30
0.0
  0
VERTEX
  5
C91
  8
SITES
 10
426740.0025674419011921
 20
514729.6131209419108927
 30
0.0
  0
SEQEND
  5
C92
  8
SITES
  0
POLYLINE
  5
4A9
  8
SITES
 66
     1
 10
0.0
 20
0.0
 30
0.0
 70
     1
  0
VERTEX
  5
C93
  8
SITES
 10
427554.1702885014237836
 20
514711.3350662020966411
 30
0.0
  0
VERTEX
  5
C94
  8
SITES
 10
427562.7556506551918574
 20
514705.5748454285785556
 30
0.0
  0
VERTEX
  5
C95
  8
SITES
 10
427562.0218306572060101
 20
514699.8421839643269777
 30
0.0
  0
VERTEX
  5
C96
  8
SITES
 10
427555.5511170270037837
 20
514693.4095608210773207
 30
0.0
  0
VERTEX
  5
C97
  8
SITES
 10
427546.2278027490247041
 20
514692.003438821004238
 30
0.0
  0
VERTEX
  5
C98
  8
SITES
 10
427536.9171856634202413
 20
514694.8983622927917168
 30
0.0
  0
VERTEX
  5
C99
  8
SITES
 10
427531.9098801878863014
 20
514698.4973798459977843
 30
0.0
  0
VERTEX
  5
C9A
  8
SITES
 10
427532.6520646418794058
 20
514707.0975042438949458
 30
0.0
  0
VERTEX
  5
C9B
  8
SITES
 10
427538.4017545517999679
 20
514712.0985116572119296
 30
0.0
  0
SEQEND
  5
C9C
  8
SITES
  0
POLYLINE
  5
4AA
  8
SITES
 66
     1
 10
0.0
 20
0.0
 30
0.0
 70
     1
  0
VERTEX
  5
C9D
  8
SITES
 10
426175.4159585682209581
 20
515016.0573336763191037
 30
0.0
  0
VERTEX
  5
C9E
  8
SITES
 10
426186.8867198859807104
 20
514993.780744566814974
 30
0.0
  0
VERTEX
  5
C9F
  8
SITES
 10
426185.6235597489867359
 20
514991.83389746240573
 30
0.0
  0
VERTEX
  5
CA0
  8
SITES
 10
426182.1553946952917613
 20
514972.7410823344253004
 30
0.0
  0
VERTEX
  5
CA1
  8
SITES
 10
426166.3823836646042764
 20
514972.0709370854892768
 30
0.0
  0
VERTEX
  5
CA2
  8
SITES
 10
426159.9389506579027511
 20
514974.9573809204157442
 30
0.0
  0
VERTEX
  5
CA3
  8
SITES
 10
426148.5222762557095848
 20
514992.9125402446952648
 30
0.0
  0
VERTEX
  5
CA4
  8
SITES
 10
426147.8476989699993283
 20
515007.2518732364987954
 30
0.0
  0
VERTEX
  5
CA5
  8
SITES
 10
426152.1700845352024771
 20
515014.4077639217139222
 30
0.0
  0
VERTEX
  5
CA6
  8
SITES
 10
426158.6344731440767646
 20
515018.6899044720921665
 30
0.0
  0
SEQEND
  5
CA7
  8
SITES
  0
POLYLINE
  5
4AB
  8
SITES
 66
     1
 10
0.0
 20
0.0
 30
0.0
 70
     1
  0
VERTEX
  5
CA8
  8
SITES
 10
426333.758768288011197
 20
515332.1580420329119079
 30
0.0
  0
VERTEX
  5
CA9
  8
SITES
 10
426335.8733299535233527
 20
515319.965138801606372
 30
0.0
  0
VERTEX
  5
CAA
  8
SITES
 10
426334.3972527054138482
 20
515305.6321943164803088
 30
0.0
  0
VERTEX
  5
CAB
  8
SITES
 10
426324.3167452550842427
 20
515290.6079414628911763
 30
0.0
  0
VERTEX
  5
CAC
  8
SITES
 10
426317.1396981169236824
 20
515287.7617369663203135
 30
0.0
  0
VERTEX
  5
CAD
  8
SITES
 10
426307.8184802440810017
 20
515287.0723938263836317
 30
0.0
  0
VERTEX
  5
CAE
  8
SITES
 10
426303.532203451381065
 20
515292.1031047658761963
 30
0.0
  0
VERTEX
  5
CAF
  8
SITES
 10
426300.7007541133207269
 20
515304.2981720747193322
 30
0.0
  0
VERTEX
  5
CB0
  8
SITES
 10
426304.3486471368232742
 20
515325.793207258102484
 30
0.0
  0
VERTEX
  5
CB1
  8
SITES
 10
426324.4693243624060415
 20
515342.2215284294215962
 30
0.0
  0
SEQEND
  5
CB2
  8
SITES
  0
POLYLINE
  5
4AC
  8
SITES
 66
     1
 10
0.0
 20
0.0
 30
0.0
 70
     1
  0
VERTEX
  5
CB3
  8
SITES
 10
427848.5562069860170595
 20
515357.0699938739999197
 30
0.0
  0
VERTEX
  5
CB4
  8
SITES
 10
427848.5180377624928951
 20
515344.1666473132790998
 30
0.0
  0
VERTEX
  5
CB5
  8
SITES
 10
427842.7599911884753965
 20
515336.2982610405888408
 30
0.0
  0
VERTEX
  5
CB6
  8
SITES
 10
427822.6605858284165151
 20
515327.0385919400723651
 30
0.0
  0
VERTEX
  5
CB7
  8
SITES
 10
427812.6289361070957966
 20
515328.5018848471227102
 30
0.0
  0
VERTEX
  5
CB8
  8
SITES
 10
427796.8815403220942244
 20
515336.4339199574897066
 30
0.0
  0
VERTEX
  5
CB9
  8
SITES
 10
427794.0310946477111429
 20
515342.1772108976729214
 30
0.0
  0
VERTEX
  5
CBA
  8
SITES
 10
427794.0481143221841194
 20
515347.9120419762912206
 30
0.0
  0
VERTEX
  5
CBB
  8
SITES
 10
427804.8453490891843103
 20
515362.9340868453728035
 30
0.0
  0
VERTEX
  5
CBC
  8
SITES
 10
427837.1205825774231926
 20
515368.5734964074217714
 30
0.0
  0
SEQEND
  5
CBD
  8
SITES
  0
POLYLINE
  5
4AD
  8
SITES
 66
     1
 10
0.0
 20
0.0
 30
0.0
 70
     1
  0
VERTEX
  5
CBE
  8
SITES
 10
427955.4939071690896526
 20
515642.0623676042887382
 30
0.0
  0
VERTEX
  5
CBF
  8
SITES
 10
427962.6348862854065374
 20
515632.7220314355217852
 30
0.0
  0
VERTEX
  5
CC0
  8
SITES
 10
427963.3177465188200586
 20
515621.2503997907042503
 30
0.0
  0
VERTEX
  5
CC1
  8
SITES
 10
427961.1311753368936479
 20
515609.0702346169273369
 30
0.0
  0
VERTEX
  5
CC2
  8
SITES
 10
427949.6361344213946722
 20
515600.5020664291223511
 30
0.0
  0
VERTEX
  5
CC3
  8
SITES
 10
427937.4432829557918012
 20
515598.3874881201190874
 30
0.0
  0
VERTEX
  5
CC4
  8
SITES
 10
427925.2802347668912262
 20
515606.3088927295757458
 30
0.0
  0
VERTEX
  5
CC5
  8
SITES
 10
427921.72990852012299
 20
515617.789081055787392
 30
0.0
  0
VERTEX
  5
CC6
  8
SITES
 10
427923.8803833234123886
 20
515617.7827874823124148
 30
0.0
  0
VERTEX
  5
CC7
  8
SITES
 10
427946.8938716272241436
 20
515642.8046325267059729
 30
0.0
  0
SEQEND
  5
CC8
  8
SITES
  0
POLYLINE
  5
4AE
  8
SITES
 66
     1
 10
0.0
 20
0.0
 30
0.0
 70
     1
  0
VERTEX
  5
CC9
  8
SITES
 10
428008.1229754844098352
 20
515742.983204212912824
 30
0.0
  0
VERTEX
  5
CCA
  8
SITES
 10
428008.8143960554152727
 20
515734.3789386420976371
 30
0.0
  0
VERTEX
  5
CCB
  8
SITES
 10
428006.6172065217979252
 20
515718.6146124774822965
 30
0.0
  0
VERTEX
  5
CCC
  8
SITES
 10
427999.4169242950156331
 20
515707.8830790747888386
 30
0.0
  0
VERTEX
  5
CCD
  8
SITES
 10
427993.679926032491494
 20
515707.1832017258857377
 30
0.0
  0
VERTEX
  5
CCE
  8
SITES
 10
427982.9441645073820837
 20
515712.9498003015760332
 30
0.0
  0
VERTEX
  5
CCF
  8
SITES
 10
427980.0916477447026409
 20
515717.9761996521847323
 30
0.0
  0
VERTEX
  5
CD0
  8
SITES
 10
427980.8784605193068273
 20
515741.6301622241153382
 30
0.0
  0
VERTEX
  5
CD1
  8
SITES
 10
427982.3291579972137697
 20
515747.3606676217750646
 30
0.0
  0
VERTEX
  5
CD2
  8
SITES
 10
427988.0788414215785451
 20
515752.3616958765196614
 30
0.0
  0
VERTEX
  5
CD3
  8
SITES
 10
428000.2673653615056537
 20
515753.0424956224742346
 30
0.0
  0
SEQEND
  5
CD4
  8
SITES
  0
POLYLINE
  5
4AF
  8
SITES
 66
     1
 10
0.0
 20
0.0
 30
0.0
 70
     1
  0
VERTEX
  5
CD5
  8
SITES
 10
427933.6512786889798008
 20
515770.4441684689954855
 30
0.0
  0
VERTEX
  5
CD6
  8
SITES
 10
427937.2185233348864131
 20
515764.6987142895814031
 30
0.0
  0
VERTEX
  5
CD7
  8
SITES
 10
427938.6352927620755509
 20
515758.9597526700235903
 30
0.0
  0
VERTEX
  5
CD8
  8
SITES
 10
427938.6162148058065213
 20
515752.5080278959940188
 30
0.0
  0
VERTEX
  5
CD9
  8
SITES
 10
427929.2292673899792135
 20
515729.5964306239038706
 30
0.0
  0
VERTEX
  5
CDA
  8
SITES
 10
427917.7342301256721839
 20
515721.0281596732093021
 30
0.0
  0
VERTEX
  5
CDB
  8
SITES
 10
427904.1225468760239892
 20
515723.9359473927179351
 30
0.0
  0
VERTEX
  5
CDC
  8
SITES
 10
427899.8574901021784171
 20
515736.1350899221724831
 30
0.0
  0
VERTEX
  5
CDD
  8
SITES
 10
427899.8935823306092061
 20
515748.3215467992122285
 30
0.0
  0
VERTEX
  5
CDE
  8
SITES
 10
427905.6623427342856303
 20
515759.7740984128904529
 30
0.0
  0
VERTEX
  5
CDF
  8
SITES
 10
427914.2900122799910605
 20
515768.3509270335780457
 30
0.0
  0
VERTEX
  5
CE0
  8
SITES
 10
427925.0554717886261642
 20
515772.6201138017931953
 30
0.0
  0
SEQEND
  5
CE1
  8
SITES
  0
POLYLINE
  5
4B0
  8
SITES
 66
     1
 10
0.0
 20
0.0
 30
0.0
 70
     1
  0
VERTEX
  5
CE2
  8
SITES
 10
427981.6048605327960104
 20
516229.0899044321849942
 30
0.0
  0
VERTEX
  5
CE3
  8
SITES
 10
427983.0215370624209754
 20
516223.3508437310229056
 30
0.0
  0
VERTEX
  5
CE4
  8
SITES
 10
427975.0895333163207397
 20
516207.6035229380941018
 30
0.0
  0
VERTEX
  5
CE5
  8
SITES
 10
427961.4523834920837544
 20
516201.9090939760790206
 30
0.0
  0
VERTEX
  5
CE6
  8
SITES
 10
427952.8523466935148463
 20
516202.6513467463082634
 30
0.0
  0
VERTEX
  5
CE7
  8
SITES
 10
427937.8218191583873704
 20
516210.581286630302202
 30
0.0
  0
VERTEX
  5
CE8
  8
SITES
 10
427938.5917953968164511
 20
516228.5004148054285906
 30
0.0
  0
VERTEX
  5
CE9
  8
SITES
 10
427951.5226691156858578
 20
516237.7812660546042025
 30
0.0
  0
VERTEX
  5
CEA
  8
SITES
 10
427953.6710807731724344
 20
516237.0580842713243328
 30
0.0
  0
VERTEX
  5
CEB
  8
SITES
 10
427959.4143677685060538
 20
516239.9084442866151221
 30
0.0
  0
VERTEX
  5
CEC
  8
SITES
 10
427968.018731574586127
 20
516240.5997759288875386
 30
0.0
  0
SEQEND
  5
CED
  8
SITES
  0
POLYLINE
  5
4B1
  8
SITES
 66
     1
 10
0.0
 20
0.0
 30
0.0
 70
     1
  0
VERTEX
  5
CEE
  8
SITES
 10
427968.3011452932842076
 20
516335.940774169692304
 30
0.0
  0
VERTEX
  5
CEF
  8
SITES
 10
427966.1038800138048828
 20
516320.1764460019767284
 30
0.0
  0
VERTEX
  5
CF0
  8
SITES
 10
427956.036147978506051
 20
516309.4534553930861875
 30
0.0
  0
VERTEX
  5
CF1
  8
SITES
 10
427938.7998992695938796
 20
516298.7516977016930468
 30
0.0
  0
VERTEX
  5
CF2
  8
SITES
 10
427930.9124278614181094
 20
516298.0582016840926372
 30
0.0
  0
VERTEX
  5
CF3
  8
SITES
 10
427925.1882109261932783
 20
516301.659465731587261
 30
0.0
  0
VERTEX
  5
CF4
  8
SITES
 10
427923.0802004890865646
 20
516316.0027882477734238
 30
0.0
  0
VERTEX
  5
CF5
  8
SITES
 10
427925.979415089415852
 20
516326.7470099941710941
 30
0.0
  0
VERTEX
  5
CF6
  8
SITES
 10
427930.2868544053053483
 20
516328.8849057081970386
 30
0.0
  0
VERTEX
  5
CF7
  8
SITES
 10
427948.2399936328874901
 20
516339.5845014086226001
 30
0.0
  0
VERTEX
  5
CF8
  8
SITES
 10
427964.0170003155944869
 20
516341.6883867827709764
 30
0.0
  0
SEQEND
  5
CF9
  8
SITES
  0
POLYLINE
  5
4B2
  8
SITES
 66
     1
 10
0.0
 20
0.0
 30
0.0
 70
     1
  0
VERTEX
  5
CFA
  8
SITES
 10
428033.0214637285098433
 20
516404.5672047652187757
 30
0.0
  0
VERTEX
  5
CFB
  8
SITES
 10
428044.469802716281265
 20
516397.3646774213993922
 30
0.0
  0
VERTEX
  5
CFC
  8
SITES
 10
428052.3212039637728594
 20
516385.8717138497740962
 30
0.0
  0
VERTEX
  5
CFD
  8
SITES
 10
428053.7314936440088786
 20
516377.9821769716800191
 30
0.0
  0
VERTEX
  5
CFE
  8
SITES
 10
428050.1090982027235441
 20
516365.0895389380166307
 30
0.0
  0
VERTEX
  5
CFF
  8
SITES
 10
428040.7772254503215663
 20
516360.8160083299735561
 30
0.0
  0
VERTEX
  5
D00
  8
SITES
 10
428028.5908642418216914
 20
516360.8520816403906792
 30
0.0
  0
VERTEX
  5
D01
  8
SITES
 10
428008.5381617135135457
 20
516367.363275250303559
 30
0.0
  0
VERTEX
  5
D02
  8
SITES
 10
427997.8066163033945486
 20
516374.5635397196165286
 30
0.0
  0
VERTEX
  5
D03
  8
SITES
 10
427994.2457514564157464
 20
516382.4595646408270113
 30
0.0
  0
VERTEX
  5
D04
  8
SITES
 10
427994.2819237381918356
 20
516394.6460247365175746
 30
0.0
  0
VERTEX
  5
D05
  8
SITES
 10
428001.4758982739876956
 20
516403.2268954741884954
 30
0.0
  0
VERTEX
  5
D06
  8
SITES
 10
428012.2391903232201003
 20
516406.7793085937737487
 30
0.0
  0
SEQEND
  5
D07
  8
SITES
  0
POLYLINE
  5
4B3
  8
SITES
 66
     1
 10
0.0
 20
0.0
 30
0.0
 70
     1
  0
VERTEX
  5
D08
  8
SITES
 10
428158.5677536783041432
 20
516437.1705058426014148
 30
0.0
  0
VERTEX
  5
D09
  8
SITES
 10
428169.2929157292819582
 20
516427.8195639281766489
 30
0.0
  0
VERTEX
  5
D0A
  8
SITES
 10
428171.4221617678995244
 20
516420.644753898086492
 30
0.0
  0
VERTEX
  5
D0B
  8
SITES
 10
428170.6819763518869877
 20
516412.7615040257223882
 30
0.0
  0
VERTEX
  5
D0C
  8
SITES
 10
428166.3681455132900737
 20
516408.4732297321897931
 30
0.0
  0
VERTEX
  5
D0D
  8
SITES
 10
428144.1224982698913664
 20
516400.6536717882845551
 30
0.0
  0
VERTEX
  5
D0E
  8
SITES
 10
428130.5001868254039437
 20
516399.9771778174908832
 30
0.0
  0
VERTEX
  5
D0F
  8
SITES
 10
428119.7665742235840298
 20
516406.4607516190735623
 30
0.0
  0
VERTEX
  5
D10
  8
SITES
 10
428111.9258862200076692
 20
516421.5378768409718759
 30
0.0
  0
VERTEX
  5
D11
  8
SITES
 10
428113.3808002850855701
 20
516428.702170564327389
 30
0.0
  0
VERTEX
  5
D12
  8
SITES
 10
428118.4242002923856489
 20
516437.2894334209850058
 30
0.0
  0
VERTEX
  5
D13
  8
SITES
 10
428127.0476340447203256
 20
516444.4324975620838813
 30
0.0
  0
VERTEX
  5
D14
  8
SITES
 10
428134.2183171475771815
 20
516445.1280599131714553
 30
0.0
  0
SEQEND
  5
D15
  8
SITES
  0
POLYLINE
  5
4B4
  8
SITES
 66
     1
 10
0.0
 20
0.0
 30
0.0
 70
     1
  0
VERTEX
  5
D16
  8
SITES
 10
428794.573025737889111
 20
516759.0069261168246157
 30
0.0
  0
VERTEX
  5
D17
  8
SITES
 10
428792.3969969215104356
 20
516750.4110947531880811
 30
0.0
  0
VERTEX
  5
D18
  8
SITES
 10
428784.4988968974212185
 20
516746.1334222611039877
 30
0.0
  0
VERTEX
  5
D19
  8
SITES
 10
428776.6178965623839758
 20
516747.590495643496979
 30
0.0
  0
VERTEX
  5
D1A
  8
SITES
 10
428776.6391210231231526
 20
516754.7589275821228512
 30
0.0
  0
VERTEX
  5
D1B
  8
SITES
 10
428784.5435080793104135
 20
516761.1871796508785337
 30
0.0
  0
SEQEND
  5
D1C
  8
SITES
  0
POLYLINE
  5
4B5
  8
SITES
 66
     1
 10
0.0
 20
0.0
 30
0.0
 70
     1
  0
VERTEX
  5
D1D
  8
SITES
 10
427485.0821271160966717
 20
516967.2485522123752162
 30
0.0
  0
VERTEX
  5
D1E
  8
SITES
 10
427481.4787146548042074
 20
516960.8075446020811796
 30
0.0
  0
VERTEX
  5
D1F
  8
SITES
 10
427465.6930822781287134
 20
516955.8362734711263329
 30
0.0
  0
VERTEX
  5
D20
  8
SITES
 10
427459.2456890403991565
 20
516957.2891134225064889
 30
0.0
  0
VERTEX
  5
D21
  8
SITES
 10
427457.1036646551219746
 20
516960.1629627228248864
 30
0.0
  0
VERTEX
  5
D22
  8
SITES
 10
427459.9838000489980914
 20
516964.4555594429257326
 30
0.0
  0
VERTEX
  5
D23
  8
SITES
 10
427469.3220387668116018
 20
516970.8795706885866821
 30
0.0
  0
VERTEX
  5
D24
  8
SITES
 10
427482.9485506496857852
 20
516972.9897650125203654
 30
0.0
  0
SEQEND
  5
D25
  8
SITES
  0
POLYLINE
  5
4B6
  8
SITES
 66
     1
 10
0.0
 20
0.0
 30
0.0
 70
     1
  0
VERTEX
  5
D26
  8
SITES
 10
427483.0548493771930225
 20
517008.8323076245724224
 30
0.0
  0
VERTEX
  5
D27
  8
SITES
 10
427479.4578234325745143
 20
517004.5418721985770389
 30
0.0
  0
VERTEX
  5
D28
  8
SITES
 10
427476.6032317297067493
 20
517008.8514651180012152
 30
0.0
  0
VERTEX
  5
D29
  8
SITES
 10
427478.0432993051945232
 20
517010.9977137906244025
 30
0.0
  0
SEQEND
  5
D2A
  8
SITES
  0
POLYLINE
  5
4B7
  8
SITES
 66
     1
 10
0.0
 20
0.0
 30
0.0
 70
     1
  0
VERTEX
  5
D2B
  8
SITES
 10
427855.5741921311127953
 20
516984.3406576173729263
 30
0.0
  0
VERTEX
  5
D2C
  8
SITES
 10
427854.9206317772041075
 20
516982.523799573071301
 30
0.0
  0
VERTEX
  5
D2D
  8
SITES
 10
427853.8749950515921228
 20
516980.5967079476104118
 30
0.0
  0
VERTEX
  5
D2E
  8
SITES
 10
427852.4957987403031439
 20
516978.6676819554995745
 30
0.0
  0
VERTEX
  5
D2F
  8
SITES
 10
427850.8751078452914953
 20
516976.8663494227221236
 30
0.0
  0
VERTEX
  5
D30
  8
SITES
 10
427849.1395562543766573
 20
516975.3272798074176535
 30
0.0
  0
VERTEX
  5
D31
  8
SITES
 10
427847.3735930030234158
 20
516974.1199338870937936
 30
0.0
  0
VERTEX
  5
D32
  8
SITES
 10
427845.6646782830939628
 20
516973.3035836410126649
 30
0.0
  0
VERTEX
  5
D33
  8
SITES
 10
427844.0705358454142697
 20
516972.9050853166263551
 30
0.0
  0
VERTEX
  5
D34
  8
SITES
 10
427842.512613094295375
 20
516972.8544861833797768
 30
0.0
  0
VERTEX
  5
D35
  8
SITES
 10
427840.6953713195980527
 20
516973.0365823186002672
 30
0.0
  0
VERTEX
  5
D36
  8
SITES
 10
427836.9808493556920439
 20
516974.0097356935148127
 30
0.0
  0
VERTEX
  5
D37
  8
SITES
 10
427835.430553981801495
 20
516974.6995184496045113
 30
0.0
  0
VERTEX
  5
D38
  8
SITES
 10
427834.1596338122035377
 20
516975.485397630778607
 30
0.0
  0
VERTEX
  5
D39
  8
SITES
 10
427833.2140938052907586
 20
516976.338453960372135
 30
0.0
  0
VERTEX
  5
D3A
  8
SITES
 10
427832.6137439531157725
 20
516977.2402264907141216
 30
0.0
  0
VERTEX
  5
D3B
  8
SITES
 10
427832.1895665989723057
 20
516978.90888219041517
 30
0.0
  0
VERTEX
  5
D3C
  8
SITES
 10
427832.1827057751943357
 20
516981.1025086285080761
 30
0.0
  0
VERTEX
  5
D3D
  8
SITES
 10
427832.5989663192885928
 20
516983.5845820949762128
 30
0.0
  0
VERTEX
  5
D3E
  8
SITES
 10
427833.3560794946970418
 20
516985.8402623335714452
 30
0.0
  0
VERTEX
  5
D3F
  8
SITES
 10
427834.4669072605902329
 20
516987.6620141707826406
 30
0.0
  0
VERTEX
  5
D40
  8
SITES
 10
427836.1656331081176177
 20
516989.4704435588791966
 30
0.0
  0
VERTEX
  5
D41
  8
SITES
 10
427838.4412812168011442
 20
516991.2530450827907771
 30
0.0
  0
VERTEX
  5
D42
  8
SITES
 10
427841.2627057153731585
 20
516992.9853954815189354
 30
0.0
  0
VERTEX
  5
D43
  8
SITES
 10
427845.4164139006170444
 20
516994.9214411536231637
 30
0.0
  0
VERTEX
  5
D44
  8
SITES
 10
427849.3462028392241336
 20
516996.1524971338221803
 30
0.0
  0
VERTEX
  5
D45
  8
SITES
 10
427850.9475180873996578
 20
516996.4148020595894195
 30
0.0
  0
VERTEX
  5
D46
  8
SITES
 10
427852.2958160571288317
 20
516996.4457414491917007
 30
0.0
  0
VERTEX
  5
D47
  8
SITES
 10
427853.3741091503179632
 20
516996.2450932618812658
 30
0.0
  0
VERTEX
  5
D48
  8
SITES
 10
427854.1745007876888849
 20
516995.8145459783263505
 30
0.0
  0
VERTEX
  5
D49
  8
SITES
 10
427854.7545753960148431
 20
516995.1345887429197319
 30
0.0
  0
VERTEX
  5
D4A
  8
SITES
 10
427855.2416358172195032
 20
516994.1335389890009537
 30
0.0
  0
VERTEX
  5
D4B
  8
SITES
 10
427855.8905044550192542
 20
516991.2773237021756358
 30
0.0
  0
VERTEX
  5
D4C
  8
SITES
 10
427856.01857658138033
 20
516987.6310914651257917
 30
0.0
  0
SEQEND
  5
D4D
  8
SITES
  0
POLYLINE
  5
4B8
  8
SITES
 66
     1
 10
0.0
 20
0.0
 30
0.0
 70
     1
  0
VERTEX
  5
D4E
  8
SITES
 10
429064.3001792333088815
 20
517065.019428409577813
 30
0.0
  0
VERTEX
  5
D4F
  8
SITES
 10
429064.9809207725920714
 20
517052.8309732206980698
 30
0.0
  0
VERTEX
  5
D50
  8
SITES
 10
429059.9438076296937652
 20
517046.3942629607045092
 30
0.0
  0
VERTEX
  5
D51
  8
SITES
 10
429049.1762686658184975
 20
517041.4082357448060066
 30
0.0
  0
VERTEX
  5
D52
  8
SITES
 10
429031.967696639301721
 20
517040.0255344132892787
 30
0.0
  0
VERTEX
  5
D53
  8
SITES
 10
429021.2257013079943135
 20
517043.6417314521968365
 30
0.0
  0
VERTEX
  5
D54
  8
SITES
 10
429015.5313283564173616
 20
517057.2788058267906308
 30
0.0
  0
VERTEX
  5
D55
  8
SITES
 10
429027.7368773230118677
 20
517063.6941967578022741
 30
0.0
  0
VERTEX
  5
D56
  8
SITES
 10
429052.1181098757078871
 20
517066.489267748198472
 30
0.0
  0
SEQEND
  5
D57
  8
SITES
  0
POLYLINE
  5
4B9
  8
SITES
 66
     1
 10
0.0
 20
0.0
 30
0.0
 70
     1
  0
VERTEX
  5
D58
  8
SITES
 10
427705.9862883811001666
 20
517107.043079862894956
 30
0.0
  0
VERTEX
  5
D59
  8
SITES
 10
427716.0008484036079608
 20
517099.8448022499796934
 30
0.0
  0
VERTEX
  5
D5A
  8
SITES
 10
427723.1523668658919632
 20
517094.0887541496776976
 30
0.0
  0
VERTEX
  5
D5B
  8
SITES
 10
427731.0122294513857923
 20
517085.4631788178230636
 30
0.0
  0
VERTEX
  5
D5C
  8
SITES
 10
427722.3823303686222062
 20
517076.1696336722816341
 30
0.0
  0
VERTEX
  5
D5D
  8
SITES
 10
427710.2044260089169256
 20
517079.0731498072855175
 30
0.0
  0
VERTEX
  5
D5E
  8
SITES
 10
427700.9172668746905401
 20
517089.8535221979254857
 30
0.0
  0
VERTEX
  5
D5F
  8
SITES
 10
427693.0637899694847874
 20
517100.6297704104217701
 30
0.0
  0
VERTEX
  5
D60
  8
SITES
 10
427694.5187902268953621
 20
517107.7939593336195685
 30
0.0
  0
SEQEND
  5
D61
  8
SITES
  0
POLYLINE
  5
4BA
  8
SITES
 66
     1
 10
0.0
 20
0.0
 30
0.0
 70
     1
  0
VERTEX
  5
D62
  8
SITES
 10
427870.1513056597905234
 20
517108.7065095627913252
 30
0.0
  0
VERTEX
  5
D63
  8
SITES
 10
427868.6750868551898748
 20
517094.3738019852899015
 30
0.0
  0
VERTEX
  5
D64
  8
SITES
 10
427860.7726855585933663
 20
517088.6623493633233011
 30
0.0
  0
VERTEX
  5
D65
  8
SITES
 10
427852.1662635263055563
 20
517087.2542079610866494
 30
0.0
  0
VERTEX
  5
D66
  8
SITES
 10
427843.5746743640047498
 20
517090.8640071210102178
 30
0.0
  0
VERTEX
  5
D67
  8
SITES
 10
427842.8748772370163351
 20
517096.6009010606212541
 30
0.0
  0
VERTEX
  5
D68
  8
SITES
 10
427840.7370733876014128
 20
517100.9084353928919882
 30
0.0
  0
VERTEX
  5
D69
  8
SITES
 10
427846.4931232928065583
 20
517108.0598563232924789
 30
0.0
  0
VERTEX
  5
D6A
  8
SITES
 10
427854.3891387771000154
 20
517111.6207345540169626
 30
0.0
  0
VERTEX
  5
D6B
  8
SITES
 10
427865.1482970746001229
 20
517113.7393828171188943
 30
0.0
  0
SEQEND
  5
D6C
  8
SITES
  0
POLYLINE
  5
4BB
  8
SITES
 66
     1
 10
0.0
 20
0.0
 30
0.0
 70
     1
  0
VERTEX
  5
D6D
  8
SITES
 10
428685.9459556649089791
 20
517113.4543359210947528
 30
0.0
  0
VERTEX
  5
D6E
  8
SITES
 10
428697.3921646634116769
 20
517105.5350238645914942
 30
0.0
  0
VERTEX
  5
D6F
  8
SITES
 10
428694.5140834907069802
 20
517101.9593056747107767
 30
0.0
  0
VERTEX
  5
D70
  8
SITES
 10
428661.5604224720736966
 20
517109.2255783975124359
 30
0.0
  0
VERTEX
  5
D71
  8
SITES
 10
428662.287924375210423
 20
517112.8076816247776151
 30
0.0
  0
VERTEX
  5
D72
  8
SITES
 10
428671.6153805053909309
 20
517115.6474504597717896
 30
0.0
  0
SEQEND
  5
D73
  8
SITES
  0
POLYLINE
  5
4BC
  8
SITES
 66
     1
 10
0.0
 20
0.0
 30
0.0
 70
     1
  0
VERTEX
  5
D74
  8
SITES
 10
427825.8385587764787488
 20
517153.2831107957754284
 30
0.0
  0
VERTEX
  5
D75
  8
SITES
 10
427834.4109928088146262
 20
517143.2216896686004475
 30
0.0
  0
VERTEX
  5
D76
  8
SITES
 10
427839.3736285264021717
 20
517124.5686786660226062
 30
0.0
  0
VERTEX
  5
D77
  8
SITES
 10
427834.3066677993047051
 20
517108.0960063657257706
 30
0.0
  0
VERTEX
  5
D78
  8
SITES
 10
427820.6567647198098712
 20
517098.1005993518047035
 30
0.0
  0
VERTEX
  5
D79
  8
SITES
 10
427811.3419994235737249
 20
517099.5618855415959843
 30
0.0
  0
VERTEX
  5
D7A
  8
SITES
 10
427806.3432152852183208
 20
517106.0284410167951137
 30
0.0
  0
VERTEX
  5
D7B
  8
SITES
 10
427803.5226081509026699
 20
517121.8076996863819659
 30
0.0
  0
VERTEX
  5
D7C
  8
SITES
 10
427805.7093319030245766
 20
517133.9877689924906008
 30
0.0
  0
VERTEX
  5
D7D
  8
SITES
 10
427809.329738283820916
 20
517146.1635150674846955
 30
0.0
  0
VERTEX
  5
D7E
  8
SITES
 10
427817.2405845620087348
 20
517154.7423339040251449
 30
0.0
  0
SEQEND
  5
D7F
  8
SITES
  0
POLYLINE
  5
4BD
  8
SITES
 66
     1
 10
0.0
 20
0.0
 30
0.0
 70
     1
  0
VERTEX
  5
D80
  8
SITES
 10
427785.0482816952862777
 20
517177.0604431200772524
 30
0.0
  0
VERTEX
  5
D81
  8
SITES
 10
427794.314128537196666
 20
517159.1115561880287714
 30
0.0
  0
VERTEX
  5
D82
  8
SITES
 10
427791.3743652696139179
 20
517134.7470947189140134
 30
0.0
  0
VERTEX
  5
D83
  8
SITES
 10
427789.889700636791531
 20
517117.5470242928131483
 30
0.0
  0
VERTEX
  5
D84
  8
SITES
 10
427779.1050032657221891
 20
517106.8261795715079643
 30
0.0
  0
VERTEX
  5
D85
  8
SITES
 10
427770.4836507810978219
 20
517100.3999984175898135
 30
0.0
  0
VERTEX
  5
D86
  8
SITES
 10
427759.7351039117202163
 20
517101.8656077578198165
 30
0.0
  0
VERTEX
  5
D87
  8
SITES
 10
427754.7405439601861872
 20
517109.7658450282760896
 30
0.0
  0
VERTEX
  5
D88
  8
SITES
 10
427750.4798692013137043
 20
517123.3987511111190543
 30
0.0
  0
VERTEX
  5
D89
  8
SITES
 10
427749.0972677913960069
 20
517140.6074667500797659
 30
0.0
  0
VERTEX
  5
D8A
  8
SITES
 10
427754.1705111237824894
 20
517159.2307098379824311
 30
0.0
  0
VERTEX
  5
D8B
  8
SITES
 10
427764.2532466921256855
 20
517174.9715566082159057
 30
0.0
  0
VERTEX
  5
D8C
  8
SITES
 10
427776.4545315970899537
 20
517179.9533483071136288
 30
0.0
  0
SEQEND
  5
D8D
  8
SITES
  0
POLYLINE
  5
4BE
  8
SITES
 66
     1
 10
0.0
 20
0.0
 30
0.0
 70
     1
  0
VERTEX
  5
D8E
  8
SITES
 10
426184.6021030921838246
 20
517224.7474062743713148
 30
0.0
  0
VERTEX
  5
D8F
  8
SITES
 10
426186.6973685972043313
 20
517206.1028205840848386
 30
0.0
  0
VERTEX
  5
D90
  8
SITES
 10
426179.5032450275029987
 20
517197.521774178603664
 30
0.0
  0
VERTEX
  5
D91
  8
SITES
 10
426172.32837540039327
 20
517195.3925244613783434
 30
0.0
  0
VERTEX
  5
D92
  8
SITES
 10
426144.3986262786202133
 20
517204.7945752100786194
 30
0.0
  0
VERTEX
  5
D93
  8
SITES
 10
426143.0117033350979909
 20
517220.5696436627185903
 30
0.0
  0
VERTEX
  5
D94
  8
SITES
 10
426155.9491793466731906
 20
517232.0010514620807953
 30
0.0
  0
VERTEX
  5
D95
  8
SITES
 10
426173.1600868282839656
 20
517234.1006407563108951
 30
0.0
  0
SEQEND
  5
D96
  8
SITES
  0
POLYLINE
  5
4BF
  8
SITES
 66
     1
 10
0.0
 20
0.0
 30
0.0
 70
     1
  0
VERTEX
  5
D97
  8
SITES
 10
427935.0614558731904253
 20
517241.1324108717963099
 30
0.0
  0
VERTEX
  5
D98
  8
SITES
 10
427936.4101915115024894
 20
517233.1775453865993768
 30
0.0
  0
VERTEX
  5
D99
  8
SITES
 10
427934.2998717547161505
 20
517226.0807470522122458
 30
0.0
  0
VERTEX
  5
D9A
  8
SITES
 10
427914.9406741344719194
 20
517224.7043258629273623
 30
0.0
  0
VERTEX
  5
D9B
  8
SITES
 10
427908.4974957266240381
 20
517227.590846364677418
 30
0.0
  0
VERTEX
  5
D9C
  8
SITES
 10
427907.8063423539861105
 20
517236.1953075936762616
 30
0.0
  0
VERTEX
  5
D9D
  8
SITES
 10
427912.1158384050941095
 20
517239.0499048064812087
 30
0.0
  0
VERTEX
  5
D9E
  8
SITES
 10
427928.6139539913856424
 20
517242.585247821174562
 30
0.0
  0
SEQEND
  5
D9F
  8
SITES
  0
POLYLINE
  5
4C0
  8
SITES
 66
     1
 10
0.0
 20
0.0
 30
0.0
 70
     1
  0
VERTEX
  5
DA0
  8
SITES
 10
428974.7568609807058237
 20
517273.4733567339135334
 30
0.0
  0
VERTEX
  5
DA1
  8
SITES
 10
428982.5843368801870383
 20
517272.1451315712183714
 30
0.0
  0
VERTEX
  5
DA2
  8
SITES
 10
428983.8779401393258013
 20
517268.2264060321031138
 30
0.0
  0
VERTEX
  5
DA3
  8
SITES
 10
428983.8623739361064509
 20
517263.0065934745944105
 30
0.0
  0
VERTEX
  5
DA4
  8
SITES
 10
428981.2325601803022437
 20
517256.4895853599882685
 30
0.0
  0
VERTEX
  5
DA5
  8
SITES
 10
428976.0078570098266937
 20
517255.2000723375240341
 30
0.0
  0
VERTEX
  5
DA6
  8
SITES
 10
428969.4817676043021493
 20
517255.2194285860750824
 30
0.0
  0
VERTEX
  5
DA7
  8
SITES
 10
428959.0400446825078689
 20
517255.2504585629794747
 30
0.0
  0
VERTEX
  5
DA8
  8
SITES
 10
428953.8192333572078496
 20
517255.2659236500039697
 30
0.0
  0
VERTEX
  5
DA9
  8
SITES
 10
428949.9113829212146811
 20
517257.887553398788441
 30
0.0
  0
VERTEX
  5
DAA
  8
SITES
 10
428948.6254631268093362
 20
517264.4161345862085
 30
0.0
  0
VERTEX
  5
DAB
  8
SITES
 10
428948.6332461585989222
 20
517267.0260905981995165
 30
0.0
  0
VERTEX
  5
DAC
  8
SITES
 10
428952.5605541968834586
 20
517270.9293510420829989
 30
0.0
  0
VERTEX
  5
DAD
  8
SITES
 10
428959.0904350267956033
 20
517272.2148730370099656
 30
0.0
  0
VERTEX
  5
DAE
  8
SITES
 10
428965.6204157588072121
 20
517273.5004951345035806
 30
0.0
  0
SEQEND
  5
DAF
  8
SITES
  0
POLYLINE
  5
4C1
  8
SITES
 66
     1
 10
0.0
 20
0.0
 30
0.0
 70
     1
  0
VERTEX
  5
DB0
  8
SITES
 10
429038.8700443676207215
 20
517298.396959058882203
 30
0.0
  0
VERTEX
  5
DB1
  8
SITES
 10
429044.5899636339163408
 20
517293.3620116601232439
 30
0.0
  0
VERTEX
  5
DB2
  8
SITES
 10
429044.5708104735822417
 20
517286.91036842338508
 30
0.0
  0
VERTEX
  5
DB3
  8
SITES
 10
429040.2420490139047615
 20
517277.6042192263994366
 30
0.0
  0
VERTEX
  5
DB4
  8
SITES
 10
429020.8489130956004374
 20
517264.7583936856826767
 30
0.0
  0
VERTEX
  5
DB5
  8
SITES
 10
428997.9163014838122763
 20
517266.977042913378682
 30
0.0
  0
VERTEX
  5
DB6
  8
SITES
 10
428995.0786880609230138
 20
517277.0213993756915443
 30
0.0
  0
VERTEX
  5
DB7
  8
SITES
 10
428997.263252597884275
 20
517288.4845126604195684
 30
0.0
  0
VERTEX
  5
DB8
  8
SITES
 10
429001.5770830707042478
 20
517292.772805557877291
 30
0.0
  0
VERTEX
  5
DB9
  8
SITES
 10
429009.4751816018833779
 20
517297.0504913189797662
 30
0.0
  0
VERTEX
  5
DBA
  8
SITES
 10
429028.842778756399639
 20
517301.2940941284759901
 30
0.0
  0
SEQEND
  5
DBB
  8
SITES
  0
POLYLINE
  5
4C2
  8
SITES
 66
     1
 10
0.0
 20
0.0
 30
0.0
 70
     1
  0
VERTEX
  5
DBC
  8
SITES
 10
427938.8669065281865187
 20
517315.6740386572782882
 30
0.0
  0
VERTEX
  5
DBD
  8
SITES
 10
427950.3024911475949921
 20
517304.1703890882781707
 30
0.0
  0
VERTEX
  5
DBE
  8
SITES
 10
427955.2799660555901937
 20
517290.5353165253181942
 30
0.0
  0
VERTEX
  5
DBF
  8
SITES
 10
427953.829290991590824
 20
517284.8048057238920592
 30
0.0
  0
VERTEX
  5
DC0
  8
SITES
 10
427944.5145217168028466
 20
517286.2661879620281979
 30
0.0
  0
VERTEX
  5
DC1
  8
SITES
 10
427926.6485271106939763
 20
517304.9574073575786315
 30
0.0
  0
VERTEX
  5
DC2
  8
SITES
 10
427923.8130814252072014
 20
517315.7187279160716571
 30
0.0
  0
VERTEX
  5
DC3
  8
SITES
 10
427929.5585217520128936
 20
517319.2858951821108349
 30
0.0
  0
SEQEND
  5
DC4
  8
SITES
  0
POLYLINE
  5
4C3
  8
SITES
 66
     1
 10
0.0
 20
0.0
 30
0.0
 70
     1
  0
VERTEX
  5
DC5
  8
SITES
 10
427438.5846561426878907
 20
517483.5244655215064995
 30
0.0
  0
VERTEX
  5
DC6
  8
SITES
 10
427435.6427545665064827
 20
517458.4431326154735871
 30
0.0
  0
VERTEX
  5
DC7
  8
SITES
 10
427432.0457340381108224
 20
517454.1525936535908841
 30
0.0
  0
VERTEX
  5
DC8
  8
SITES
 10
427409.0724518456845544
 20
517442.7510981136001647
 30
0.0
  0
VERTEX
  5
DC9
  8
SITES
 10
427402.6185742021771148
 20
517442.053457586793229
 30
0.0
  0
VERTEX
  5
DCA
  8
SITES
 10
427392.5954712004167959
 20
517446.3843579569947906
 30
0.0
  0
VERTEX
  5
DCB
  8
SITES
 10
427387.5987478760071099
 20
517453.5676928535103798
 30
0.0
  0
VERTEX
  5
DCC
  8
SITES
 10
427389.0622848310158588
 20
517463.5994402918731794
 30
0.0
  0
VERTEX
  5
DCD
  8
SITES
 10
427404.1778614351060241
 20
517484.3433878656942397
 30
0.0
  0
VERTEX
  5
DCE
  8
SITES
 10
427412.8013608388137072
 20
517491.4863623462733813
 30
0.0
  0
VERTEX
  5
DCF
  8
SITES
 10
427428.5827624665107578
 20
517495.0238728087861091
 30
0.0
  0
SEQEND
  5
DD0
  8
SITES
  0
POLYLINE
  5
4C4
  8
SITES
 66
     1
 10
0.0
 20
0.0
 30
0.0
 70
     1
  0
VERTEX
  5
DD1
  8
SITES
 10
427548.4226380822947249
 20
517536.9626445649191737
 30
0.0
  0
VERTEX
  5
DD2
  8
SITES
 10
427551.2286182013922371
 20
517535.4459970371099189
 30
0.0
  0
VERTEX
  5
DD3
  8
SITES
 10
427552.7152399778133258
 20
517534.0825146855786443
 30
0.0
  0
VERTEX
  5
DD4
  8
SITES
 10
427553.5656257095979527
 20
517532.3292785242083482
 30
0.0
  0
VERTEX
  5
DD5
  8
SITES
 10
427554.1361560159130022
 20
517529.7771467274287716
 30
0.0
  0
VERTEX
  5
DD6
  8
SITES
 10
427554.2215171392890625
 20
517528.23096224560868
 30
0.0
  0
VERTEX
  5
DD7
  8
SITES
 10
427554.0294129974208772
 20
517526.5802894989028573
 30
0.0
  0
VERTEX
  5
DD8
  8
SITES
 10
427553.5617191189085133
 20
517524.8428183146752417
 30
0.0
  0
VERTEX
  5
DD9
  8
SITES
 10
427552.8258927878923714
 20
517523.0471380375092849
 30
0.0
  0
VERTEX
  5
DDA
  8
SITES
 10
427551.8215192781062797
 20
517521.2047399263246916
 30
0.0
  0
VERTEX
  5
DDB
  8
SITES
 10
427550.5876651668222621
 20
517519.3963174624950625
 30
0.0
  0
VERTEX
  5
DDC
  8
SITES
 10
427549.1703085625194944
 20
517517.6899821477127261
 30
0.0
  0
VERTEX
  5
DDD
  8
SITES
 10
427547.6439781215740368
 20
517516.1760669557261281
 30
0.0
  0
VERTEX
  5
DDE
  8
SITES
 10
427544.8541910378844477
 20
517514.0953042046166956
 30
0.0
  0
VERTEX
  5
DDF
  8
SITES
 10
427541.8985451178159565
 20
517512.6089002288063057
 30
0.0
  0
VERTEX
  5
DE0
  8
SITES
 10
427540.0036699207848869
 20
517512.0186436552903615
 30
0.0
  0
VERTEX
  5
DE1
  8
SITES
 10
427537.8985179726732895
 20
517511.6018882230273448
 30
0.0
  0
VERTEX
  5
DE2
  8
SITES
 10
427535.7287481760140508
 20
517511.3870041590998881
 30
0.0
  0
VERTEX
  5
DE3
  8
SITES
 10
427533.6229521668865345
 20
517511.3866505842888728
 30
0.0
  0
VERTEX
  5
DE4
  8
SITES
 10
427531.7223371131112799
 20
517511.5947165212710388
 30
0.0
  0
VERTEX
  5
DE5
  8
SITES
 10
427530.0515974874724634
 20
517512.0019408743828535
 30
0.0
  0
VERTEX
  5
DE6
  8
SITES
 10
427528.6572151788859628
 20
517512.596792658616323
 30
0.0
  0
VERTEX
  5
DE7
  8
SITES
 10
427527.5636870259186253
 20
517513.3683117383043282
 30
0.0
  0
VERTEX
  5
DE8
  8
SITES
 10
427526.1789594414876774
 20
517515.1395361967151985
 30
0.0
  0
VERTEX
  5
DE9
  8
SITES
 10
427525.022182445100043
 20
517517.6652200499083847
 30
0.0
  0
VERTEX
  5
DEA
  8
SITES
 10
427524.2452716198167764
 20
517520.6210935013950802
 30
0.0
  0
VERTEX
  5
DEB
  8
SITES
 10
427524.0091865740250796
 20
517523.4148899405263364
 30
0.0
  0
VERTEX
  5
DEC
  8
SITES
 10
427524.4824334924924187
 20
517526.4086712314165197
 30
0.0
  0
VERTEX
  5
DED
  8
SITES
 10
427525.7201036580954678
 20
517529.5790261510992423
 30
0.0
  0
VERTEX
  5
DEE
  8
SITES
 10
427527.5674240551888943
 20
517532.5310342885204591
 30
0.0
  0
VERTEX
  5
DEF
  8
SITES
 10
427529.778090063482523
 20
517534.8674571660812944
 30
0.0
  0
VERTEX
  5
DF0
  8
SITES
 10
427531.5157130815205164
 20
517536.0421908657881431
 30
0.0
  0
VERTEX
  5
DF1
  8
SITES
 10
427534.8045706143020652
 20
517537.7199940988793969
 30
0.0
  0
VERTEX
  5
DF2
  8
SITES
 10
427537.6762564567034133
 20
517539.1451321758213453
 30
0.0
  0
VERTEX
  5
DF3
  8
SITES
 10
427539.8262644864735194
 20
517539.4944945342722349
 30
0.0
  0
VERTEX
  5
DF4
  8
SITES
 10
427542.3212033861200325
 20
517539.2496322600054555
 30
0.0
  0
VERTEX
  5
DF5
  8
SITES
 10
427545.1600700882845558
 20
517538.4134419584879652
 30
0.0
  0
SEQEND
  5
DF6
  8
SITES
  0
POLYLINE
  5
4C5
  8
SITES
 66
     1
 10
0.0
 20
0.0
 30
0.0
 70
     1
  0
VERTEX
  5
DF7
  8
SITES
 10
427615.2409315343247727
 20
517587.6611417232779786
 30
0.0
  0
VERTEX
  5
DF8
  8
SITES
 10
427615.7831100639887154
 20
517586.6170960771851242
 30
0.0
  0
VERTEX
  5
DF9
  8
SITES
 10
427616.0705173332826234
 20
517585.1549156635883264
 30
0.0
  0
VERTEX
  5
DFA
  8
SITES
 10
427615.9365136715932749
 20
517580.4904698003083467
 30
0.0
  0
VERTEX
  5
DFB
  8
SITES
 10
427615.3834909974248149
 20
517576.0692023304873146
 30
0.0
  0
VERTEX
  5
DFC
  8
SITES
 10
427614.4527852679020725
 20
517572.6056572954985313
 30
0.0
  0
VERTEX
  5
DFD
  8
SITES
 10
427613.8605297603062354
 20
517571.2892223460949026
 30
0.0
  0
VERTEX
  5
DFE
  8
SITES
 10
427613.1862664619111456
 20
517570.2528802171000279
 30
0.0
  0
VERTEX
  5
DFF
  8
SITES
 10
427612.4325885464204475
 20
517569.5004315851838328
 30
0.0
  0
VERTEX
  5
E00
  8
SITES
 10
427611.6012923815869726
 20
517569.0336775138857774
 30
0.0
  0
VERTEX
  5
E01
  8
SITES
 10
427610.1149452201789245
 20
517568.7340474253869615
 30
0.0
  0
VERTEX
  5
E02
  8
SITES
 10
427608.2391375934821554
 20
517568.7696686653071083
 30
0.0
  0
VERTEX
  5
E03
  8
SITES
 10
427606.2240955660236068
 20
517569.1369710480794311
 30
0.0
  0
VERTEX
  5
E04
  8
SITES
 10
427604.4349424407118931
 20
517569.771777915826533
 30
0.0
  0
VERTEX
  5
E05
  8
SITES
 10
427602.1309205520083196
 20
517571.2753912174957804
 30
0.0
  0
VERTEX
  5
E06
  8
SITES
 10
427600.1445005679852329
 20
517573.3687988810124807
 30
0.0
  0
VERTEX
  5
E07
  8
SITES
 10
427598.8173333550221287
 20
517575.6737177763134241
 30
0.0
  0
VERTEX
  5
E08
  8
SITES
 10
427597.9376512338058092
 20
517578.2810060827177949
 30
0.0
  0
VERTEX
  5
E09
  8
SITES
 10
427597.6658837372087874
 20
517580.6982251557055861
 30
0.0
  0
VERTEX
  5
E0A
  8
SITES
 10
427598.0216191600775346
 20
517582.694265594414901
 30
0.0
  0
VERTEX
  5
E0B
  8
SITES
 10
427598.5383167103282176
 20
517583.7139135389006697
 30
0.0
  0
VERTEX
  5
E0C
  8
SITES
 10
427599.3258488452993333
 20
517584.7886763737187721
 30
0.0
  0
VERTEX
  5
E0D
  8
SITES
 10
427601.6186399512225762
 20
517586.9847075939178467
 30
0.0
  0
VERTEX
  5
E0E
  8
SITES
 10
427603.2137508440064266
 20
517588.093702266109176
 30
0.0
  0
VERTEX
  5
E0F
  8
SITES
 10
427604.9021898178034462
 20
517588.9773798452806659
 30
0.0
  0
VERTEX
  5
E10
  8
SITES
 10
427606.5475466257776134
 20
517589.5651123314746656
 30
0.0
  0
VERTEX
  5
E11
  8
SITES
 10
427608.0788031896227039
 20
517589.8330238771159202
 30
0.0
  0
VERTEX
  5
E12
  8
SITES
 10
427610.2186612269724719
 20
517589.767669319990091
 30
0.0
  0
VERTEX
  5
E13
  8
SITES
 10
427612.377701555902604
 20
517589.3231105249142274
 30
0.0
  0
VERTEX
  5
E14
  8
SITES
 10
427614.1028197644045576
 20
517588.597085090528708
 30
0.0
  0
SEQEND
  5
E15
  8
SITES
  0
POLYLINE
  5
4C6
  8
SITES
 66
     1
 10
0.0
 20
0.0
 30
0.0
 70
     1
  0
VERTEX
  5
E16
  8
SITES
 10
428930.9483401114121079
 20
517542.12163020047592
 30
0.0
  0
VERTEX
  5
E17
  8
SITES
 10
428931.6396014585043304
 20
517533.5173471939051524
 30
0.0
  0
VERTEX
  5
E18
  8
SITES
 10
428918.6917369005968794
 20
517518.5019826674251817
 30
0.0
  0
VERTEX
  5
E19
  8
SITES
 10
428906.5074092317954637
 20
517519.2550138243823312
 30
0.0
  0
VERTEX
  5
E1A
  8
SITES
 10
428902.2191148604033515
 20
517523.5688407819834538
 30
0.0
  0
VERTEX
  5
E1B
  8
SITES
 10
428901.5342369232093915
 20
517534.3236035255831666
 30
0.0
  0
VERTEX
  5
E1C
  8
SITES
 10
428915.1905496107065119
 20
517546.4695331680122763
 30
0.0
  0
VERTEX
  5
E1D
  8
SITES
 10
428925.2327412439044565
 20
517548.590259624121245
 30
0.0
  0
SEQEND
  5
E1E
  8
SITES
  0
POLYLINE
  5
4C7
  8
SITES
 66
     1
 10
0.0
 20
0.0
 30
0.0
 70
     1
  0
VERTEX
  5
E1F
  8
SITES
 10
428997.6107184090069495
 20
517540.4899693913175724
 30
0.0
  0
VERTEX
  5
E20
  8
SITES
 10
428994.6922793231788091
 20
517523.2941668364801444
 30
0.0
  0
VERTEX
  5
E21
  8
SITES
 10
428987.4876054229098372
 20
517511.1290860460721888
 30
0.0
  0
VERTEX
  5
E22
  8
SITES
 10
428980.3042419622070156
 20
517506.1325415121973492
 30
0.0
  0
VERTEX
  5
E23
  8
SITES
 10
428973.140028485271614
 20
517507.5874394073034637
 30
0.0
  0
VERTEX
  5
E24
  8
SITES
 10
428967.4435790234711021
 20
517520.5077120303176343
 30
0.0
  0
VERTEX
  5
E25
  8
SITES
 10
428968.1966102248989046
 20
517532.6919415532029234
 30
0.0
  0
VERTEX
  5
E26
  8
SITES
 10
428982.5846458654268645
 20
517549.8536672560148872
 30
0.0
  0
VERTEX
  5
E27
  8
SITES
 10
428989.7573038437985815
 20
517551.2660444817738608
 30
0.0
  0
SEQEND
  5
E28
  8
SITES
  0
POLYLINE
  5
4C8
  8
SITES
 66
     1
 10
0.0
 20
0.0
 30
0.0
 70
     1
  0
VERTEX
  5
E29
  8
SITES
 10
428877.3190726502798498
 20
517587.4425896718748845
 30
0.0
  0
VERTEX
  5
E2A
  8
SITES
 10
428883.7472430482157506
 20
517579.5381138368975371
 30
0.0
  0
VERTEX
  5
E2B
  8
SITES
 10
428883.0026573623181321
 20
517570.2212603645748459
 30
0.0
  0
VERTEX
  5
E2C
  8
SITES
 10
428875.7980868829763494
 20
517558.0561822634772398
 30
0.0
  0
VERTEX
  5
E2D
  8
SITES
 10
428870.7715892523992807
 20
517555.2037354385247454
 30
0.0
  0
VERTEX
  5
E2E
  8
SITES
 10
428861.4547364077880047
 20
517555.9482215896132402
 30
0.0
  0
VERTEX
  5
E2F
  8
SITES
 10
428859.3127002562978305
 20
517558.8219779778737575
 30
0.0
  0
VERTEX
  5
E30
  8
SITES
 10
428856.5007116253837012
 20
517577.4685492601129226
 30
0.0
  0
VERTEX
  5
E31
  8
SITES
 10
428865.12836326030083
 20
517586.0451384551124647
 30
0.0
  0
VERTEX
  5
E32
  8
SITES
 10
428870.1526996318716556
 20
517588.1807921685976908
 30
0.0
  0
SEQEND
  5
E33
  8
SITES
  0
POLYLINE
  5
4C9
  8
SITES
 66
     1
 10
0.0
 20
0.0
 30
0.0
 70
     1
  0
VERTEX
  5
E34
  8
SITES
 10
428963.3532549529918469
 20
517591.4882401169161312
 30
0.0
  0
VERTEX
  5
E35
  8
SITES
 10
428966.2100246243062429
 20
517587.8954287411179394
 30
0.0
  0
VERTEX
  5
E36
  8
SITES
 10
428964.0339127611950971
 20
517579.2996887834160589
 30
0.0
  0
VERTEX
  5
E37
  8
SITES
 10
428953.9618669539922848
 20
517567.1431517358287238
 30
0.0
  0
VERTEX
  5
E38
  8
SITES
 10
428948.9418512929114513
 20
517566.4411849871976301
 30
0.0
  0
VERTEX
  5
E39
  8
SITES
 10
428941.7563283386989497
 20
517560.7277464047074318
 30
0.0
  0
VERTEX
  5
E3A
  8
SITES
 10
428937.4574283130932599
 20
517561.4573058427195065
 30
0.0
  0
VERTEX
  5
E3B
  8
SITES
 10
428937.4616502849967219
 20
517562.8909928150242195
 30
0.0
  0
VERTEX
  5
E3C
  8
SITES
 10
428933.877482662210241
 20
517562.9016976890270598
 30
0.0
  0
VERTEX
  5
E3D
  8
SITES
 10
428928.8722940217121504
 20
517567.2176853498094715
 30
0.0
  0
VERTEX
  5
E3E
  8
SITES
 10
428927.4662994423997588
 20
517576.5409226688789204
 30
0.0
  0
VERTEX
  5
E3F
  8
SITES
 10
428946.8679645346710458
 20
517592.2540347630856559
 30
0.0
  0
SEQEND
  5
E40
  8
SITES
  0
POLYLINE
  5
4CA
  8
SITES
 66
     1
 10
0.0
 20
0.0
 30
0.0
 70
     1
  0
VERTEX
  5
E41
  8
SITES
 10
427863.4187275797012262
 20
517650.5319031864055432
 30
0.0
  0
VERTEX
  5
E42
  8
SITES
 10
427866.9944421377149411
 20
517647.6539329338120297
 30
0.0
  0
VERTEX
  5
E43
  8
SITES
 10
427868.3940525118960068
 20
517636.1800462572136894
 30
0.0
  0
VERTEX
  5
E44
  8
SITES
 10
427859.7641631423030049
 20
517626.8865857401979156
 30
0.0
  0
VERTEX
  5
E45
  8
SITES
 10
427842.5639881049282849
 20
517628.3713285828125663
 30
0.0
  0
VERTEX
  5
E46
  8
SITES
 10
427840.4241176405921578
 20
517631.9619686785154045
 30
0.0
  0
VERTEX
  5
E47
  8
SITES
 10
427842.6173081973101944
 20
517646.2926167044206522
 30
0.0
  0
VERTEX
  5
E48
  8
SITES
 10
427855.5354812343139201
 20
517651.2722632433287799
 30
0.0
  0
SEQEND
  5
E49
  8
SITES
  0
POLYLINE
  5
4CB
  8
SITES
 66
     1
 10
0.0
 20
0.0
 30
0.0
 70
     1
  0
VERTEX
  5
E4A
  8
SITES
 10
427760.9539244411280379
 20
517665.8903137453016825
 30
0.0
  0
VERTEX
  5
E4B
  8
SITES
 10
427763.0830910193035379
 20
517658.7154175968025811
 30
0.0
  0
VERTEX
  5
E4C
  8
SITES
 10
427762.3428311421885155
 20
517650.8321732569020241
 30
0.0
  0
VERTEX
  5
E4D
  8
SITES
 10
427755.1467270526918583
 20
517641.5344933824962936
 30
0.0
  0
VERTEX
  5
E4E
  8
SITES
 10
427742.9453486024285667
 20
517636.5526875474024564
 30
0.0
  0
VERTEX
  5
E4F
  8
SITES
 10
427738.6442006519064307
 20
517636.5654523260891438
 30
0.0
  0
VERTEX
  5
E50
  8
SITES
 10
427730.7738216361030936
 20
517641.6068604754982516
 30
0.0
  0
VERTEX
  5
E51
  8
SITES
 10
427730.0910029633087106
 20
517653.0785823100013658
 30
0.0
  0
VERTEX
  5
E52
  8
SITES
 10
427732.9711328764096834
 20
517657.3711870702099986
 30
0.0
  0
VERTEX
  5
E53
  8
SITES
 10
427738.003997532883659
 20
517662.3742010560818017
 30
0.0
  0
VERTEX
  5
E54
  8
SITES
 10
427750.9286490962840617
 20
517669.5044209975749254
 30
0.0
  0
SEQEND
  5
E55
  8
SITES
  0
POLYLINE
  5
4CC
  8
SITES
 66
     1
 10
0.0
 20
0.0
 30
0.0
 70
     1
  0
VERTEX
  5
E56
  8
SITES
 10
429406.0637416152167134
 20
517730.6759454025886953
 30
0.0
  0
VERTEX
  5
E57
  8
SITES
 10
429417.5055626822868362
 20
517721.3228476793738082
 30
0.0
  0
VERTEX
  5
E58
  8
SITES
 10
429416.7653006255277433
 20
517713.4396701998193748
 30
0.0
  0
VERTEX
  5
E59
  8
SITES
 10
429403.1346040928037837
 20
517709.8959517714101821
 30
0.0
  0
VERTEX
  5
E5A
  8
SITES
 10
429394.5452362517244183
 20
517714.2225463495124131
 30
0.0
  0
VERTEX
  5
E5B
  8
SITES
 10
429382.3674754287931137
 20
517717.1261556508252397
 30
0.0
  0
VERTEX
  5
E5C
  8
SITES
 10
429371.640389176318422
 20
517725.7601977622834966
 30
0.0
  0
VERTEX
  5
E5D
  8
SITES
 10
429367.3648515724926256
 20
517734.3750933308037929
 30
0.0
  0
VERTEX
  5
E5E
  8
SITES
 10
429389.5912964104209095
 20
517735.7428013267926872
 30
0.0
  0
SEQEND
  5
E5F
  8
SITES
  0
POLYLINE
  5
4CD
  8
SITES
 66
     1
 10
0.0
 20
0.0
 30
0.0
 70
     1
  0
VERTEX
  5
E60
  8
SITES
 10
427850.0107370531768538
 20
517845.8598588482709602
 30
0.0
  0
VERTEX
  5
E61
  8
SITES
 10
427854.2521939417929389
 20
517825.7751330586033873
 30
0.0
  0
VERTEX
  5
E62
  8
SITES
 10
427845.5988437599153258
 20
517808.5964617182034999
 30
0.0
  0
VERTEX
  5
E63
  8
SITES
 10
427832.6743916886043735
 20
517801.466035935387481
 30
0.0
  0
VERTEX
  5
E64
  8
SITES
 10
427825.5164790168055333
 20
517805.0717982522910461
 30
0.0
  0
VERTEX
  5
E65
  8
SITES
 10
427821.2301535864826292
 20
517810.1026014356175438
 30
0.0
  0
VERTEX
  5
E66
  8
SITES
 10
427820.5304461204796098
 20
517815.8393940452951938
 30
0.0
  0
VERTEX
  5
E67
  8
SITES
 10
427828.4689641117001884
 20
517833.7373160723946057
 30
0.0
  0
VERTEX
  5
E68
  8
SITES
 10
427844.2802257399889641
 20
517847.3105254158144817
 30
0.0
  0
SEQEND
  5
E69
  8
SITES
  0
POLYLINE
  5
4CE
  8
SITES
 66
     1
 10
0.0
 20
0.0
 30
0.0
 70
     1
  0
VERTEX
  5
E6A
  8
SITES
 10
428818.3651190035743639
 20
517924.3997949386830442
 30
0.0
  0
VERTEX
  5
E6B
  8
SITES
 10
428825.5250107953906991
 20
517921.5111185318091884
 30
0.0
  0
VERTEX
  5
E6C
  8
SITES
 10
428834.120849592378363
 20
517919.3350148817989975
 30
0.0
  0
VERTEX
  5
E6D
  8
SITES
 10
428842.6995060002082027
 20
517911.4241641865228303
 30
0.0
  0
VERTEX
  5
E6E
  8
SITES
 10
428841.9507074683788233
 20
517900.673624370014295
 30
0.0
  0
VERTEX
  5
E6F
  8
SITES
 10
428818.2755848374217749
 20
517894.292276265390683
 30
0.0
  0
VERTEX
  5
E70
  8
SITES
 10
428818.2799055281211622
 20
517895.7259629453765228
 30
0.0
  0
VERTEX
  5
E71
  8
SITES
 10
428811.8304262586752884
 20
517896.4619994711247273
 30
0.0
  0
VERTEX
  5
E72
  8
SITES
 10
428802.5241758762276731
 20
517900.7907437338726595
 30
0.0
  0
VERTEX
  5
E73
  8
SITES
 10
428795.3834277195273899
 20
517910.1310596098192036
 30
0.0
  0
VERTEX
  5
E74
  8
SITES
 10
428793.2648528491845354
 20
517920.8901394378044643
 30
0.0
  0
VERTEX
  5
E75
  8
SITES
 10
428794.6985393058275804
 20
517920.8859187747002579
 30
0.0
  0
VERTEX
  5
E76
  8
SITES
 10
428793.9881270040059462
 20
517923.0385589316138066
 30
0.0
  0
VERTEX
  5
E77
  8
SITES
 10
428807.6145800049998797
 20
517925.148592873418238
 30
0.0
  0
SEQEND
  5
E78
  8
SITES
  0
POLYLINE
  5
4CF
  8
SITES
 66
     1
 10
0.0
 20
0.0
 30
0.0
 70
     1
  0
VERTEX
  5
E79
  8
SITES
 10
428248.569931281672325
 20
517959.0687778678839095
 30
0.0
  0
VERTEX
  5
E7A
  8
SITES
 10
428265.0616741428966634
 20
517960.4534770842874423
 30
0.0
  0
VERTEX
  5
E7B
  8
SITES
 10
428269.3478062803042121
 20
517955.4227695123990998
 30
0.0
  0
VERTEX
  5
E7C
  8
SITES
 10
428267.8629755246220157
 20
517938.2226747589884326
 30
0.0
  0
VERTEX
  5
E7D
  8
SITES
 10
428261.3943626197869889
 20
517932.50707894860534
 30
0.0
  0
VERTEX
  5
E7E
  8
SITES
 10
428247.0509364194003865
 20
517930.3991076949168928
 30
0.0
  0
VERTEX
  5
E7F
  8
SITES
 10
428236.3302567446953617
 20
517941.1837957135867327
 30
0.0
  0
VERTEX
  5
E80
  8
SITES
 10
428237.059810571023263
 20
517945.482788793684449
 30
0.0
  0
VERTEX
  5
E81
  8
SITES
 10
428249.2910439306870103
 20
517960.5004021347267553
 30
0.0
  0
SEQEND
  5
E82
  8
SITES
  0
POLYLINE
  5
4D0
  8
SITES
 66
     1
 10
0.0
 20
0.0
 30
0.0
 70
     1
  0
VERTEX
  5
E83
  8
SITES
 10
427459.8057844046852551
 20
518094.3411861431086436
 30
0.0
  0
VERTEX
  5
E84
  8
SITES
 10
427468.2150946296169423
 20
518094.7873770712176338
 30
0.0
  0
VERTEX
  5
E85
  8
SITES
 10
427481.0842704235110432
 20
518083.279443554696627
 30
0.0
  0
VERTEX
  5
E86
  8
SITES
 10
427472.4287799603189342
 20
518065.3836919396999292
 30
0.0
  0
VERTEX
  5
E87
  8
SITES
 10
427449.4575727200135589
 20
518054.6991502767778002
 30
0.0
  0
VERTEX
  5
E88
  8
SITES
 10
427424.3721150564961135
 20
518056.2074332801275887
 30
0.0
  0
VERTEX
  5
E89
  8
SITES
 10
427421.5131921975989826
 20
518059.0833364560967311
 30
0.0
  0
VERTEX
  5
E8A
  8
SITES
 10
427422.2832833228167146
 20
518077.0025455569848418
 30
0.0
  0
VERTEX
  5
E8B
  8
SITES
 10
427433.7976954682962969
 20
518092.0222922525717877
 30
0.0
  0
VERTEX
  5
E8C
  8
SITES
 10
427455.3139194370014593
 20
518095.5426472775870934
 30
0.0
  0
SEQEND
  5
E8D
  8
SITES
  0
POLYLINE
  5
4D1
  8
SITES
 66
     1
 10
0.0
 20
0.0
 30
0.0
 70
     1
  0
VERTEX
  5
E8E
  8
SITES
 10
428906.7480689907097258
 20
517995.1054295254289173
 30
0.0
  0
VERTEX
  5
E8F
  8
SITES
 10
428913.8888211584999226
 20
517985.7651125299162231
 30
0.0
  0
VERTEX
  5
E90
  8
SITES
 10
428910.2981732225161977
 20
517983.6252330802963115
 30
0.0
  0
VERTEX
  5
E91
  8
SITES
 10
428903.8167890590266325
 20
517973.6085665911086835
 30
0.0
  0
VERTEX
  5
E92
  8
SITES
 10
428890.1732511364971288
 20
517965.7637829688028432
 30
0.0
  0
VERTEX
  5
E93
  8
SITES
 10
428874.3983756270026788
 20
517964.3769213493796997
 30
0.0
  0
VERTEX
  5
E94
  8
SITES
 10
428858.6810266770771705
 20
517982.3449808883015066
 30
0.0
  0
VERTEX
  5
E95
  8
SITES
 10
428857.9897556843934581
 20
517990.9492615833878517
 30
0.0
  0
VERTEX
  5
E96
  8
SITES
 10
428859.4234423750895076
 20
517990.9450411715079099
 30
0.0
  0
VERTEX
  5
E97
  8
SITES
 10
428860.8763707856996916
 20
517997.3923613058286719
 30
0.0
  0
VERTEX
  5
E98
  8
SITES
 10
428865.1881319686071947
 20
518000.9637672489043325
 30
0.0
  0
SEQEND
  5
E99
  8
SITES
  0
POLYLINE
  5
4D2
  8
SITES
 66
     1
 10
0.0
 20
0.0
 30
0.0
 70
     1
  0
VERTEX
  5
E9A
  8
SITES
 10
427535.6757982667768374
 20
518120.3937151781283319
 30
0.0
  0
VERTEX
  5
E9B
  8
SITES
 10
427540.6617361333919689
 20
518109.626030886778608
 30
0.0
  0
VERTEX
  5
E9C
  8
SITES
 10
427549.9020000856253318
 20
518083.074884639820084
 30
0.0
  0
VERTEX
  5
E9D
  8
SITES
 10
427542.6801900130230933
 20
518065.1749098246218637
 30
0.0
  0
VERTEX
  5
E9E
  8
SITES
 10
427534.7692688314127736
 20
518056.5961783822858706
 30
0.0
  0
VERTEX
  5
E9F
  8
SITES
 10
427512.5447894086828455
 20
518055.9453486768179573
 30
0.0
  0
VERTEX
  5
EA0
  8
SITES
 10
427502.5237368426751345
 20
518060.9931255494011566
 30
0.0
  0
VERTEX
  5
EA1
  8
SITES
 10
427497.5697008494753391
 20
518082.5135729048051871
 30
0.0
  0
VERTEX
  5
EA2
  8
SITES
 10
427499.0759215913712978
 20
518106.8822439074865542
 30
0.0
  0
VERTEX
  5
EA3
  8
SITES
 10
427510.6029944021720439
 20
518126.2031397665850818
 30
0.0
  0
VERTEX
  5
EA4
  8
SITES
 10
427527.1012855154112913
 20
518129.7384166700066999
 30
0.0
  0
SEQEND
  5
EA5
  8
SITES
  0
POLYLINE
  5
4D3
  8
SITES
 66
     1
 10
0.0
 20
0.0
 30
0.0
 70
     1
  0
VERTEX
  5
EA6
  8
SITES
 10
427961.7030910226749256
 20
518144.3464253906859085
 30
0.0
  0
VERTEX
  5
EA7
  8
SITES
 10
427970.2690738057717681
 20
518132.1343467892147601
 30
0.0
  0
VERTEX
  5
EA8
  8
SITES
 10
427970.9219676079810597
 20
518110.6267338694888167
 30
0.0
  0
VERTEX
  5
EA9
  8
SITES
 10
427966.5952975887921639
 20
518102.0372924978728406
 30
0.0
  0
VERTEX
  5
EAA
  8
SITES
 10
427960.8584034924278967
 20
518101.3375804520910606
 30
0.0
  0
VERTEX
  5
EAB
  8
SITES
 10
427952.9964540218934417
 20
518109.2463490957743488
 30
0.0
  0
VERTEX
  5
EAC
  8
SITES
 10
427950.8629585261805914
 20
518114.9874628472025506
 30
0.0
  0
VERTEX
  5
EAD
  8
SITES
 10
427949.4697137183975428
 20
518128.6119254517834634
 30
0.0
  0
VERTEX
  5
EAE
  8
SITES
 10
427947.3469173085177317
 20
518137.9373976421775296
 30
0.0
  0
VERTEX
  5
EAF
  8
SITES
 10
427947.3532971144886687
 20
518140.0878728479146957
 30
0.0
  0
VERTEX
  5
EB0
  8
SITES
 10
427953.1008902431931347
 20
518144.3719440813874826
 30
0.0
  0
SEQEND
  5
EB1
  8
SITES
  0
POLYLINE
  5
4D4
  8
SITES
 66
     1
 10
0.0
 20
0.0
 30
0.0
 70
     1
  0
VERTEX
  5
EB2
  8
SITES
 10
427914.7275541648850776
 20
518155.2134705209755339
 30
0.0
  0
VERTEX
  5
EB3
  8
SITES
 10
427917.713440491585061
 20
518151.4594567610183731
 30
0.0
  0
VERTEX
  5
EB4
  8
SITES
 10
427922.1845580431981944
 20
518143.2067951433709823
 30
0.0
  0
VERTEX
  5
EB5
  8
SITES
 10
427925.9019713379093446
 20
518133.4583130144164898
 30
0.0
  0
VERTEX
  5
EB6
  8
SITES
 10
427927.3760137351928279
 20
518125.2146206119214185
 30
0.0
  0
VERTEX
  5
EB7
  8
SITES
 10
427928.850056097493507
 20
518116.9708282229257748
 30
0.0
  0
VERTEX
  5
EB8
  8
SITES
 10
427928.838967346411664
 20
518113.225683924916666
 30
0.0
  0
VERTEX
  5
EB9
  8
SITES
 10
427928.067420995386783
 20
518105.7377125793718733
 30
0.0
  0
VERTEX
  5
EBA
  8
SITES
 10
427923.5584022857947275
 20
518101.2569040207890794
 30
0.0
  0
VERTEX
  5
EBB
  8
SITES
 10
427919.7943165714968927
 20
518095.2758405280183069
 30
0.0
  0
VERTEX
  5
EBC
  8
SITES
 10
427916.7949241239111871
 20
518094.5357414038735442
 30
0.0
  0
VERTEX
  5
EBD
  8
SITES
 10
427912.3082831737119704
 20
518097.545221641776152
 30
0.0
  0
VERTEX
  5
EBE
  8
SITES
 10
427910.8320236948784441
 20
518105.0398450316279195
 30
0.0
  0
VERTEX
  5
EBF
  8
SITES
 10
427907.8705331038217992
 20
518117.0332160625257529
 30
0.0
  0
VERTEX
  5
EC0
  8
SITES
 10
427907.8972459096112289
 20
518126.0215420479071327
 30
0.0
  0
VERTEX
  5
EC1
  8
SITES
 10
427907.9261763027170673
 20
518135.7588369005243294
 30
0.0
  0
VERTEX
  5
EC2
  8
SITES
 10
427907.9440178443910554
 20
518141.7510875810985453
 30
0.0
  0
VERTEX
  5
EC3
  8
SITES
 10
427906.4588866042904556
 20
518146.2497353553189896
 30
0.0
  0
VERTEX
  5
EC4
  8
SITES
 10
427907.2304321447154507
 20
518153.7377063761232421
 30
0.0
  0
VERTEX
  5
EC5
  8
SITES
 10
427907.9841361662256531
 20
518155.2335266710724682
 30
0.0
  0
VERTEX
  5
EC6
  8
SITES
 10
427910.983428512874525
 20
518155.973626108490862
 30
0.0
  0
SEQEND
  5
EC7
  8
SITES
  0
POLYLINE
  5
4D5
  8
SITES
 66
     1
 10
0.0
 20
0.0
 30
0.0
 70
     1
  0
VERTEX
  5
EC8
  8
SITES
 10
427977.5717633693129756
 20
518177.2746295867254958
 30
0.0
  0
VERTEX
  5
EC9
  8
SITES
 10
427981.8622148439753801
 20
518173.6776116795954295
 30
0.0
  0
VERTEX
  5
ECA
  8
SITES
 10
427980.4030131492763758
 20
518165.079630071122665
 30
0.0
  0
VERTEX
  5
ECB
  8
SITES
 10
427976.8058951960992999
 20
518160.789178560487926
 30
0.0
  0
VERTEX
  5
ECC
  8
SITES
 10
427966.7530315562034957
 20
518155.0841826385003515
 30
0.0
  0
VERTEX
  5
ECD
  8
SITES
 10
427950.9779935121187009
 20
518153.6974161447142251
 30
0.0
  0
VERTEX
  5
ECE
  8
SITES
 10
427942.3971915388829075
 20
518160.8914518767851405
 30
0.0
  0
VERTEX
  5
ECF
  8
SITES
 10
427940.986866521416232
 20
518168.7810803246102296
 30
0.0
  0
VERTEX
  5
ED0
  8
SITES
 10
427953.1967839938006364
 20
518176.6301721215713769
 30
0.0
  0
VERTEX
  5
ED1
  8
SITES
 10
427961.8032044940046035
 20
518178.0383375895908102
 30
0.0
  0
SEQEND
  5
ED2
  8
SITES
  0
POLYLINE
  5
4D6
  8
SITES
 66
     1
 10
0.0
 20
0.0
 30
0.0
 70
     1
  0
VERTEX
  5
ED3
  8
SITES
 10
425503.6829494782723486
 20
518088.6779418967198581
 30
0.0
  0
VERTEX
  5
ED4
  8
SITES
 10
425518.4563480257056653
 20
518086.4459886968834326
 30
0.0
  0
VERTEX
  5
ED5
  8
SITES
 10
425524.1677873271983117
 20
518078.5433487861882895
 30
0.0
  0
VERTEX
  5
ED6
  8
SITES
 10
425515.5271600621053949
 20
518065.6655966124963015
 30
0.0
  0
VERTEX
  5
ED7
  8
SITES
 10
425494.7211491524940357
 20
518059.9924376520793885
 30
0.0
  0
VERTEX
  5
ED8
  8
SITES
 10
425486.1209619643050246
 20
518060.7349446244188584
 30
0.0
  0
VERTEX
  5
ED9
  8
SITES
 10
425474.6491062332061119
 20
518060.052117154118605
 30
0.0
  0
VERTEX
  5
EDA
  8
SITES
 10
425463.1942302956013009
 20
518065.1044870901969261
 30
0.0
  0
VERTEX
  5
EDB
  8
SITES
 10
425459.6333541196072474
 20
518073.000446283724159
 30
0.0
  0
VERTEX
  5
EDC
  8
SITES
 10
425468.2612199513241649
 20
518081.5772733499179594
 30
0.0
  0
VERTEX
  5
EDD
  8
SITES
 10
425490.3048008882906288
 20
518088.501753457414452
 30
0.0
  0
VERTEX
  5
EDE
  8
SITES
 10
425494.4278748108772561
 20
518089.6176490464131348
 30
0.0
  0
SEQEND
  5
EDF
  8
SITES
  0
POLYLINE
  5
4D7
  8
SITES
 66
     1
 10
0.0
 20
0.0
 30
0.0
 70
     1
  0
VERTEX
  5
EE0
  8
SITES
 10
428029.2105924615170807
 20
518185.7233244854724035
 30
0.0
  0
VERTEX
  5
EE1
  8
SITES
 10
428030.5739015275030397
 20
518162.0630728633259423
 30
0.0
  0
VERTEX
  5
EE2
  8
SITES
 10
428029.1103796630050056
 20
518152.0314064100966789
 30
0.0
  0
VERTEX
  5
EE3
  8
SITES
 10
428024.7964691816014238
 20
518147.7431144323199987
 30
0.0
  0
VERTEX
  5
EE4
  8
SITES
 10
428019.0617342563928105
 20
518147.7601935571874492
 30
0.0
  0
VERTEX
  5
EE5
  8
SITES
 10
428010.4744513987097889
 20
518152.8036550555261783
 30
0.0
  0
VERTEX
  5
EE6
  8
SITES
 10
428009.7852379194810055
 20
518162.1248087370186113
 30
0.0
  0
VERTEX
  5
EE7
  8
SITES
 10
428009.0833649949054234
 20
518167.1449115055729635
 30
0.0
  0
VERTEX
  5
EE8
  8
SITES
 10
428006.9860852988786064
 20
518185.0725868120789528
 30
0.0
  0
VERTEX
  5
EE9
  8
SITES
 10
428006.9988442583126016
 20
518189.3736378035973758
 30
0.0
  0
VERTEX
  5
EEA
  8
SITES
 10
428015.6266638046945445
 20
518197.9503223128267564
 30
0.0
  0
VERTEX
  5
EEB
  8
SITES
 10
428021.3657182503957301
 20
518199.3669277185108513
 30
0.0
  0
SEQEND
  5
EEC
  8
SITES
  0
POLYLINE
  5
4D8
  8
SITES
 66
     1
 10
0.0
 20
0.0
 30
0.0
 70
     1
  0
VERTEX
  5
EED
  8
SITES
 10
428292.329317799594719
 20
518090.1222340925014578
 30
0.0
  0
VERTEX
  5
EEE
  8
SITES
 10
428294.9740192884928547
 20
518087.8424198552966118
 30
0.0
  0
VERTEX
  5
EEF
  8
SITES
 10
428294.4991783684818074
 20
518083.4725098296185024
 30
0.0
  0
VERTEX
  5
EF0
  8
SITES
 10
428290.7506136088049971
 20
518082.7346277445903979
 30
0.0
  0
VERTEX
  5
EF1
  8
SITES
 10
428288.5028055093134753
 20
518082.7412802504259162
 30
0.0
  0
VERTEX
  5
EF2
  8
SITES
 10
428281.7528275185031816
 20
518080.5143291871063411
 30
0.0
  0
VERTEX
  5
EF3
  8
SITES
 10
428276.5035064165131189
 20
518079.0318126783240587
 30
0.0
  0
VERTEX
  5
EF4
  8
SITES
 10
428270.50048023450654
 20
518076.0535746234236285
 30
0.0
  0
VERTEX
  5
EF5
  8
SITES
 10
428267.4966493939864449
 20
518073.8154359915060923
 30
0.0
  0
VERTEX
  5
EF6
  8
SITES
 10
428261.4981590718962252
 20
518072.3351372759789228
 30
0.0
  0
VERTEX
  5
EF7
  8
SITES
 10
428254.7547351774992421
 20
518072.3551948923268355
 30
0.0
  0
VERTEX
  5
EF8
  8
SITES
 10
428251.7665292429737747
 20
518075.3602428153972141
 30
0.0
  0
VERTEX
  5
EF9
  8
SITES
 10
428251.7799362119985744
 20
518079.8543598097166978
 30
0.0
  0
VERTEX
  5
EFA
  8
SITES
 10
428254.0411510206758976
 20
518084.3418243118212558
 30
0.0
  0
VERTEX
  5
EFB
  8
SITES
 10
428259.2926896932767704
 20
518086.5733103351085447
 30
0.0
  0
VERTEX
  5
EFC
  8
SITES
 10
428262.2896670137997717
 20
518086.5644402272882871
 30
0.0
  0
VERTEX
  5
EFD
  8
SITES
 10
428265.2889621731010266
 20
518087.3045397904934362
 30
0.0
  0
VERTEX
  5
EFE
  8
SITES
 10
428269.0375266817864031
 20
518088.0424218727275729
 30
0.0
  0
VERTEX
  5
EFF
  8
SITES
 10
428274.2824121426092461
 20
518088.0267995049944147
 30
0.0
  0
VERTEX
  5
F00
  8
SITES
 10
428283.2779801422148012
 20
518089.4981286206748337
 30
0.0
  0
VERTEX
  5
F01
  8
SITES
 10
428287.7758141792146489
 20
518090.2337932693189941
 30
0.0
  0
SEQEND
  5
F02
  8
SITES
  0
POLYLINE
  5
4D9
  8
SITES
 66
     1
 10
0.0
 20
0.0
 30
0.0
 70
     1
  0
VERTEX
  5
F03
  8
SITES
 10
428088.130715559294913
 20
518232.1437982353963889
 30
0.0
  0
VERTEX
  5
F04
  8
SITES
 10
428086.6714146704180166
 20
518223.5459138944279402
 30
0.0
  0
VERTEX
  5
F05
  8
SITES
 10
428070.1434641546220519
 20
518209.9747412077849731
 30
0.0
  0
VERTEX
  5
F06
  8
SITES
 10
428063.6853573953849263
 20
518207.8434032335062511
 30
0.0
  0
VERTEX
  5
F07
  8
SITES
 10
428053.6494704721844755
 20
518207.8732400921289809
 30
0.0
  0
VERTEX
  5
F08
  8
SITES
 10
428050.8246981559786946
 20
518222.2187174733844586
 30
0.0
  0
VERTEX
  5
F09
  8
SITES
 10
428058.0273731125053018
 20
518233.6669909079209901
 30
0.0
  0
VERTEX
  5
F0A
  8
SITES
 10
428071.6666573677794077
 20
518240.0781835489906371
 30
0.0
  0
VERTEX
  5
F0B
  8
SITES
 10
428079.5562883201055229
 20
518241.488410644873511
 30
0.0
  0
SEQEND
  5
F0C
  8
SITES
  0
POLYLINE
  5
4DA
  8
SITES
 66
     1
 10
0.0
 20
0.0
 30
0.0
 70
     1
  0
VERTEX
  5
F0D
  8
SITES
 10
425743.242618017073255
 20
518266.9443953759036958
 30
0.0
  0
VERTEX
  5
F0E
  8
SITES
 10
425748.2520936465007253
 20
518264.0620271568186581
 30
0.0
  0
VERTEX
  5
F0F
  8
SITES
 10
425753.244492206373252
 20
518255.4448568496154621
 30
0.0
  0
VERTEX
  5
F10
  8
SITES
 10
425753.88885164167732
 20
518231.0695139368763193
 30
0.0
  0
VERTEX
  5
F11
  8
SITES
 10
425750.2704578309785575
 20
518219.6105084989103489
 30
0.0
  0
VERTEX
  5
F12
  8
SITES
 10
425744.5078798783943057
 20
518210.3083456914173439
 30
0.0
  0
VERTEX
  5
F13
  8
SITES
 10
425738.7709184092818759
 20
518209.6085357472766191
 30
0.0
  0
VERTEX
  5
F14
  8
SITES
 10
425729.4688559459755197
 20
518215.3711136989877559
 30
0.0
  0
VERTEX
  5
F15
  8
SITES
 10
425721.611067526799161
 20
518224.7137102839769796
 30
0.0
  0
VERTEX
  5
F16
  8
SITES
 10
425718.0801209915080108
 20
518242.6458007654873654
 30
0.0
  0
VERTEX
  5
F17
  8
SITES
 10
425726.0336938981781714
 20
518265.5618505906895734
 30
0.0
  0
VERTEX
  5
F18
  8
SITES
 10
425731.7749743313761428
 20
518267.6953368348185904
 30
0.0
  0
SEQEND
  5
F19
  8
SITES
  0
POLYLINE
  5
4DB
  8
SITES
 66
     1
 10
0.0
 20
0.0
 30
0.0
 70
     1
  0
VERTEX
  5
F1A
  8
SITES
 10
428144.1941720260074362
 20
518282.1569849480874836
 30
0.0
  0
VERTEX
  5
F1B
  8
SITES
 10
428146.3383693181094714
 20
518280.0000298260711133
 30
0.0
  0
VERTEX
  5
F1C
  8
SITES
 10
428147.0317052404861897
 20
518272.1125571135198697
 30
0.0
  0
VERTEX
  5
F1D
  8
SITES
 10
428140.5395426729228348
 20
518258.5116445398889482
 30
0.0
  0
VERTEX
  5
F1E
  8
SITES
 10
428129.7548662790213712
 20
518247.7908590157749131
 30
0.0
  0
VERTEX
  5
F1F
  8
SITES
 10
428120.44440842239419
 20
518250.6860033742850646
 30
0.0
  0
VERTEX
  5
F20
  8
SITES
 10
428116.156014567182865
 20
518254.9998136985232122
 30
0.0
  0
VERTEX
  5
F21
  8
SITES
 10
428115.4583596988813952
 20
518261.4536016755155288
 30
0.0
  0
VERTEX
  5
F22
  8
SITES
 10
428125.5369414535816759
 20
518275.7608071984141134
 30
0.0
  0
VERTEX
  5
F23
  8
SITES
 10
428134.162602303782478
 20
518283.6205041563953273
 30
0.0
  0
SEQEND
  5
F24
  8
SITES
  0
POLYLINE
  5
4DC
  8
SITES
 66
     1
 10
0.0
 20
0.0
 30
0.0
 70
     1
  0
VERTEX
  5
F25
  8
SITES
 10
428047.4152337865089066
 20
518281.0110526112257503
 30
0.0
  0
VERTEX
  5
F26
  8
SITES
 10
428048.8446983395842835
 20
518279.5730495728203095
 30
0.0
  0
VERTEX
  5
F27
  8
SITES
 10
428048.838319287810009
 20
518277.4225738085224293
 30
0.0
  0
VERTEX
  5
F28
  8
SITES
 10
428045.2029278750997037
 20
518260.2287664263276383
 30
0.0
  0
VERTEX
  5
F29
  8
SITES
 10
428038.729903953615576
 20
518253.0794845190248452
 30
0.0
  0
VERTEX
  5
F2A
  8
SITES
 10
428025.8095726150204428
 20
518247.3830240726238117
 30
0.0
  0
VERTEX
  5
F2B
  8
SITES
 10
428017.9626365297008306
 20
518260.3098341773147695
 30
0.0
  0
VERTEX
  5
F2C
  8
SITES
 10
428020.8683780762949027
 20
518273.2045489412266761
 30
0.0
  0
VERTEX
  5
F2D
  8
SITES
 10
428023.7486033529858105
 20
518277.4971615286776796
 30
0.0
  0
VERTEX
  5
F2E
  8
SITES
 10
428028.0560335873160511
 20
518279.6348792096832767
 30
0.0
  0
VERTEX
  5
F2F
  8
SITES
 10
428030.2108285023714416
 20
518281.062184009118937
 30
0.0
  0
VERTEX
  5
F30
  8
SITES
 10
428044.5606240641209297
 20
518285.3206426185788587
 30
0.0
  0
SEQEND
  5
F31
  8
SITES
  0
POLYLINE
  5
4DD
  8
SITES
 66
     1
 10
0.0
 20
0.0
 30
0.0
 70
     1
  0
VERTEX
  5
F32
  8
SITES
 10
425562.4554775048745796
 20
518177.357331425009761
 30
0.0
  0
VERTEX
  5
F33
  8
SITES
 10
425568.548988409282174
 20
518156.1328699571895413
 30
0.0
  0
VERTEX
  5
F34
  8
SITES
 10
425560.38575130677782
 20
518141.7797004939056933
 30
0.0
  0
VERTEX
  5
F35
  8
SITES
 10
425540.1049803848727606
 20
518134.4118431467795745
 30
0.0
  0
VERTEX
  5
F36
  8
SITES
 10
425533.6512347206007689
 20
518133.7138947860803455
 30
0.0
  0
VERTEX
  5
F37
  8
SITES
 10
425525.0678254556842148
 20
518140.1912984632072039
 30
0.0
  0
VERTEX
  5
F38
  8
SITES
 10
425522.2345334521960467
 20
518151.6695350182126276
 30
0.0
  0
VERTEX
  5
F39
  8
SITES
 10
425528.0036889264010824
 20
518163.122154074604623
 30
0.0
  0
VERTEX
  5
F3A
  8
SITES
 10
425545.259419709618669
 20
518180.2758154841139913
 30
0.0
  0
VERTEX
  5
F3B
  8
SITES
 10
425551.7218048328068107
 20
518183.8409144774195738
 30
0.0
  0
VERTEX
  5
F3C
  8
SITES
 10
425556.7418763656169176
 20
518184.5427835048176348
 30
0.0
  0
SEQEND
  5
F3D
  8
SITES
  0
POLYLINE
  5
4DE
  8
SITES
 66
     1
 10
0.0
 20
0.0
 30
0.0
 70
     1
  0
VERTEX
  5
F3E
  8
SITES
 10
425703.1454188989009708
 20
518282.8346619274234399
 30
0.0
  0
VERTEX
  5
F3F
  8
SITES
 10
425703.7897799602942541
 20
518258.4593221353716217
 30
0.0
  0
VERTEX
  5
F40
  8
SITES
 10
425707.3314252914860845
 20
518244.1115707510034554
 30
0.0
  0
VERTEX
  5
F41
  8
SITES
 10
425700.1224151760106906
 20
518230.512502167490311
 30
0.0
  0
VERTEX
  5
F42
  8
SITES
 10
425700.1180958010954782
 20
518229.0788267722819
 30
0.0
  0
VERTEX
  5
F43
  8
SITES
 10
425693.6600280349957757
 20
518226.9474010865087621
 30
0.0
  0
VERTEX
  5
F44
  8
SITES
 10
425690.0714705549762584
 20
518225.5243242604192346
 30
0.0
  0
VERTEX
  5
F45
  8
SITES
 10
425684.3344099741079845
 20
518224.8245140557992272
 30
0.0
  0
VERTEX
  5
F46
  8
SITES
 10
425673.5943540246225893
 20
518229.1576349919196218
 30
0.0
  0
VERTEX
  5
F47
  8
SITES
 10
425667.8914483208209276
 20
518239.9276261698105372
 30
0.0
  0
VERTEX
  5
F48
  8
SITES
 10
425667.2214730315026827
 20
518255.7006127258064225
 30
0.0
  0
VERTEX
  5
F49
  8
SITES
 10
425670.1336753804935142
 20
518270.7461136301280931
 30
0.0
  0
VERTEX
  5
F4A
  8
SITES
 10
425680.2038552642916329
 20
518282.1859810248133726
 30
0.0
  0
VERTEX
  5
F4B
  8
SITES
 10
425692.4032022752217017
 20
518286.4508938532089815
 30
0.0
  0
SEQEND
  5
F4C
  8
SITES
  0
POLYLINE
  5
4DF
  8
SITES
 66
     1
 10
0.0
 20
0.0
 30
0.0
 70
     1
  0
VERTEX
  5
F4D
  8
SITES
 10
428192.3381633496028371
 20
518320.7239661767962389
 30
0.0
  0
VERTEX
  5
F4E
  8
SITES
 10
428195.9053475473774597
 20
518314.9785308603895828
 30
0.0
  0
VERTEX
  5
F4F
  8
SITES
 10
428193.0081444962997921
 20
518304.951178812305443
 30
0.0
  0
VERTEX
  5
F50
  8
SITES
 10
428185.8140074951807037
 20
518296.3703687787055969
 30
0.0
  0
VERTEX
  5
F51
  8
SITES
 10
428173.6041850988985971
 20
518288.5212688319734298
 30
0.0
  0
VERTEX
  5
F52
  8
SITES
 10
428167.1546156298718415
 20
518289.2572975652874447
 30
0.0
  0
VERTEX
  5
F53
  8
SITES
 10
428161.4347961466992274
 20
518294.2922195324790664
 30
0.0
  0
VERTEX
  5
F54
  8
SITES
 10
428168.6566074750153348
 20
518312.1921265858109109
 30
0.0
  0
VERTEX
  5
F55
  8
SITES
 10
428173.6873098424985074
 20
518316.4783622117247432
 30
0.0
  0
VERTEX
  5
F56
  8
SITES
 10
428185.8865338122122921
 20
518320.7432023140718229
 30
0.0
  0
SEQEND
  5
F57
  8
SITES
  0
POLYLINE
  5
4E0
  8
SITES
 66
     1
 10
0.0
 20
0.0
 30
0.0
 70
     1
  0
VERTEX
  5
F58
  8
SITES
 10
428130.7169159103068523
 20
518330.2263862317777239
 30
0.0
  0
VERTEX
  5
F59
  8
SITES
 10
428130.697679863718804
 20
518323.7747576112160459
 30
0.0
  0
VERTEX
  5
F5A
  8
SITES
 10
428125.6541206352994777
 20
518315.187469927710481
 30
0.0
  0
VERTEX
  5
F5B
  8
SITES
 10
428112.7082719542086124
 20
518300.8889019069029018
 30
0.0
  0
VERTEX
  5
F5C
  8
SITES
 10
428105.5419114939286374
 20
518301.6269900504266843
 30
0.0
  0
VERTEX
  5
F5D
  8
SITES
 10
428093.3810627129278146
 20
518310.2654072769801132
 30
0.0
  0
VERTEX
  5
F5E
  8
SITES
 10
428093.3959798314026557
 20
518315.2833512179786339
 30
0.0
  0
VERTEX
  5
F5F
  8
SITES
 10
428112.7977744310046546
 20
518330.9965670345118269
 30
0.0
  0
VERTEX
  5
F60
  8
SITES
 10
428127.1454129954217933
 20
518334.5381362697225995
 30
0.0
  0
SEQEND
  5
F61
  8
SITES
  0
POLYLINE
  5
4E1
  8
SITES
 66
     1
 10
0.0
 20
0.0
 30
0.0
 70
     1
  0
VERTEX
  5
F62
  8
SITES
 10
425833.8608959069242701
 20
518365.6022127905162051
 30
0.0
  0
VERTEX
  5
F63
  8
SITES
 10
425849.6082759210839868
 20
518357.6698380598099902
 30
0.0
  0
VERTEX
  5
F64
  8
SITES
 10
425857.472448447602801
 20
518350.4778048436273821
 30
0.0
  0
VERTEX
  5
F65
  8
SITES
 10
425862.4584717858233489
 20
518339.7100694141117856
 30
0.0
  0
VERTEX
  5
F66
  8
SITES
 10
425863.8559361940715462
 20
518327.5192553492961451
 30
0.0
  0
VERTEX
  5
F67
  8
SITES
 10
425863.1049960210220888
 20
518316.0516078359214589
 30
0.0
  0
VERTEX
  5
F68
  8
SITES
 10
425837.2831143977819011
 20
518311.1103353964863345
 30
0.0
  0
VERTEX
  5
F69
  8
SITES
 10
425815.0861046714126132
 20
518319.7787352186860517
 30
0.0
  0
VERTEX
  5
F6A
  8
SITES
 10
425802.9571179409977049
 20
518339.1701186164864339
 30
0.0
  0
VERTEX
  5
F6B
  8
SITES
 10
425805.8671587493736297
 20
518353.4987374541233294
 30
0.0
  0
VERTEX
  5
F6C
  8
SITES
 10
425808.7538450583815575
 20
518359.9419902805821039
 30
0.0
  0
VERTEX
  5
F6D
  8
SITES
 10
425820.2470045653171837
 20
518367.7933056692127138
 30
0.0
  0
SEQEND
  5
F6E
  8
SITES
  0
POLYLINE
  5
4E2
  8
SITES
 66
     1
 10
0.0
 20
0.0
 30
0.0
 70
     1
  0
VERTEX
  5
F6F
  8
SITES
 10
424985.0970902788103558
 20
518367.4095832930179313
 30
0.0
  0
VERTEX
  5
F70
  8
SITES
 10
424998.6961368456250057
 20
518360.2004907039809041
 30
0.0
  0
VERTEX
  5
F71
  8
SITES
 10
425007.9641331140883267
 20
518342.9681447171024047
 30
0.0
  0
VERTEX
  5
F72
  8
SITES
 10
425006.4813924701884389
 20
518326.4845767403021455
 30
0.0
  0
VERTEX
  5
F73
  8
SITES
 10
425002.877925083914306
 20
518320.0434967636829242
 30
0.0
  0
VERTEX
  5
F74
  8
SITES
 10
424986.3752222536713816
 20
518315.0744608219247311
 30
0.0
  0
VERTEX
  5
F75
  8
SITES
 10
424971.3232687446288764
 20
518315.8360967793269083
 30
0.0
  0
VERTEX
  5
F76
  8
SITES
 10
424959.1578965074149892
 20
518323.0409713014960289
 30
0.0
  0
VERTEX
  5
F77
  8
SITES
 10
424952.014847464277409
 20
518331.6646016796003096
 30
0.0
  0
VERTEX
  5
F78
  8
SITES
 10
424947.0608271574019454
 20
518353.1854064592043869
 30
0.0
  0
VERTEX
  5
F79
  8
SITES
 10
424956.4204779893043451
 20
518366.7780733578256331
 30
0.0
  0
VERTEX
  5
F7A
  8
SITES
 10
424964.3144649624009617
 20
518369.6220650520990603
 30
0.0
  0
SEQEND
  5
F7B
  8
SITES
  0
POLYLINE
  5
4E3
  8
SITES
 66
     1
 10
0.0
 20
0.0
 30
0.0
 70
     1
  0
VERTEX
  5
F7C
  8
SITES
 10
427516.2325891142245382
 20
518382.7563257453148253
 30
0.0
  0
VERTEX
  5
F7D
  8
SITES
 10
427522.5085056711104698
 20
518371.8414401030750014
 30
0.0
  0
VERTEX
  5
F7E
  8
SITES
 10
427521.3274685515207238
 20
518360.3751800457248464
 30
0.0
  0
VERTEX
  5
F7F
  8
SITES
 10
427517.8729311834904365
 20
518355.7976234522066079
 30
0.0
  0
VERTEX
  5
F80
  8
SITES
 10
427511.5560729462886229
 20
518352.9489831934915856
 30
0.0
  0
VERTEX
  5
F81
  8
SITES
 10
427493.7730554229929112
 20
518351.2813806236954406
 30
0.0
  0
VERTEX
  5
F82
  8
SITES
 10
427477.7395258207106963
 20
518359.3579113151063211
 30
0.0
  0
VERTEX
  5
F83
  8
SITES
 10
427473.7455481275101192
 20
518366.2515567286172882
 30
0.0
  0
VERTEX
  5
F84
  8
SITES
 10
427473.7745568742975593
 20
518376.0007325676269829
 30
0.0
  0
VERTEX
  5
F85
  8
SITES
 10
427479.5316020516911522
 20
518383.438962125685066
 30
0.0
  0
VERTEX
  5
F86
  8
SITES
 10
427485.2817570957122371
 20
518388.5832209956133738
 30
0.0
  0
VERTEX
  5
F87
  8
SITES
 10
427502.4964240089175291
 20
518391.9729510006145574
 30
0.0
  0
SEQEND
  5
F88
  8
SITES
  0
POLYLINE
  5
4E4
  8
SITES
 66
     1
 10
0.0
 20
0.0
 30
0.0
 70
     1
  0
VERTEX
  5
F89
  8
SITES
 10
425736.49827830522554
 20
518409.6205464361119084
 30
0.0
  0
VERTEX
  5
F8A
  8
SITES
 10
425742.9243554449058138
 20
518400.9990594502887689
 30
0.0
  0
VERTEX
  5
F8B
  8
SITES
 10
425745.7555968236993067
 20
518388.8039306090795435
 30
0.0
  0
VERTEX
  5
F8C
  8
SITES
 10
425742.8561549407895654
 20
518378.0595522627118044
 30
0.0
  0
VERTEX
  5
F8D
  8
SITES
 10
425739.2612192679080181
 20
518374.4859107456868514
 30
0.0
  0
VERTEX
  5
F8E
  8
SITES
 10
425727.7765999478870071
 20
518369.5020475490018725
 30
0.0
  0
VERTEX
  5
F8F
  8
SITES
 10
425715.5835311231785454
 20
518367.38769466499798
 30
0.0
  0
VERTEX
  5
F90
  8
SITES
 10
425701.9696438353857957
 20
518369.5787868021870963
 30
0.0
  0
VERTEX
  5
F91
  8
SITES
 10
425687.6517258657258935
 20
518376.0731640061130747
 30
0.0
  0
VERTEX
  5
F92
  8
SITES
 10
425681.2297691165003926
 20
518386.1283252536086366
 30
0.0
  0
VERTEX
  5
F93
  8
SITES
 10
425687.0137357143103145
 20
518402.5990655189962126
 30
0.0
  0
VERTEX
  5
F94
  8
SITES
 10
425700.6617724655079655
 20
518411.8776770780095831
 30
0.0
  0
VERTEX
  5
F95
  8
SITES
 10
425709.9851307208882645
 20
518413.2836807947023772
 30
0.0
  0
VERTEX
  5
F96
  8
SITES
 10
425724.3287621845956892
 20
518415.3916570107103325
 30
0.0
  0
SEQEND
  5
F97
  8
SITES
  0
POLYLINE
  5
4E5
  8
SITES
 66
     1
 10
0.0
 20
0.0
 30
0.0
 70
     1
  0
VERTEX
  5
F98
  8
SITES
 10
427348.7389842636184767
 20
518416.2949572812067345
 30
0.0
  0
VERTEX
  5
F99
  8
SITES
 10
427355.1629280589986593
 20
518406.9566443779040128
 30
0.0
  0
VERTEX
  5
F9A
  8
SITES
 10
427358.702433580881916
 20
518391.8921435049851425
 30
0.0
  0
VERTEX
  5
F9B
  8
SITES
 10
427354.3821547364932485
 20
518385.4532841931795701
 30
0.0
  0
VERTEX
  5
F9C
  8
SITES
 10
427350.0746326245134696
 20
518383.3154688925715163
 30
0.0
  0
VERTEX
  5
F9D
  8
SITES
 10
427337.896629681577906
 20
518386.2191417787107639
 30
0.0
  0
VERTEX
  5
F9E
  8
SITES
 10
427327.1524083021795377
 20
518389.1184957675868645
 30
0.0
  0
VERTEX
  5
F9F
  8
SITES
 10
427321.4666500861058012
 20
518405.6231548612122424
 30
0.0
  0
VERTEX
  5
FA0
  8
SITES
 10
427319.3395316558890045
 20
518413.5149295172886923
 30
0.0
  0
VERTEX
  5
FA1
  8
SITES
 10
427327.9631126095191576
 20
518420.6578230346203782
 30
0.0
  0
VERTEX
  5
FA2
  8
SITES
 10
427340.1537718155886978
 20
518422.0552948453114368
 30
0.0
  0
SEQEND
  5
FA3
  8
SITES
  0
POLYLINE
  5
4E6
  8
SITES
 66
     1
 10
0.0
 20
0.0
 30
0.0
 70
     1
  0
VERTEX
  5
FA4
  8
SITES
 10
425003.1543718570028432
 20
518369.7072822158806957
 30
0.0
  0
VERTEX
  5
FA5
  8
SITES
 10
425006.7280066614039242
 20
518366.1123531886842102
 30
0.0
  0
VERTEX
  5
FA6
  8
SITES
 10
425007.4235988822183572
 20
518358.9415299937827513
 30
0.0
  0
VERTEX
  5
FA7
  8
SITES
 10
424987.2533454893855378
 20
518326.0256215945119038
 30
0.0
  0
VERTEX
  5
FA8
  8
SITES
 10
424980.7866519956151024
 20
518321.0267525800736621
 30
0.0
  0
VERTEX
  5
FA9
  8
SITES
 10
424968.599984378204681
 20
518321.0630639218725264
 30
0.0
  0
VERTEX
  5
FAA
  8
SITES
 10
424962.1696024668053724
 20
518328.2508625229820609
 30
0.0
  0
VERTEX
  5
FAB
  8
SITES
 10
424960.0445573349134065
 20
518336.8595765691716224
 30
0.0
  0
VERTEX
  5
FAC
  8
SITES
 10
424962.1994351980974898
 20
518338.2868708479218185
 30
0.0
  0
VERTEX
  5
FAD
  8
SITES
 10
424977.3217500954051502
 20
518361.1816848242888227
 30
0.0
  0
VERTEX
  5
FAE
  8
SITES
 10
424986.6665854274760932
 20
518369.756348600727506
 30
0.0
  0
VERTEX
  5
FAF
  8
SITES
 10
424997.4280184642993845
 20
518372.5918029663152993
 30
0.0
  0
SEQEND
  5
FB0
  8
SITES
  0
POLYLINE
  5
4E7
  8
SITES
 66
     1
 10
0.0
 20
0.0
 30
0.0
 70
     1
  0
VERTEX
  5
FB1
  8
SITES
 10
425408.4916015192284249
 20
518446.4838251182809472
 30
0.0
  0
VERTEX
  5
FB2
  8
SITES
 10
425410.6101736613200046
 20
518435.7244404542725533
 30
0.0
  0
VERTEX
  5
FB3
  8
SITES
 10
425401.2163649353897199
 20
518410.6620625770883635
 30
0.0
  0
VERTEX
  5
FB4
  8
SITES
 10
425398.3382197332102805
 20
518407.0863643306074664
 30
0.0
  0
VERTEX
  5
FB5
  8
SITES
 10
425387.5767760180169716
 20
518404.2509062194731086
 30
0.0
  0
VERTEX
  5
FB6
  8
SITES
 10
425378.2597035177750513
 20
518404.9954648676211946
 30
0.0
  0
VERTEX
  5
FB7
  8
SITES
 10
425373.2694656524108723
 20
518414.3295121854753233
 30
0.0
  0
VERTEX
  5
FB8
  8
SITES
 10
425372.5803497587912716
 20
518423.6509032077738084
 30
0.0
  0
VERTEX
  5
FB9
  8
SITES
 10
425380.5190900570014492
 20
518441.548927418072708
 30
0.0
  0
VERTEX
  5
FBA
  8
SITES
 10
425391.3018261475954205
 20
518451.5529573702951893
 30
0.0
  0
VERTEX
  5
FBB
  8
SITES
 10
425399.9083897813106887
 20
518452.9611203108215705
 30
0.0
  0
SEQEND
  5
FBC
  8
SITES
  0
POLYLINE
  5
4E8
  8
SITES
 66
     1
 10
0.0
 20
0.0
 30
0.0
 70
     1
  0
VERTEX
  5
FBD
  8
SITES
 10
427570.7156538226990961
 20
518525.4433337491936982
 30
0.0
  0
VERTEX
  5
FBE
  8
SITES
 10
427571.4218489364720881
 20
518521.8569193397997878
 30
0.0
  0
VERTEX
  5
FBF
  8
SITES
 10
427567.8183609739062376
 20
518515.4158958838088438
 30
0.0
  0
VERTEX
  5
FC0
  8
SITES
 10
427564.9466783824027516
 20
518513.9907505923183635
 30
0.0
  0
VERTEX
  5
FC1
  8
SITES
 10
427555.6382910085958429
 20
518517.6027753829839639
 30
0.0
  0
VERTEX
  5
FC2
  8
SITES
 10
427554.9470103408093564
 20
518526.2071267932187766
 30
0.0
  0
VERTEX
  5
FC3
  8
SITES
 10
427557.8208519277977757
 20
518528.3491631710785441
 30
0.0
  0
SEQEND
  5
FC4
  8
SITES
  0
POLYLINE
  5
4E9
  8
SITES
 66
     1
 10
0.0
 20
0.0
 30
0.0
 70
     1
  0
VERTEX
  5
FC5
  8
SITES
 10
425415.7762754608993419
 20
518555.3813357857870869
 30
0.0
  0
VERTEX
  5
FC6
  8
SITES
 10
425424.3465348414028995
 20
518544.6028194699902087
 30
0.0
  0
VERTEX
  5
FC7
  8
SITES
 10
425427.8967247426044196
 20
518533.1224294375861064
 30
0.0
  0
VERTEX
  5
FC8
  8
SITES
 10
425424.2805019193910994
 20
518522.3802178432815708
 30
0.0
  0
VERTEX
  5
FC9
  8
SITES
 10
425410.6430732202716172
 20
518516.6858444677782245
 30
0.0
  0
VERTEX
  5
FCA
  8
SITES
 10
425389.1330417533172294
 20
518515.3161448098253459
 30
0.0
  0
VERTEX
  5
FCB
  8
SITES
 10
425371.2264791819034144
 20
518520.3874330429243855
 30
0.0
  0
VERTEX
  5
FCC
  8
SITES
 10
425366.2233838745160028
 20
518525.4203563746996224
 30
0.0
  0
VERTEX
  5
FCD
  8
SITES
 10
425366.2468342977226712
 20
518533.3058138709748164
 30
0.0
  0
VERTEX
  5
FCE
  8
SITES
 10
425369.8695334224030375
 20
518546.1986851969268173
 30
0.0
  0
VERTEX
  5
FCF
  8
SITES
 10
425384.2408200884237885
 20
518557.6257964860997163
 30
0.0
  0
VERTEX
  5
FD0
  8
SITES
 10
425404.3171769598848186
 20
518558.9997166717075743
 30
0.0
  0
SEQEND
  5
FD1
  8
SITES
  0
POLYLINE
  5
4EA
  8
SITES
 66
     1
 10
0.0
 20
0.0
 30
0.0
 70
     1
  0
VERTEX
  5
FD2
  8
SITES
 10
429494.0297650787979364
 20
518572.6387567655183375
 30
0.0
  0
VERTEX
  5
FD3
  8
SITES
 10
429494.6975988001795486
 20
518556.149223180313129
 30
0.0
  0
VERTEX
  5
FD4
  8
SITES
 10
429492.5235641432227567
 20
518548.2703607126022689
 30
0.0
  0
VERTEX
  5
FD5
  8
SITES
 10
429481.732580553914886
 20
518535.3991473310161382
 30
0.0
  0
VERTEX
  5
FD6
  8
SITES
 10
429466.6383706646738574
 20
518521.8238955404958688
 30
0.0
  0
VERTEX
  5
FD7
  8
SITES
 10
429445.1395142361870967
 20
518524.0384560963721015
 30
0.0
  0
VERTEX
  5
FD8
  8
SITES
 10
429442.9974678867729381
 20
518526.9122115477803163
 30
0.0
  0
VERTEX
  5
FD9
  8
SITES
 10
429441.59792656468926
 20
518538.3859411986195482
 30
0.0
  0
VERTEX
  5
FDA
  8
SITES
 10
429448.8068958162912168
 20
518551.9846438562963158
 30
0.0
  0
VERTEX
  5
FDB
  8
SITES
 10
429472.5202112114056945
 20
518571.2690422086161561
 30
0.0
  0
VERTEX
  5
FDC
  8
SITES
 10
429476.8212783046183176
 20
518571.256187359278556
 30
0.0
  0
VERTEX
  5
FDD
  8
SITES
 10
429480.4161465791985393
 20
518574.8297641641111113
 30
0.0
  0
VERTEX
  5
FDE
  8
SITES
 10
429487.5889099760097452
 20
518576.242161845206283
 30
0.0
  0
SEQEND
  5
FDF
  8
SITES
  0
POLYLINE
  5
4EB
  8
SITES
 66
     1
 10
0.0
 20
0.0
 30
0.0
 70
     1
  0
VERTEX
  5
FE0
  8
SITES
 10
427656.9190151387010701
 20
518586.1197835872881114
 30
0.0
  0
VERTEX
  5
FE1
  8
SITES
 10
427654.7450915892259218
 20
518578.2407577584963292
 30
0.0
  0
VERTEX
  5
FE2
  8
SITES
 10
427646.8362383233034052
 20
518570.3789046342717484
 30
0.0
  0
VERTEX
  5
FE3
  8
SITES
 10
427642.5330320852808654
 20
518569.6748681258177385
 30
0.0
  0
VERTEX
  5
FE4
  8
SITES
 10
427642.5287140047876164
 20
518568.2410857531940565
 30
0.0
  0
VERTEX
  5
FE5
  8
SITES
 10
427634.6454702279879712
 20
518568.9814270947827026
 30
0.0
  0
VERTEX
  5
FE6
  8
SITES
 10
427628.9234955245046876
 20
518573.299646912724711
 30
0.0
  0
VERTEX
  5
FE7
  8
SITES
 10
427626.0816401242045686
 20
518581.9103770740912296
 30
0.0
  0
VERTEX
  5
FE8
  8
SITES
 10
427624.6479578813887201
 20
518581.9145953058032319
 30
0.0
  0
VERTEX
  5
FE9
  8
SITES
 10
427627.5345541335991584
 20
518588.357779297104571
 30
0.0
  0
VERTEX
  5
FEA
  8
SITES
 10
427641.8822727564838715
 20
518591.8993537754286081
 30
0.0
  0
VERTEX
  5
FEB
  8
SITES
 10
427647.6213203985244036
 20
518593.3159635987249203
 30
0.0
  0
SEQEND
  5
FEC
  8
SITES
  0
POLYLINE
  5
4EC
  8
SITES
 66
     1
 10
0.0
 20
0.0
 30
0.0
 70
     1
  0
VERTEX
  5
FED
  8
SITES
 10
425462.4617222797241993
 20
518585.3507588396896608
 30
0.0
  0
VERTEX
  5
FEE
  8
SITES
 10
425478.2070328252739273
 20
518576.701613156881649
 30
0.0
  0
VERTEX
  5
FEF
  8
SITES
 10
425481.7721377158886753
 20
518570.2391326914075762
 30
0.0
  0
VERTEX
  5
FF0
  8
SITES
 10
425480.2999999268213287
 20
518557.3399801551131532
 30
0.0
  0
VERTEX
  5
FF1
  8
SITES
 10
425469.5172640536911786
 20
518547.3359450686257333
 30
0.0
  0
VERTEX
  5
FF2
  8
SITES
 10
425454.4461596363107674
 20
518541.6458884233143181
 30
0.0
  0
VERTEX
  5
FF3
  8
SITES
 10
425436.5332164276042022
 20
518544.5666148146265186
 30
0.0
  0
VERTEX
  5
FF4
  8
SITES
 10
425427.2395925277960487
 20
518553.1966289721895009
 30
0.0
  0
VERTEX
  5
FF5
  8
SITES
 10
425421.5346224007080309
 20
518563.2497217758209445
 30
0.0
  0
VERTEX
  5
FF6
  8
SITES
 10
425424.4382750421063974
 20
518575.4277670746087097
 30
0.0
  0
VERTEX
  5
FF7
  8
SITES
 10
425434.4999036384979263
 20
518584.0002864585840143
 30
0.0
  0
VERTEX
  5
FF8
  8
SITES
 10
425448.1266371589736082
 20
518586.1103265039855614
 30
0.0
  0
SEQEND
  5
FF9
  8
SITES
  0
POLYLINE
  5
4ED
  8
SITES
 66
     1
 10
0.0
 20
0.0
 30
0.0
 70
     1
  0
VERTEX
  5
FFA
  8
SITES
 10
427653.0218868713127449
 20
518635.7259741335874423
 30
0.0
  0
VERTEX
  5
FFB
  8
SITES
 10
427655.3573614745982923
 20
518634.5498742937925272
 30
0.0
  0
VERTEX
  5
FFC
  8
SITES
 10
427655.3486980897141621
 20
518631.6271487838821486
 30
0.0
  0
VERTEX
  5
FFD
  8
SITES
 10
427655.9176889599184506
 20
518626.3645502027939074
 30
0.0
  0
VERTEX
  5
FFE
  8
SITES
 10
427654.7378228188026696
 20
518622.8608044267748483
 30
0.0
  0
VERTEX
  5
FFF
  8
SITES
 10
427653.5527585800155066
 20
518617.6034033873002045
 30
0.0
  0
VERTEX
  5
1000
  8
SITES
 10
427650.6186375310062431
 20
518614.1048549572005868
 30
0.0
  0
VERTEX
  5
1001
  8
SITES
 10
427649.449167622893583
 20
518614.1083198674023151
 30
0.0
  0
VERTEX
  5
1002
  8
SITES
 10
427647.1119605952990241
 20
518614.6997348174918443
 30
0.0
  0
VERTEX
  5
1003
  8
SITES
 10
427644.7817841047071852
 20
518617.6294901237124577
 30
0.0
  0
VERTEX
  5
1004
  8
SITES
 10
427644.7939130084123462
 20
518621.7212857421254739
 30
0.0
  0
VERTEX
  5
1005
  8
SITES
 10
427645.3994902070262469
 20
518628.7340744279208593
 30
0.0
  0
VERTEX
  5
1006
  8
SITES
 10
427645.9998692905064672
 20
518633.9932078833808191
 30
0.0
  0
VERTEX
  5
1007
  8
SITES
 10
427649.5134771296870895
 20
518635.7363686683238484
 30
0.0
  0
SEQEND
  5
1008
  8
SITES
  0
POLYLINE
  5
4EE
  8
SITES
 66
     1
 10
0.0
 20
0.0
 30
0.0
 70
     1
  0
VERTEX
  5
1009
  8
SITES
 10
429604.6368483860860579
 20
518643.9945221287198365
 30
0.0
  0
VERTEX
  5
100A
  8
SITES
 10
429614.6427484495798126
 20
518633.9288690974935889
 30
0.0
  0
VERTEX
  5
100B
  8
SITES
 10
429616.0466113371076062
 20
518623.8887244120123796
 30
0.0
  0
VERTEX
  5
100C
  8
SITES
 10
429612.4133787546888925
 20
518607.4120402839034796
 30
0.0
  0
VERTEX
  5
100D
  8
SITES
 10
429605.2171630631200969
 20
518598.1143994044978172
 30
0.0
  0
VERTEX
  5
100E
  8
SITES
 10
429580.8360060520935804
 20
518595.3196301189018413
 30
0.0
  0
VERTEX
  5
100F
  8
SITES
 10
429567.9563518929062411
 20
518603.2432356397039257
 30
0.0
  0
VERTEX
  5
1010
  8
SITES
 10
429562.9703754779184237
 20
518614.0108691906789318
 30
0.0
  0
VERTEX
  5
1011
  8
SITES
 10
429562.2813486394006759
 20
518623.3319590559112839
 30
0.0
  0
VERTEX
  5
1012
  8
SITES
 10
429570.2263432356994599
 20
518643.3800605472060852
 30
0.0
  0
VERTEX
  5
1013
  8
SITES
 10
429578.1286570352967829
 20
518649.0912689057877287
 30
0.0
  0
VERTEX
  5
1014
  8
SITES
 10
429586.7328524435870349
 20
518649.7825553867733106
 30
0.0
  0
SEQEND
  5
1015
  8
SITES
  0
POLYLINE
  5
4EF
  8
SITES
 66
     1
 10
0.0
 20
0.0
 30
0.0
 70
     1
  0
VERTEX
  5
1016
  8
SITES
 10
429198.7311222846037708
 20
518552.663878726598341
 30
0.0
  0
VERTEX
  5
1017
  8
SITES
 10
429208.0223749639117159
 20
518543.3171871224767528
 30
0.0
  0
VERTEX
  5
1018
  8
SITES
 10
429208.7029624183778651
 20
518531.1287295065121725
 30
0.0
  0
VERTEX
  5
1019
  8
SITES
 10
429204.3677507266984321
 20
518519.6719805516768247
 30
0.0
  0
VERTEX
  5
101A
  8
SITES
 10
429198.6117061722907238
 20
518512.5206144360126927
 30
0.0
  0
VERTEX
  5
101B
  8
SITES
 10
429193.5959074170095846
 20
518513.2524231282877736
 30
0.0
  0
VERTEX
  5
101C
  8
SITES
 10
429187.1571169652743265
 20
518517.5727202596026473
 30
0.0
  0
VERTEX
  5
101D
  8
SITES
 10
429185.7405029609217308
 20
518523.311690645175986
 30
0.0
  0
VERTEX
  5
101E
  8
SITES
 10
429182.1861621583229862
 20
518533.3582024599891156
 30
0.0
  0
VERTEX
  5
101F
  8
SITES
 10
429180.7717070641228929
 20
518539.8140666920226067
 30
0.0
  0
VERTEX
  5
1020
  8
SITES
 10
429182.2501380111789331
 20
518554.863521731516812
 30
0.0
  0
VERTEX
  5
1021
  8
SITES
 10
429189.4271145733073354
 20
518557.7095060084247962
 30
0.0
  0
SEQEND
  5
1022
  8
SITES
  0
POLYLINE
  5
4F0
  8
SITES
 66
     1
 10
0.0
 20
0.0
 30
0.0
 70
     1
  0
VERTEX
  5
1023
  8
SITES
 10
427587.6426135810906999
 20
518673.0656351015204564
 30
0.0
  0
VERTEX
  5
1024
  8
SITES
 10
427594.0558724885922857
 20
518660.143165084591601
 30
0.0
  0
VERTEX
  5
1025
  8
SITES
 10
427594.0110344390850514
 20
518645.0892520807101391
 30
0.0
  0
VERTEX
  5
1026
  8
SITES
 10
427591.1308162924833596
 20
518640.7966414339025505
 30
0.0
  0
VERTEX
  5
1027
  8
SITES
 10
427586.8276107797282748
 20
518640.0926042547216639
 30
0.0
  0
VERTEX
  5
1028
  8
SITES
 10
427578.2339537544758059
 20
518642.9856762451818213
 30
0.0
  0
VERTEX
  5
1029
  8
SITES
 10
427573.9498792270896956
 20
518648.7332585211261176
 30
0.0
  0
VERTEX
  5
102A
  8
SITES
 10
427572.5374867907958105
 20
518655.9059870063210838
 30
0.0
  0
VERTEX
  5
102B
  8
SITES
 10
427568.2513530636788346
 20
518660.9367780692991801
 30
0.0
  0
VERTEX
  5
102C
  8
SITES
 10
427566.1200103149749339
 20
518667.394874275487382
 30
0.0
  0
VERTEX
  5
102D
  8
SITES
 10
427572.5908601589035243
 20
518673.8272634539753199
 30
0.0
  0
VERTEX
  5
102E
  8
SITES
 10
427581.9184795652981848
 20
518676.6669618256855756
 30
0.0
  0
SEQEND
  5
102F
  8
SITES
  0
POLYLINE
  5
4F1
  8
SITES
 66
     1
 10
0.0
 20
0.0
 30
0.0
 70
     1
  0
VERTEX
  5
1030
  8
SITES
 10
426275.6128528806730174
 20
518661.7862647749134339
 30
0.0
  0
VERTEX
  5
1031
  8
SITES
 10
426296.3590471288189292
 20
518647.3872817034134641
 30
0.0
  0
VERTEX
  5
1032
  8
SITES
 10
426303.4700426566996612
 20
518628.0108960822108202
 30
0.0
  0
VERTEX
  5
1033
  8
SITES
 10
426299.1326075128163211
 20
518615.8371412336127833
 30
0.0
  0
VERTEX
  5
1034
  8
SITES
 10
426287.6266848064842634
 20
518603.6846769214025699
 30
0.0
  0
VERTEX
  5
1035
  8
SITES
 10
426276.1420523737906478
 20
518598.7008002456277609
 30
0.0
  0
VERTEX
  5
1036
  8
SITES
 10
426268.2608947771950625
 20
518600.1580268233083189
 30
0.0
  0
VERTEX
  5
1037
  8
SITES
 10
426256.8146252523874864
 20
518608.0775464301113971
 30
0.0
  0
VERTEX
  5
1038
  8
SITES
 10
426253.2580490289255977
 20
518617.4072940238984302
 30
0.0
  0
VERTEX
  5
1039
  8
SITES
 10
426249.6994134981068783
 20
518626.0202528468798846
 30
0.0
  0
VERTEX
  5
103A
  8
SITES
 10
426246.8575665400130674
 20
518634.6310524889850058
 30
0.0
  0
VERTEX
  5
103B
  8
SITES
 10
426246.9087811966892332
 20
518651.8355800827848725
 30
0.0
  0
VERTEX
  5
103C
  8
SITES
 10
426249.0742595478077419
 20
518656.8472238060785457
 30
0.0
  0
VERTEX
  5
103D
  8
SITES
 10
426267.7338540325290523
 20
518663.9602788637275808
 30
0.0
  0
SEQEND
  5
103E
  8
SITES
  0
POLYLINE
  5
4F2
  8
SITES
 66
     1
 10
0.0
 20
0.0
 30
0.0
 70
     1
  0
VERTEX
  5
103F
  8
SITES
 10
428816.0512033177074045
 20
518592.5128150989185087
 30
0.0
  0
VERTEX
  5
1040
  8
SITES
 10
428821.7561224160017446
 20
518582.4598358917864971
 30
0.0
  0
VERTEX
  5
1041
  8
SITES
 10
428820.2775940191932023
 20
518567.4103943142108619
 30
0.0
  0
VERTEX
  5
1042
  8
SITES
 10
428808.0975853044074029
 20
518569.5971795758814551
 30
0.0
  0
VERTEX
  5
1043
  8
SITES
 10
428798.8191958931856789
 20
518583.2450207571964711
 30
0.0
  0
VERTEX
  5
1044
  8
SITES
 10
428797.4089595556724817
 20
518591.1345650512957945
 30
0.0
  0
VERTEX
  5
1045
  8
SITES
 10
428802.4460444523137994
 20
518597.5711909494129941
 30
0.0
  0
VERTEX
  5
1046
  8
SITES
 10
428807.470374645316042
 20
518599.7068572071148083
 30
0.0
  0
SEQEND
  5
1047
  8
SITES
  0
POLYLINE
  5
4F3
  8
SITES
 66
     1
 10
0.0
 20
0.0
 30
0.0
 70
     1
  0
VERTEX
  5
1048
  8
SITES
 10
427255.1851759151904844
 20
518776.4360146539984271
 30
0.0
  0
VERTEX
  5
1049
  8
SITES
 10
427265.9124282912816852
 20
518767.8018478284939192
 30
0.0
  0
VERTEX
  5
104A
  8
SITES
 10
427269.4519467927748337
 20
518752.7373535013175569
 30
0.0
  0
VERTEX
  5
104B
  8
SITES
 10
427271.5513074602931738
 20
518735.5265049426234327
 30
0.0
  0
VERTEX
  5
104C
  8
SITES
 10
427272.9466300256899558
 20
518722.6187582346028648
 30
0.0
  0
VERTEX
  5
104D
  8
SITES
 10
427267.8944551149033941
 20
518711.1641217828146182
 30
0.0
  0
VERTEX
  5
104E
  8
SITES
 10
427259.2666628984152339
 20
518702.5875420505763032
 30
0.0
  0
VERTEX
  5
104F
  8
SITES
 10
427244.1894155169720761
 20
518694.7468832122976892
 30
0.0
  0
VERTEX
  5
1050
  8
SITES
 10
427233.4407764414791018
 20
518696.2127468960243277
 30
0.0
  0
VERTEX
  5
1051
  8
SITES
 10
427227.0817927381722257
 20
518704.397961579321418
 30
0.0
  0
VERTEX
  5
1052
  8
SITES
 10
427225.0153146153897978
 20
518707.5679871453903615
 30
0.0
  0
VERTEX
  5
1053
  8
SITES
 10
427221.6734041683957912
 20
518715.6541270349989645
 30
0.0
  0
VERTEX
  5
1054
  8
SITES
 10
427219.7566772805876099
 20
518725.645673016377259
 30
0.0
  0
VERTEX
  5
1055
  8
SITES
 10
427218.5235426846775226
 20
518742.1359698920277879
 30
0.0
  0
VERTEX
  5
1056
  8
SITES
 10
427230.0805985886836424
 20
518771.4928370845154859
 30
0.0
  0
VERTEX
  5
1057
  8
SITES
 10
427242.286264814727474
 20
518777.9081527878879569
 30
0.0
  0
SEQEND
  5
1058
  8
SITES
  0
POLYLINE
  5
4F4
  8
SITES
 66
     1
 10
0.0
 20
0.0
 30
0.0
 70
     1
  0
VERTEX
  5
1059
  8
SITES
 10
425421.5814983968157321
 20
518819.8875804853742011
 30
0.0
  0
VERTEX
  5
105A
  8
SITES
 10
425425.8697697577881627
 20
518815.5736058154143393
 30
0.0
  0
VERTEX
  5
105B
  8
SITES
 10
425426.5674293299089186
 20
518809.1197627307847142
 30
0.0
  0
VERTEX
  5
105C
  8
SITES
 10
425417.9331040687975474
 20
518798.3924589778762311
 30
0.0
  0
VERTEX
  5
105D
  8
SITES
 10
425406.4420234392164275
 20
518791.2580259467940778
 30
0.0
  0
VERTEX
  5
105E
  8
SITES
 10
425392.8089165189885534
 20
518786.9973178328946233
 30
0.0
  0
VERTEX
  5
105F
  8
SITES
 10
425381.3434403800056316
 20
518788.4652305179042742
 30
0.0
  0
VERTEX
  5
1060
  8
SITES
 10
425372.0477536204271019
 20
518796.3784507517120801
 30
0.0
  0
VERTEX
  5
1061
  8
SITES
 10
425370.6310486971051432
 20
518802.1175644713221118
 30
0.0
  0
VERTEX
  5
1062
  8
SITES
 10
425384.2855410210904665
 20
518813.546743885090109
 30
0.0
  0
VERTEX
  5
1063
  8
SITES
 10
425409.3948170630028471
 20
518819.9238765864283778
 30
0.0
  0
SEQEND
  5
1064
  8
SITES
  0
POLYLINE
  5
4F5
  8
SITES
 66
     1
 10
0.0
 20
0.0
 30
0.0
 70
     1
  0
VERTEX
  5
1065
  8
SITES
 10
426509.8198398994863965
 20
518833.1360501637100242
 30
0.0
  0
VERTEX
  5
1066
  8
SITES
 10
426519.1005435899132863
 20
518820.2048837015754543
 30
0.0
  0
VERTEX
  5
1067
  8
SITES
 10
426523.3632229223148897
 20
518807.2887270824285224
 30
0.0
  0
VERTEX
  5
1068
  8
SITES
 10
426522.6079777926788665
 20
518794.387481001787819
 30
0.0
  0
VERTEX
  5
1069
  8
SITES
 10
426516.8368669464252889
 20
518782.2180349677801132
 30
0.0
  0
VERTEX
  5
106A
  8
SITES
 10
426510.3809473878936842
 20
518780.8034850553958677
 30
0.0
  0
VERTEX
  5
106B
  8
SITES
 10
426494.622939033608418
 20
518785.1516109770163894
 30
0.0
  0
VERTEX
  5
106C
  8
SITES
 10
426486.7545286522945389
 20
518790.9098692028201185
 30
0.0
  0
VERTEX
  5
106D
  8
SITES
 10
426481.0474786814884283
 20
518800.2460966742946766
 30
0.0
  0
VERTEX
  5
106E
  8
SITES
 10
426478.9438019025255926
 20
518816.0232322618248872
 30
0.0
  0
VERTEX
  5
106F
  8
SITES
 10
426483.2705398041871376
 20
518824.6127494000829756
 30
0.0
  0
VERTEX
  5
1070
  8
SITES
 10
426493.334248980099801
 20
518833.901987049728632
 30
0.0
  0
VERTEX
  5
1071
  8
SITES
 10
426498.3565898344968446
 20
518835.3207551778759807
 30
0.0
  0
SEQEND
  5
1072
  8
SITES
  0
POLYLINE
  5
4F6
  8
SITES
 66
     1
 10
0.0
 20
0.0
 30
0.0
 70
     1
  0
VERTEX
  5
1073
  8
SITES
 10
425042.1282420438947156
 20
518848.0198204510961659
 30
0.0
  0
VERTEX
  5
1074
  8
SITES
 10
425050.7178284160909243
 20
518843.6929991915239953
 30
0.0
  0
VERTEX
  5
1075
  8
SITES
 10
425061.4152030406985432
 20
518825.0225719090085477
 30
0.0
  0
VERTEX
  5
1076
  8
SITES
 10
425054.9293870414840057
 20
518813.5720154304872267
 30
0.0
  0
VERTEX
  5
1077
  8
SITES
 10
425045.5952525422908366
 20
518808.581771937024314
 30
0.0
  0
VERTEX
  5
1078
  8
SITES
 10
425035.5633594390819781
 20
518810.0453652702271938
 30
0.0
  0
VERTEX
  5
1079
  8
SITES
 10
425014.0938627492287196
 20
518822.2959926634212025
 30
0.0
  0
VERTEX
  5
107A
  8
SITES
 10
425011.9560550203896128
 20
518826.6035868275212124
 30
0.0
  0
VERTEX
  5
107B
  8
SITES
 10
425013.4303405763930641
 20
518840.2197115171002224
 30
0.0
  0
VERTEX
  5
107C
  8
SITES
 10
425014.1599782818229869
 20
518844.5187713950872421
 30
0.0
  0
VERTEX
  5
107D
  8
SITES
 10
425023.4920530280214734
 20
518848.7921290335943922
 30
0.0
  0
SEQEND
  5
107E
  8
SITES
  0
POLYLINE
  5
4F7
  8
SITES
 66
     1
 10
0.0
 20
0.0
 30
0.0
 70
     1
  0
VERTEX
  5
107F
  8
SITES
 10
425328.0762451136251912
 20
518955.6535972246201709
 30
0.0
  0
VERTEX
  5
1080
  8
SITES
 10
425339.5352453097002581
 20
518952.035128453921061
 30
0.0
  0
VERTEX
  5
1081
  8
SITES
 10
425348.8288759178249165
 20
518943.4051255356753245
 30
0.0
  0
VERTEX
  5
1082
  8
SITES
 10
425353.0958639922901057
 20
518931.9224828017759137
 30
0.0
  0
VERTEX
  5
1083
  8
SITES
 10
425350.9111683156806976
 20
518920.4591655571130104
 30
0.0
  0
VERTEX
  5
1084
  8
SITES
 10
425340.8579827506910078
 20
518914.7541871942812577
 30
0.0
  0
VERTEX
  5
1085
  8
SITES
 10
425315.7594046767917462
 20
518911.9613843631232157
 30
0.0
  0
VERTEX
  5
1086
  8
SITES
 10
425294.9939260801766068
 20
518919.9087350156041794
 30
0.0
  0
VERTEX
  5
1087
  8
SITES
 10
425287.8509577413205989
 20
518928.5324621141771786
 30
0.0
  0
VERTEX
  5
1088
  8
SITES
 10
425290.0378111529280432
 20
518940.7126645114040002
 30
0.0
  0
VERTEX
  5
1089
  8
SITES
 10
425315.1726796485017985
 20
518955.692047415592242
 30
0.0
  0
SEQEND
  5
108A
  8
SITES
  0
POLYLINE
  5
4F8
  8
SITES
 66
     1
 10
0.0
 20
0.0
 30
0.0
 70
     1
  0
VERTEX
  5
108B
  8
SITES
 10
424904.015085649676621
 20
518929.4371604634798132
 30
0.0
  0
VERTEX
  5
108C
  8
SITES
 10
424925.4483866089140065
 20
518904.9997761747799814
 30
0.0
  0
VERTEX
  5
108D
  8
SITES
 10
424929.0071165531990118
 20
518896.386748926481232
 30
0.0
  0
VERTEX
  5
108E
  8
SITES
 10
424928.9793564780266024
 20
518887.0676274570869282
 30
0.0
  0
VERTEX
  5
108F
  8
SITES
 10
424923.227398673305288
 20
518881.3498051993083209
 30
0.0
  0
VERTEX
  5
1090
  8
SITES
 10
424903.1488088822225109
 20
518879.258983812702354
 30
0.0
  0
VERTEX
  5
1091
  8
SITES
 10
424893.1213360317051411
 20
518882.1562474283855408
 30
0.0
  0
VERTEX
  5
1092
  8
SITES
 10
424880.9602725924924016
 20
518890.7948755385004915
 30
0.0
  0
VERTEX
  5
1093
  8
SITES
 10
424873.1110183764249086
 20
518903.0050831632106565
 30
0.0
  0
VERTEX
  5
1094
  8
SITES
 10
424870.2884006613167003
 20
518918.0677261644159444
 30
0.0
  0
VERTEX
  5
1095
  8
SITES
 10
424877.4869798062136397
 20
518928.0824485342018306
 30
0.0
  0
VERTEX
  5
1096
  8
SITES
 10
424886.1000058979261667
 20
518931.6410788294742815
 30
0.0
  0
SEQEND
  5
1097
  8
SITES
  0
POLYLINE
  5
4F9
  8
SITES
 66
     1
 10
0.0
 20
0.0
 30
0.0
 70
     1
  0
VERTEX
  5
1098
  8
SITES
 10
429327.7518017463735305
 20
518926.9119358357856981
 30
0.0
  0
VERTEX
  5
1099
  8
SITES
 10
429329.8617726161028259
 20
518913.28556946630124
 30
0.0
  0
VERTEX
  5
109A
  8
SITES
 10
429327.6856874537770636
 20
518904.6898141565034166
 30
0.0
  0
VERTEX
  5
109B
  8
SITES
 10
429322.6570350693073124
 20
518901.1205526365083642
 30
0.0
  0
VERTEX
  5
109C
  8
SITES
 10
429305.4421809363993816
 20
518897.5875867945724167
 30
0.0
  0
VERTEX
  5
109D
  8
SITES
 10
429297.5590034514898434
 20
518898.3278250945149921
 30
0.0
  0
VERTEX
  5
109E
  8
SITES
 10
429282.5351453638868406
 20
518908.4084729817113839
 30
0.0
  0
VERTEX
  5
109F
  8
SITES
 10
429278.9722598277730867
 20
518915.5876072224928066
 30
0.0
  0
VERTEX
  5
10A0
  8
SITES
 10
429279.7040635595913045
 20
518920.6034078425145708
 30
0.0
  0
VERTEX
  5
10A1
  8
SITES
 10
429281.1591369744855911
 20
518927.7675325553282164
 30
0.0
  0
VERTEX
  5
10A2
  8
SITES
 10
429296.234199590922799
 20
518934.8911460121162236
 30
0.0
  0
VERTEX
  5
10A3
  8
SITES
 10
429306.2763938123243861
 20
518937.0118098047096282
 30
0.0
  0
SEQEND
  5
10A4
  8
SITES
  0
POLYLINE
  5
4FA
  8
SITES
 66
     1
 10
0.0
 20
0.0
 30
0.0
 70
     1
  0
VERTEX
  5
10A5
  8
SITES
 10
429597.8164223902276717
 20
518960.6784344884799793
 30
0.0
  0
VERTEX
  5
10A6
  8
SITES
 10
429601.3686192217282951
 20
518949.9151210582931526
 30
0.0
  0
VERTEX
  5
10A7
  8
SITES
 10
429600.6389736324199475
 20
518945.6162110472796485
 30
0.0
  0
VERTEX
  5
10A8
  8
SITES
 10
429594.1703531406237744
 20
518939.9006794887245633
 30
0.0
  0
VERTEX
  5
10A9
  8
SITES
 10
429584.847104799177032
 20
518938.4947503035073169
 30
0.0
  0
VERTEX
  5
10AA
  8
SITES
 10
429576.9639215370989405
 20
518939.2350882742903195
 30
0.0
  0
VERTEX
  5
10AB
  8
SITES
 10
429574.8198128535877913
 20
518941.3920478235813789
 30
0.0
  0
VERTEX
  5
10AC
  8
SITES
 10
429573.4331097599933855
 20
518957.1668481327942573
 30
0.0
  0
VERTEX
  5
10AD
  8
SITES
 10
429579.9060466398950666
 20
518964.3159692243207246
 30
0.0
  0
VERTEX
  5
10AE
  8
SITES
 10
429592.8113099701004103
 20
518964.9944119856809266
 30
0.0
  0
SEQEND
  5
10AF
  8
SITES
  0
POLYLINE
  5
4FB
  8
SITES
 66
     1
 10
0.0
 20
0.0
 30
0.0
 70
     1
  0
VERTEX
  5
10B0
  8
SITES
 10
428819.8845106220105663
 20
519033.9828790004248731
 30
0.0
  0
VERTEX
  5
10B1
  8
SITES
 10
428854.9929187471279874
 20
519028.1434755048248917
 30
0.0
  0
VERTEX
  5
10B2
  8
SITES
 10
428860.7126578076859005
 20
519023.108455142180901
 30
0.0
  0
VERTEX
  5
10B3
  8
SITES
 10
428864.2691664902959019
 20
519013.7788492364925332
 30
0.0
  0
VERTEX
  5
10B4
  8
SITES
 10
428864.2158077239873819
 20
518995.8577140048146248
 30
0.0
  0
VERTEX
  5
10B5
  8
SITES
 10
428854.1586165116750635
 20
518988.719097217079252
 30
0.0
  0
VERTEX
  5
10B6
  8
SITES
 10
428843.4015990553889424
 20
518987.3174860003055073
 30
0.0
  0
VERTEX
  5
10B7
  8
SITES
 10
428816.1786189955892041
 20
518993.133351095020771
 30
0.0
  0
VERTEX
  5
10B8
  8
SITES
 10
428806.183321429300122
 20
519006.7833409789018333
 30
0.0
  0
VERTEX
  5
10B9
  8
SITES
 10
428804.7859265638981014
 20
519018.9739438383840024
 30
0.0
  0
VERTEX
  5
10BA
  8
SITES
 10
428812.7160773649811745
 20
519034.0042619470041245
 30
0.0
  0
SEQEND
  5
10BB
  8
SITES
  0
POLYLINE
  5
4FC
  8
SITES
 66
     1
 10
0.0
 20
0.0
 30
0.0
 70
     1
  0
VERTEX
  5
10BC
  8
SITES
 10
428878.7768974826904014
 20
519071.0837576101184823
 30
0.0
  0
VERTEX
  5
10BD
  8
SITES
 10
428891.6481059385114349
 20
519060.2926076322910376
 30
0.0
  0
VERTEX
  5
10BE
  8
SITES
 10
428894.4621231009950861
 20
519042.3629380019847304
 30
0.0
  0
VERTEX
  5
10BF
  8
SITES
 10
428892.2944764601998031
 20
519036.6345651214942336
 30
0.0
  0
VERTEX
  5
10C0
  8
SITES
 10
428882.9583952164975926
 20
519030.9275753176771104
 30
0.0
  0
VERTEX
  5
10C1
  8
SITES
 10
428867.1856814317870885
 20
519030.2577645017881878
 30
0.0
  0
VERTEX
  5
10C2
  8
SITES
 10
428849.2816129749990068
 20
519036.0458691224921495
 30
0.0
  0
VERTEX
  5
10C3
  8
SITES
 10
428840.7136249738978222
 20
519047.5410624687210657
 30
0.0
  0
VERTEX
  5
10C4
  8
SITES
 10
428840.0309637967147864
 20
519059.0127146532176994
 30
0.0
  0
VERTEX
  5
10C5
  8
SITES
 10
428845.8063172399997711
 20
519072.615722852293402
 30
0.0
  0
VERTEX
  5
10C6
  8
SITES
 10
428854.4127542384085245
 20
519074.023810955521185
 30
0.0
  0
VERTEX
  5
10C7
  8
SITES
 10
428863.0212497634929605
 20
519076.1486924666096456
 30
0.0
  0
SEQEND
  5
10C8
  8
SITES
  0
POLYLINE
  5
4FD
  8
SITES
 66
     1
 10
0.0
 20
0.0
 30
0.0
 70
     1
  0
VERTEX
  5
10C9
  8
SITES
 10
429809.7268988628056832
 20
519108.434683630883228
 30
0.0
  0
VERTEX
  5
10CA
  8
SITES
 10
429811.8689514232100919
 20
519105.5609286262770183
 30
0.0
  0
VERTEX
  5
10CB
  8
SITES
 10
429808.9332082273904234
 20
519082.630517246783711
 30
0.0
  0
VERTEX
  5
10CC
  8
SITES
 10
429806.0466036070138216
 20
519076.1874940330744721
 30
0.0
  0
VERTEX
  5
10CD
  8
SITES
 10
429793.8303712230990641
 20
519066.1880526642780751
 30
0.0
  0
VERTEX
  5
10CE
  8
SITES
 10
429785.9387504362966865
 20
519064.0610083207720891
 30
0.0
  0
VERTEX
  5
10CF
  8
SITES
 10
429775.9243019446148537
 20
519071.259374605899211
 30
0.0
  0
VERTEX
  5
10D0
  8
SITES
 10
429773.1060611073044129
 20
519087.755294039787259
 30
0.0
  0
VERTEX
  5
10D1
  8
SITES
 10
429788.2344946006196551
 20
519112.7998996155802161
 30
0.0
  0
VERTEX
  5
10D2
  8
SITES
 10
429796.8430102688143961
 20
519114.9247868619277142
 30
0.0
  0
SEQEND
  5
10D3
  8
SITES
  0
POLYLINE
  5
4FE
  8
SITES
 66
     1
 10
0.0
 20
0.0
 30
0.0
 70
     1
  0
VERTEX
  5
10D4
  8
SITES
 10
428660.5403834981843829
 20
519206.5022082088980824
 30
0.0
  0
VERTEX
  5
10D5
  8
SITES
 10
428662.6759567453991622
 20
519201.4778829113929532
 30
0.0
  0
VERTEX
  5
10D6
  8
SITES
 10
428662.628980720997788
 20
519185.7072358755976893
 30
0.0
  0
VERTEX
  5
10D7
  8
SITES
 10
428640.3640363006852567
 20
519171.4365741285146214
 30
0.0
  0
VERTEX
  5
10D8
  8
SITES
 10
428631.0450273784226738
 20
519171.4643286474165507
 30
0.0
  0
VERTEX
  5
10D9
  8
SITES
 10
428618.1567600317066535
 20
519176.5207241356256418
 30
0.0
  0
VERTEX
  5
10DA
  8
SITES
 10
428615.3042943847249262
 20
519181.5472069418756291
 30
0.0
  0
VERTEX
  5
10DB
  8
SITES
 10
428618.2229584946180694
 20
519198.7429061665898189
 30
0.0
  0
VERTEX
  5
10DC
  8
SITES
 10
428628.278081952710636
 20
519205.1646312428056262
 30
0.0
  0
VERTEX
  5
10DD
  8
SITES
 10
428638.3245737233082764
 20
519208.7189845009124838
 30
0.0
  0
VERTEX
  5
10DE
  8
SITES
 10
428652.6657499014982022
 20
519210.1100110483239405
 30
0.0
  0
SEQEND
  5
10DF
  8
SITES
  0
POLYLINE
  5
4FF
  8
SITES
 66
     1
 10
0.0
 20
0.0
 30
0.0
 70
     1
  0
VERTEX
  5
10E0
  8
SITES
 10
425311.4984027080936357
 20
519271.6030048542888835
 30
0.0
  0
VERTEX
  5
10E1
  8
SITES
 10
425318.6520678909146227
 20
519266.563618260610383
 30
0.0
  0
VERTEX
  5
10E2
  8
SITES
 10
425321.487448823696468
 20
519255.8021823366289027
 30
0.0
  0
VERTEX
  5
10E3
  8
SITES
 10
425317.1286656408919953
 20
519236.4597809113911353
 30
0.0
  0
VERTEX
  5
10E4
  8
SITES
 10
425305.6396537786931731
 20
519230.0421238145790994
 30
0.0
  0
VERTEX
  5
10E5
  8
SITES
 10
425299.9090738702798262
 20
519231.4929605373181403
 30
0.0
  0
VERTEX
  5
10E6
  8
SITES
 10
425288.4969444540911354
 20
519250.8824329380877316
 30
0.0
  0
VERTEX
  5
10E7
  8
SITES
 10
425288.5246960379881784
 20
519260.2015629538800567
 30
0.0
  0
VERTEX
  5
10E8
  8
SITES
 10
425297.8802083965274505
 20
519272.3604895430034958
 30
0.0
  0
SEQEND
  5
10E9
  8
SITES
  0
POLYLINE
  5
500
  8
SITES
 66
     1
 10
0.0
 20
0.0
 30
0.0
 70
     1
  0
VERTEX
  5
10EA
  8
SITES
 10
429790.0142921839142218
 20
519228.9239888075971976
 30
0.0
  0
VERTEX
  5
10EB
  8
SITES
 10
429800.7519129725988023
 20
519223.8740534756216221
 30
0.0
  0
VERTEX
  5
10EC
  8
SITES
 10
429804.2848968682810664
 20
519206.6590807902975939
 30
0.0
  0
VERTEX
  5
10ED
  8
SITES
 10
429800.6621769543853588
 20
519193.7666586142149754
 30
0.0
  0
VERTEX
  5
10EE
  8
SITES
 10
429795.6080244203913026
 20
519181.5953480363823473
 30
0.0
  0
VERTEX
  5
10EF
  8
SITES
 10
429788.4352575286757201
 20
519180.1829383032745682
 30
0.0
  0
VERTEX
  5
10F0
  8
SITES
 10
429775.5791228886228055
 20
519195.9919747457024641
 30
0.0
  0
VERTEX
  5
10F1
  8
SITES
 10
429778.5148592591867782
 20
519218.9223850757116452
 30
0.0
  0
VERTEX
  5
10F2
  8
SITES
 10
429783.5647944684023969
 20
519229.6600055217859335
 30
0.0
  0
SEQEND
  5
10F3
  8
SITES
  0
POLYLINE
  5
501
  8
SITES
 66
     1
 10
0.0
 20
0.0
 30
0.0
 70
     1
  0
VERTEX
  5
10F4
  8
SITES
 10
429581.4474022859940305
 20
519241.0151706602773629
 30
0.0
  0
VERTEX
  5
10F5
  8
SITES
 10
429590.0238437377265655
 20
519232.3873386309132911
 30
0.0
  0
VERTEX
  5
10F6
  8
SITES
 10
429590.7086688650888391
 20
519221.6326596185099334
 30
0.0
  0
VERTEX
  5
10F7
  8
SITES
 10
429583.5039359644870274
 20
519209.4676291253999807
 30
0.0
  0
VERTEX
  5
10F8
  8
SITES
 10
429570.5793511844240129
 20
519202.337725899880752
 30
0.0
  0
VERTEX
  5
10F9
  8
SITES
 10
429561.2561042918241583
 20
519200.9317906039068475
 30
0.0
  0
VERTEX
  5
10FA
  8
SITES
 10
429556.9764163531945087
 20
519208.1129854301107116
 30
0.0
  0
VERTEX
  5
10FB
  8
SITES
 10
429556.2915915150078945
 20
519218.8677634748164564
 30
0.0
  0
VERTEX
  5
10FC
  8
SITES
 10
429561.365061195101589
 20
519237.4907194062834606
 30
0.0
  0
VERTEX
  5
10FD
  8
SITES
 10
429569.2653082626056857
 20
519242.4851449296111241
 30
0.0
  0
SEQEND
  5
10FE
  8
SITES
  0
POLYLINE
  5
502
  8
SITES
 66
     1
 10
0.0
 20
0.0
 30
0.0
 70
     1
  0
VERTEX
  5
10FF
  8
SITES
 10
429287.9850547338137403
 20
519273.4502124974969774
 30
0.0
  0
VERTEX
  5
1100
  8
SITES
 10
429305.7971565402112901
 20
519236.8377605503774248
 30
0.0
  0
VERTEX
  5
1101
  8
SITES
 10
429317.1577075588866137
 20
519200.2445274209021591
 30
0.0
  0
VERTEX
  5
1102
  8
SITES
 10
429317.8361574764130637
 20
519187.3391732146847062
 30
0.0
  0
VERTEX
  5
1103
  8
SITES
 10
429274.0786990692722611
 20
519177.4336944769020192
 30
0.0
  0
VERTEX
  5
1104
  8
SITES
 10
429273.4088815578143112
 20
519193.2064240169129334
 30
0.0
  0
VERTEX
  5
1105
  8
SITES
 10
429253.4632665382814594
 20
519235.5600016477983445
 30
0.0
  0
VERTEX
  5
1106
  8
SITES
 10
429252.7613780032261275
 20
519240.5800184580148198
 30
0.0
  0
VERTEX
  5
1107
  8
SITES
 10
429232.0690547002013773
 20
519272.8999322255840525
 30
0.0
  0
VERTEX
  5
1108
  8
SITES
 10
429232.7923223460093141
 20
519275.0483566126786172
 30
0.0
  0
VERTEX
  5
1109
  8
SITES
 10
429255.8039004569873214
 20
519299.3527051489218138
 30
0.0
  0
VERTEX
  5
110A
  8
SITES
 10
429264.4125034752069041
 20
519301.4775938027887605
 30
0.0
  0
SEQEND
  5
110B
  8
SITES
  0
POLYLINE
  5
503
  8
SITES
 66
     1
 10
0.0
 20
0.0
 30
0.0
 70
     1
  0
VERTEX
  5
110C
  8
SITES
 10
425591.9679958149208687
 20
519330.2670730841928162
 30
0.0
  0
VERTEX
  5
110D
  8
SITES
 10
425601.2636984668206424
 20
519322.3538608970120549
 30
0.0
  0
VERTEX
  5
110E
  8
SITES
 10
425601.2187866385211237
 20
519307.2998234910191968
 30
0.0
  0
VERTEX
  5
110F
  8
SITES
 10
425591.8633679184131324
 20
519295.1409868503105827
 30
0.0
  0
VERTEX
  5
1110
  8
SITES
 10
425578.9405739461071789
 20
519288.7277389622176997
 30
0.0
  0
VERTEX
  5
1111
  8
SITES
 10
425571.7634684849181212
 20
519285.8816667727078311
 30
0.0
  0
VERTEX
  5
1112
  8
SITES
 10
425559.5790400271071121
 20
519286.6348361184936948
 30
0.0
  0
VERTEX
  5
1113
  8
SITES
 10
425543.8337102981749922
 20
519295.2841552990139462
 30
0.0
  0
VERTEX
  5
1114
  8
SITES
 10
425543.8572453411179595
 20
519303.1696166057954542
 30
0.0
  0
VERTEX
  5
1115
  8
SITES
 10
425551.0664159461157396
 20
519316.7685000147903338
 30
0.0
  0
VERTEX
  5
1116
  8
SITES
 10
425563.2850672141066752
 20
519327.4851304091862403
 30
0.0
  0
VERTEX
  5
1117
  8
SITES
 10
425575.4866572263999842
 20
519332.466861953784246
 30
0.0
  0
SEQEND
  5
1118
  8
SITES
  0
POLYLINE
  5
504
  8
SITES
 66
     1
 10
0.0
 20
0.0
 30
0.0
 70
     1
  0
VERTEX
  5
1119
  8
SITES
 10
426442.0442476579919457
 20
519424.0318810116732493
 30
0.0
  0
VERTEX
  5
111A
  8
SITES
 10
426455.6411063295090571
 20
519416.1058086571283638
 30
0.0
  0
VERTEX
  5
111B
  8
SITES
 10
426460.6247088972013444
 20
519404.6211807021754794
 30
0.0
  0
VERTEX
  5
111C
  8
SITES
 10
426459.1525943196029402
 20
519391.7220929324976169
 30
0.0
  0
VERTEX
  5
111D
  8
SITES
 10
426449.8015726290177554
 20
519380.9971061780815944
 30
0.0
  0
VERTEX
  5
111E
  8
SITES
 10
426436.8980703810229897
 20
519381.0355429647024721
 30
0.0
  0
VERTEX
  5
111F
  8
SITES
 10
426426.1537659139721654
 20
519383.9349630302167498
 30
0.0
  0
VERTEX
  5
1120
  8
SITES
 10
426425.4433499393053353
 20
519386.0874877696041949
 30
0.0
  0
VERTEX
  5
1121
  8
SITES
 10
426415.4351528753177263
 20
519395.4365507490001619
 30
0.0
  0
VERTEX
  5
1122
  8
SITES
 10
426404.6973214255995117
 20
519400.486637132416945
 30
0.0
  0
VERTEX
  5
1123
  8
SITES
 10
426400.3982453024946153
 20
519401.2163713516201824
 30
0.0
  0
VERTEX
  5
1124
  8
SITES
 10
426403.3042371681076474
 20
519414.111142402922269
 30
0.0
  0
VERTEX
  5
1125
  8
SITES
 10
426415.5121246522758156
 20
519421.2435537091223523
 30
0.0
  0
VERTEX
  5
1126
  8
SITES
 10
426428.4261139233713038
 20
519424.7894629213842563
 30
0.0
  0
SEQEND
  5
1127
  8
SITES
  0
POLYLINE
  5
505
  8
SITES
 66
     1
 10
0.0
 20
0.0
 30
0.0
 70
     1
  0
VERTEX
  5
1128
  8
SITES
 10
427871.5897345860139467
 20
519309.2130532861920074
 30
0.0
  0
VERTEX
  5
1129
  8
SITES
 10
427872.268186132190749
 20
519296.3075465512811206
 30
0.0
  0
VERTEX
  5
112A
  8
SITES
 10
427869.3473743321956135
 20
519278.3948874290799722
 30
0.0
  0
VERTEX
  5
112B
  8
SITES
 10
427862.8678980200784281
 20
519269.0951169779873453
 30
0.0
  0
VERTEX
  5
112C
  8
SITES
 10
427857.8478991006850265
 20
519268.3931304707075469
 30
0.0
  0
VERTEX
  5
112D
  8
SITES
 10
427855.7593012556899339
 20
519289.1882599301752634
 30
0.0
  0
VERTEX
  5
112E
  8
SITES
 10
427859.4075929718092084
 20
519310.6830186517909169
 30
0.0
  0
VERTEX
  5
112F
  8
SITES
 10
427858.724925548885949
 20
519322.1547418946283869
 30
0.0
  0
SEQEND
  5
1130
  8
SITES
  0
POLYLINE
  5
506
  8
SITES
 66
     1
 10
0.0
 20
0.0
 30
0.0
 70
     1
  0
VERTEX
  5
1131
  8
SITES
 10
425466.5709496625931934
 20
519348.562447372591123
 30
0.0
  0
VERTEX
  5
1132
  8
SITES
 10
425471.5526802857057191
 20
519336.360860564513132
 30
0.0
  0
VERTEX
  5
1133
  8
SITES
 10
425473.6583307675900869
 20
519321.3004549674806185
 30
0.0
  0
VERTEX
  5
1134
  8
SITES
 10
425472.9243819275870919
 20
519315.5677145844092593
 30
0.0
  0
VERTEX
  5
1135
  8
SITES
 10
425464.3071310395025648
 20
519310.5752963403938338
 30
0.0
  0
VERTEX
  5
1136
  8
SITES
 10
425458.5743908754084259
 20
519311.3092452536220662
 30
0.0
  0
VERTEX
  5
1137
  8
SITES
 10
425449.9870480796089396
 20
519316.3529482646845281
 30
0.0
  0
VERTEX
  5
1138
  8
SITES
 10
425442.1271812024060637
 20
519324.9787293599802069
 30
0.0
  0
VERTEX
  5
1139
  8
SITES
 10
425438.6006021535140462
 20
519344.3446721205255017
 30
0.0
  0
VERTEX
  5
113A
  8
SITES
 10
425442.1998416868154891
 20
519349.3519943014835007
 30
0.0
  0
VERTEX
  5
113B
  8
SITES
 10
425454.4057429753011093
 20
519355.7673995628138073
 30
0.0
  0
SEQEND
  5
113C
  8
SITES
  0
POLYLINE
  5
507
  8
SITES
 66
     1
 10
0.0
 20
0.0
 30
0.0
 70
     1
  0
VERTEX
  5
113D
  8
SITES
 10
424559.0879692102898844
 20
519372.7731710739899427
 30
0.0
  0
VERTEX
  5
113E
  8
SITES
 10
424569.8046742525184527
 20
519360.5544519934919663
 30
0.0
  0
VERTEX
  5
113F
  8
SITES
 10
424570.5022415005951189
 20
519354.10052372852806
 30
0.0
  0
VERTEX
  5
1140
  8
SITES
 10
424564.0227219238877296
 20
519344.8005293143214658
 30
0.0
  0
VERTEX
  5
1141
  8
SITES
 10
424554.6842904810910113
 20
519338.3765081596793607
 30
0.0
  0
VERTEX
  5
1142
  8
SITES
 10
424543.2016753521747887
 20
519334.1095169399050064
 30
0.0
  0
VERTEX
  5
1143
  8
SITES
 10
424521.695709039689973
 20
519334.1735462328069843
 30
0.0
  0
VERTEX
  5
1144
  8
SITES
 10
424513.1082862815237604
 20
519339.2172365519800223
 30
0.0
  0
VERTEX
  5
1145
  8
SITES
 10
424507.3926207954064012
 20
519345.6861671584192663
 30
0.0
  0
VERTEX
  5
1146
  8
SITES
 10
424506.7056420278968289
 20
519355.7243218783987686
 30
0.0
  0
VERTEX
  5
1147
  8
SITES
 10
424517.490688607620541
 20
519366.4452407393255271
 30
0.0
  0
VERTEX
  5
1148
  8
SITES
 10
424549.056186186207924
 20
519374.2367483709240332
 30
0.0
  0
SEQEND
  5
1149
  8
SITES
  0
POLYLINE
  5
508
  8
SITES
 66
     1
 10
0.0
 20
0.0
 30
0.0
 70
     1
  0
VERTEX
  5
114A
  8
SITES
 10
429586.0004984140978195
 20
519325.5897008742904291
 30
0.0
  0
VERTEX
  5
114B
  8
SITES
 10
429587.4107519940007478
 20
519317.7002432981971651
 30
0.0
  0
VERTEX
  5
114C
  8
SITES
 10
429588.8444415045087226
 20
519317.6959277390269563
 30
0.0
  0
VERTEX
  5
114D
  8
SITES
 10
429588.095479640411213
 20
519306.9454644310753793
 30
0.0
  0
VERTEX
  5
114E
  8
SITES
 10
429588.7909961449913681
 20
519299.7748593621072359
 30
0.0
  0
VERTEX
  5
114F
  8
SITES
 10
429578.6697557287989184
 20
519271.1310803974047303
 30
0.0
  0
VERTEX
  5
1150
  8
SITES
 10
429568.6210826450842433
 20
519266.8599224921199493
 30
0.0
  0
VERTEX
  5
1151
  8
SITES
 10
429563.620282955293078
 20
519272.6095852442085743
 30
0.0
  0
VERTEX
  5
1152
  8
SITES
 10
429560.0617039893986657
 20
519281.2224107757792808
 30
0.0
  0
VERTEX
  5
1153
  8
SITES
 10
429557.9154357421211898
 20
519282.6624737228848971
 30
0.0
  0
VERTEX
  5
1154
  8
SITES
 10
429555.7884880268829875
 20
519290.5541887846775353
 30
0.0
  0
VERTEX
  5
1155
  8
SITES
 10
429554.3547986400080845
 20
519290.5585044411709532
 30
0.0
  0
VERTEX
  5
1156
  8
SITES
 10
429549.3902818767819554
 20
519308.4944758990895934
 30
0.0
  0
VERTEX
  5
1157
  8
SITES
 10
429550.8495649364194833
 20
519317.0922962095937692
 30
0.0
  0
VERTEX
  5
1158
  8
SITES
 10
429556.6142312480951659
 20
519327.1110592607874423
 30
0.0
  0
VERTEX
  5
1159
  8
SITES
 10
429565.2206829822971486
 20
519328.5190554109867662
 30
0.0
  0
VERTEX
  5
115A
  8
SITES
 10
429565.224898571788799
 20
519329.9527447160799056
 30
0.0
  0
VERTEX
  5
115B
  8
SITES
 10
429577.4133662279928103
 20
519330.6332572745741345
 30
0.0
  0
SEQEND
  5
115C
  8
SITES
  0
POLYLINE
  5
509
  8
SITES
 66
     1
 10
0.0
 20
0.0
 30
0.0
 70
     1
  0
VERTEX
  5
115D
  8
SITES
 10
425406.1250085316132754
 20
519419.6612726463936269
 30
0.0
  0
VERTEX
  5
115E
  8
SITES
 10
425408.1660335898050107
 20
519416.4666496979771182
 30
0.0
  0
VERTEX
  5
115F
  8
SITES
 10
425408.5337299393140711
 20
519413.1443221882218495
 30
0.0
  0
VERTEX
  5
1160
  8
SITES
 10
425408.5154106076224707
 20
519406.9980193724040873
 30
0.0
  0
VERTEX
  5
1161
  8
SITES
 10
425408.4898233648855239
 20
519398.393175522913225
 30
0.0
  0
VERTEX
  5
1162
  8
SITES
 10
425406.0084794064750895
 20
519391.0249189052265137
 30
0.0
  0
VERTEX
  5
1163
  8
SITES
 10
425402.1439889576286077
 20
519383.4595887477044016
 30
0.0
  0
VERTEX
  5
1164
  8
SITES
 10
425397.5813436951721087
 20
519381.4233649988891557
 30
0.0
  0
VERTEX
  5
1165
  8
SITES
 10
425391.2489524864940904
 20
519389.8396991869085468
 30
0.0
  0
VERTEX
  5
1166
  8
SITES
 10
425388.807931756018661
 20
519395.9932685131789185
 30
0.0
  0
VERTEX
  5
1167
  8
SITES
 10
425390.0632392382249236
 20
519404.5944286700105295
 30
0.0
  0
VERTEX
  5
1168
  8
SITES
 10
425390.0815586065873504
 20
519410.7407311986899003
 30
0.0
  0
VERTEX
  5
1169
  8
SITES
 10
425392.5592183449189179
 20
519416.8796671507880092
 30
0.0
  0
VERTEX
  5
116A
  8
SITES
 10
425397.4888507695286535
 20
519420.5527954716235399
 30
0.0
  0
VERTEX
  5
116B
  8
SITES
 10
425402.0288463120232336
 20
519421.2678403292084113
 30
0.0
  0
SEQEND
  5
116C
  8
SITES
  0
POLYLINE
  5
50A
  8
SITES
 66
     1
 10
0.0
 20
0.0
 30
0.0
 70
     1
  0
VERTEX
  5
116D
  8
SITES
 10
425365.694473534298595
 20
519416.2485586178954691
 30
0.0
  0
VERTEX
  5
116E
  8
SITES
 10
425377.123673539084848
 20
519402.5940837112721056
 30
0.0
  0
VERTEX
  5
116F
  8
SITES
 10
425377.8255578178213909
 20
519397.573916531400755
 30
0.0
  0
VERTEX
  5
1170
  8
SITES
 10
425373.5115900409873575
 20
519393.2855393881909549
 30
0.0
  0
VERTEX
  5
1171
  8
SITES
 10
425364.9007149143726565
 20
519390.4437817728030495
 30
0.0
  0
VERTEX
  5
1172
  8
SITES
 10
425354.1521242849994451
 20
519391.9095193690736778
 30
0.0
  0
VERTEX
  5
1173
  8
SITES
 10
425343.4269670650246553
 20
519401.2607140825712122
 30
0.0
  0
VERTEX
  5
1174
  8
SITES
 10
425339.87263731402345
 20
519411.3075200900784694
 30
0.0
  0
VERTEX
  5
1175
  8
SITES
 10
425340.6151145632029511
 20
519419.9077067921170965
 30
0.0
  0
VERTEX
  5
1176
  8
SITES
 10
425348.5091019124956802
 20
519422.7516223309794441
 30
0.0
  0
SEQEND
  5
1177
  8
SITES
  0
POLYLINE
  5
50B
  8
SITES
 66
     1
 10
0.0
 20
0.0
 30
0.0
 70
     1
  0
VERTEX
  5
1178
  8
SITES
 10
429083.5529782843077555
 20
519470.4766682325862348
 30
0.0
  0
VERTEX
  5
1179
  8
SITES
 10
429139.3621802686247975
 20
519435.1845805249758996
 30
0.0
  0
VERTEX
  5
117A
  8
SITES
 10
429161.52026447490789
 20
519413.612976980919484
 30
0.0
  0
VERTEX
  5
117B
  8
SITES
 10
429188.6427650024998002
 20
519374.105317133886274
 30
0.0
  0
VERTEX
  5
117C
  8
SITES
 10
429200.0738305525155738
 20
519361.168001624813769
 30
0.0
  0
VERTEX
  5
117D
  8
SITES
 10
429216.4843151335953735
 20
519335.3123882577056065
 30
0.0
  0
VERTEX
  5
117E
  8
SITES
 10
429220.7148727171006612
 20
519311.6437375394161791
 30
0.0
  0
VERTEX
  5
117F
  8
SITES
 10
429209.2304632373852655
 20
519306.6600040897028521
 30
0.0
  0
VERTEX
  5
1180
  8
SITES
 10
429187.7550517678027973
 20
519316.7599543713149615
 30
0.0
  0
VERTEX
  5
1181
  8
SITES
 10
429166.3073922197218053
 20
519336.178825126378797
 30
0.0
  0
VERTEX
  5
1182
  8
SITES
 10
429155.5633138793054968
 20
519339.0782672560890205
 30
0.0
  0
VERTEX
  5
1183
  8
SITES
 10
429113.9627321161096916
 20
519331.3168838844285347
 30
0.0
  0
VERTEX
  5
1184
  8
SITES
 10
429099.6365438391221687
 20
519334.9438083746936172
 30
0.0
  0
VERTEX
  5
1185
  8
SITES
 10
429078.8950932542211376
 20
519350.7763470677891746
 30
0.0
  0
VERTEX
  5
1186
  8
SITES
 10
429078.9250011909753084
 20
519360.812260321516078
 30
0.0
  0
VERTEX
  5
1187
  8
SITES
 10
429081.8094381929840893
 20
519366.5383800261188298
 30
0.0
  0
VERTEX
  5
1188
  8
SITES
 10
429102.647085934993811
 20
519382.9638654228765517
 30
0.0
  0
VERTEX
  5
1189
  8
SITES
 10
429106.2783236221875995
 20
519398.7237420114106499
 30
0.0
  0
VERTEX
  5
118A
  8
SITES
 10
429103.4729192128870636
 20
519419.5207943419227377
 30
0.0
  0
VERTEX
  5
118B
  8
SITES
 10
429099.1910744201741181
 20
519425.9852845083805732
 30
0.0
  0
VERTEX
  5
118C
  8
SITES
 10
429090.6103243014076725
 20
519433.1793139515211806
 30
0.0
  0
VERTEX
  5
118D
  8
SITES
 10
429079.1536686007166281
 20
519437.5145980538218282
 30
0.0
  0
VERTEX
  5
118E
  8
SITES
 10
429039.0039447225863114
 20
519435.4837405589059927
 30
0.0
  0
VERTEX
  5
118F
  8
SITES
 10
429034.6900368563947268
 20
519431.1955235539935529
 30
0.0
  0
VERTEX
  5
1190
  8
SITES
 10
429017.4836302833282389
 20
519430.5299117608228698
 30
0.0
  0
VERTEX
  5
1191
  8
SITES
 10
429011.0469900713069364
 20
519435.5670857658842579
 30
0.0
  0
VERTEX
  5
1192
  8
SITES
 10
429006.7693612967268564
 20
519443.4651615988113917
 30
0.0
  0
VERTEX
  5
1193
  8
SITES
 10
429004.6337831389973871
 20
519448.4894899897044525
 30
0.0
  0
VERTEX
  5
1194
  8
SITES
 10
429006.8057395027717575
 20
519455.6515542027773336
 30
0.0
  0
VERTEX
  5
1195
  8
SITES
 10
429022.6083636175026186
 20
519466.357194100623019
 30
0.0
  0
VERTEX
  5
1196
  8
SITES
 10
429043.4246291748131625
 20
519475.6142448565806262
 30
0.0
  0
VERTEX
  5
1197
  8
SITES
 10
429057.0490254642791115
 20
519477.0073400344117545
 30
0.0
  0
SEQEND
  5
1198
  8
SITES
  0
POLYLINE
  5
50C
  8
SITES
 66
     1
 10
0.0
 20
0.0
 30
0.0
 70
     1
  0
VERTEX
  5
1199
  8
SITES
 10
425429.8071112718898803
 20
519520.7198687710915692
 30
0.0
  0
VERTEX
  5
119A
  8
SITES
 10
425441.9766346911201254
 20
519514.9487964445725083
 30
0.0
  0
VERTEX
  5
119B
  8
SITES
 10
425432.5591621238272637
 20
519482.0010310832876712
 30
0.0
  0
VERTEX
  5
119C
  8
SITES
 10
425431.8338451150921173
 20
519479.1358397656003945
 30
0.0
  0
VERTEX
  5
119D
  8
SITES
 10
425424.6588012424181215
 20
519477.0065522760851309
 30
0.0
  0
VERTEX
  5
119E
  8
SITES
 10
425417.4986593932844698
 20
519479.8952749344171025
 30
0.0
  0
VERTEX
  5
119F
  8
SITES
 10
425412.5277117706718855
 20
519495.6811941700289026
 30
0.0
  0
VERTEX
  5
11A0
  8
SITES
 10
425415.4528089790837839
 20
519515.0279178897035308
 30
0.0
  0
VERTEX
  5
11A1
  8
SITES
 10
425421.2048650725046173
 20
519520.7455567619181238
 30
0.0
  0
SEQEND
  5
11A2
  8
SITES
  0
POLYLINE
  5
50D
  8
SITES
 66
     1
 10
0.0
 20
0.0
 30
0.0
 70
     1
  0
VERTEX
  5
11A3
  8
SITES
 10
425256.3781266675214283
 20
519538.4418260403908789
 30
0.0
  0
VERTEX
  5
11A4
  8
SITES
 10
425259.9410879546776414
 20
519531.2625708195264451
 30
0.0
  0
VERTEX
  5
11A5
  8
SITES
 10
425260.6322871210286394
 20
519522.6580709731206298
 30
0.0
  0
VERTEX
  5
11A6
  8
SITES
 10
425258.4518238545279019
 20
519512.6284267415176146
 30
0.0
  0
VERTEX
  5
11A7
  8
SITES
 10
425253.4081276070210151
 20
519504.0410856669186614
 30
0.0
  0
VERTEX
  5
11A8
  8
SITES
 10
425243.3592674788087606
 20
519499.7698675240972079
 30
0.0
  0
VERTEX
  5
11A9
  8
SITES
 10
425237.6392744050826877
 20
519504.8049342156737112
 30
0.0
  0
VERTEX
  5
11AA
  8
SITES
 10
425233.3787428686046042
 20
519518.4381280993111432
 30
0.0
  0
VERTEX
  5
11AB
  8
SITES
 10
425235.5635204978170805
 20
519529.9014454832067713
 30
0.0
  0
VERTEX
  5
11AC
  8
SITES
 10
425239.8796425448963419
 20
519534.9067094895290211
 30
0.0
  0
VERTEX
  5
11AD
  8
SITES
 10
425246.3442678942228667
 20
519539.188615026010666
 30
0.0
  0
SEQEND
  5
11AE
  8
SITES
  0
POLYLINE
  5
50E
  8
SITES
 66
     1
 10
0.0
 20
0.0
 30
0.0
 70
     1
  0
VERTEX
  5
11AF
  8
SITES
 10
424785.4725825421046466
 20
519564.2192858827183954
 30
0.0
  0
VERTEX
  5
11B0
  8
SITES
 10
424789.0398546464857645
 20
519558.4737115977914073
 30
0.0
  0
VERTEX
  5
11B1
  8
SITES
 10
424783.2579067908227444
 20
519542.7198771978146397
 30
0.0
  0
VERTEX
  5
11B2
  8
SITES
 10
424769.6162001010961831
 20
519535.5918055854272097
 30
0.0
  0
VERTEX
  5
11B3
  8
SITES
 10
424744.4597149192122743
 20
519513.443946217186749
 30
0.0
  0
VERTEX
  5
11B4
  8
SITES
 10
424738.010098977771122
 20
519514.1799481437192298
 30
0.0
  0
VERTEX
  5
11B5
  8
SITES
 10
424735.8659131419844925
 20
519516.3369778539054096
 30
0.0
  0
VERTEX
  5
11B6
  8
SITES
 10
424730.8734994605183601
 20
519524.9543100403971039
 30
0.0
  0
VERTEX
  5
11B7
  8
SITES
 10
424729.4739443485159427
 20
519536.4283992372220382
 30
0.0
  0
VERTEX
  5
11B8
  8
SITES
 10
424732.3585461843758821
 20
519542.154757535783574
 30
0.0
  0
VERTEX
  5
11B9
  8
SITES
 10
424752.4798693265183829
 20
519558.5827309648157097
 30
0.0
  0
VERTEX
  5
11BA
  8
SITES
 10
424774.7282212791033089
 20
519567.1188883279100992
 30
0.0
  0
SEQEND
  5
11BB
  8
SITES
  0
POLYLINE
  5
50F
  8
SITES
 66
     1
 10
0.0
 20
0.0
 30
0.0
 70
     1
  0
VERTEX
  5
11BC
  8
SITES
 10
429184.8802966813091189
 20
519554.7629520809859969
 30
0.0
  0
VERTEX
  5
11BD
  8
SITES
 10
429189.8832531591760926
 20
519549.7300924808951095
 30
0.0
  0
VERTEX
  5
11BE
  8
SITES
 10
429191.2741936050006188
 20
519535.3888974286965095
 30
0.0
  0
VERTEX
  5
11BF
  8
SITES
 10
429184.7755845618085004
 20
519519.6375458692200482
 30
0.0
  0
VERTEX
  5
11C0
  8
SITES
 10
429181.1806274097762071
 20
519516.0640628797118552
 30
0.0
  0
VERTEX
  5
11C1
  8
SITES
 10
429169.6982791809132323
 20
519511.7971178800798953
 30
0.0
  0
VERTEX
  5
11C2
  8
SITES
 10
429150.3649165697861463
 20
519519.0233080817270093
 30
0.0
  0
VERTEX
  5
11C3
  8
SITES
 10
429143.928273071476724
 20
519524.0604823587927967
 30
0.0
  0
VERTEX
  5
11C4
  8
SITES
 10
429139.6485835844068788
 20
519531.2417660534265451
 30
0.0
  0
VERTEX
  5
11C5
  8
SITES
 10
429141.8375984334852546
 20
519544.1384846080909483
 30
0.0
  0
VERTEX
  5
11C6
  8
SITES
 10
429159.7993368076859042
 20
519557.705135460710153
 30
0.0
  0
VERTEX
  5
11C7
  8
SITES
 10
429165.5383033273974434
 20
519559.1216645514941774
 30
0.0
  0
SEQEND
  5
11C8
  8
SITES
  0
POLYLINE
  5
510
  8
SITES
 66
     1
 10
0.0
 20
0.0
 30
0.0
 70
     1
  0
VERTEX
  5
11C9
  8
SITES
 10
424684.4654555179877207
 20
519588.1771879111183807
 30
0.0
  0
VERTEX
  5
11CA
  8
SITES
 10
424690.1918134978041053
 20
519585.2925870799226686
 30
0.0
  0
VERTEX
  5
11CB
  8
SITES
 10
424693.0293560135760345
 20
519575.2479564393870533
 30
0.0
  0
VERTEX
  5
11CC
  8
SITES
 10
424690.8424255994032137
 20
519563.0677686405833811
 30
0.0
  0
VERTEX
  5
11CD
  8
SITES
 10
424684.3543798840837553
 20
519550.9003246452775784
 30
0.0
  0
VERTEX
  5
11CE
  8
SITES
 10
424669.2574324887245893
 20
519536.6079107929253951
 30
0.0
  0
VERTEX
  5
11CF
  8
SITES
 10
424660.6401019967161119
 20
519531.6154976180987433
 30
0.0
  0
VERTEX
  5
11D0
  8
SITES
 10
424649.1703295424813405
 20
519531.649714267172385
 30
0.0
  0
VERTEX
  5
11D1
  8
SITES
 10
424643.6210500174202025
 20
519534.8350311596877873
 30
0.0
  0
VERTEX
  5
11D2
  8
SITES
 10
424642.0636327879037708
 20
519552.4601739706122316
 30
0.0
  0
VERTEX
  5
11D3
  8
SITES
 10
424659.3389798236894421
 20
519576.0653311074129306
 30
0.0
  0
VERTEX
  5
11D4
  8
SITES
 10
424670.8364962452906184
 20
519585.3503312083194032
 30
0.0
  0
VERTEX
  5
11D5
  8
SITES
 10
424676.5800114058074541
 20
519588.2007170133874752
 30
0.0
  0
SEQEND
  5
11D6
  8
SITES
  0
POLYLINE
  5
511
  8
SITES
 66
     1
 10
0.0
 20
0.0
 30
0.0
 70
     1
  0
VERTEX
  5
11D7
  8
SITES
 10
424507.4215669721015729
 20
519595.8737674399162643
 30
0.0
  0
VERTEX
  5
11D8
  8
SITES
 10
424515.2771071884781122
 20
519585.8141411800170317
 30
0.0
  0
VERTEX
  5
11D9
  8
SITES
 10
424518.8251623274991289
 20
519573.6168012574198656
 30
0.0
  0
VERTEX
  5
11DA
  8
SITES
 10
424514.4897337126894854
 20
519562.1597760674194433
 30
0.0
  0
VERTEX
  5
11DB
  8
SITES
 10
424509.4652634417288937
 20
519560.024120130110532
 30
0.0
  0
VERTEX
  5
11DC
  8
SITES
 10
424500.8607801215839572
 20
519559.3329214421100914
 30
0.0
  0
VERTEX
  5
11DD
  8
SITES
 10
424490.8482127931201831
 20
519567.2483630285714753
 30
0.0
  0
VERTEX
  5
11DE
  8
SITES
 10
424483.0012023692834191
 20
519580.1754308848758228
 30
0.0
  0
VERTEX
  5
11DF
  8
SITES
 10
424484.4690883266739547
 20
519591.6409839689149521
 30
0.0
  0
VERTEX
  5
11E0
  8
SITES
 10
424491.6591147357248701
 20
519598.7882670586113818
 30
0.0
  0
VERTEX
  5
11E1
  8
SITES
 10
424498.1172556485980749
 20
519600.9196090309997089
 30
0.0
  0
SEQEND
  5
11E2
  8
SITES
  0
POLYLINE
  5
512
  8
SITES
 66
     1
 10
0.0
 20
0.0
 30
0.0
 70
     1
  0
VERTEX
  5
11E3
  8
SITES
 10
429455.9198723011068068
 20
519578.327582620375324
 30
0.0
  0
VERTEX
  5
11E4
  8
SITES
 10
429462.3373054416151717
 20
519566.8388546294881962
 30
0.0
  0
VERTEX
  5
11E5
  8
SITES
 10
429459.435709701385349
 20
519555.3779718512087129
 30
0.0
  0
VERTEX
  5
11E6
  8
SITES
 10
429453.6945816117804497
 20
519553.2445473033003509
 30
0.0
  0
VERTEX
  5
11E7
  8
SITES
 10
429441.5146475841174833
 20
519555.4314059296739288
 30
0.0
  0
VERTEX
  5
11E8
  8
SITES
 10
429432.2363092345185578
 20
519569.0792462744284421
 30
0.0
  0
VERTEX
  5
11E9
  8
SITES
 10
429432.9809490508050658
 20
519578.3960169260972179
 30
0.0
  0
VERTEX
  5
11EA
  8
SITES
 10
429435.8546988912275992
 20
519580.537971003272105
 30
0.0
  0
VERTEX
  5
11EB
  8
SITES
 10
429450.1937455335864797
 20
519581.2121191822225228
 30
0.0
  0
SEQEND
  5
11EC
  8
SITES
  0
POLYLINE
  5
513
  8
SITES
 66
     1
 10
0.0
 20
0.0
 30
0.0
 70
     1
  0
VERTEX
  5
11ED
  8
SITES
 10
427665.9811207614839077
 20
519592.9843321007210761
 30
0.0
  0
VERTEX
  5
11EE
  8
SITES
 10
427664.5089075334835798
 20
519580.0853041227092035
 30
0.0
  0
VERTEX
  5
11EF
  8
SITES
 10
427660.1928592172916979
 20
519575.0801091709872708
 30
0.0
  0
VERTEX
  5
11F0
  8
SITES
 10
427651.5948790815891698
 20
519576.5394789344863966
 30
0.0
  0
VERTEX
  5
11F1
  8
SITES
 10
427650.1975701772025786
 20
519588.7302442787913606
 30
0.0
  0
VERTEX
  5
11F2
  8
SITES
 10
427654.5157755260006525
 20
519594.4522305499995127
 30
0.0
  0
VERTEX
  5
11F3
  8
SITES
 10
427662.4097081110230647
 20
519597.2960658664233051
 30
0.0
  0
SEQEND
  5
11F4
  8
SITES
  0
POLYLINE
  5
514
  8
SITES
 66
     1
 10
0.0
 20
0.0
 30
0.0
 70
     1
  0
VERTEX
  5
11F5
  8
SITES
 10
425015.0672910789144225
 20
519630.2035088383709081
 30
0.0
  0
VERTEX
  5
11F6
  8
SITES
 10
425009.9894860996864736
 20
519610.1463888058206066
 30
0.0
  0
VERTEX
  5
11F7
  8
SITES
 10
425002.7844501907238737
 20
519597.9810912471148185
 30
0.0
  0
VERTEX
  5
11F8
  8
SITES
 10
424993.4610125935869291
 20
519596.5751617957721464
 30
0.0
  0
VERTEX
  5
11F9
  8
SITES
 10
424981.29787302861223
 20
519604.4969839337281883
 30
0.0
  0
VERTEX
  5
11FA
  8
SITES
 10
424981.3149303520913236
 20
519610.2318748692050576
 30
0.0
  0
VERTEX
  5
11FB
  8
SITES
 10
424987.8266075212741271
 20
519630.2847793652908877
 30
0.0
  0
VERTEX
  5
11FC
  8
SITES
 10
424990.6982673808815889
 20
519631.7099236177746207
 30
0.0
  0
VERTEX
  5
11FD
  8
SITES
 10
425002.178735303285066
 20
519635.260041818022728
 30
0.0
  0
SEQEND
  5
11FE
  8
SITES
  0
POLYLINE
  5
515
  8
SITES
 66
     1
 10
0.0
 20
0.0
 30
0.0
 70
     1
  0
VERTEX
  5
11FF
  8
SITES
 10
428242.4049633424729109
 20
519617.0721184978028759
 30
0.0
  0
VERTEX
  5
1200
  8
SITES
 10
428255.2846952097024769
 20
519609.1483729361207224
 30
0.0
  0
VERTEX
  5
1201
  8
SITES
 10
428258.8389554065070115
 20
519599.1017941429163329
 30
0.0
  0
VERTEX
  5
1202
  8
SITES
 10
428257.3838981349836104
 20
519591.937585444713477
 30
0.0
  0
VERTEX
  5
1203
  8
SITES
 10
428252.3382073562825099
 20
519582.6334863104857504
 30
0.0
  0
VERTEX
  5
1204
  8
SITES
 10
428203.3937002206221223
 20
519516.1120046377182007
 30
0.0
  0
VERTEX
  5
1205
  8
SITES
 10
428194.0683293071924709
 20
519513.9891744020860642
 30
0.0
  0
VERTEX
  5
1206
  8
SITES
 10
428188.3420213597128168
 20
519516.8737023195135407
 30
0.0
  0
VERTEX
  5
1207
  8
SITES
 10
428194.1495098454179242
 20
519541.229478137276601
 30
0.0
  0
VERTEX
  5
1208
  8
SITES
 10
428210.0056319821160287
 20
519569.8564056311734021
 30
0.0
  0
VERTEX
  5
1209
  8
SITES
 10
428223.7369629706954584
 20
519607.0918145449832082
 30
0.0
  0
VERTEX
  5
120A
  8
SITES
 10
428230.218494558474049
 20
519617.1084911620127968
 30
0.0
  0
VERTEX
  5
120B
  8
SITES
 10
428235.2449693165835924
 20
519619.9609597037779167
 30
0.0
  0
SEQEND
  5
120C
  8
SITES
  0
POLYLINE
  5
516
  8
SITES
 66
     1
 10
0.0
 20
0.0
 30
0.0
 70
     1
  0
VERTEX
  5
120D
  8
SITES
 10
429522.7573477196856402
 20
519635.4762214256916195
 30
0.0
  0
VERTEX
  5
120E
  8
SITES
 10
429525.5947250325116329
 20
519625.4318676976836286
 30
0.0
  0
VERTEX
  5
120F
  8
SITES
 10
429524.1269197278888896
 20
519613.9666682970128022
 30
0.0
  0
VERTEX
  5
1210
  8
SITES
 10
429519.8086939557106234
 20
519608.244754828279838
 30
0.0
  0
VERTEX
  5
1211
  8
SITES
 10
429510.4919213447137736
 20
519608.9893939666217193
 30
0.0
  0
VERTEX
  5
1212
  8
SITES
 10
429499.7862621482927352
 20
519624.7920336220995523
 30
0.0
  0
VERTEX
  5
1213
  8
SITES
 10
429497.6699940725229681
 20
519636.267918630677741
 30
0.0
  0
VERTEX
  5
1214
  8
SITES
 10
429499.1143692723126151
 20
519639.8478770775836892
 30
0.0
  0
VERTEX
  5
1215
  8
SITES
 10
429507.0081385590019636
 20
519642.6917260710033588
 30
0.0
  0
SEQEND
  5
1216
  8
SITES
  0
POLYLINE
  5
517
  8
SITES
 66
     1
 10
0.0
 20
0.0
 30
0.0
 70
     1
  0
VERTEX
  5
1217
  8
SITES
 10
427745.763118852628395
 20
519663.7152251523220912
 30
0.0
  0
VERTEX
  5
1218
  8
SITES
 10
427741.4470706966239959
 20
519658.7100282603059895
 30
0.0
  0
VERTEX
  5
1219
  8
SITES
 10
427734.2807140132063068
 20
519659.4482909496873617
 30
0.0
  0
VERTEX
  5
121A
  8
SITES
 10
427731.4454053884837776
 20
519670.2095900520216674
 30
0.0
  0
VERTEX
  5
121B
  8
SITES
 10
427741.4854989034938626
 20
519671.6133731357986107
 30
0.0
  0
SEQEND
  5
121C
  8
SITES
  0
POLYLINE
  5
518
  8
SITES
 66
     1
 10
0.0
 20
0.0
 30
0.0
 70
     1
  0
VERTEX
  5
121D
  8
SITES
 10
424460.420658957620617
 20
519700.6770130207878537
 30
0.0
  0
VERTEX
  5
121E
  8
SITES
 10
424463.2774157488020137
 20
519697.0841579149710014
 30
0.0
  0
VERTEX
  5
121F
  8
SITES
 10
424472.5582005307078362
 20
519684.1527790683903731
 30
0.0
  0
VERTEX
  5
1220
  8
SITES
 10
424475.3999582066899166
 20
519675.5418255283148028
 30
0.0
  0
VERTEX
  5
1221
  8
SITES
 10
424471.7728901162045076
 20
519661.2153016058728099
 30
0.0
  0
VERTEX
  5
1222
  8
SITES
 10
424468.1800346642849036
 20
519658.3585450885002501
 30
0.0
  0
VERTEX
  5
1223
  8
SITES
 10
424453.864096658595372
 20
519665.5699402826139703
 30
0.0
  0
VERTEX
  5
1224
  8
SITES
 10
424446.7147558956057765
 20
519672.0430794106796384
 30
0.0
  0
VERTEX
  5
1225
  8
SITES
 10
424439.6145262892823666
 20
519695.0040822454029694
 30
0.0
  0
VERTEX
  5
1226
  8
SITES
 10
424445.3664653358864598
 20
519700.7219094607862644
 30
0.0
  0
SEQEND
  5
1227
  8
SITES
  0
POLYLINE
  5
519
  8
SITES
 66
     1
 10
0.0
 20
0.0
 30
0.0
 70
     1
  0
VERTEX
  5
1228
  8
SITES
 10
427758.0051576176774688
 20
519682.3169309389195405
 30
0.0
  0
VERTEX
  5
1229
  8
SITES
 10
427760.8533093343721703
 20
519675.8567797224968672
 30
0.0
  0
VERTEX
  5
122A
  8
SITES
 10
427753.6698954030289315
 20
519670.8602109425119124
 30
0.0
  0
VERTEX
  5
122B
  8
SITES
 10
427751.5236354839289561
 20
519672.3002651507849805
 30
0.0
  0
VERTEX
  5
122C
  8
SITES
 10
427752.2724834549007937
 20
519683.0508790615131147
 30
0.0
  0
SEQEND
  5
122D
  8
SITES
  0
POLYLINE
  5
51A
  8
SITES
 66
     1
 10
0.0
 20
0.0
 30
0.0
 70
     1
  0
VERTEX
  5
122E
  8
SITES
 10
428178.055321543419268
 20
519673.178758196416311
 30
0.0
  0
VERTEX
  5
122F
  8
SITES
 10
428173.7093686931184493
 20
519658.1377653243253008
 30
0.0
  0
VERTEX
  5
1230
  8
SITES
 10
428145.0653829199727625
 20
519668.259140822396148
 30
0.0
  0
VERTEX
  5
1231
  8
SITES
 10
428141.4960222722729668
 20
519673.2877711374894716
 30
0.0
  0
VERTEX
  5
1232
  8
SITES
 10
428145.1081252624862827
 20
519682.5960832345881499
 30
0.0
  0
VERTEX
  5
1233
  8
SITES
 10
428159.4621246042079292
 20
519688.2881782717886381
 30
0.0
  0
SEQEND
  5
1234
  8
SITES
  0
POLYLINE
  5
51B
  8
SITES
 66
     1
 10
0.0
 20
0.0
 30
0.0
 70
     1
  0
VERTEX
  5
1235
  8
SITES
 10
424910.6641874720226042
 20
519717.2559837484150194
 30
0.0
  0
VERTEX
  5
1236
  8
SITES
 10
424916.3777077923878096
 20
519710.0702655034838244
 30
0.0
  0
VERTEX
  5
1237
  8
SITES
 10
424922.0270179836079478
 20
519681.378658929374069
 30
0.0
  0
VERTEX
  5
1238
  8
SITES
 10
424914.8519843043759465
 20
519679.249470382113941
 30
0.0
  0
VERTEX
  5
1239
  8
SITES
 10
424899.0938293039798737
 20
519683.5976423242827877
 30
0.0
  0
VERTEX
  5
123A
  8
SITES
 10
424890.5278638098970987
 20
519695.8099921466200612
 30
0.0
  0
VERTEX
  5
123B
  8
SITES
 10
424884.8463988120784052
 20
519713.7486031479784288
 30
0.0
  0
VERTEX
  5
123C
  8
SITES
 10
424889.1646717325202189
 20
519719.4706510495743714
 30
0.0
  0
VERTEX
  5
123D
  8
SITES
 10
424891.3173872280749492
 20
519720.1811663415282965
 30
0.0
  0
VERTEX
  5
123E
  8
SITES
 10
424892.757530584698543
 20
519722.3274111403734423
 30
0.0
  0
VERTEX
  5
123F
  8
SITES
 10
424894.1934599311789498
 20
519723.0399835595744662
 30
0.0
  0
SEQEND
  5
1240
  8
SITES
  0
POLYLINE
  5
51C
  8
SITES
 66
     1
 10
0.0
 20
0.0
 30
0.0
 70
     1
  0
VERTEX
  5
1241
  8
SITES
 10
425391.7357880600029603
 20
519735.1766127927112393
 30
0.0
  0
VERTEX
  5
1242
  8
SITES
 10
425401.7504384376807138
 20
519727.9780442852061242
 30
0.0
  0
VERTEX
  5
1243
  8
SITES
 10
425402.4352710142848082
 20
519717.2230802195263095
 30
0.0
  0
VERTEX
  5
1244
  8
SITES
 10
425398.1019936507800594
 20
519706.4829150438890792
 30
0.0
  0
VERTEX
  5
1245
  8
SITES
 10
425393.0732987985829823
 20
519702.9135783683741465
 30
0.0
  0
VERTEX
  5
1246
  8
SITES
 10
425385.9004136269795708
 20
519701.5012740640086122
 30
0.0
  0
VERTEX
  5
1247
  8
SITES
 10
425377.3065964143024758
 20
519704.3944063285016455
 30
0.0
  0
VERTEX
  5
1248
  8
SITES
 10
425378.8194785185041837
 20
519730.9139150768169202
 30
0.0
  0
VERTEX
  5
1249
  8
SITES
 10
425383.1334427188267
 20
519735.2022959825117141
 30
0.0
  0
SEQEND
  5
124A
  8
SITES
  0
POLYLINE
  5
51D
  8
SITES
 66
     1
 10
0.0
 20
0.0
 30
0.0
 70
     1
  0
VERTEX
  5
124B
  8
SITES
 10
427748.7544956956990063
 20
519705.2838979499065317
 30
0.0
  0
VERTEX
  5
124C
  8
SITES
 10
427750.8793851336813532
 20
519696.675329897319898
 30
0.0
  0
VERTEX
  5
124D
  8
SITES
 10
427742.9748660416807979
 20
519690.2472351557807997
 30
0.0
  0
VERTEX
  5
124E
  8
SITES
 10
427734.3811978099984117
 20
519693.1402855461928993
 30
0.0
  0
VERTEX
  5
124F
  8
SITES
 10
427733.6856772277969867
 20
519700.3108563416171819
 30
0.0
  0
VERTEX
  5
1250
  8
SITES
 10
427738.0018247041734867
 20
519705.3160537243820727
 30
0.0
  0
VERTEX
  5
1251
  8
SITES
 10
427742.3093442599056289
 20
519707.4536856745835394
 30
0.0
  0
SEQEND
  5
1252
  8
SITES
  0
POLYLINE
  5
51E
  8
SITES
 66
     1
 10
0.0
 20
0.0
 30
0.0
 70
     1
  0
VERTEX
  5
1253
  8
SITES
 10
424939.4027465885155834
 20
519738.6762943788780831
 30
0.0
  0
VERTEX
  5
1254
  8
SITES
 10
424942.2466656357864849
 20
519730.7822173552121967
 30
0.0
  0
VERTEX
  5
1255
  8
SITES
 10
424940.7509413023944944
 20
519709.9975284195970744
 30
0.0
  0
VERTEX
  5
1256
  8
SITES
 10
424934.2906367948744446
 20
519707.1492960238829255
 30
0.0
  0
VERTEX
  5
1257
  8
SITES
 10
424927.1284448291989975
 20
519709.321324594609905
 30
0.0
  0
VERTEX
  5
1258
  8
SITES
 10
424917.8499056134023704
 20
519722.9695042492239736
 30
0.0
  0
VERTEX
  5
1259
  8
SITES
 10
424917.1800720024039038
 20
519738.7425589438062161
 30
0.0
  0
VERTEX
  5
125A
  8
SITES
 10
424919.339158434595447
 20
519741.6036331460927613
 30
0.0
  0
VERTEX
  5
125B
  8
SITES
 10
424933.6828546210890636
 20
519743.711453799623996
 30
0.0
  0
SEQEND
  5
125C
  8
SITES
  0
POLYLINE
  5
51F
  8
SITES
 66
     1
 10
0.0
 20
0.0
 30
0.0
 70
     1
  0
VERTEX
  5
125D
  8
SITES
 10
424283.5475209177820943
 20
519765.7228453974239528
 30
0.0
  0
VERTEX
  5
125E
  8
SITES
 10
424292.1157323207007721
 20
519754.227401157899294
 30
0.0
  0
VERTEX
  5
125F
  8
SITES
 10
424290.6328535804059356
 20
519737.7437571437912993
 30
0.0
  0
VERTEX
  5
1260
  8
SITES
 10
424285.5933886312996037
 20
519730.590104284521658
 30
0.0
  0
VERTEX
  5
1261
  8
SITES
 10
424276.2741823688265868
 20
519730.6178443020908162
 30
0.0
  0
VERTEX
  5
1262
  8
SITES
 10
424269.8309441959136166
 20
519733.5045968543854542
 30
0.0
  0
VERTEX
  5
1263
  8
SITES
 10
424266.270144762005657
 20
519741.4008172700996511
 30
0.0
  0
VERTEX
  5
1264
  8
SITES
 10
424268.4634378448245116
 20
519755.7316481805755757
 30
0.0
  0
VERTEX
  5
1265
  8
SITES
 10
424269.193164118216373
 20
519760.030701854324434
 30
0.0
  0
VERTEX
  5
1266
  8
SITES
 10
424274.9451996664865874
 20
519765.7485277022933587
 30
0.0
  0
SEQEND
  5
1267
  8
SITES
  0
POLYLINE
  5
520
  8
SITES
 66
     1
 10
0.0
 20
0.0
 30
0.0
 70
     1
  0
VERTEX
  5
1268
  8
SITES
 10
429423.456089579674881
 20
519749.7514908579760231
 30
0.0
  0
VERTEX
  5
1269
  8
SITES
 10
429431.3114302463945933
 20
519739.6921413657837547
 30
0.0
  0
VERTEX
  5
126A
  8
SITES
 10
429435.529071896802634
 20
519711.7224150272086263
 30
0.0
  0
VERTEX
  5
126B
  8
SITES
 10
429431.9298999612219632
 20
519706.7152391959098168
 30
0.0
  0
VERTEX
  5
126C
  8
SITES
 10
429424.765769648598507
 20
519708.170298996323254
 30
0.0
  0
VERTEX
  5
126D
  8
SITES
 10
429417.6443808558979072
 20
519723.9622473475174047
 30
0.0
  0
VERTEX
  5
126E
  8
SITES
 10
429415.570850785006769
 20
519749.7750179966096766
 30
0.0
  0
VERTEX
  5
126F
  8
SITES
 10
429417.0087537443032488
 20
519751.2043927909107879
 30
0.0
  0
SEQEND
  5
1270
  8
SITES
  0
POLYLINE
  5
521
  8
SITES
 66
     1
 10
0.0
 20
0.0
 30
0.0
 70
     1
  0
VERTEX
  5
1271
  8
SITES
 10
424974.6444486050750129
 20
519777.2820690281805582
 30
0.0
  0
VERTEX
  5
1272
  8
SITES
 10
424988.9410955565981567
 20
519763.6189905874780379
 30
0.0
  0
VERTEX
  5
1273
  8
SITES
 10
424992.4719052119762637
 20
519745.6867462192894891
 30
0.0
  0
VERTEX
  5
1274
  8
SITES
 10
424988.8705179244861938
 20
519739.9625396695919335
 30
0.0
  0
VERTEX
  5
1275
  8
SITES
 10
424973.8164041111012921
 20
519740.0074349304195493
 30
0.0
  0
VERTEX
  5
1276
  8
SITES
 10
424963.1084038770059124
 20
519755.093601958011277
 30
0.0
  0
VERTEX
  5
1277
  8
SITES
 10
424957.4227213292033412
 20
519771.5985427972045727
 30
0.0
  0
VERTEX
  5
1278
  8
SITES
 10
424960.3136920713004656
 20
519779.4754650993854739
 30
0.0
  0
SEQEND
  5
1279
  8
SITES
  0
POLYLINE
  5
522
  8
SITES
 66
     1
 10
0.0
 20
0.0
 30
0.0
 70
     1
  0
VERTEX
  5
127A
  8
SITES
 10
425342.5161623717285693
 20
519817.0462631225236692
 30
0.0
  0
VERTEX
  5
127B
  8
SITES
 10
425351.7883442079182714
 20
519801.2475098358117975
 30
0.0
  0
VERTEX
  5
127C
  8
SITES
 10
425351.5124597082030959
 20
519799.4074712913134135
 30
0.0
  0
VERTEX
  5
127D
  8
SITES
 10
425349.5842622682102956
 20
519783.3324040601728484
 30
0.0
  0
VERTEX
  5
127E
  8
SITES
 10
425339.509720319416374
 20
519770.4588334278087132
 30
0.0
  0
VERTEX
  5
127F
  8
SITES
 10
425333.772667286277283
 20
519769.7591013219207525
 30
0.0
  0
VERTEX
  5
1280
  8
SITES
 10
425322.3221869703265838
 20
519776.2450942795840092
 30
0.0
  0
VERTEX
  5
1281
  8
SITES
 10
425313.7583664446137846
 20
519789.1742422921815887
 30
0.0
  0
VERTEX
  5
1282
  8
SITES
 10
425308.7852509755757637
 20
519804.2432665940723382
 30
0.0
  0
VERTEX
  5
1283
  8
SITES
 10
425308.8087758299079724
 20
519812.12872331001563
 30
0.0
  0
VERTEX
  5
1284
  8
SITES
 10
425312.410165018227417
 20
519817.8529351336183026
 30
0.0
  0
VERTEX
  5
1285
  8
SITES
 10
425327.4791892901994288
 20
519822.8260516853770241
 30
0.0
  0
SEQEND
  5
1286
  8
SITES
  0
POLYLINE
  5
523
  8
SITES
 66
     1
 10
0.0
 20
0.0
 30
0.0
 70
     1
  0
VERTEX
  5
1287
  8
SITES
 10
428527.106220857182052
 20
519894.3622697535902262
 30
0.0
  0
VERTEX
  5
1288
  8
SITES
 10
428533.5428592505049892
 20
519889.3250094564282335
 30
0.0
  0
VERTEX
  5
1289
  8
SITES
 10
428539.2455506410915405
 20
519878.5552629117737524
 30
0.0
  0
VERTEX
  5
128A
  8
SITES
 10
428537.7648159945965745
 20
519862.7889339674147777
 30
0.0
  0
VERTEX
  5
128B
  8
SITES
 10
428533.4445478661218658
 20
519856.3501392686739564
 30
0.0
  0
VERTEX
  5
128C
  8
SITES
 10
428526.2696493563125841
 20
519854.2209287728182971
 30
0.0
  0
VERTEX
  5
128D
  8
SITES
 10
428512.6644837752101012
 20
519859.2794574315194041
 30
0.0
  0
VERTEX
  5
128E
  8
SITES
 10
428504.0901085510267876
 20
519868.6241449590888806
 30
0.0
  0
VERTEX
  5
128F
  8
SITES
 10
428499.1149942757911049
 20
519882.9760977445985191
 30
0.0
  0
VERTEX
  5
1290
  8
SITES
 10
428496.975099760282319
 20
519886.5667317510233261
 30
0.0
  0
VERTEX
  5
1291
  8
SITES
 10
428506.3284133825218305
 20
519898.0084787760861218
 30
0.0
  0
SEQEND
  5
1292
  8
SITES
  0
POLYLINE
  5
524
  8
SITES
 66
     1
 10
0.0
 20
0.0
 30
0.0
 70
     1
  0
VERTEX
  5
1293
  8
SITES
 10
424488.3457729063811712
 20
519929.9922024153056554
 30
0.0
  0
VERTEX
  5
1294
  8
SITES
 10
424490.0054444284760393
 20
519928.8739900275249965
 30
0.0
  0
VERTEX
  5
1295
  8
SITES
 10
424491.667197362112347
 20
519927.1599103686749004
 30
0.0
  0
VERTEX
  5
1296
  8
SITES
 10
424493.3317888770252466
 20
519924.8821412035031244
 30
0.0
  0
VERTEX
  5
1297
  8
SITES
 10
424495.488748857518658
 20
519921.3685107746277936
 30
0.0
  0
VERTEX
  5
1298
  8
SITES
 10
424496.8567552510066889
 20
519918.7095269801211543
 30
0.0
  0
VERTEX
  5
1299
  8
SITES
 10
424497.9553454035194591
 20
519915.7542030328186229
 30
0.0
  0
VERTEX
  5
129A
  8
SITES
 10
424498.7857225034967996
 20
519912.4994427543715574
 30
0.0
  0
VERTEX
  5
129B
  8
SITES
 10
424499.3496945588267408
 20
519908.938153641007375
 30
0.0
  0
VERTEX
  5
129C
  8
SITES
 10
424499.6479415050125681
 20
519905.0852258470258676
 30
0.0
  0
VERTEX
  5
129D
  8
SITES
 10
424499.6867190691991709
 20
519900.894800691283308
 30
0.0
  0
VERTEX
  5
129E
  8
SITES
 10
424499.4675703697139397
 20
519896.3332045102724805
 30
0.0
  0
VERTEX
  5
129F
  8
SITES
 10
424498.9831989142112434
 20
519891.2495366206858307
 30
0.0
  0
VERTEX
  5
12A0
  8
SITES
 10
424498.2524528707144782
 20
519886.1295712493010797
 30
0.0
  0
VERTEX
  5
12A1
  8
SITES
 10
424497.2994531797012314
 20
519881.6291668122285046
 30
0.0
  0
VERTEX
  5
12A2
  8
SITES
 10
424496.0957946208072826
 20
519877.6156817121081986
 30
0.0
  0
VERTEX
  5
12A3
  8
SITES
 10
424494.6307263434864581
 20
519874.0576245507108979
 30
0.0
  0
VERTEX
  5
12A4
  8
SITES
 10
424493.3278973725973628
 20
519871.5983876095851883
 30
0.0
  0
VERTEX
  5
12A5
  8
SITES
 10
424491.7245191857218742
 20
519869.0372293893015012
 30
0.0
  0
VERTEX
  5
12A6
  8
SITES
 10
424487.4300214182003401
 20
519863.3260089781251736
 30
0.0
  0
VERTEX
  5
12A7
  8
SITES
 10
424483.7081252405187115
 20
519858.5930349685950205
 30
0.0
  0
VERTEX
  5
12A8
  8
SITES
 10
424481.6465269214240834
 20
519856.298882198985666
 30
0.0
  0
VERTEX
  5
12A9
  8
SITES
 10
424479.4941771146841347
 20
519854.4743713032221422
 30
0.0
  0
VERTEX
  5
12AA
  8
SITES
 10
424477.3639312437735498
 20
519853.3198059783899225
 30
0.0
  0
VERTEX
  5
12AB
  8
SITES
 10
424474.9304195374133997
 20
519852.6103210563887842
 30
0.0
  0
VERTEX
  5
12AC
  8
SITES
 10
424472.1963695992017165
 20
519852.2472912864759564
 30
0.0
  0
VERTEX
  5
12AD
  8
SITES
 10
424469.3469153441255912
 20
519852.2554420339874923
 30
0.0
  0
VERTEX
  5
12AE
  8
SITES
 10
424466.6088926725788042
 20
519852.6350710698752664
 30
0.0
  0
VERTEX
  5
12AF
  8
SITES
 10
424464.0140910857007839
 20
519853.3005819310783409
 30
0.0
  0
VERTEX
  5
12B0
  8
SITES
 10
424462.3119935094728135
 20
519854.0815821950091049
 30
0.0
  0
VERTEX
  5
12B1
  8
SITES
 10
424461.2157878346042708
 20
519855.0687296442920342
 30
0.0
  0
VERTEX
  5
12B2
  8
SITES
 10
424460.2942360423039645
 20
519856.5278658919269219
 30
0.0
  0
VERTEX
  5
12B3
  8
SITES
 10
424458.0364611630793661
 20
519862.6968474749010056
 30
0.0
  0
VERTEX
  5
12B4
  8
SITES
 10
424455.3839853332028724
 20
519869.0072084072162397
 30
0.0
  0
VERTEX
  5
12B5
  8
SITES
 10
424453.594012966088485
 20
519874.0037506229709834
 30
0.0
  0
VERTEX
  5
12B6
  8
SITES
 10
424452.3519151245127432
 20
519878.5664257229072973
 30
0.0
  0
VERTEX
  5
12B7
  8
SITES
 10
424451.6445790759753436
 20
519882.788249367615208
 30
0.0
  0
VERTEX
  5
12B8
  8
SITES
 10
424451.280163237825036
 20
519887.5674212644225918
 30
0.0
  0
VERTEX
  5
12B9
  8
SITES
 10
424451.2860856907209381
 20
519891.8856124199228361
 30
0.0
  0
VERTEX
  5
12BA
  8
SITES
 10
424451.6624902921030298
 20
519895.7854922381811775
 30
0.0
  0
VERTEX
  5
12BB
  8
SITES
 10
424452.4105671287979931
 20
519899.2739573147264309
 30
0.0
  0
VERTEX
  5
12BC
  8
SITES
 10
424453.4964993704925291
 20
519902.3062954971101135
 30
0.0
  0
VERTEX
  5
12BD
  8
SITES
 10
424455.0927971557248384
 20
519905.5411580711952411
 30
0.0
  0
VERTEX
  5
12BE
  8
SITES
 10
424457.208088334009517
 20
519909.0287201760802418
 30
0.0
  0
VERTEX
  5
12BF
  8
SITES
 10
424460.3388388543971814
 20
519913.5877432026900351
 30
0.0
  0
VERTEX
  5
12C0
  8
SITES
 10
424465.65682011062745
 20
519921.2601930839009583
 30
0.0
  0
VERTEX
  5
12C1
  8
SITES
 10
424469.0762459833058529
 20
519925.3749162456952035
 30
0.0
  0
VERTEX
  5
12C2
  8
SITES
 10
424470.8477673250017688
 20
519927.0494353584945202
 30
0.0
  0
VERTEX
  5
12C3
  8
SITES
 10
424472.6055586604052223
 20
519928.3737891574273817
 30
0.0
  0
VERTEX
  5
12C4
  8
SITES
 10
424474.3719818886020221
 20
519929.3646949527901597
 30
0.0
  0
VERTEX
  5
12C5
  8
SITES
 10
424476.1590199450729415
 20
519930.0285638598143123
 30
0.0
  0
VERTEX
  5
12C6
  8
SITES
 10
424479.6875065893982537
 20
519930.7644688974833116
 30
0.0
  0
VERTEX
  5
12C7
  8
SITES
 10
424483.0946203476050869
 20
519931.0136657140101306
 30
0.0
  0
VERTEX
  5
12C8
  8
SITES
 10
424486.0128592302789912
 20
519930.7511894460185431
 30
0.0
  0
SEQEND
  5
12C9
  8
SITES
  0
POLYLINE
  5
525
  8
SITES
 66
     1
 10
0.0
 20
0.0
 30
0.0
 70
     1
  0
VERTEX
  5
12CA
  8
SITES
 10
425032.5151952172745951
 20
519952.0253201564773917
 30
0.0
  0
VERTEX
  5
12CB
  8
SITES
 10
425033.610136523086112
 20
519950.7087071778951213
 30
0.0
  0
VERTEX
  5
12CC
  8
SITES
 10
425034.6499333385145292
 20
519949.0756496588001028
 30
0.0
  0
VERTEX
  5
12CD
  8
SITES
 10
425038.2201953363255598
 20
519941.9721571491099894
 30
0.0
  0
VERTEX
  5
12CE
  8
SITES
 10
425039.965015685709659
 20
519939.4780461139744148
 30
0.0
  0
VERTEX
  5
12CF
  8
SITES
 10
425044.7763455811073072
 20
519933.8496216657804325
 30
0.0
  0
VERTEX
  5
12D0
  8
SITES
 10
425046.6257199614192359
 20
519931.3331640235846862
 30
0.0
  0
VERTEX
  5
12D1
  8
SITES
 10
425047.922036784584634
 20
519928.6309135106857866
 30
0.0
  0
VERTEX
  5
12D2
  8
SITES
 10
425048.1893887568730861
 20
519927.3792662607738748
 30
0.0
  0
VERTEX
  5
12D3
  8
SITES
 10
425048.2091618306003511
 20
519926.1711623577866703
 30
0.0
  0
VERTEX
  5
12D4
  8
SITES
 10
425047.5781023728195578
 20
519923.289608609280549
 30
0.0
  0
VERTEX
  5
12D5
  8
SITES
 10
425046.2321599415154196
 20
519920.1780812360811979
 30
0.0
  0
VERTEX
  5
12D6
  8
SITES
 10
425044.4281836671871133
 20
519917.4194978853920475
 30
0.0
  0
VERTEX
  5
12D7
  8
SITES
 10
425042.4422208686009981
 20
519915.4354176202905364
 30
0.0
  0
VERTEX
  5
12D8
  8
SITES
 10
425041.2671448768815026
 20
519914.6913096735952422
 30
0.0
  0
VERTEX
  5
12D9
  8
SITES
 10
425039.876365102478303
 20
519914.068331083690282
 30
0.0
  0
VERTEX
  5
12DA
  8
SITES
 10
425036.5318894499214366
 20
519913.2193483986193314
 30
0.0
  0
VERTEX
  5
12DB
  8
SITES
 10
425032.6516288017155603
 20
519912.957139148726128
 30
0.0
  0
VERTEX
  5
12DC
  8
SITES
 10
425028.8154080809908919
 20
519913.3254336218815297
 30
0.0
  0
VERTEX
  5
12DD
  8
SITES
 10
425026.013505234324839
 20
519914.0264473835122772
 30
0.0
  0
VERTEX
  5
12DE
  8
SITES
 10
425023.4318572512129322
 20
519915.0216386265819892
 30
0.0
  0
VERTEX
  5
12DF
  8
SITES
 10
425021.2428288151859306
 20
519916.2433825171901844
 30
0.0
  0
VERTEX
  5
12E0
  8
SITES
 10
425019.5090238185948692
 20
519917.6543881737161428
 30
0.0
  0
VERTEX
  5
12E1
  8
SITES
 10
425017.8351687862887047
 20
519919.8317205911735073
 30
0.0
  0
VERTEX
  5
12E2
  8
SITES
 10
425015.9418443507747725
 20
519923.3999627414741553
 30
0.0
  0
VERTEX
  5
12E3
  8
SITES
 10
425014.4002205631113611
 20
519926.9270965657779016
 30
0.0
  0
VERTEX
  5
12E4
  8
SITES
 10
425013.161045579414349
 20
519930.631799844908528
 30
0.0
  0
VERTEX
  5
12E5
  8
SITES
 10
425012.287625115015544
 20
519934.3227935435133986
 30
0.0
  0
VERTEX
  5
12E6
  8
SITES
 10
425011.8077985916170292
 20
519937.878701685112901
 30
0.0
  0
VERTEX
  5
12E7
  8
SITES
 10
425011.7326354025281034
 20
519941.1645360576803796
 30
0.0
  0
VERTEX
  5
12E8
  8
SITES
 10
425012.0543508901027963
 20
519944.1728917778818868
 30
0.0
  0
VERTEX
  5
12E9
  8
SITES
 10
425012.7683010675827973
 20
519946.8636916211107746
 30
0.0
  0
VERTEX
  5
12EA
  8
SITES
 10
425013.8683212510077283
 20
519949.2134444148978218
 30
0.0
  0
VERTEX
  5
12EB
  8
SITES
 10
425015.3399550314061344
 20
519951.5013300679856911
 30
0.0
  0
VERTEX
  5
12EC
  8
SITES
 10
425016.7611664870055392
 20
519953.3011010803747922
 30
0.0
  0
VERTEX
  5
12ED
  8
SITES
 10
425018.1876227292232215
 20
519954.6833797210128978
 30
0.0
  0
VERTEX
  5
12EE
  8
SITES
 10
425019.622421661100816
 20
519955.6480701221735217
 30
0.0
  0
VERTEX
  5
12EF
  8
SITES
 10
425022.6552171887014993
 20
519956.8048219077754766
 30
0.0
  0
VERTEX
  5
12F0
  8
SITES
 10
425024.0931507069035433
 20
519957.0565300037269481
 30
0.0
  0
VERTEX
  5
12F1
  8
SITES
 10
425025.3616263046860695
 20
519957.0646908649941906
 30
0.0
  0
VERTEX
  5
12F2
  8
SITES
 10
425026.8754644013824873
 20
519956.6624697165098041
 30
0.0
  0
VERTEX
  5
12F3
  8
SITES
 10
425028.500509837991558
 20
519955.7370715240831487
 30
0.0
  0
VERTEX
  5
12F4
  8
SITES
 10
425030.2339334039133973
 20
519954.3122754319920205
 30
0.0
  0
SEQEND
  5
12F5
  8
SITES
  0
POLYLINE
  5
526
  8
SITES
 66
     1
 10
0.0
 20
0.0
 30
0.0
 70
     1
  0
VERTEX
  5
12F6
  8
SITES
 10
425108.0274623102159239
 20
520032.8060713200829923
 30
0.0
  0
VERTEX
  5
12F7
  8
SITES
 10
425110.7534235215280205
 20
520032.4072408556821756
 30
0.0
  0
VERTEX
  5
12F8
  8
SITES
 10
425113.5276804263121448
 20
520031.6047645041835494
 30
0.0
  0
VERTEX
  5
12F9
  8
SITES
 10
425116.3580305486102588
 20
520030.396254226390738
 30
0.0
  0
VERTEX
  5
12FA
  8
SITES
 10
425119.2597712483839132
 20
520028.7753347036195919
 30
0.0
  0
VERTEX
  5
12FB
  8
SITES
 10
425122.1980881217750721
 20
520026.772038551105652
 30
0.0
  0
VERTEX
  5
12FC
  8
SITES
 10
425125.2712858538143337
 20
520024.3289362987270579
 30
0.0
  0
VERTEX
  5
12FD
  8
SITES
 10
425128.5260713011957705
 20
520021.4152114990865812
 30
0.0
  0
VERTEX
  5
12FE
  8
SITES
 10
425132.3558233035146259
 20
520017.6792342634289525
 30
0.0
  0
VERTEX
  5
12FF
  8
SITES
 10
425136.688382838096004
 20
520013.2054489299189299
 30
0.0
  0
VERTEX
  5
1300
  8
SITES
 10
425139.5484389145276509
 20
520009.7693813269142993
 30
0.0
  0
VERTEX
  5
1301
  8
SITES
 10
425141.6769256065017544
 20
520006.4825448776246049
 30
0.0
  0
VERTEX
  5
1302
  8
SITES
 10
425143.0658946058247238
 20
520003.309954349999316
 30
0.0
  0
VERTEX
  5
1303
  8
SITES
 10
425143.9679893755237572
 20
520000.3084008661098778
 30
0.0
  0
VERTEX
  5
1304
  8
SITES
 10
425144.4741927405120805
 20
519997.8977017304860055
 30
0.0
  0
VERTEX
  5
1305
  8
SITES
 10
425144.6439334336901084
 20
519995.7951386017957702
 30
0.0
  0
VERTEX
  5
1306
  8
SITES
 10
425144.4718341159750707
 20
519993.9864147109910846
 30
0.0
  0
VERTEX
  5
1307
  8
SITES
 10
425143.6277415098738857
 20
519991.399268242821563
 30
0.0
  0
VERTEX
  5
1308
  8
SITES
 10
425142.2215284554986283
 20
519988.8312693465268239
 30
0.0
  0
VERTEX
  5
1309
  8
SITES
 10
425140.5145915072062053
 20
519986.7506244102260098
 30
0.0
  0
VERTEX
  5
130A
  8
SITES
 10
425138.7112630738993175
 20
519985.4012263308977708
 30
0.0
  0
VERTEX
  5
130B
  8
SITES
 10
425137.0661758761270903
 20
519984.8469636950176209
 30
0.0
  0
VERTEX
  5
130C
  8
SITES
 10
425134.9660220901714638
 20
519984.668832270312123
 30
0.0
  0
VERTEX
  5
130D
  8
SITES
 10
425132.4456070674932562
 20
519984.8436944474815391
 30
0.0
  0
VERTEX
  5
130E
  8
SITES
 10
425128.6752499415888451
 20
519985.4311170930159278
 30
0.0
  0
VERTEX
  5
130F
  8
SITES
 10
425124.7690033029066399
 20
519986.313348890398629
 30
0.0
  0
VERTEX
  5
1310
  8
SITES
 10
425121.0726497661089525
 20
519987.6185519195860252
 30
0.0
  0
VERTEX
  5
1311
  8
SITES
 10
425117.8032352128066123
 20
519989.2689673699787818
 30
0.0
  0
VERTEX
  5
1312
  8
SITES
 10
425115.0719556591939181
 20
519991.2066830578260124
 30
0.0
  0
VERTEX
  5
1313
  8
SITES
 10
425113.3273580631939694
 20
519992.9218555213883519
 30
0.0
  0
VERTEX
  5
1314
  8
SITES
 10
425111.6173457829863764
 20
519995.0858502343762666
 30
0.0
  0
VERTEX
  5
1315
  8
SITES
 10
425109.9116073396871798
 20
519997.7240091111161746
 30
0.0
  0
VERTEX
  5
1316
  8
SITES
 10
425107.9332798857940361
 20
520001.2641602543881163
 30
0.0
  0
VERTEX
  5
1317
  8
SITES
 10
425106.3406844171113335
 20
520004.7207784000784159
 30
0.0
  0
VERTEX
  5
1318
  8
SITES
 10
425104.9722842468181625
 20
520008.7429838585085236
 30
0.0
  0
VERTEX
  5
1319
  8
SITES
 10
425103.8112815645872615
 20
520013.2622039379202761
 30
0.0
  0
VERTEX
  5
131A
  8
SITES
 10
425102.2561106896027923
 20
520020.6365500452229753
 30
0.0
  0
VERTEX
  5
131B
  8
SITES
 10
425100.7860448932042345
 20
520025.9057238674722612
 30
0.0
  0
VERTEX
  5
131C
  8
SITES
 10
425100.6625720391748473
 20
520027.3224414301221259
 30
0.0
  0
VERTEX
  5
131D
  8
SITES
 10
425100.8459579169866629
 20
520028.5263155201100744
 30
0.0
  0
VERTEX
  5
131E
  8
SITES
 10
425101.408119230880402
 20
520029.9978946042247117
 30
0.0
  0
VERTEX
  5
131F
  8
SITES
 10
425102.1250077271834016
 20
520031.2879077745019458
 30
0.0
  0
VERTEX
  5
1320
  8
SITES
 10
425102.9073958246153779
 20
520032.2379518348025158
 30
0.0
  0
VERTEX
  5
1321
  8
SITES
 10
425103.7262427057139575
 20
520032.8189095864072442
 30
0.0
  0
VERTEX
  5
1322
  8
SITES
 10
425105.1751579099218361
 20
520033.0787266007973813
 30
0.0
  0
SEQEND
  5
1323
  8
SITES
  0
POLYLINE
  5
527
  8
SITES
 66
     1
 10
0.0
 20
0.0
 30
0.0
 70
     1
  0
VERTEX
  5
1324
  8
SITES
 10
428286.6711694789119065
 20
520037.7337124093901366
 30
0.0
  0
VERTEX
  5
1325
  8
SITES
 10
428301.3515028621186502
 20
520029.069073262216989
 30
0.0
  0
VERTEX
  5
1326
  8
SITES
 10
428294.8151781026972458
 20
519988.0342016129870899
 30
0.0
  0
VERTEX
  5
1327
  8
SITES
 10
428280.7245345257106237
 20
519966.7829188184114173
 30
0.0
  0
VERTEX
  5
1328
  8
SITES
 10
428274.2730032316176221
 20
519966.8021282610716298
 30
0.0
  0
VERTEX
  5
1329
  8
SITES
 10
428254.9480021796189249
 20
519976.8957486135768704
 30
0.0
  0
VERTEX
  5
132A
  8
SITES
 10
428247.8181968400022015
 20
519989.8204761291272007
 30
0.0
  0
VERTEX
  5
132B
  8
SITES
 10
428248.5627241603797302
 20
519999.1374194865929894
 30
0.0
  0
VERTEX
  5
132C
  8
SITES
 10
428271.6259556146105751
 20
520040.6459675562218763
 30
0.0
  0
SEQEND
  5
132D
  8
SITES
  0
POLYLINE
  5
528
  8
SITES
 66
     1
 10
0.0
 20
0.0
 30
0.0
 70
     1
  0
VERTEX
  5
132E
  8
SITES
 10
428162.4178637319128029
 20
519194.7311530968290754
 30
0.0
  0
VERTEX
  5
132F
  8
SITES
 10
428155.7142816724954173
 20
519203.1592540402780287
 30
0.0
  0
VERTEX
  5
1330
  8
SITES
 10
428155.749312506581191
 20
519214.9306142333080061
 30
0.0
  0
VERTEX
  5
1331
  8
SITES
 10
428160.8258776121074334
 20
519225.0052979107713327
 30
0.0
  0
VERTEX
  5
1332
  8
SITES
 10
428175.9653520291903988
 20
519224.960193921928294
 30
0.0
  0
VERTEX
  5
1333
  8
SITES
 10
428180.986826557724271
 20
519216.5370823690900579
 30
0.0
  0
VERTEX
  5
1334
  8
SITES
 10
428179.2545170456287451
 20
519199.7258845986798406
 30
0.0
  0
VERTEX
  5
1335
  8
SITES
 10
428177.5523479850962758
 20
519193.0044392655254342
 30
0.0
  0
VERTEX
  5
1336
  8
SITES
 10
428169.141506573476363
 20
519193.0294865856994875
 30
0.0
  0
SEQEND
  5
1337
  8
SITES
  0
POLYLINE
  5
529
  8
SITES
 66
     1
 10
0.0
 20
0.0
 30
0.0
 70
     1
  0
VERTEX
  5
1338
  8
SITES
 10
428144.2779049639939331
 20
519644.6052579334937036
 30
0.0
  0
VERTEX
  5
1339
  8
SITES
 10
428150.7423770613968372
 20
519648.8870962177170441
 30
0.0
  0
VERTEX
  5
133A
  8
SITES
 10
428158.6149474497069605
 20
519644.5625146448728628
 30
0.0
  0
VERTEX
  5
133B
  8
SITES
 10
428161.4694730556220748
 20
519640.2528330439818092
 30
0.0
  0
VERTEX
  5
133C
  8
SITES
 10
428162.8796282135881484
 20
519632.3633049253257923
 30
0.0
  0
VERTEX
  5
133D
  8
SITES
 10
428158.5635750808869489
 20
519627.3581031286157668
 30
0.0
  0
VERTEX
  5
133E
  8
SITES
 10
428148.5319995487807319
 20
519628.8217881752061658
 30
0.0
  0
VERTEX
  5
133F
  8
SITES
 10
428144.9669537396985106
 20
519635.2841031872085296
 30
0.0
  0
SEQEND
  5
1340
  8
SITES
  0
ENDSEC
  0
EOF
