  0
SECTION
  2
HEADER
  9
$ACADVER
  1
AC1009
  9
$INSBASE
 10
0.0
 20
0.0
 30
0.0
  9
$EXTMIN
 10
734119.96615438105
 20
4555861.4963598438
 30
0.0
  9
$EXTMAX
 10
734328.33851864375
 20
4556136.9084644848
 30
0.0
  9
$LIMMIN
 10
0.0
 20
0.0
  9
$LIMMAX
 10
12.0
 20
9.0
  9
$ORTHOMODE
 70
     0
  9
$REGENMODE
 70
     1
  9
$FILLMODE
 70
     1
  9
$QTEXTMODE
 70
     0
  9
$MIRRTEXT
 70
     1
  9
$DRAGMODE
 70
     2
  9
$LTSCALE
 40
1.0
  9
$OSMODE
 70
   557
  9
$ATTMODE
 70
     1
  9
$TEXTSIZE
 40
2.0
  9
$TRACEWID
 40
0.05
  9
$TEXTSTYLE
  7
STANDARD
  9
$CLAYER
  8
TESTS
  9
$CELTYPE
  6
BYLAYER
  9
$CECOLOR
 62
   256
  9
$DIMSCALE
 40
1.0
  9
$DIMASZ
 40
0.18
  9
$DIMEXO
 40
0.0625
  9
$DIMDLI
 40
0.38
  9
$DIMRND
 40
0.0
  9
$DIMDLE
 40
0.0
  9
$DIMEXE
 40
0.18
  9
$DIMTP
 40
0.0
  9
$DIMTM
 40
0.0
  9
$DIMTXT
 40
0.18
  9
$DIMCEN
 40
0.09
  9
$DIMTSZ
 40
0.0
  9
$DIMTOL
 70
     0
  9
$DIMLIM
 70
     0
  9
$DIMTIH
 70
     1
  9
$DIMTOH
 70
     1
  9
$DIMSE1
 70
     0
  9
$DIMSE2
 70
     0
  9
$DIMTAD
 70
     0
  9
$DIMZIN
 70
     0
  9
$DIMBLK
  1

  9
$DIMASO
 70
     1
  9
$DIMSHO
 70
     1
  9
$DIMPOST
  1

  9
$DIMAPOST
  1

  9
$DIMALT
 70
     0
  9
$DIMALTD
 70
     2
  9
$DIMALTF
 40
25.399999999999999
  9
$DIMLFAC
 40
1.0
  9
$DIMTOFL
 70
     0
  9
$DIMTVP
 40
0.0
  9
$DIMTIX
 70
     0
  9
$DIMSOXD
 70
     0
  9
$DIMSAH
 70
     0
  9
$DIMBLK1
  1

  9
$DIMBLK2
  1

  9
$DIMSTYLE
  2
STANDARD
  9
$DIMCLRD
 70
     0
  9
$DIMCLRE
 70
     0
  9
$DIMCLRT
 70
     0
  9
$DIMTFAC
 40
1.0
  9
$DIMGAP
 40
0.09
  9
$LUNITS
 70
     2
  9
$LUPREC
 70
     4
  9
$SKETCHINC
 40
0.1
  9
$FILLETRAD
 40
0.5
  9
$AUNITS
 70
     0
  9
$AUPREC
 70
     0
  9
$MENU
  1
.
  9
$ELEVATION
 40
0.0
  9
$PELEVATION
 40
0.0
  9
$THICKNESS
 40
0.0
  9
$LIMCHECK
 70
     0
  9
$BLIPMODE
 70
     0
  9
$CHAMFERA
 40
0.5
  9
$CHAMFERB
 40
0.5
  9
$SKPOLY
 70
     0
  9
$TDCREATE
 40
2454974.6445596418
  9
$TDUPDATE
 40
2456117.6060270141
  9
$TDINDWG
 40
12.5656789236
  9
$TDUSRTIMER
 40
12.565678738400001
  9
$USRTIMER
 70
     1
  9
$ANGBASE
 50
0.0
  9
$ANGDIR
 70
     1
  9
$PDMODE
 70
    66
  9
$PDSIZE
 40
10.0
  9
$PLINEWID
 40
0.0
  9
$COORDS
 70
     1
  9
$SPLFRAME
 70
     0
  9
$SPLINETYPE
 70
     6
  9
$SPLINESEGS
 70
     8
  9
$ATTDIA
 70
     0
  9
$ATTREQ
 70
     1
  9
$HANDLING
 70
     1
  9
$HANDSEED
  5
31E
  9
$SURFTAB1
 70
     6
  9
$SURFTAB2
 70
     6
  9
$SURFTYPE
 70
     6
  9
$SURFU
 70
     6
  9
$SURFV
 70
     6
  9
$UCSNAME
  2

  9
$UCSORG
 10
0.0
 20
0.0
 30
0.0
  9
$UCSXDIR
 10
1.0
 20
0.0
 30
0.0
  9
$UCSYDIR
 10
0.0
 20
1.0
 30
0.0
  9
$PUCSNAME
  2

  9
$PUCSORG
 10
0.0
 20
0.0
 30
0.0
  9
$PUCSXDIR
 10
1.0
 20
0.0
 30
0.0
  9
$PUCSYDIR
 10
0.0
 20
1.0
 30
0.0
  9
$USERI1
 70
     0
  9
$USERI2
 70
     0
  9
$USERI3
 70
     0
  9
$USERI4
 70
     0
  9
$USERI5
 70
     0
  9
$USERR1
 40
0.0
  9
$USERR2
 40
0.0
  9
$USERR3
 40
0.0
  9
$USERR4
 40
0.0
  9
$USERR5
 40
0.0
  9
$WORLDVIEW
 70
     1
  9
$SHADEDGE
 70
     3
  9
$SHADEDIF
 70
    70
  9
$TILEMODE
 70
     1
  9
$MAXACTVP
 70
    64
  9
$PLIMCHECK
 70
     0
  9
$PEXTMIN
 10
0.0
 20
0.0
 30
0.0
  9
$PEXTMAX
 10
0.0
 20
0.0
 30
0.0
  9
$PLIMMIN
 10
0.0
 20
0.0
  9
$PLIMMAX
 10
12.0
 20
9.0
  9
$UNITMODE
 70
     0
  9
$VISRETAIN
 70
     1
  9
$PLINEGEN
 70
     0
  9
$PSLTSCALE
 70
     1
  0
ENDSEC
  0
SECTION
  2
TABLES
  0
TABLE
  2
VPORT
 70
     1
  0
VPORT
  2
*ACTIVE
 70
     0
 10
0.0
 20
0.0
 11
1.0
 21
1.0
 12
734224.42632468906
 22
4556056.8629211728
 13
0.0
 23
0.0
 14
1.0
 24
1.0
 15
0.5
 25
0.5
 16
0.0
 26
0.0
 36
1.0
 17
0.0
 27
0.0
 37
0.0
 40
392.59181306445618
 41
1.136898395721925
 42
50.0
 43
0.0
 44
0.0
 50
0.0
 51
0.0
 71
     0
 72
   100
 73
     1
 74
     2
 75
     0
 76
     0
 77
     0
 78
     0
  0
ENDTAB
  0
TABLE
  2
LTYPE
 70
     1
  0
LTYPE
  2
CONTINUOUS
 70
     0
  3
Solid line
 72
    65
 73
     0
 40
0.0
  0
ENDTAB
  0
TABLE
  2
LAYER
 70
     3
  0
LAYER
  2
0
 70
     0
 62
    -1
  6
CONTINUOUS
  0
LAYER
  2
TESTS
 70
     0
 62
     4
  6
CONTINUOUS
  0
LAYER
  2
TEST_NUMBERS
 70
     0
 62
     4
  6
CONTINUOUS
  0
ENDTAB
  0
TABLE
  2
STYLE
 70
     3
  0
STYLE
  2
STANDARD
 70
     0
 40
0.0
 41
1.0
 50
0.0
 71
     0
 42
2.0
  3
txt
  4

  0
STYLE
  2
ANNOTATIVE
 70
     0
 40
0.0
 41
1.0
 50
0.0
 71
     0
 42
0.2
  3
txt
  4

  0
STYLE
  2
LEGEND
 70
     0
 40
0.0
 41
1.0
 50
0.0
 71
     0
 42
2.0
  3
txt
  4

  0
ENDTAB
  0
TABLE
  2
VIEW
 70
     0
  0
ENDTAB
  0
TABLE
  2
UCS
 70
     0
  0
ENDTAB
  0
TABLE
  2
APPID
 70
     9
  0
APPID
  2
ACAD
 70
     0
  0
APPID
  2
ACADANNOTATIVE
 70
     0
  0
APPID
  2
ADE
 70
     0
  0
APPID
  2
ADE_PROJECTION
 70
     0
  0
APPID
  2
ACMAPDMDISPLAYSTYLEREGAPP
 70
     0
  0
APPID
  2
ACADANNOPO
 70
     0
  0
APPID
  2
MAPGWS
 70
     0
  0
APPID
  2
DCO15
 70
     0
  0
APPID
  2
ACAD_MLEADERVER
 70
     0
  0
ENDTAB
  0
TABLE
  2
DIMSTYLE
 70
     2
  0
DIMSTYLE
  2
STANDARD
 70
     0
  3

  4

  5

  6

  7

 40
1.0
 41
0.18
 42
0.0625
 43
0.38
 44
0.18
 45
0.0
 46
0.0
 47
0.0
 48
0.0
140
0.18
141
0.09
142
0.0
143
25.399999999999999
144
1.0
145
0.0
146
1.0
147
0.09
 71
     0
 72
     0
 73
     1
 74
     1
 75
     0
 76
     0
 77
     0
 78
     0
170
     0
171
     2
172
     0
173
     0
174
     0
175
     0
176
     0
177
     0
178
     0
  0
DIMSTYLE
  2
ANNOTATIVE
 70
     0
  3

  4

  5

  6

  7

 40
1.0
 41
0.18
 42
0.0625
 43
0.38
 44
0.18
 45
0.0
 46
0.0
 47
0.0
 48
0.0
140
0.18
141
0.09
142
0.0
143
25.399999999999999
144
1.0
145
0.0
146
1.0
147
0.09
 71
     0
 72
     0
 73
     1
 74
     1
 75
     0
 76
     0
 77
     0
 78
     0
170
     0
171
     2
172
     0
173
     0
174
     0
175
     0
176
     0
177
     0
178
     0
  0
ENDTAB
  0
ENDSEC
  0
SECTION
  2
BLOCKS
  0
BLOCK
  8
0
  2
$MODEL_SPACE
 70
     0
 10
0.0
 20
0.0
 30
0.0
  3
$MODEL_SPACE
  1

  0
ENDBLK
  5
277
  8
0
  0
BLOCK
 67
     1
  8
0
  2
$PAPER_SPACE
 70
     0
 10
0.0
 20
0.0
 30
0.0
  3
$PAPER_SPACE
  1

  0
ENDBLK
  5
273
 67
     1
  8
0
  0
ENDSEC
  0
SECTION
  2
ENTITIES
  0
TEXT
  5
73
  8
TEST_NUMBERS
 10
734323.13237477816
 20
4556086.4428558843
 30
0.0
 40
2.0
  1
XL
  0
POLYLINE
  5
75
  8
TESTS
 66
     1
 10
0.0
 20
0.0
 30
0.0
 70
     1
  0
VERTEX
  5
2B5
  8
TESTS
 10
734324.42473433784
 20
4556087.0373099511
 30
0.0
  0
VERTEX
  5
2B6
  8
TESTS
 10
734322.42473433784
 20
4556087.0373099511
 30
0.0
  0
VERTEX
  5
2B7
  8
TESTS
 10
734322.42473433784
 20
4556086.0373099511
 30
0.0
  0
VERTEX
  5
2B8
  8
TESTS
 10
734324.42473433784
 20
4556086.0373099511
 30
0.0
  0
SEQEND
  5
2B9
  8
TESTS
  0
TEXT
  5
76
  8
TEST_NUMBERS
 10
734127.99640153605
 20
4555875.6304632649
 30
0.0
 40
2.0
  1
XJ
  0
TEXT
  5
77
  8
TEST_NUMBERS
 10
734120.71035325585
 20
4555885.9482393106
 30
0.0
 40
2.0
  1
XI
  0
TEXT
  5
78
  8
TEST_NUMBERS
 10
734137.1039629255
 20
4555891.6533630816
 30
0.0
 40
2.0
  1
XH
  0
TEXT
  5
79
  8
TEST_NUMBERS
 10
734126.47847550374
 20
4555862.0352753103
 30
0.0
 40
2.0
  1
XG
  0
TEXT
  5
7A
  8
TEST_NUMBERS
 10
734323.96473432065
 20
4556089.4242882431
 30
0.0
 40
2.0
  1
XF
  0
POLYLINE
  5
7B
  8
TESTS
 66
     1
 10
0.0
 20
0.0
 30
0.0
 70
     1
  0
VERTEX
  5
2BA
  8
TESTS
 10
734128.4687846388
 20
4555874.4695652649
 30
0.0
  0
VERTEX
  5
2BB
  8
TESTS
 10
734128.4687846388
 20
4555876.4695652677
 30
0.0
  0
VERTEX
  5
2BC
  8
TESTS
 10
734127.4687846388
 20
4555876.4695652677
 30
0.0
  0
VERTEX
  5
2BD
  8
TESTS
 10
734127.4687846388
 20
4555874.4695652649
 30
0.0
  0
SEQEND
  5
2BE
  8
TESTS
  0
POLYLINE
  5
7C
  8
TESTS
 66
     1
 10
0.0
 20
0.0
 30
0.0
 70
     1
  0
VERTEX
  5
2BF
  8
TESTS
 10
734323.42473433795
 20
4556090.5373099511
 30
0.0
  0
VERTEX
  5
2C0
  8
TESTS
 10
734323.42473433795
 20
4556088.5373099511
 30
0.0
  0
VERTEX
  5
2C1
  8
TESTS
 10
734324.42473433784
 20
4556088.5373099511
 30
0.0
  0
VERTEX
  5
2C2
  8
TESTS
 10
734324.42473433784
 20
4556090.5373099511
 30
0.0
  0
SEQEND
  5
2C3
  8
TESTS
  0
TEXT
  5
7D
  8
TEST_NUMBERS
 10
734325.00518531061
 20
4556085.4721569614
 30
0.0
 40
2.0
  1
XD
  0
TEXT
  5
7E
  8
TEST_NUMBERS
 10
734285.7455237885
 20
4556111.5423553959
 30
0.0
 40
2.0
  1
XC
  0
TEXT
  5
7F
  8
TEST_NUMBERS
 10
734246.27777186048
 20
4556134.9084644848
 30
0.0
 40
2.0
  1
XE
  0
TEXT
  5
80
  8
TEST_NUMBERS
 10
734272.08094162028
 20
4556083.6694302969
 30
0.0
 40
2.0
  1
XB
  0
TEXT
  5
81
  8
TEST_NUMBERS
 10
734262.16198155703
 20
4556093.0297409222
 30
0.0
 40
2.0
  1
XA
  0
POLYLINE
  5
82
  8
TESTS
 66
     1
 10
0.0
 20
0.0
 30
0.0
 70
     1
  0
VERTEX
  5
2C4
  8
TESTS
 10
734324.42473433784
 20
4556087.0373099511
 30
0.0
  0
VERTEX
  5
2C5
  8
TESTS
 10
734324.42473433784
 20
4556085.0373099511
 30
0.0
  0
VERTEX
  5
2C6
  8
TESTS
 10
734325.42473433784
 20
4556085.0373099511
 30
0.0
  0
VERTEX
  5
2C7
  8
TESTS
 10
734325.42473433784
 20
4556087.0373099511
 30
0.0
  0
SEQEND
  5
2C8
  8
TESTS
  0
POLYLINE
  5
83
  8
TESTS
 66
     1
 10
0.0
 20
0.0
 30
0.0
 70
     1
  0
VERTEX
  5
2C9
  8
TESTS
 10
734285.25970532035
 20
4556112.6047574496
 30
0.0
  0
VERTEX
  5
2CA
  8
TESTS
 10
734285.25970532035
 20
4556110.6047574477
 30
0.0
  0
VERTEX
  5
2CB
  8
TESTS
 10
734286.25970532035
 20
4556110.6047574477
 30
0.0
  0
VERTEX
  5
2CC
  8
TESTS
 10
734286.25970532035
 20
4556112.6047574496
 30
0.0
  0
SEQEND
  5
2CD
  8
TESTS
  0
POLYLINE
  5
84
  8
TESTS
 66
     1
 10
0.0
 20
0.0
 30
0.0
 70
     1
  0
VERTEX
  5
2CE
  8
TESTS
 10
734121.96615438093
 20
4555886.4097795887
 30
0.0
  0
VERTEX
  5
2CF
  8
TESTS
 10
734119.96615438105
 20
4555886.4097795887
 30
0.0
  0
VERTEX
  5
2D0
  8
TESTS
 10
734119.96615438105
 20
4555885.4097795878
 30
0.0
  0
VERTEX
  5
2D1
  8
TESTS
 10
734121.96615438093
 20
4555885.4097795878
 30
0.0
  0
SEQEND
  5
2D2
  8
TESTS
  0
POLYLINE
  5
85
  8
TESTS
 66
     1
 10
0.0
 20
0.0
 30
0.0
 70
     1
  0
VERTEX
  5
2D3
  8
TESTS
 10
734138.07491908735
 20
4555892.1086480636
 30
0.0
  0
VERTEX
  5
2D4
  8
TESTS
 10
734136.07491908735
 20
4555892.1086480636
 30
0.0
  0
VERTEX
  5
2D5
  8
TESTS
 10
734136.07491908735
 20
4555891.1086480673
 30
0.0
  0
VERTEX
  5
2D6
  8
TESTS
 10
734138.07491908735
 20
4555891.1086480673
 30
0.0
  0
SEQEND
  5
2D7
  8
TESTS
  0
POLYLINE
  5
86
  8
TESTS
 66
     1
 10
0.0
 20
0.0
 30
0.0
 70
     1
  0
VERTEX
  5
2D8
  8
TESTS
 10
734127.55914276815
 20
4555862.4963598438
 30
0.0
  0
VERTEX
  5
2D9
  8
TESTS
 10
734125.55914276838
 20
4555862.4963598438
 30
0.0
  0
VERTEX
  5
2DA
  8
TESTS
 10
734125.55914276838
 20
4555861.4963598438
 30
0.0
  0
VERTEX
  5
2DB
  8
TESTS
 10
734127.55914276815
 20
4555861.4963598438
 30
0.0
  0
SEQEND
  5
2DC
  8
TESTS
  0
POLYLINE
  5
87
  8
TESTS
 66
     1
 10
0.0
 20
0.0
 30
0.0
 70
     1
  0
VERTEX
  5
2DD
  8
TESTS
 10
734245.87739626912
 20
4556135.985233902
 30
0.0
  0
VERTEX
  5
2DE
  8
TESTS
 10
734245.87739626912
 20
4556133.9852339029
 30
0.0
  0
VERTEX
  5
2DF
  8
TESTS
 10
734246.87739626865
 20
4556133.9852339029
 30
0.0
  0
VERTEX
  5
2E0
  8
TESTS
 10
734246.87739626865
 20
4556135.985233902
 30
0.0
  0
SEQEND
  5
2E1
  8
TESTS
  0
POLYLINE
  5
88
  8
TESTS
 66
     1
 10
0.0
 20
0.0
 30
0.0
 70
     1
  0
VERTEX
  5
2E2
  8
TESTS
 10
734271.22190431016
 20
4556083.1906292224
 30
0.0
  0
VERTEX
  5
2E3
  8
TESTS
 10
734273.22190431005
 20
4556083.1906292224
 30
0.0
  0
VERTEX
  5
2E4
  8
TESTS
 10
734273.22190431005
 20
4556084.1906292224
 30
0.0
  0
VERTEX
  5
2E5
  8
TESTS
 10
734271.22190431016
 20
4556084.1906292224
 30
0.0
  0
SEQEND
  5
2E6
  8
TESTS
  0
POLYLINE
  5
89
  8
TESTS
 66
     1
 10
0.0
 20
0.0
 30
0.0
 70
     1
  0
VERTEX
  5
2E7
  8
TESTS
 10
734261.4187505045
 20
4556092.5262523973
 30
0.0
  0
VERTEX
  5
2E8
  8
TESTS
 10
734263.41875050438
 20
4556092.5262523973
 30
0.0
  0
VERTEX
  5
2E9
  8
TESTS
 10
734263.41875050438
 20
4556093.5262523973
 30
0.0
  0
VERTEX
  5
2EA
  8
TESTS
 10
734261.4187505045
 20
4556093.5262523973
 30
0.0
  0
SEQEND
  5
2EB
  8
TESTS
  0
ENDSEC
  0
EOF
