  0
SECTION
  2
HEADER
  9
$ACADVER
  1
AC1009
  9
$INSBASE
 10
0.0
 20
0.0
 30
0.0
  9
$EXTMIN
 10
732694.52177214634
 20
4554920.2764645973
 30
0.0
  9
$EXTMAX
 10
737405.51863534015
 20
4560439.6071489491
 30
0.0
  9
$LIMMIN
 10
0.0
 20
0.0
  9
$LIMMAX
 10
12.0
 20
9.0
  9
$ORTHOMODE
 70
     0
  9
$REGENMODE
 70
     1
  9
$FILLMODE
 70
     1
  9
$QTEXTMODE
 70
     0
  9
$MIRRTEXT
 70
     1
  9
$DRAGMODE
 70
     2
  9
$LTSCALE
 40
1.0
  9
$OSMODE
 70
   557
  9
$ATTMODE
 70
     1
  9
$TEXTSIZE
 40
10.0
  9
$TRACEWID
 40
0.05
  9
$TEXTSTYLE
  7
STANDARD
  9
$CLAYER
  8
AREA_FLAGGED
  9
$CELTYPE
  6
BYLAYER
  9
$CECOLOR
 62
   256
  9
$DIMSCALE
 40
1.0
  9
$DIMASZ
 40
0.18
  9
$DIMEXO
 40
0.0625
  9
$DIMDLI
 40
0.38
  9
$DIMRND
 40
0.0
  9
$DIMDLE
 40
0.0
  9
$DIMEXE
 40
0.18
  9
$DIMTP
 40
0.0
  9
$DIMTM
 40
0.0
  9
$DIMTXT
 40
0.18
  9
$DIMCEN
 40
0.09
  9
$DIMTSZ
 40
0.0
  9
$DIMTOL
 70
     0
  9
$DIMLIM
 70
     0
  9
$DIMTIH
 70
     1
  9
$DIMTOH
 70
     1
  9
$DIMSE1
 70
     0
  9
$DIMSE2
 70
     0
  9
$DIMTAD
 70
     0
  9
$DIMZIN
 70
     0
  9
$DIMBLK
  1

  9
$DIMASO
 70
     1
  9
$DIMSHO
 70
     1
  9
$DIMPOST
  1

  9
$DIMAPOST
  1

  9
$DIMALT
 70
     0
  9
$DIMALTD
 70
     2
  9
$DIMALTF
 40
25.399999999999999
  9
$DIMLFAC
 40
1.0
  9
$DIMTOFL
 70
     0
  9
$DIMTVP
 40
0.0
  9
$DIMTIX
 70
     0
  9
$DIMSOXD
 70
     0
  9
$DIMSAH
 70
     0
  9
$DIMBLK1
  1

  9
$DIMBLK2
  1

  9
$DIMSTYLE
  2
STANDARD
  9
$DIMCLRD
 70
     0
  9
$DIMCLRE
 70
     0
  9
$DIMCLRT
 70
     0
  9
$DIMTFAC
 40
1.0
  9
$DIMGAP
 40
0.09
  9
$LUNITS
 70
     2
  9
$LUPREC
 70
     4
  9
$SKETCHINC
 40
0.1
  9
$FILLETRAD
 40
0.5
  9
$AUNITS
 70
     0
  9
$AUPREC
 70
     0
  9
$MENU
  1
.
  9
$ELEVATION
 40
0.0
  9
$PELEVATION
 40
0.0
  9
$THICKNESS
 40
0.0
  9
$LIMCHECK
 70
     0
  9
$BLIPMODE
 70
     0
  9
$CHAMFERA
 40
0.5
  9
$CHAMFERB
 40
0.5
  9
$SKPOLY
 70
     0
  9
$TDCREATE
 40
2454974.6445596418
  9
$TDUPDATE
 40
2456117.6126368982
  9
$TDINDWG
 40
3.8842745948999999
  9
$TDUSRTIMER
 40
3.8842738541999999
  9
$USRTIMER
 70
     1
  9
$ANGBASE
 50
0.0
  9
$ANGDIR
 70
     1
  9
$PDMODE
 70
    66
  9
$PDSIZE
 40
10.0
  9
$PLINEWID
 40
0.0
  9
$COORDS
 70
     1
  9
$SPLFRAME
 70
     0
  9
$SPLINETYPE
 70
     6
  9
$SPLINESEGS
 70
     8
  9
$ATTDIA
 70
     0
  9
$ATTREQ
 70
     1
  9
$HANDLING
 70
     1
  9
$HANDSEED
  5
C72
  9
$SURFTAB1
 70
     6
  9
$SURFTAB2
 70
     6
  9
$SURFTYPE
 70
     6
  9
$SURFU
 70
     6
  9
$SURFV
 70
     6
  9
$UCSNAME
  2

  9
$UCSORG
 10
0.0
 20
0.0
 30
0.0
  9
$UCSXDIR
 10
1.0
 20
0.0
 30
0.0
  9
$UCSYDIR
 10
0.0
 20
1.0
 30
0.0
  9
$PUCSNAME
  2

  9
$PUCSORG
 10
0.0
 20
0.0
 30
0.0
  9
$PUCSXDIR
 10
1.0
 20
0.0
 30
0.0
  9
$PUCSYDIR
 10
0.0
 20
1.0
 30
0.0
  9
$USERI1
 70
     0
  9
$USERI2
 70
     0
  9
$USERI3
 70
     0
  9
$USERI4
 70
     0
  9
$USERI5
 70
     0
  9
$USERR1
 40
0.0
  9
$USERR2
 40
0.0
  9
$USERR3
 40
0.0
  9
$USERR4
 40
0.0
  9
$USERR5
 40
0.0
  9
$WORLDVIEW
 70
     1
  9
$SHADEDGE
 70
     3
  9
$SHADEDIF
 70
    70
  9
$TILEMODE
 70
     1
  9
$MAXACTVP
 70
    64
  9
$PLIMCHECK
 70
     0
  9
$PEXTMIN
 10
0.0
 20
0.0
 30
0.0
  9
$PEXTMAX
 10
0.0
 20
0.0
 30
0.0
  9
$PLIMMIN
 10
0.0
 20
0.0
  9
$PLIMMAX
 10
12.0
 20
9.0
  9
$UNITMODE
 70
     0
  9
$VISRETAIN
 70
     1
  9
$PLINEGEN
 70
     0
  9
$PSLTSCALE
 70
     1
  0
ENDSEC
  0
SECTION
  2
TABLES
  0
TABLE
  2
VPORT
 70
     1
  0
VPORT
  2
*ACTIVE
 70
     0
 10
0.0
 20
0.0
 11
1.0
 21
1.0
 12
737362.38143866905
 22
4559701.139991371
 13
0.0
 23
0.0
 14
1000.0
 24
1000.0
 15
0.5
 25
0.5
 16
0.0
 26
0.0
 36
1.0
 17
0.0
 27
0.0
 37
0.0
 40
15127.60898608215
 41
1.136898395721925
 42
50.0
 43
0.0
 44
0.0
 50
0.0
 51
0.0
 71
     0
 72
   100
 73
     1
 74
     2
 75
     0
 76
     0
 77
     0
 78
     0
  0
ENDTAB
  0
TABLE
  2
LTYPE
 70
     1
  0
LTYPE
  2
CONTINUOUS
 70
     0
  3
Solid line
 72
    65
 73
     0
 40
0.0
  0
ENDTAB
  0
TABLE
  2
LAYER
 70
     2
  0
LAYER
  2
0
 70
     0
 62
     1
  6
CONTINUOUS
  0
LAYER
  2
AREA_FLAGGED
 70
     0
 62
     3
  6
CONTINUOUS
  0
ENDTAB
  0
TABLE
  2
STYLE
 70
     3
  0
STYLE
  2
STANDARD
 70
     0
 40
0.0
 41
1.0
 50
0.0
 71
     0
 42
10.0
  3
txt
  4

  0
STYLE
  2
ANNOTATIVE
 70
     0
 40
0.0
 41
1.0
 50
0.0
 71
     0
 42
0.2
  3
txt
  4

  0
STYLE
  2
LEGEND
 70
     0
 40
0.0
 41
1.0
 50
0.0
 71
     0
 42
10.0
  3
txt
  4

  0
ENDTAB
  0
TABLE
  2
VIEW
 70
     0
  0
ENDTAB
  0
TABLE
  2
UCS
 70
     0
  0
ENDTAB
  0
TABLE
  2
APPID
 70
     7
  0
APPID
  2
ACAD
 70
     0
  0
APPID
  2
ACADANNOTATIVE
 70
     0
  0
APPID
  2
ADE
 70
     0
  0
APPID
  2
ACMAPDMDISPLAYSTYLEREGAPP
 70
     0
  0
APPID
  2
MAPGWS
 70
     0
  0
APPID
  2
DCO15
 70
     0
  0
APPID
  2
ACAD_MLEADERVER
 70
     0
  0
ENDTAB
  0
TABLE
  2
DIMSTYLE
 70
     2
  0
DIMSTYLE
  2
STANDARD
 70
     0
  3

  4

  5

  6

  7

 40
1.0
 41
0.18
 42
0.0625
 43
0.38
 44
0.18
 45
0.0
 46
0.0
 47
0.0
 48
0.0
140
0.18
141
0.09
142
0.0
143
25.399999999999999
144
1.0
145
0.0
146
1.0
147
0.09
 71
     0
 72
     0
 73
     1
 74
     1
 75
     0
 76
     0
 77
     0
 78
     0
170
     0
171
     2
172
     0
173
     0
174
     0
175
     0
176
     0
177
     0
178
     0
  0
DIMSTYLE
  2
ANNOTATIVE
 70
     0
  3

  4

  5

  6

  7

 40
1.0
 41
0.18
 42
0.0625
 43
0.38
 44
0.18
 45
0.0
 46
0.0
 47
0.0
 48
0.0
140
0.18
141
0.09
142
0.0
143
25.399999999999999
144
1.0
145
0.0
146
1.0
147
0.09
 71
     0
 72
     0
 73
     1
 74
     1
 75
     0
 76
     0
 77
     0
 78
     0
170
     0
171
     2
172
     0
173
     0
174
     0
175
     0
176
     0
177
     0
178
     0
  0
ENDTAB
  0
ENDSEC
  0
SECTION
  2
BLOCKS
  0
BLOCK
  8
0
  2
$MODEL_SPACE
 70
     0
 10
0.0
 20
0.0
 30
0.0
  3
$MODEL_SPACE
  1

  0
ENDBLK
  5
AC5
  8
0
  0
BLOCK
 67
     1
  8
0
  2
$PAPER_SPACE
 70
     0
 10
0.0
 20
0.0
 30
0.0
  3
$PAPER_SPACE
  1

  0
ENDBLK
  5
AC1
 67
     1
  8
0
  0
ENDSEC
  0
SECTION
  2
ENTITIES
  0
POLYLINE
  5
73
  8
AREA_FLAGGED
 66
     1
 10
0.0
 20
0.0
 30
0.0
 70
     1
  0
VERTEX
  5
B08
  8
AREA_FLAGGED
 10
733631.130896613
 20
4554922.5885436386
 30
0.0
  0
VERTEX
  5
B09
  8
AREA_FLAGGED
 10
733652.4451095761
 20
4554922.1277034329
 30
0.0
  0
VERTEX
  5
B0A
  8
AREA_FLAGGED
 10
733668.67501542706
 20
4554927.6899375226
 30
0.0
  0
VERTEX
  5
B0B
  8
AREA_FLAGGED
 10
733683.50922912732
 20
4554937.8820080766
 30
0.0
  0
VERTEX
  5
B0C
  8
AREA_FLAGGED
 10
733692.78061269224
 20
4554945.7484431826
 30
0.0
  0
VERTEX
  5
B0D
  8
AREA_FLAGGED
 10
733697.40633524174
 20
4554955.018833329
 30
0.0
  0
VERTEX
  5
B0E
  8
AREA_FLAGGED
 10
733704.36485752813
 20
4554962.895985649
 30
0.0
  0
VERTEX
  5
B0F
  8
AREA_FLAGGED
 10
733714.09482565545
 20
4554973.5488964068
 30
0.0
  0
VERTEX
  5
B10
  8
AREA_FLAGGED
 10
733724.74196290981
 20
4554982.80856934
 30
0.0
  0
VERTEX
  5
B11
  8
AREA_FLAGGED
 10
733730.78331606835
 20
4554991.6074020667
 30
0.0
  0
VERTEX
  5
B12
  8
AREA_FLAGGED
 10
733734.95045405999
 20
4555002.7318702433
 30
0.0
  0
VERTEX
  5
B13
  8
AREA_FLAGGED
 10
733735.40903862193
 20
4555015.2388590323
 30
0.0
  0
VERTEX
  5
B14
  8
AREA_FLAGGED
 10
733732.63759278134
 20
4555027.7458478184
 30
0.0
  0
VERTEX
  5
B15
  8
AREA_FLAGGED
 10
733728.92903935921
 20
4555037.9379183725
 30
0.0
  0
VERTEX
  5
B16
  8
AREA_FLAGGED
 10
733718.7205482088
 20
4555044.421832866
 30
0.0
  0
VERTEX
  5
B17
  8
AREA_FLAGGED
 10
733707.13630336907
 20
4555047.1975913048
 30
0.0
  0
VERTEX
  5
B18
  8
AREA_FLAGGED
 10
733700.19771954045
 20
4555045.8043534793
 30
0.0
  0
VERTEX
  5
B19
  8
AREA_FLAGGED
 10
733685.3635058403
 20
4555043.0285950406
 30
0.0
  0
VERTEX
  5
B1A
  8
AREA_FLAGGED
 10
733670.98787670198
 20
4555037.9379183725
 30
0.0
  0
VERTEX
  5
B1B
  8
AREA_FLAGGED
 10
733654.29938628909
 20
4555034.6906025168
 30
0.0
  0
VERTEX
  5
B1C
  8
AREA_FLAGGED
 10
733639.00658802688
 20
4555030.5216062553
 30
0.0
  0
VERTEX
  5
B1D
  8
AREA_FLAGGED
 10
733618.150959622
 20
4555026.352609992
 30
0.0
  0
VERTEX
  5
B1E
  8
AREA_FLAGGED
 10
733600.08671551954
 20
4555019.8686954984
 30
0.0
  0
VERTEX
  5
B1F
  8
AREA_FLAGGED
 10
733590.81533195823
 20
4555009.2157847397
 30
0.0
  0
VERTEX
  5
B20
  8
AREA_FLAGGED
 10
733577.06808568723
 20
4554995.8948114803
 30
0.0
  0
VERTEX
  5
B21
  8
AREA_FLAGGED
 10
733566.11780451261
 20
4554984.4525230173
 30
0.0
  0
VERTEX
  5
B22
  8
AREA_FLAGGED
 10
733552.18101127655
 20
4554973.0103052529
 30
0.0
  0
VERTEX
  5
B23
  8
AREA_FLAGGED
 10
733551.6833250284
 20
4554961.0705290632
 30
0.0
  0
VERTEX
  5
B24
  8
AREA_FLAGGED
 10
733553.67420154496
 20
4554947.638360383
 30
0.0
  0
VERTEX
  5
B25
  8
AREA_FLAGGED
 10
733561.14041593473
 20
4554938.6835105661
 30
0.0
  0
VERTEX
  5
B26
  8
AREA_FLAGGED
 10
733581.04997024464
 20
4554929.728731446
 30
0.0
  0
VERTEX
  5
B27
  8
AREA_FLAGGED
 10
733599.46633428545
 20
4554922.2664155122
 30
0.0
  0
VERTEX
  5
B28
  8
AREA_FLAGGED
 10
733618.87820234674
 20
4554920.2764645973
 30
0.0
  0
SEQEND
  5
B29
  8
AREA_FLAGGED
  0
POLYLINE
  5
74
  8
AREA_FLAGGED
 66
     1
 10
0.0
 20
0.0
 30
0.0
 70
     1
  0
VERTEX
  5
B2A
  8
AREA_FLAGGED
 10
733072.91385227814
 20
4555173.4570899317
 30
0.0
  0
VERTEX
  5
B2B
  8
AREA_FLAGGED
 10
733068.56308016623
 20
4555169.4973149374
 30
0.0
  0
VERTEX
  5
B2C
  8
AREA_FLAGGED
 10
733070.05627043475
 20
4555165.0198546816
 30
0.0
  0
VERTEX
  5
B2D
  8
AREA_FLAGGED
 10
733076.52684928034
 20
4555152.0851737289
 30
0.0
  0
VERTEX
  5
B2E
  8
AREA_FLAGGED
 10
733084.98843616678
 20
4555142.6329068821
 30
0.0
  0
VERTEX
  5
B2F
  8
AREA_FLAGGED
 10
733094.44552707335
 20
4555140.6428852696
 30
0.0
  0
VERTEX
  5
B30
  8
AREA_FLAGGED
 10
733104.40030422783
 20
4555141.140372999
 30
0.0
  0
VERTEX
  5
B31
  8
AREA_FLAGGED
 10
733114.16652451828
 20
4555144.2741160952
 30
0.0
  0
VERTEX
  5
B32
  8
AREA_FLAGGED
 10
733120.66646224272
 20
4555147.9822721537
 30
0.0
  0
VERTEX
  5
B33
  8
AREA_FLAGGED
 10
733140.12639849621
 20
4555150.7687478047
 30
0.0
  0
VERTEX
  5
B34
  8
AREA_FLAGGED
 10
733143.37636735651
 20
4555154.937744068
 30
0.0
  0
VERTEX
  5
B35
  8
AREA_FLAGGED
 10
733153.10633548349
 20
4555167.4447328541
 30
0.0
  0
VERTEX
  5
B36
  8
AREA_FLAGGED
 10
733173.48344086111
 20
4555181.3342422526
 30
0.0
  0
VERTEX
  5
B37
  8
AREA_FLAGGED
 10
733185.08762416232
 20
4555190.1330749821
 30
0.0
  0
VERTEX
  5
B38
  8
AREA_FLAGGED
 10
733205.94325256348
 20
4555204.0333015937
 30
0.0
  0
VERTEX
  5
B39
  8
AREA_FLAGGED
 10
733217.38731428655
 20
4555208.3014284885
 30
0.0
  0
VERTEX
  5
B3A
  8
AREA_FLAGGED
 10
733228.3375954614
 20
4555215.7637444222
 30
0.0
  0
VERTEX
  5
B3B
  8
AREA_FLAGGED
 10
733216.88949651434
 20
4555238.1507629193
 30
0.0
  0
VERTEX
  5
B3C
  8
AREA_FLAGGED
 10
733204.44602507097
 20
4555261.0352691449
 30
0.0
  0
VERTEX
  5
B3D
  8
AREA_FLAGGED
 10
733191.50473585562
 20
4555283.4222876402
 30
0.0
  0
VERTEX
  5
B3E
  8
AREA_FLAGGED
 10
733182.54546272114
 20
4555299.8394533908
 30
0.0
  0
VERTEX
  5
B3F
  8
AREA_FLAGGED
 10
733167.61329698924
 20
4555292.3770667603
 30
0.0
  0
VERTEX
  5
B40
  8
AREA_FLAGGED
 10
733166.54485703656
 20
4555281.8509927522
 30
0.0
  0
VERTEX
  5
B41
  8
AREA_FLAGGED
 10
733159.58633474621
 20
4555279.5360745192
 30
0.0
  0
VERTEX
  5
B42
  8
AREA_FLAGGED
 10
733142.43925977126
 20
4555273.9845576454
 30
0.0
  0
VERTEX
  5
B43
  8
AREA_FLAGGED
 10
733132.25070708245
 20
4555268.4223235603
 30
0.0
  0
VERTEX
  5
B44
  8
AREA_FLAGGED
 10
733126.22929237795
 20
4555262.399249265
 30
0.0
  0
VERTEX
  5
B45
  8
AREA_FLAGGED
 10
733126.68787694292
 20
4555252.6680189157
 30
0.0
  0
VERTEX
  5
B46
  8
AREA_FLAGGED
 10
733130.85501493164
 20
4555243.4083459834
 30
0.0
  0
VERTEX
  5
B47
  8
AREA_FLAGGED
 10
733133.62646077201
 20
4555232.7554352218
 30
0.0
  0
VERTEX
  5
B48
  8
AREA_FLAGGED
 10
733132.70929164463
 20
4555223.4850450791
 30
0.0
  0
VERTEX
  5
B49
  8
AREA_FLAGGED
 10
733126.68787694292
 20
4555215.1470525563
 30
0.0
  0
VERTEX
  5
B4A
  8
AREA_FLAGGED
 10
733114.16652451828
 20
4555209.5955356788
 30
0.0
  0
VERTEX
  5
B4B
  8
AREA_FLAGGED
 10
733104.89514095325
 20
4555204.0333015937
 30
0.0
  0
VERTEX
  5
B4C
  8
AREA_FLAGGED
 10
733094.70658826455
 20
4555190.1330749821
 30
0.0
  0
VERTEX
  5
B4D
  8
AREA_FLAGGED
 10
733085.43520470324
 20
4555178.097643612
 30
0.0
  0
SEQEND
  5
B4E
  8
AREA_FLAGGED
  0
POLYLINE
  5
75
  8
AREA_FLAGGED
 66
     1
 10
0.0
 20
0.0
 30
0.0
 70
     1
  0
VERTEX
  5
B4F
  8
AREA_FLAGGED
 10
732694.52177214634
 20
4555276.2994758766
 30
0.0
  0
VERTEX
  5
B50
  8
AREA_FLAGGED
 10
732696.85457188275
 20
4555257.7694128007
 30
0.0
  0
VERTEX
  5
B51
  8
AREA_FLAGGED
 10
732698.86269035272
 20
4555238.2086629402
 30
0.0
  0
VERTEX
  5
B52
  8
AREA_FLAGGED
 10
732701.42569561652
 20
4555221.5572813526
 30
0.0
  0
VERTEX
  5
B53
  8
AREA_FLAGGED
 10
732702.70726401045
 20
4555211.8225839976
 30
0.0
  0
VERTEX
  5
B54
  8
AREA_FLAGGED
 10
732709.35598585033
 20
4555201.2575431578
 30
0.0
  0
VERTEX
  5
B55
  8
AREA_FLAGGED
 10
732721.87733827555
 20
4555193.8412310407
 30
0.0
  0
VERTEX
  5
B56
  8
AREA_FLAGGED
 10
732733.00299854949
 20
4555188.2897141669
 30
0.0
  0
VERTEX
  5
B57
  8
AREA_FLAGGED
 10
732745.0458279514
 20
4555184.1207179017
 30
0.0
  0
VERTEX
  5
B58
  8
AREA_FLAGGED
 10
732750.60865809012
 20
4555186.4356361357
 30
0.0
  0
VERTEX
  5
B59
  8
AREA_FLAGGED
 10
732756.17148822942
 20
4555190.1330749821
 30
0.0
  0
VERTEX
  5
B5A
  8
AREA_FLAGGED
 10
732764.50576420501
 20
4555189.6722347774
 30
0.0
  0
VERTEX
  5
B5B
  8
AREA_FLAGGED
 10
732771.92287105694
 20
4555187.3573165433
 30
0.0
  0
VERTEX
  5
B5C
  8
AREA_FLAGGED
 10
732774.23573233199
 20
4555217.0011305846
 30
0.0
  0
VERTEX
  5
B5D
  8
AREA_FLAGGED
 10
732777.02711663011
 20
4555240.6325875483
 30
0.0
  0
VERTEX
  5
B5E
  8
AREA_FLAGGED
 10
732781.19425461825
 20
4555262.8600894678
 30
0.0
  0
VERTEX
  5
B5F
  8
AREA_FLAGGED
 10
732786.75708475697
 20
4555281.8509927522
 30
0.0
  0
VERTEX
  5
B60
  8
AREA_FLAGGED
 10
732786.29850019142
 20
4555287.8740670439
 30
0.0
  0
VERTEX
  5
B61
  8
AREA_FLAGGED
 10
732779.33997790515
 20
4555290.6605426939
 30
0.0
  0
VERTEX
  5
B62
  8
AREA_FLAGGED
 10
732754.3172115162
 20
4555295.290379161
 30
0.0
  0
VERTEX
  5
B63
  8
AREA_FLAGGED
 10
732736.71155197546
 20
4555293.8971413374
 30
0.0
  0
VERTEX
  5
B64
  8
AREA_FLAGGED
 10
732720.02306156221
 20
4555287.413226841
 30
0.0
  0
VERTEX
  5
B65
  8
AREA_FLAGGED
 10
732702.87598658435
 20
4555280.4684721418
 30
0.0
  0
SEQEND
  5
B66
  8
AREA_FLAGGED
  0
POLYLINE
  5
76
  8
AREA_FLAGGED
 66
     1
 10
0.0
 20
0.0
 30
0.0
 70
     1
  0
VERTEX
  5
B67
  8
AREA_FLAGGED
 10
733212.16405185685
 20
4555081.2783319559
 30
0.0
  0
VERTEX
  5
B68
  8
AREA_FLAGGED
 10
733210.78829816729
 20
4555115.0911422567
 30
0.0
  0
VERTEX
  5
B69
  8
AREA_FLAGGED
 10
733211.24688272935
 20
4555137.3293613959
 30
0.0
  0
VERTEX
  5
B6A
  8
AREA_FLAGGED
 10
733215.41402071703
 20
4555158.1743427059
 30
0.0
  0
VERTEX
  5
B6B
  8
AREA_FLAGGED
 10
733219.58115870878
 20
4555178.097643612
 30
0.0
  0
VERTEX
  5
B6C
  8
AREA_FLAGGED
 10
733223.28971213091
 20
4555197.0885468926
 30
0.0
  0
VERTEX
  5
B6D
  8
AREA_FLAGGED
 10
733227.45685012254
 20
4555207.2806174504
 30
0.0
  0
VERTEX
  5
B6E
  8
AREA_FLAGGED
 10
733296.06508848816
 20
4555126.2156104352
 30
0.0
  0
VERTEX
  5
B6F
  8
AREA_FLAGGED
 10
733277.98090592434
 20
4555114.1694618519
 30
0.0
  0
VERTEX
  5
B70
  8
AREA_FLAGGED
 10
733241.37389469543
 20
4555097.0326365996
 30
0.0
  0
VERTEX
  5
B71
  8
AREA_FLAGGED
 10
733220.51826629404
 20
4555082.6715697832
 30
0.0
  0
SEQEND
  5
B72
  8
AREA_FLAGGED
  0
POLYLINE
  5
77
  8
AREA_FLAGGED
 66
     1
 10
0.0
 20
0.0
 30
0.0
 70
     1
  0
VERTEX
  5
B73
  8
AREA_FLAGGED
 10
733484.68291323271
 20
4555024.7664623139
 30
0.0
  0
VERTEX
  5
B74
  8
AREA_FLAGGED
 10
733473.09866839263
 20
4555022.9123842819
 30
0.0
  0
VERTEX
  5
B75
  8
AREA_FLAGGED
 10
733463.82728483155
 20
4555021.9907038771
 30
0.0
  0
VERTEX
  5
B76
  8
AREA_FLAGGED
 10
733454.09731670481
 20
4555028.0137781678
 30
0.0
  0
VERTEX
  5
B77
  8
AREA_FLAGGED
 10
733446.68020985276
 20
4555045.6114436258
 30
0.0
  0
VERTEX
  5
B78
  8
AREA_FLAGGED
 10
733435.55454957858
 20
4555068.3105029659
 30
0.0
  0
VERTEX
  5
B79
  8
AREA_FLAGGED
 10
733420.26175131265
 20
4555087.3014062494
 30
0.0
  0
VERTEX
  5
B7A
  8
AREA_FLAGGED
 10
733406.36464519822
 20
4555103.0557108913
 30
0.0
  0
VERTEX
  5
B7B
  8
AREA_FLAGGED
 10
733395.69756948575
 20
4555121.1142165512
 30
0.0
  0
VERTEX
  5
B7C
  8
AREA_FLAGGED
 10
733379.00907907274
 20
4555141.4983576592
 30
0.0
  0
VERTEX
  5
B7D
  8
AREA_FLAGGED
 10
733369.27911094576
 20
4555153.5445062388
 30
0.0
  0
VERTEX
  5
B7E
  8
AREA_FLAGGED
 10
733362.3205886595
 20
4555162.8041791739
 30
0.0
  0
VERTEX
  5
B7F
  8
AREA_FLAGGED
 10
733392.92612364865
 20
4555179.9517216422
 30
0.0
  0
VERTEX
  5
B80
  8
AREA_FLAGGED
 10
733372.070495244
 20
4555210.5172160892
 30
0.0
  0
VERTEX
  5
B81
  8
AREA_FLAGGED
 10
733358.1534506717
 20
4555233.2162754284
 30
0.0
  0
VERTEX
  5
B82
  8
AREA_FLAGGED
 10
733341.94348328188
 20
4555257.7694128007
 30
0.0
  0
VERTEX
  5
B83
  8
AREA_FLAGGED
 10
733335.44354555744
 20
4555269.815561384
 30
0.0
  0
VERTEX
  5
B84
  8
AREA_FLAGGED
 10
733332.67209971684
 20
4555279.5360745192
 30
0.0
  0
VERTEX
  5
B85
  8
AREA_FLAGGED
 10
733332.67209971684
 20
4555287.413226841
 30
0.0
  0
VERTEX
  5
B86
  8
AREA_FLAGGED
 10
733342.86065240577
 20
4555294.3579815403
 30
0.0
  0
VERTEX
  5
B87
  8
AREA_FLAGGED
 10
733362.3205886595
 20
4555300.3810558319
 30
0.0
  0
VERTEX
  5
B88
  8
AREA_FLAGGED
 10
733372.5290798099
 20
4555304.0892118886
 30
0.0
  0
VERTEX
  5
B89
  8
AREA_FLAGGED
 10
733387.36329350981
 20
4555303.1675314829
 30
0.0
  0
VERTEX
  5
B8A
  8
AREA_FLAGGED
 10
733400.32329203945
 20
4555302.695974065
 30
0.0
  0
VERTEX
  5
B8B
  8
AREA_FLAGGED
 10
733415.15750573936
 20
4555310.1122861803
 30
0.0
  0
VERTEX
  5
B8C
  8
AREA_FLAGGED
 10
733425.36599689
 20
4555318.450278705
 30
0.0
  0
VERTEX
  5
B8D
  8
AREA_FLAGGED
 10
733435.09596501663
 20
4555328.1815090552
 30
0.0
  0
VERTEX
  5
B8E
  8
AREA_FLAGGED
 10
733443.43024099234
 20
4555336.047944162
 30
0.0
  0
VERTEX
  5
B8F
  8
AREA_FLAGGED
 10
733454.55590126663
 20
4555340.6884978423
 30
0.0
  0
VERTEX
  5
B90
  8
AREA_FLAGGED
 10
733470.30728409439
 20
4555314.7421226464
 30
0.0
  0
VERTEX
  5
B91
  8
AREA_FLAGGED
 10
733487.93288209662
 20
4555287.413226841
 30
0.0
  0
VERTEX
  5
B92
  8
AREA_FLAGGED
 10
733500.43429606035
 20
4555257.7694128007
 30
0.0
  0
VERTEX
  5
B93
  8
AREA_FLAGGED
 10
733513.41423304763
 20
4555227.6540413424
 30
0.0
  0
VERTEX
  5
B94
  8
AREA_FLAGGED
 10
733520.83133989933
 20
4555200.7967029521
 30
0.0
  0
VERTEX
  5
B95
  8
AREA_FLAGGED
 10
733525.93558547285
 20
4555175.7827253779
 30
0.0
  0
VERTEX
  5
B96
  8
AREA_FLAGGED
 10
733527.78986218583
 20
4555145.6673539206
 30
0.0
  0
VERTEX
  5
B97
  8
AREA_FLAGGED
 10
733530.5613080262
 20
4555128.5305286683
 30
0.0
  0
VERTEX
  5
B98
  8
AREA_FLAGGED
 10
733527.78986218583
 20
4555110.4613057934
 30
0.0
  0
VERTEX
  5
B99
  8
AREA_FLAGGED
 10
733542.14555286604
 20
4555097.0326365996
 30
0.0
  0
VERTEX
  5
B9A
  8
AREA_FLAGGED
 10
733561.62542757764
 20
4555079.8958113454
 30
0.0
  0
VERTEX
  5
B9B
  8
AREA_FLAGGED
 10
733572.73114939395
 20
4555064.6023469092
 30
0.0
  0
VERTEX
  5
B9C
  8
AREA_FLAGGED
 10
733584.31539423391
 20
4555053.0277557429
 30
0.0
  0
VERTEX
  5
B9D
  8
AREA_FLAGGED
 10
733579.23108711839
 20
4555048.3872020608
 30
0.0
  0
VERTEX
  5
B9E
  8
AREA_FLAGGED
 10
733561.14690455422
 20
4555044.6897632172
 30
0.0
  0
VERTEX
  5
B9F
  8
AREA_FLAGGED
 10
733532.87416930136
 20
4555038.2058487236
 30
0.0
  0
VERTEX
  5
BA0
  8
AREA_FLAGGED
 10
733504.14284948644
 20
4555030.3286964018
 30
0.0
  0
SEQEND
  5
BA1
  8
AREA_FLAGGED
  0
POLYLINE
  5
78
  8
AREA_FLAGGED
 66
     1
 10
0.0
 20
0.0
 30
0.0
 70
     1
  0
VERTEX
  5
BA2
  8
AREA_FLAGGED
 10
734214.869168818
 20
4555972.1467491938
 30
0.0
  0
VERTEX
  5
BA3
  8
AREA_FLAGGED
 10
734233.49168978282
 20
4555960.8829572359
 30
0.0
  0
VERTEX
  5
BA4
  8
AREA_FLAGGED
 10
734250.14030327625
 20
4555947.6579151098
 30
0.0
  0
VERTEX
  5
BA5
  8
AREA_FLAGGED
 10
734263.37944023684
 20
4555932.9646146558
 30
0.0
  0
VERTEX
  5
BA6
  8
AREA_FLAGGED
 10
734276.1201157124
 20
4555917.2960477276
 30
0.0
  0
VERTEX
  5
BA7
  8
AREA_FLAGGED
 10
734284.93291471153
 20
4555900.6414971082
 30
0.0
  0
VERTEX
  5
BA8
  8
AREA_FLAGGED
 10
734289.33931421104
 20
4555889.3777051484
 30
0.0
  0
VERTEX
  5
BA9
  8
AREA_FLAGGED
 10
734241.80602730077
 20
4555815.7397274673
 30
0.0
  0
VERTEX
  5
BAA
  8
AREA_FLAGGED
 10
734231.517782312
 20
4555821.623477974
 30
0.0
  0
VERTEX
  5
BAB
  8
AREA_FLAGGED
 10
734217.80012233183
 20
4555829.4577614404
 30
0.0
  0
VERTEX
  5
BAC
  8
AREA_FLAGGED
 10
734205.05944685626
 20
4555839.7462869203
 30
0.0
  0
VERTEX
  5
BAD
  8
AREA_FLAGGED
 10
734191.34178687271
 20
4555831.9012862416
 30
0.0
  0
VERTEX
  5
BAE
  8
AREA_FLAGGED
 10
734174.67323492107
 20
4555827.4965112712
 30
0.0
  0
VERTEX
  5
BAF
  8
AREA_FLAGGED
 10
734156.54917543766
 20
4555825.0529864691
 30
0.0
  0
VERTEX
  5
BB0
  8
AREA_FLAGGED
 10
734150.16886847105
 20
4555828.9647695934
 30
0.0
  0
VERTEX
  5
BB1
  8
AREA_FLAGGED
 10
734133.02179349214
 20
4555842.1898117224
 30
0.0
  0
VERTEX
  5
BB2
  8
AREA_FLAGGED
 10
734118.80567203101
 20
4555858.3513704957
 30
0.0
  0
VERTEX
  5
BB3
  8
AREA_FLAGGED
 10
734109.01588852343
 20
4555878.9284214573
 30
0.0
  0
VERTEX
  5
BB4
  8
AREA_FLAGGED
 10
734099.20616656158
 20
4555898.0264968798
 30
0.0
  0
VERTEX
  5
BB5
  8
AREA_FLAGGED
 10
734094.79976706207
 20
4555911.7445308529
 30
0.0
  0
VERTEX
  5
BB6
  8
AREA_FLAGGED
 10
734094.32124403864
 20
4555926.437831305
 30
0.0
  0
VERTEX
  5
BB7
  8
AREA_FLAGGED
 10
734092.84579805285
 20
4555933.2968482934
 30
0.0
  0
VERTEX
  5
BB8
  8
AREA_FLAGGED
 10
734085.9869680627
 20
4555936.2333649378
 30
0.0
  0
VERTEX
  5
BB9
  8
AREA_FLAGGED
 10
734075.20026159263
 20
4555937.7016232647
 30
0.0
  0
VERTEX
  5
BBA
  8
AREA_FLAGGED
 10
734065.39053963125
 20
4555939.662873433
 30
0.0
  0
VERTEX
  5
BBB
  8
AREA_FLAGGED
 10
734058.05318661768
 20
4555943.5746565592
 30
0.0
  0
VERTEX
  5
BBC
  8
AREA_FLAGGED
 10
734058.05318661768
 20
4555951.9019318689
 30
0.0
  0
VERTEX
  5
BBD
  8
AREA_FLAGGED
 10
734059.03017112229
 20
4555958.2679570112
 30
0.0
  0
VERTEX
  5
BBE
  8
AREA_FLAGGED
 10
734056.07927914732
 20
4555968.5564824883
 30
0.0
  0
VERTEX
  5
BBF
  8
AREA_FLAGGED
 10
734044.81404965732
 20
4555975.9084913228
 30
0.0
  0
VERTEX
  5
BC0
  8
AREA_FLAGGED
 10
734022.28359067824
 20
4555988.1475497596
 30
0.0
  0
VERTEX
  5
BC1
  8
AREA_FLAGGED
 10
734009.54291519895
 20
4555996.4748250684
 30
0.0
  0
VERTEX
  5
BC2
  8
AREA_FLAGGED
 10
734000.71017774183
 20
4556006.270358704
 30
0.0
  0
VERTEX
  5
BC3
  8
AREA_FLAGGED
 10
733988.94648676738
 20
4556021.9496428482
 30
0.0
  0
VERTEX
  5
BC4
  8
AREA_FLAGGED
 10
733977.18279579654
 20
4556036.1499514543
 30
0.0
  0
VERTEX
  5
BC5
  8
AREA_FLAGGED
 10
733971.32088876911
 20
4556047.9067352572
 30
0.0
  0
VERTEX
  5
BC6
  8
AREA_FLAGGED
 10
733970.32396580651
 20
4556055.7410187218
 30
0.0
  0
VERTEX
  5
BC7
  8
AREA_FLAGGED
 10
733973.27485777799
 20
4556061.6140520163
 30
0.0
  0
VERTEX
  5
BC8
  8
AREA_FLAGGED
 10
733980.63214924955
 20
4556063.0823103404
 30
0.0
  0
VERTEX
  5
BC9
  8
AREA_FLAGGED
 10
733995.32679373794
 20
4556066.0295442026
 30
0.0
  0
VERTEX
  5
BCA
  8
AREA_FLAGGED
 10
734006.59202322736
 20
4556068.966060847
 30
0.0
  0
VERTEX
  5
BCB
  8
AREA_FLAGGED
 10
734019.83116018772
 20
4556071.9025774971
 30
0.0
  0
VERTEX
  5
BCC
  8
AREA_FLAGGED
 10
734029.14242066815
 20
4556074.8390941452
 30
0.0
  0
VERTEX
  5
BCD
  8
AREA_FLAGGED
 10
734035.02426615346
 20
4556074.8390941452
 30
0.0
  0
VERTEX
  5
BCE
  8
AREA_FLAGGED
 10
734055.10229464632
 20
4556060.6387855392
 30
0.0
  0
VERTEX
  5
BCF
  8
AREA_FLAGGED
 10
734078.1312151067
 20
4556045.9454850871
 30
0.0
  0
VERTEX
  5
BD0
  8
AREA_FLAGGED
 10
734100.68161254749
 20
4556034.1887012832
 30
0.0
  0
VERTEX
  5
BD1
  8
AREA_FLAGGED
 10
734120.77957949776
 20
4556022.9249093253
 30
0.0
  0
VERTEX
  5
BD2
  8
AREA_FLAGGED
 10
734133.9987779964
 20
4556018.520134354
 30
0.0
  0
VERTEX
  5
BD3
  8
AREA_FLAGGED
 10
734124.208994493
 20
4555942.106398236
 30
0.0
  0
VERTEX
  5
BD4
  8
AREA_FLAGGED
 10
734160.95557493705
 20
4555866.6786458082
 30
0.0
  0
VERTEX
  5
BD5
  8
AREA_FLAGGED
 10
734194.27274038643
 20
4555877.9424377661
 30
0.0
  0
VERTEX
  5
BD6
  8
AREA_FLAGGED
 10
734195.94724846375
 20
4555885.163776896
 30
0.0
  0
VERTEX
  5
BD7
  8
AREA_FLAGGED
 10
734192.25760990125
 20
4555891.3658659915
 30
0.0
  0
VERTEX
  5
BD8
  8
AREA_FLAGGED
 10
734190.91593510809
 20
4555894.2155509237
 30
0.0
  0
VERTEX
  5
BD9
  8
AREA_FLAGGED
 10
734196.78584453091
 20
4555901.5910521718
 30
0.0
  0
VERTEX
  5
BDA
  8
AREA_FLAGGED
 10
734203.1587011565
 20
4555905.6140785627
 30
0.0
  0
VERTEX
  5
BDB
  8
AREA_FLAGGED
 10
734209.9643078373
 20
4555941.61340639
 30
0.0
  0
SEQEND
  5
BDC
  8
AREA_FLAGGED
  0
POLYLINE
  5
79
  8
AREA_FLAGGED
 66
     1
 10
0.0
 20
0.0
 30
0.0
 70
     1
  0
VERTEX
  5
BDD
  8
AREA_FLAGGED
 10
734188.39089490124
 20
4556025.0469177058
 30
0.0
  0
VERTEX
  5
BDE
  8
AREA_FLAGGED
 10
734177.62412689265
 20
4556032.3989265393
 30
0.0
  0
VERTEX
  5
BDF
  8
AREA_FLAGGED
 10
734160.95557493705
 20
4556045.1309768204
 30
0.0
  0
VERTEX
  5
BE0
  8
AREA_FLAGGED
 10
734154.09674494714
 20
4556052.9652602859
 30
0.0
  0
VERTEX
  5
BE1
  8
AREA_FLAGGED
 10
734150.66732995235
 20
4556058.8490107944
 30
0.0
  0
VERTEX
  5
BE2
  8
AREA_FLAGGED
 10
734151.1657914333
 20
4556066.190302413
 30
0.0
  0
VERTEX
  5
BE3
  8
AREA_FLAGGED
 10
734154.59520642844
 20
4556070.1128027523
 30
0.0
  0
VERTEX
  5
BE4
  8
AREA_FLAGGED
 10
734162.90954394639
 20
4556074.5175777227
 30
0.0
  0
VERTEX
  5
BE5
  8
AREA_FLAGGED
 10
734173.69625041634
 20
4556078.922352694
 30
0.0
  0
VERTEX
  5
BE6
  8
AREA_FLAGGED
 10
734183.98449540127
 20
4556080.883602865
 30
0.0
  0
VERTEX
  5
BE7
  8
AREA_FLAGGED
 10
734192.81723285862
 20
4556079.9083363861
 30
0.0
  0
VERTEX
  5
BE8
  8
AREA_FLAGGED
 10
734204.08246235177
 20
4556071.5810610773
 30
0.0
  0
VERTEX
  5
BE9
  8
AREA_FLAGGED
 10
734215.34769184154
 20
4556057.3700352572
 30
0.0
  0
VERTEX
  5
BEA
  8
AREA_FLAGGED
 10
734223.68196781725
 20
4556046.1062432975
 30
0.0
  0
VERTEX
  5
BEB
  8
AREA_FLAGGED
 10
734235.44565879193
 20
4556029.451692678
 30
0.0
  0
SEQEND
  5
BEC
  8
AREA_FLAGGED
  0
POLYLINE
  5
7A
  8
AREA_FLAGGED
 66
     1
 10
0.0
 20
0.0
 30
0.0
 70
     1
  0
VERTEX
  5
BED
  8
AREA_FLAGGED
 10
734201.13157037622
 20
4555955.4921985744
 30
0.0
  0
VERTEX
  5
BEE
  8
AREA_FLAGGED
 10
734208.98732333258
 20
4556017.2126342403
 30
0.0
  0
VERTEX
  5
BEF
  8
AREA_FLAGGED
 10
734142.83151545736
 20
4556008.8853589306
 30
0.0
  0
VERTEX
  5
BF0
  8
AREA_FLAGGED
 10
734134.97576250124
 20
4555946.6826486308
 30
0.0
  0
VERTEX
  5
BF1
  8
AREA_FLAGGED
 10
734149.19188396644
 20
4555953.5416656174
 30
0.0
  0
VERTEX
  5
BF2
  8
AREA_FLAGGED
 10
734166.8374204227
 20
4555959.9076907597
 30
0.0
  0
VERTEX
  5
BF3
  8
AREA_FLAGGED
 10
734183.50597237807
 20
4555959.9076907597
 30
0.0
  0
VERTEX
  5
BF4
  8
AREA_FLAGGED
 10
734195.26966335264
 20
4555956.9711741107
 30
0.0
  0
SEQEND
  5
BF5
  8
AREA_FLAGGED
  0
POLYLINE
  5
7B
  8
AREA_FLAGGED
 66
     1
 10
0.0
 20
0.0
 30
0.0
 70
     1
  0
VERTEX
  5
BF6
  8
AREA_FLAGGED
 10
734260.92700974655
 20
4556021.6174092116
 30
0.0
  0
VERTEX
  5
BF7
  8
AREA_FLAGGED
 10
734264.85488622263
 20
4556029.451692678
 30
0.0
  0
VERTEX
  5
BF8
  8
AREA_FLAGGED
 10
734271.71371621266
 20
4556045.1309768204
 30
0.0
  0
VERTEX
  5
BF9
  8
AREA_FLAGGED
 10
734273.66768522188
 20
4556055.4195023002
 30
0.0
  0
VERTEX
  5
BFA
  8
AREA_FLAGGED
 10
734208.48886185151
 20
4556105.37243695
 30
0.0
  0
VERTEX
  5
BFB
  8
AREA_FLAGGED
 10
734211.91827684629
 20
4556118.5974790789
 30
0.0
  0
VERTEX
  5
BFC
  8
AREA_FLAGGED
 10
734224.65895232186
 20
4556136.7202880234
 30
0.0
  0
VERTEX
  5
BFD
  8
AREA_FLAGGED
 10
734239.85205829144
 20
4556147.0088135032
 30
0.0
  0
VERTEX
  5
BFE
  8
AREA_FLAGGED
 10
734256.99913326651
 20
4556155.3360888138
 30
0.0
  0
VERTEX
  5
BFF
  8
AREA_FLAGGED
 10
734272.69070071704
 20
4556158.272605462
 30
0.0
  0
VERTEX
  5
C00
  8
AREA_FLAGGED
 10
734283.95593020704
 20
4556157.7796136159
 30
0.0
  0
VERTEX
  5
C01
  8
AREA_FLAGGED
 10
734297.1950671674
 20
4556145.5405551791
 30
0.0
  0
VERTEX
  5
C02
  8
AREA_FLAGGED
 10
734312.86669615656
 20
4556129.3789964039
 30
0.0
  0
VERTEX
  5
C03
  8
AREA_FLAGGED
 10
734327.56134064507
 20
4556113.6997122616
 30
0.0
  0
VERTEX
  5
C04
  8
AREA_FLAGGED
 10
734335.89561662066
 20
4556098.0311453324
 30
0.0
  0
VERTEX
  5
C05
  8
AREA_FLAGGED
 10
734339.32503161579
 20
4556084.8061032034
 30
0.0
  0
VERTEX
  5
C06
  8
AREA_FLAGGED
 10
734339.32503161579
 20
4556069.6198109072
 30
0.0
  0
VERTEX
  5
C07
  8
AREA_FLAGGED
 10
734337.37106260669
 20
4556056.8877606243
 30
0.0
  0
VERTEX
  5
C08
  8
AREA_FLAGGED
 10
734334.91863211605
 20
4556051.0040101139
 30
0.0
  0
VERTEX
  5
C09
  8
AREA_FLAGGED
 10
734335.41709359735
 20
4556041.7014683262
 30
0.0
  0
VERTEX
  5
C0A
  8
AREA_FLAGGED
 10
734338.34804711095
 20
4556028.4764261991
 30
0.0
  0
VERTEX
  5
C0B
  8
AREA_FLAGGED
 10
734337.86952408764
 20
4556019.6561590433
 30
0.0
  0
VERTEX
  5
C0C
  8
AREA_FLAGGED
 10
734333.94164761156
 20
4556002.5193337891
 30
0.0
  0
VERTEX
  5
C0D
  8
AREA_FLAGGED
 10
734327.56134064507
 20
4555990.7625499852
 30
0.0
  0
SEQEND
  5
C0E
  8
AREA_FLAGGED
  0
POLYLINE
  5
7C
  8
AREA_FLAGGED
 66
     1
 10
0.0
 20
0.0
 30
0.0
 70
     1
  0
VERTEX
  5
C0F
  8
AREA_FLAGGED
 10
734397.12662505358
 20
4555960.7007645993
 30
0.0
  0
VERTEX
  5
C10
  8
AREA_FLAGGED
 10
734381.85376524937
 20
4555966.0379371904
 30
0.0
  0
VERTEX
  5
C11
  8
AREA_FLAGGED
 10
734363.55025963485
 20
4555975.1797207687
 30
0.0
  0
VERTEX
  5
C12
  8
AREA_FLAGGED
 10
734355.49512208626
 20
4555982.9282665215
 30
0.0
  0
VERTEX
  5
C13
  8
AREA_FLAGGED
 10
734351.08872258675
 20
4555992.2308083102
 30
0.0
  0
VERTEX
  5
C14
  8
AREA_FLAGGED
 10
734351.08872258675
 20
4556000.5580836199
 30
0.0
  0
VERTEX
  5
C15
  8
AREA_FLAGGED
 10
734355.49512208626
 20
4556004.4805839602
 30
0.0
  0
VERTEX
  5
C16
  8
AREA_FLAGGED
 10
734366.28182855621
 20
4556007.4171006028
 30
0.0
  0
VERTEX
  5
C17
  8
AREA_FLAGGED
 10
734387.85524149251
 20
4556008.3923670854
 30
0.0
  0
VERTEX
  5
C18
  8
AREA_FLAGGED
 10
734400.09745548666
 20
4556009.8606254077
 30
0.0
  0
VERTEX
  5
C19
  8
AREA_FLAGGED
 10
734408.4317314662
 20
4556008.3923670854
 30
0.0
  0
VERTEX
  5
C1A
  8
AREA_FLAGGED
 10
734414.31357695186
 20
4556003.0123256352
 30
0.0
  0
VERTEX
  5
C1B
  8
AREA_FLAGGED
 10
734416.76600744179
 20
4555989.2942916621
 30
0.0
  0
VERTEX
  5
C1C
  8
AREA_FLAGGED
 10
734417.74299194664
 20
4555976.069249535
 30
0.0
  0
VERTEX
  5
C1D
  8
AREA_FLAGGED
 10
734415.76908447605
 20
4555968.2349660695
 30
0.0
  0
VERTEX
  5
C1E
  8
AREA_FLAGGED
 10
734413.81511547056
 20
4555962.844207406
 30
0.0
  0
VERTEX
  5
C1F
  8
AREA_FLAGGED
 10
734407.45474696159
 20
4555959.9076907597
 30
0.0
  0
SEQEND
  5
C20
  8
AREA_FLAGGED
  0
POLYLINE
  5
7D
  8
AREA_FLAGGED
 66
     1
 10
0.0
 20
0.0
 30
0.0
 70
     1
  0
VERTEX
  5
C21
  8
AREA_FLAGGED
 10
737215.02848565555
 20
4560268.8339398224
 30
0.0
  0
VERTEX
  5
C22
  8
AREA_FLAGGED
 10
737193.28964061395
 20
4560280.2195774158
 30
0.0
  0
VERTEX
  5
C23
  8
AREA_FLAGGED
 10
737210.72878244985
 20
4560311.8695388827
 30
0.0
  0
VERTEX
  5
C24
  8
AREA_FLAGGED
 10
737224.95558577485
 20
4560333.8869587081
 30
0.0
  0
VERTEX
  5
C25
  8
AREA_FLAGGED
 10
737236.42867425317
 20
4560351.7760858061
 30
0.0
  0
VERTEX
  5
C26
  8
AREA_FLAGGED
 10
737247.4430075431
 20
4560354.0695346361
 30
0.0
  0
VERTEX
  5
C27
  8
AREA_FLAGGED
 10
737259.37511425815
 20
4560362.7847957183
 30
0.0
  0
VERTEX
  5
C28
  8
AREA_FLAGGED
 10
737273.28904291615
 20
4560385.3013111986
 30
0.0
  0
VERTEX
  5
C29
  8
AREA_FLAGGED
 10
737289.65369773656
 20
4560406.2391455127
 30
0.0
  0
VERTEX
  5
C2A
  8
AREA_FLAGGED
 10
737306.01835256058
 20
4560424.5584145375
 30
0.0
  0
VERTEX
  5
C2B
  8
AREA_FLAGGED
 10
737317.15347613394
 20
4560436.3366143405
 30
0.0
  0
VERTEX
  5
C2C
  8
AREA_FLAGGED
 10
737336.77913142706
 20
4560439.6071489491
 30
0.0
  0
VERTEX
  5
C2D
  8
AREA_FLAGGED
 10
737356.42467087519
 20
4560435.6739570014
 30
0.0
  0
VERTEX
  5
C2E
  8
AREA_FLAGGED
 10
737383.9244492685
 20
4560421.9398492454
 30
0.0
  0
VERTEX
  5
C2F
  8
AREA_FLAGGED
 10
737397.66439639044
 20
4560406.891114831
 30
0.0
  0
VERTEX
  5
C30
  8
AREA_FLAGGED
 10
737405.51863534015
 20
4560393.7982883714
 30
0.0
  0
VERTEX
  5
C31
  8
AREA_FLAGGED
 10
737402.89392764133
 20
4560379.4122112971
 30
0.0
  0
VERTEX
  5
C32
  8
AREA_FLAGGED
 10
737395.03968869161
 20
4560364.3634768836
 30
0.0
  0
VERTEX
  5
C33
  8
AREA_FLAGGED
 10
737385.89298004296
 20
4560344.7295812052
 30
0.0
  0
VERTEX
  5
C34
  8
AREA_FLAGGED
 10
737376.72638724372
 20
4560324.4544042302
 30
0.0
  0
VERTEX
  5
C35
  8
AREA_FLAGGED
 10
737366.90361752349
 20
4560298.279439332
 30
0.0
  0
VERTEX
  5
C36
  8
AREA_FLAGGED
 10
737355.76849395048
 20
4560272.1044744318
 30
0.0
  0
VERTEX
  5
C37
  8
AREA_FLAGGED
 10
737339.40383912623
 20
4560242.6696629459
 30
0.0
  0
VERTEX
  5
C38
  8
AREA_FLAGGED
 10
737321.72683045629
 20
4560221.7318286309
 30
0.0
  0
VERTEX
  5
C39
  8
AREA_FLAGGED
 10
737313.98736789986
 20
4560214.1673886338
 30
0.0
  0
VERTEX
  5
C3A
  8
AREA_FLAGGED
 10
737303.89093955816
 20
4560215.5434862114
 30
0.0
  0
VERTEX
  5
C3B
  8
AREA_FLAGGED
 10
737281.40351779026
 20
4560218.2956106672
 30
0.0
  0
VERTEX
  5
C3C
  8
AREA_FLAGGED
 10
737262.58758429287
 20
4560221.0478058178
 30
0.0
  0
VERTEX
  5
C3D
  8
AREA_FLAGGED
 10
737248.41397222155
 20
4560227.6209285324
 30
0.0
  0
VERTEX
  5
C3E
  8
AREA_FLAGGED
 10
737234.01784817514
 20
4560251.1666401178
 30
0.0
  0
SEQEND
  5
C3F
  8
AREA_FLAGGED
  0
ENDSEC
  0
EOF
