  0
SECTION
  2
HEADER
  9
$ACADVER
  1
AC1009
  9
$INSBASE
 10
0.0
 20
0.0
 30
0.0
  9
$EXTMIN
 10
630.30714215845956
 20
4663.933351421113
 30
19.998932024462761
  9
$EXTMAX
 10
669.40833461340003
 20
4697.2943015732562
 30
20.002746663525169
  9
$LIMMIN
 10
0.0
 20
0.0
  9
$LIMMAX
 10
12.0
 20
9.0
  9
$ORTHOMODE
 70
     0
  9
$REGENMODE
 70
     1
  9
$FILLMODE
 70
     1
  9
$QTEXTMODE
 70
     0
  9
$MIRRTEXT
 70
     1
  9
$DRAGMODE
 70
     2
  9
$LTSCALE
 40
1.0
  9
$OSMODE
 70
   613
  9
$ATTMODE
 70
     1
  9
$TEXTSIZE
 40
0.5
  9
$TRACEWID
 40
0.05
  9
$TEXTSTYLE
  7
STANDARD
  9
$CLAYER
  8
CLUSTERS
  9
$CELTYPE
  6
BYLAYER
  9
$CECOLOR
 62
   256
  9
$DIMSCALE
 40
1.0
  9
$DIMASZ
 40
0.18
  9
$DIMEXO
 40
0.0625
  9
$DIMDLI
 40
0.38
  9
$DIMRND
 40
0.0
  9
$DIMDLE
 40
0.0
  9
$DIMEXE
 40
0.18
  9
$DIMTP
 40
0.0
  9
$DIMTM
 40
0.0
  9
$DIMTXT
 40
0.18
  9
$DIMCEN
 40
0.09
  9
$DIMTSZ
 40
0.0
  9
$DIMTOL
 70
     0
  9
$DIMLIM
 70
     0
  9
$DIMTIH
 70
     1
  9
$DIMTOH
 70
     1
  9
$DIMSE1
 70
     0
  9
$DIMSE2
 70
     0
  9
$DIMTAD
 70
     0
  9
$DIMZIN
 70
     0
  9
$DIMBLK
  1

  9
$DIMASO
 70
     1
  9
$DIMSHO
 70
     1
  9
$DIMPOST
  1

  9
$DIMAPOST
  1

  9
$DIMALT
 70
     0
  9
$DIMALTD
 70
     2
  9
$DIMALTF
 40
25.399999999999999
  9
$DIMLFAC
 40
1.0
  9
$DIMTOFL
 70
     0
  9
$DIMTVP
 40
0.0
  9
$DIMTIX
 70
     0
  9
$DIMSOXD
 70
     0
  9
$DIMSAH
 70
     0
  9
$DIMBLK1
  1

  9
$DIMBLK2
  1

  9
$DIMSTYLE
  2
STANDARD
  9
$DIMCLRD
 70
     0
  9
$DIMCLRE
 70
     0
  9
$DIMCLRT
 70
     0
  9
$DIMTFAC
 40
1.0
  9
$DIMGAP
 40
0.09
  9
$LUNITS
 70
     2
  9
$LUPREC
 70
     4
  9
$SKETCHINC
 40
0.1
  9
$FILLETRAD
 40
0.5
  9
$AUNITS
 70
     0
  9
$AUPREC
 70
     0
  9
$MENU
  1
.
  9
$ELEVATION
 40
0.0
  9
$PELEVATION
 40
0.0
  9
$THICKNESS
 40
0.0
  9
$LIMCHECK
 70
     0
  9
$BLIPMODE
 70
     0
  9
$CHAMFERA
 40
0.5
  9
$CHAMFERB
 40
0.5
  9
$SKPOLY
 70
     0
  9
$TDCREATE
 40
2454381.8473497801
  9
$TDUPDATE
 40
2455808.6723504402
  9
$TDINDWG
 40
0.270374294
  9
$TDUSRTIMER
 40
0.270374294
  9
$USRTIMER
 70
     1
  9
$ANGBASE
 50
0.0
  9
$ANGDIR
 70
     1
  9
$PDMODE
 70
    66
  9
$PDSIZE
 40
0.0
  9
$PLINEWID
 40
0.0
  9
$COORDS
 70
     1
  9
$SPLFRAME
 70
     0
  9
$SPLINETYPE
 70
     6
  9
$SPLINESEGS
 70
     8
  9
$ATTDIA
 70
     0
  9
$ATTREQ
 70
     1
  9
$HANDLING
 70
     1
  9
$HANDSEED
  5
FD6
  9
$SURFTAB1
 70
     6
  9
$SURFTAB2
 70
     6
  9
$SURFTYPE
 70
     6
  9
$SURFU
 70
     6
  9
$SURFV
 70
     6
  9
$UCSNAME
  2

  9
$UCSORG
 10
0.0
 20
0.0
 30
0.0
  9
$UCSXDIR
 10
1.0
 20
0.0
 30
0.0
  9
$UCSYDIR
 10
0.0
 20
1.0
 30
0.0
  9
$PUCSNAME
  2

  9
$PUCSORG
 10
0.0
 20
0.0
 30
0.0
  9
$PUCSXDIR
 10
1.0
 20
0.0
 30
0.0
  9
$PUCSYDIR
 10
0.0
 20
1.0
 30
0.0
  9
$USERI1
 70
     0
  9
$USERI2
 70
     0
  9
$USERI3
 70
     0
  9
$USERI4
 70
     0
  9
$USERI5
 70
     0
  9
$USERR1
 40
0.0
  9
$USERR2
 40
0.0
  9
$USERR3
 40
0.0
  9
$USERR4
 40
0.0
  9
$USERR5
 40
0.0
  9
$WORLDVIEW
 70
     1
  9
$SHADEDGE
 70
     3
  9
$SHADEDIF
 70
    70
  9
$TILEMODE
 70
     1
  9
$MAXACTVP
 70
    64
  9
$PLIMCHECK
 70
     0
  9
$PEXTMIN
 10
0.0
 20
0.0
 30
0.0
  9
$PEXTMAX
 10
0.0
 20
0.0
 30
0.0
  9
$PLIMMIN
 10
0.0
 20
0.0
  9
$PLIMMAX
 10
12.0
 20
9.0
  9
$UNITMODE
 70
     0
  9
$VISRETAIN
 70
     1
  9
$PLINEGEN
 70
     0
  9
$PSLTSCALE
 70
     1
  0
ENDSEC
  0
SECTION
  2
TABLES
  0
TABLE
  2
VPORT
 70
     1
  0
VPORT
  2
*ACTIVE
 70
     0
 10
0.0
 20
0.0
 11
1.0
 21
1.0
 12
649.85773838592979
 22
4680.6138264971851
 13
0.0
 23
0.0
 14
0.5
 24
0.5
 15
0.5
 25
0.5
 16
0.0
 26
0.0
 36
1.0
 17
0.0
 27
0.0
 37
0.0
 40
33.607156426327499
 41
1.336206896551724
 42
50.0
 43
0.0
 44
0.0
 50
0.0
 51
0.0
 71
     0
 72
   100
 73
     1
 74
     2
 75
     0
 76
     0
 77
     0
 78
     0
  0
ENDTAB
  0
TABLE
  2
LTYPE
 70
     1
  0
LTYPE
  2
CONTINUOUS
 70
     0
  3
Solid line
 72
    65
 73
     0
 40
0.0
  0
ENDTAB
  0
TABLE
  2
LAYER
 70
     2
  0
LAYER
  2
0
 70
     0
 62
    -7
  6
CONTINUOUS
  0
LAYER
  2
CLUSTERS
 70
     0
 62
     6
  6
CONTINUOUS
  0
ENDTAB
  0
TABLE
  2
STYLE
 70
     3
  0
STYLE
  2
STANDARD
 70
     0
 40
0.0
 41
1.0
 50
0.0
 71
     0
 42
0.5
  3
txt
  4

  0
STYLE
  2
ANNOTATIVE
 70
     0
 40
0.0
 41
1.0
 50
0.0
 71
     0
 42
0.2
  3
txt
  4

  0
STYLE
  2
LEGEND
 70
     0
 40
0.0
 41
1.0
 50
0.0
 71
     0
 42
0.5
  3
txt
  4

  0
ENDTAB
  0
TABLE
  2
VIEW
 70
     0
  0
ENDTAB
  0
TABLE
  2
UCS
 70
     0
  0
ENDTAB
  0
TABLE
  2
APPID
 70
     7
  0
APPID
  2
ACAD
 70
     0
  0
APPID
  2
ACADANNOTATIVE
 70
     0
  0
APPID
  2
ADE
 70
     0
  0
APPID
  2
ACMAPDMDISPLAYSTYLEREGAPP
 70
     0
  0
APPID
  2
MAPGWS
 70
     0
  0
APPID
  2
DCO15
 70
     0
  0
APPID
  2
ACAD_MLEADERVER
 70
     0
  0
ENDTAB
  0
TABLE
  2
DIMSTYLE
 70
     2
  0
DIMSTYLE
  2
STANDARD
 70
     0
  3

  4

  5

  6

  7

 40
1.0
 41
0.18
 42
0.0625
 43
0.38
 44
0.18
 45
0.0
 46
0.0
 47
0.0
 48
0.0
140
0.18
141
0.09
142
0.0
143
25.399999999999999
144
1.0
145
0.0
146
1.0
147
0.09
 71
     0
 72
     0
 73
     1
 74
     1
 75
     0
 76
     0
 77
     0
 78
     0
170
     0
171
     2
172
     0
173
     0
174
     0
175
     0
176
     0
177
     0
178
     0
  0
DIMSTYLE
  2
ANNOTATIVE
 70
     0
  3

  4

  5

  6

  7

 40
1.0
 41
0.18
 42
0.0625
 43
0.38
 44
0.18
 45
0.0
 46
0.0
 47
0.0
 48
0.0
140
0.18
141
0.09
142
0.0
143
25.399999999999999
144
1.0
145
0.0
146
1.0
147
0.09
 71
     0
 72
     0
 73
     1
 74
     1
 75
     0
 76
     0
 77
     0
 78
     0
170
     0
171
     2
172
     0
173
     0
174
     0
175
     0
176
     0
177
     0
178
     0
  0
ENDTAB
  0
ENDSEC
  0
SECTION
  2
BLOCKS
  0
BLOCK
  8
0
  2
$MODEL_SPACE
 70
     0
 10
0.0
 20
0.0
 30
0.0
  3
$MODEL_SPACE
  1

  0
ENDBLK
  5
833
  8
0
  0
BLOCK
 67
     1
  8
0
  2
$PAPER_SPACE
 70
     0
 10
0.0
 20
0.0
 30
0.0
  3
$PAPER_SPACE
  1

  0
ENDBLK
  5
82F
 67
     1
  8
0
  0
ENDSEC
  0
SECTION
  2
ENTITIES
  0
POLYLINE
  5
28
  8
CLUSTERS
 66
     1
 10
0.0
 20
0.0
 30
20.0
 70
   129
  0
VERTEX
  5
86B
  8
CLUSTERS
 10
660.54125876299997
 20
4696.88782816
 30
20.0
  0
VERTEX
  5
86C
  8
CLUSTERS
 10
660.49557833300003
 20
4696.9880668300002
 30
20.0
  0
VERTEX
  5
86D
  8
CLUSTERS
 10
660.49158774499995
 20
4697.0883054899996
 30
20.0
  0
VERTEX
  5
86E
  8
CLUSTERS
 10
660.57734204799999
 20
4697.1713027200012
 30
20.0
  0
VERTEX
  5
86F
  8
CLUSTERS
 10
660.67755991299975
 20
4697.1854197399998
 30
20.0
  0
VERTEX
  5
870
  8
CLUSTERS
 10
660.77777777799997
 20
4697.0995536500013
 30
20.0
  0
VERTEX
  5
871
  8
CLUSTERS
 10
660.78858001799995
 20
4697.0883054899996
 30
20.0
  0
VERTEX
  5
872
  8
CLUSTERS
 10
660.84430723499997
 20
4696.9880668300002
 30
20.0
  0
VERTEX
  5
873
  8
CLUSTERS
 10
660.83167302899994
 20
4696.88782816
 30
20.0
  0
VERTEX
  5
874
  8
CLUSTERS
 10
660.77777777799997
 20
4696.8247808899996
 30
20.0
  0
VERTEX
  5
875
  8
CLUSTERS
 10
660.67755991299975
 20
4696.7943588600001
 30
20.0
  0
VERTEX
  5
876
  8
CLUSTERS
 10
660.57734204799999
 20
4696.8495404699979
 30
20.0
  0
VERTEX
  5
877
  8
CLUSTERS
 10
660.54125876299997
 20
4696.88782816
 30
20.0
  0
SEQEND
  5
878
  8
CLUSTERS
  0
POLYLINE
  5
29
  8
CLUSTERS
 66
     1
 10
0.0
 20
0.0
 30
20.0
 70
   129
  0
VERTEX
  5
879
  8
CLUSTERS
 10
632.84389267400002
 20
4696.5871121700002
 30
20.0
  0
VERTEX
  5
87A
  8
CLUSTERS
 10
632.917211329
 20
4696.6800372799999
 30
20.0
  0
VERTEX
  5
87B
  8
CLUSTERS
 10
632.96760755000003
 20
4696.6873508400004
 30
20.0
  0
VERTEX
  5
87C
  8
CLUSTERS
 10
632.917211329
 20
4696.6974718600013
 30
20.0
  0
VERTEX
  5
87D
  8
CLUSTERS
 10
632.85096075199999
 20
4696.7875895000006
 30
20.0
  0
VERTEX
  5
87E
  8
CLUSTERS
 10
632.84332617799976
 20
4696.88782816
 30
20.0
  0
VERTEX
  5
87F
  8
CLUSTERS
 10
632.917211329
 20
4696.9727330300002
 30
20.0
  0
VERTEX
  5
880
  8
CLUSTERS
 10
632.94793556900004
 20
4696.9880668300002
 30
20.0
  0
VERTEX
  5
881
  8
CLUSTERS
 10
633.01742919399976
 20
4697.0489184400012
 30
20.0
  0
VERTEX
  5
882
  8
CLUSTERS
 10
633.08118104699997
 20
4696.9880668300002
 30
20.0
  0
VERTEX
  5
883
  8
CLUSTERS
 10
633.075353124
 20
4696.88782816
 30
20.0
  0
VERTEX
  5
884
  8
CLUSTERS
 10
633.11764705899986
 20
4696.8466094699988
 30
20.0
  0
VERTEX
  5
885
  8
CLUSTERS
 10
633.17183504100001
 20
4696.7875895000006
 30
20.0
  0
VERTEX
  5
886
  8
CLUSTERS
 10
633.11764705899986
 20
4696.7123254500002
 30
20.0
  0
VERTEX
  5
887
  8
CLUSTERS
 10
633.05717129699985
 20
4696.6873508400004
 30
20.0
  0
VERTEX
  5
888
  8
CLUSTERS
 10
633.07488930999989
 20
4696.5871121700002
 30
20.0
  0
VERTEX
  5
889
  8
CLUSTERS
 10
633.01742919399976
 20
4696.5171592300003
 30
20.0
  0
VERTEX
  5
88A
  8
CLUSTERS
 10
632.917211329
 20
4696.4934962999987
 30
20.0
  0
VERTEX
  5
88B
  8
CLUSTERS
 10
632.84389267400002
 20
4696.5871121700002
 30
20.0
  0
SEQEND
  5
88C
  8
CLUSTERS
  0
POLYLINE
  5
2A
  8
CLUSTERS
 66
     1
 10
0.0
 20
0.0
 30
20.0
 70
   129
  0
VERTEX
  5
88D
  8
CLUSTERS
 10
630.44855131400004
 20
4696.2863961800003
 30
20.0
  0
VERTEX
  5
88E
  8
CLUSTERS
 10
630.51198257099998
 20
4696.3553067499997
 30
20.0
  0
VERTEX
  5
88F
  8
CLUSTERS
 10
630.52097094700002
 20
4696.3866348399979
 30
20.0
  0
VERTEX
  5
890
  8
CLUSTERS
 10
630.59927130699998
 20
4696.486873509999
 30
20.0
  0
VERTEX
  5
891
  8
CLUSTERS
 10
630.51198257099998
 20
4696.5245600500002
 30
20.0
  0
VERTEX
  5
892
  8
CLUSTERS
 10
630.44052928099995
 20
4696.5871121700002
 30
20.0
  0
VERTEX
  5
893
  8
CLUSTERS
 10
630.41176470599987
 20
4696.6366841999998
 30
20.0
  0
VERTEX
  5
894
  8
CLUSTERS
 10
630.37920883799995
 20
4696.6873508400004
 30
20.0
  0
VERTEX
  5
895
  8
CLUSTERS
 10
630.41176470599987
 20
4696.7211858399996
 30
20.0
  0
VERTEX
  5
896
  8
CLUSTERS
 10
630.51198257099998
 20
4696.77542257
 30
20.0
  0
VERTEX
  5
897
  8
CLUSTERS
 10
630.61220043599985
 20
4696.7875049599988
 30
20.0
  0
VERTEX
  5
898
  8
CLUSTERS
 10
630.612207302
 20
4696.7875895000006
 30
20.0
  0
VERTEX
  5
899
  8
CLUSTERS
 10
630.67097448200002
 20
4696.88782816
 30
20.0
  0
VERTEX
  5
89A
  8
CLUSTERS
 10
630.71241830099984
 20
4696.9264116100003
 30
20.0
  0
VERTEX
  5
89B
  8
CLUSTERS
 10
630.81263616599995
 20
4696.9776560500004
 30
20.0
  0
VERTEX
  5
89C
  8
CLUSTERS
 10
630.91285403099994
 20
4696.9777588400002
 30
20.0
  0
VERTEX
  5
89D
  8
CLUSTERS
 10
630.92443492699999
 20
4696.9880668300002
 30
20.0
  0
VERTEX
  5
89E
  8
CLUSTERS
 10
631.01307189500005
 20
4697.0618017899988
 30
20.0
  0
VERTEX
  5
89F
  8
CLUSTERS
 10
631.10672207200003
 20
4696.9880668300002
 30
20.0
  0
VERTEX
  5
8A0
  8
CLUSTERS
 10
631.08870094600002
 20
4696.88782816
 30
20.0
  0
VERTEX
  5
8A1
  8
CLUSTERS
 10
631.11037914199994
 20
4696.7875895000006
 30
20.0
  0
VERTEX
  5
8A2
  8
CLUSTERS
 10
631.10806326300008
 20
4696.6873508400004
 30
20.0
  0
VERTEX
  5
8A3
  8
CLUSTERS
 10
631.08836138000004
 20
4696.5871121700002
 30
20.0
  0
VERTEX
  5
8A4
  8
CLUSTERS
 10
631.01307189500005
 20
4696.4997308299999
 30
20.0
  0
VERTEX
  5
8A5
  8
CLUSTERS
 10
630.99287889799996
 20
4696.486873509999
 30
20.0
  0
VERTEX
  5
8A6
  8
CLUSTERS
 10
630.96967041900007
 20
4696.3866348399979
 30
20.0
  0
VERTEX
  5
8A7
  8
CLUSTERS
 10
630.91285403099994
 20
4696.3032494400004
 30
20.0
  0
VERTEX
  5
8A8
  8
CLUSTERS
 10
630.90419004
 20
4696.2863961800003
 30
20.0
  0
VERTEX
  5
8A9
  8
CLUSTERS
 10
630.81263616599995
 20
4696.2125742999979
 30
20.0
  0
VERTEX
  5
8AA
  8
CLUSTERS
 10
630.71241830099984
 20
4696.1948398200002
 30
20.0
  0
VERTEX
  5
8AB
  8
CLUSTERS
 10
630.61220043599985
 20
4696.1909941000013
 30
20.0
  0
VERTEX
  5
8AC
  8
CLUSTERS
 10
630.51198257099998
 20
4696.1971256200004
 30
20.0
  0
VERTEX
  5
8AD
  8
CLUSTERS
 10
630.44855131400004
 20
4696.2863961800003
 30
20.0
  0
SEQEND
  5
8AE
  8
CLUSTERS
  0
POLYLINE
  5
2B
  8
CLUSTERS
 66
     1
 10
0.0
 20
0.0
 30
20.0
 70
   129
  0
VERTEX
  5
8AF
  8
CLUSTERS
 10
631.44327084700001
 20
4695.9856801899978
 30
20.0
  0
VERTEX
  5
8B0
  8
CLUSTERS
 10
631.51416122000001
 20
4696.0517680900002
 30
20.0
  0
VERTEX
  5
8B1
  8
CLUSTERS
 10
631.51743147299999
 20
4696.0859188499999
 30
20.0
  0
VERTEX
  5
8B2
  8
CLUSTERS
 10
631.51791468600004
 20
4696.1861575200001
 30
20.0
  0
VERTEX
  5
8B3
  8
CLUSTERS
 10
631.61437908499988
 20
4696.2838102799979
 30
20.0
  0
VERTEX
  5
8B4
  8
CLUSTERS
 10
631.71459694999999
 20
4696.2848960699994
 30
20.0
  0
VERTEX
  5
8B5
  8
CLUSTERS
 10
631.81481481499975
 20
4696.27342658
 30
20.0
  0
VERTEX
  5
8B6
  8
CLUSTERS
 10
631.82661914900007
 20
4696.2863961800003
 30
20.0
  0
VERTEX
  5
8B7
  8
CLUSTERS
 10
631.91503267999985
 20
4696.3681566200003
 30
20.0
  0
VERTEX
  5
8B8
  8
CLUSTERS
 10
632.01525054499984
 20
4696.3301251599987
 30
20.0
  0
VERTEX
  5
8B9
  8
CLUSTERS
 10
632.06641139700002
 20
4696.2863961800003
 30
20.0
  0
VERTEX
  5
8BA
  8
CLUSTERS
 10
632.10612187900006
 20
4696.1861575200001
 30
20.0
  0
VERTEX
  5
8BB
  8
CLUSTERS
 10
632.01525054499984
 20
4696.1668807299993
 30
20.0
  0
VERTEX
  5
8BC
  8
CLUSTERS
 10
631.91503267999985
 20
4696.0991651999984
 30
20.0
  0
VERTEX
  5
8BD
  8
CLUSTERS
 10
631.90512513300007
 20
4696.0859188499999
 30
20.0
  0
VERTEX
  5
8BE
  8
CLUSTERS
 10
631.82313820499985
 20
4695.9856801899978
 30
20.0
  0
VERTEX
  5
8BF
  8
CLUSTERS
 10
631.81481481499975
 20
4695.9774718500003
 30
20.0
  0
VERTEX
  5
8C0
  8
CLUSTERS
 10
631.71459694999999
 20
4695.9101752599981
 30
20.0
  0
VERTEX
  5
8C1
  8
CLUSTERS
 10
631.61437908499988
 20
4695.9073500200002
 30
20.0
  0
VERTEX
  5
8C2
  8
CLUSTERS
 10
631.51416122000001
 20
4695.9143102300004
 30
20.0
  0
VERTEX
  5
8C3
  8
CLUSTERS
 10
631.44327084700001
 20
4695.9856801899978
 30
20.0
  0
SEQEND
  5
8C4
  8
CLUSTERS
  0
POLYLINE
  5
2C
  8
CLUSTERS
 66
     1
 10
0.0
 20
0.0
 30
20.0
 70
   129
  0
VERTEX
  5
8C5
  8
CLUSTERS
 10
630.34033833199999
 20
4695.9856801899978
 30
20.0
  0
VERTEX
  5
8C6
  8
CLUSTERS
 10
630.35422152900003
 20
4696.0859188499999
 30
20.0
  0
VERTEX
  5
8C7
  8
CLUSTERS
 10
630.41176470599987
 20
4696.13062102
 30
20.0
  0
VERTEX
  5
8C8
  8
CLUSTERS
 10
630.51198257099998
 20
4696.1630306099996
 30
20.0
  0
VERTEX
  5
8C9
  8
CLUSTERS
 10
630.61220043599985
 20
4696.1754353300003
 30
20.0
  0
VERTEX
  5
8CA
  8
CLUSTERS
 10
630.69232330099999
 20
4696.0859188499999
 30
20.0
  0
VERTEX
  5
8CB
  8
CLUSTERS
 10
630.61220043599985
 20
4696.0065015600003
 30
20.0
  0
VERTEX
  5
8CC
  8
CLUSTERS
 10
630.51198257099998
 20
4696.0117686800004
 30
20.0
  0
VERTEX
  5
8CD
  8
CLUSTERS
 10
630.48618253199993
 20
4695.9856801899978
 30
20.0
  0
VERTEX
  5
8CE
  8
CLUSTERS
 10
630.41176470599987
 20
4695.9359328500013
 30
20.0
  0
VERTEX
  5
8CF
  8
CLUSTERS
 10
630.34033833199999
 20
4695.9856801899978
 30
20.0
  0
SEQEND
  5
8D0
  8
CLUSTERS
  0
POLYLINE
  5
2D
  8
CLUSTERS
 66
     1
 10
0.0
 20
0.0
 30
20.0
 70
   129
  0
VERTEX
  5
8D1
  8
CLUSTERS
 10
634.31832040099994
 20
4695.384248209999
 30
20.0
  0
VERTEX
  5
8D2
  8
CLUSTERS
 10
634.24691904500003
 20
4695.4844868699993
 30
20.0
  0
VERTEX
  5
8D3
  8
CLUSTERS
 10
634.32026143799987
 20
4695.5570856599988
 30
20.0
  0
VERTEX
  5
8D4
  8
CLUSTERS
 10
634.42047930299998
 20
4695.5592618500004
 30
20.0
  0
VERTEX
  5
8D5
  8
CLUSTERS
 10
634.50335663999977
 20
4695.4844868699993
 30
20.0
  0
VERTEX
  5
8D6
  8
CLUSTERS
 10
634.48723708699993
 20
4695.384248209999
 30
20.0
  0
VERTEX
  5
8D7
  8
CLUSTERS
 10
634.42047930299998
 20
4695.3194421000017
 30
20.0
  0
VERTEX
  5
8D8
  8
CLUSTERS
 10
634.32026143799987
 20
4695.3824706100022
 30
20.0
  0
VERTEX
  5
8D9
  8
CLUSTERS
 10
634.31832040099994
 20
4695.384248209999
 30
20.0
  0
SEQEND
  5
8DA
  8
CLUSTERS
  0
POLYLINE
  5
2E
  8
CLUSTERS
 66
     1
 10
0.0
 20
0.0
 30
20.0
 70
   129
  0
VERTEX
  5
8DB
  8
CLUSTERS
 10
657.27529682800002
 20
4695.2840095499987
 30
20.0
  0
VERTEX
  5
8DC
  8
CLUSTERS
 10
657.32985136800005
 20
4695.384248209999
 30
20.0
  0
VERTEX
  5
8DD
  8
CLUSTERS
 10
657.37037037000005
 20
4695.4281189900003
 30
20.0
  0
VERTEX
  5
8DE
  8
CLUSTERS
 10
657.38439267499984
 20
4695.4844868699993
 30
20.0
  0
VERTEX
  5
8DF
  8
CLUSTERS
 10
657.47058823500004
 20
4695.5664532399978
 30
20.0
  0
VERTEX
  5
8E0
  8
CLUSTERS
 10
657.57080610000003
 20
4695.5307310599992
 30
20.0
  0
VERTEX
  5
8E1
  8
CLUSTERS
 10
657.61874483300005
 20
4695.4844868699993
 30
20.0
  0
VERTEX
  5
8E2
  8
CLUSTERS
 10
657.66560812
 20
4695.384248209999
 30
20.0
  0
VERTEX
  5
8E3
  8
CLUSTERS
 10
657.64873583999974
 20
4695.2840095499987
 30
20.0
  0
VERTEX
  5
8E4
  8
CLUSTERS
 10
657.57080610000003
 20
4695.2032348599996
 30
20.0
  0
VERTEX
  5
8E5
  8
CLUSTERS
 10
657.47058823500004
 20
4695.183877989999
 30
20.0
  0
VERTEX
  5
8E6
  8
CLUSTERS
 10
657.37037037000005
 20
4695.1955631500014
 30
20.0
  0
VERTEX
  5
8E7
  8
CLUSTERS
 10
657.27529682800002
 20
4695.2840095499987
 30
20.0
  0
SEQEND
  5
8E8
  8
CLUSTERS
  0
POLYLINE
  5
2F
  8
CLUSTERS
 66
     1
 10
0.0
 20
0.0
 30
20.0
 70
   129
  0
VERTEX
  5
8E9
  8
CLUSTERS
 10
659.18984552699987
 20
4694.8830548899996
 30
20.0
  0
VERTEX
  5
8EA
  8
CLUSTERS
 10
659.174291939
 20
4694.9548216599978
 30
20.0
  0
VERTEX
  5
8EB
  8
CLUSTERS
 10
659.15794912399997
 20
4694.9832935599989
 30
20.0
  0
VERTEX
  5
8EC
  8
CLUSTERS
 10
659.174291939
 20
4695.0060950500001
 30
20.0
  0
VERTEX
  5
8ED
  8
CLUSTERS
 10
659.18657412499999
 20
4695.0835322199991
 30
20.0
  0
VERTEX
  5
8EE
  8
CLUSTERS
 10
659.27450980399988
 20
4695.17377794
 30
20.0
  0
VERTEX
  5
8EF
  8
CLUSTERS
 10
659.28310112700001
 20
4695.1837708800003
 30
20.0
  0
VERTEX
  5
8F0
  8
CLUSTERS
 10
659.32311407099985
 20
4695.2840095499987
 30
20.0
  0
VERTEX
  5
8F1
  8
CLUSTERS
 10
659.37472766899998
 20
4695.3324893899999
 30
20.0
  0
VERTEX
  5
8F2
  8
CLUSTERS
 10
659.42336000499995
 20
4695.2840095499987
 30
20.0
  0
VERTEX
  5
8F3
  8
CLUSTERS
 10
659.47494553399974
 20
4695.2055901100002
 30
20.0
  0
VERTEX
  5
8F4
  8
CLUSTERS
 10
659.49624285599975
 20
4695.1837708800003
 30
20.0
  0
VERTEX
  5
8F5
  8
CLUSTERS
 10
659.47494553399974
 20
4695.1573437400002
 30
20.0
  0
VERTEX
  5
8F6
  8
CLUSTERS
 10
659.45985598599975
 20
4695.0835322199991
 30
20.0
  0
VERTEX
  5
8F7
  8
CLUSTERS
 10
659.47494553399974
 20
4695.0423053999984
 30
20.0
  0
VERTEX
  5
8F8
  8
CLUSTERS
 10
659.52746112999978
 20
4694.9832935599989
 30
20.0
  0
VERTEX
  5
8F9
  8
CLUSTERS
 10
659.53760085199985
 20
4694.8830548899996
 30
20.0
  0
VERTEX
  5
8FA
  8
CLUSTERS
 10
659.47494553399974
 20
4694.8123960700004
 30
20.0
  0
VERTEX
  5
8FB
  8
CLUSTERS
 10
659.40486988400005
 20
4694.8830548899996
 30
20.0
  0
VERTEX
  5
8FC
  8
CLUSTERS
 10
659.39051127100004
 20
4694.9832935599989
 30
20.0
  0
VERTEX
  5
8FD
  8
CLUSTERS
 10
659.37472766899998
 20
4694.9878325500003
 30
20.0
  0
VERTEX
  5
8FE
  8
CLUSTERS
 10
659.37245519500004
 20
4694.9832935599989
 30
20.0
  0
VERTEX
  5
8FF
  8
CLUSTERS
 10
659.35349727000005
 20
4694.8830548899996
 30
20.0
  0
VERTEX
  5
900
  8
CLUSTERS
 10
659.27450980399988
 20
4694.8040799199989
 30
20.0
  0
VERTEX
  5
901
  8
CLUSTERS
 10
659.18984552699987
 20
4694.8830548899996
 30
20.0
  0
SEQEND
  5
902
  8
CLUSTERS
  0
POLYLINE
  5
30
  8
CLUSTERS
 66
     1
 10
0.0
 20
0.0
 30
20.0
 70
   129
  0
VERTEX
  5
903
  8
CLUSTERS
 10
633.78310132199977
 20
4694.8830548899996
 30
20.0
  0
VERTEX
  5
904
  8
CLUSTERS
 10
633.74032080799975
 20
4694.9832935599989
 30
20.0
  0
VERTEX
  5
905
  8
CLUSTERS
 10
633.71895424800005
 20
4695.0287436799999
 30
20.0
  0
VERTEX
  5
906
  8
CLUSTERS
 10
633.68618316599998
 20
4695.0835322199991
 30
20.0
  0
VERTEX
  5
907
  8
CLUSTERS
 10
633.71895424800005
 20
4695.1163141200004
 30
20.0
  0
VERTEX
  5
908
  8
CLUSTERS
 10
633.81917211300004
 20
4695.1552755000002
 30
20.0
  0
VERTEX
  5
909
  8
CLUSTERS
 10
633.91938997800003
 20
4695.1621067100004
 30
20.0
  0
VERTEX
  5
90A
  8
CLUSTERS
 10
634.00450183500004
 20
4695.1837708800003
 30
20.0
  0
VERTEX
  5
90B
  8
CLUSTERS
 10
633.93179486500003
 20
4695.2840095499987
 30
20.0
  0
VERTEX
  5
90C
  8
CLUSTERS
 10
633.97195118000002
 20
4695.384248209999
 30
20.0
  0
VERTEX
  5
90D
  8
CLUSTERS
 10
634.0196078429999
 20
4695.4317694999991
 30
20.0
  0
VERTEX
  5
90E
  8
CLUSTERS
 10
634.11982570800001
 20
4695.4087032799998
 30
20.0
  0
VERTEX
  5
90F
  8
CLUSTERS
 10
634.14571203200001
 20
4695.384248209999
 30
20.0
  0
VERTEX
  5
910
  8
CLUSTERS
 10
634.18928015400002
 20
4695.2840095499987
 30
20.0
  0
VERTEX
  5
911
  8
CLUSTERS
 10
634.11982570800001
 20
4695.2036598900004
 30
20.0
  0
VERTEX
  5
912
  8
CLUSTERS
 10
634.04378213899997
 20
4695.1837708800003
 30
20.0
  0
VERTEX
  5
913
  8
CLUSTERS
 10
634.0196078429999
 20
4695.162752629999
 30
20.0
  0
VERTEX
  5
914
  8
CLUSTERS
 10
634.00400183599993
 20
4695.0835322199991
 30
20.0
  0
VERTEX
  5
915
  8
CLUSTERS
 10
633.97171376099993
 20
4694.9832935599989
 30
20.0
  0
VERTEX
  5
916
  8
CLUSTERS
 10
633.97077355099998
 20
4694.8830548899996
 30
20.0
  0
VERTEX
  5
917
  8
CLUSTERS
 10
633.91938997800003
 20
4694.8307286199997
 30
20.0
  0
VERTEX
  5
918
  8
CLUSTERS
 10
633.81917211300004
 20
4694.8536791699999
 30
20.0
  0
VERTEX
  5
919
  8
CLUSTERS
 10
633.78310132199977
 20
4694.8830548899996
 30
20.0
  0
SEQEND
  5
91A
  8
CLUSTERS
  0
POLYLINE
  5
31
  8
CLUSTERS
 66
     1
 10
0.0
 20
0.0
 30
20.0
 70
   129
  0
VERTEX
  5
91B
  8
CLUSTERS
 10
633.49118652499976
 20
4694.8830548899996
 30
20.0
  0
VERTEX
  5
91C
  8
CLUSTERS
 10
633.51851851900005
 20
4694.9213028800004
 30
20.0
  0
VERTEX
  5
91D
  8
CLUSTERS
 10
633.61873638300005
 20
4694.9474179099989
 30
20.0
  0
VERTEX
  5
91E
  8
CLUSTERS
 10
633.69093440999995
 20
4694.8830548899996
 30
20.0
  0
VERTEX
  5
91F
  8
CLUSTERS
 10
633.61873638300005
 20
4694.8102860600002
 30
20.0
  0
VERTEX
  5
920
  8
CLUSTERS
 10
633.51851851900005
 20
4694.8572610800002
 30
20.0
  0
VERTEX
  5
921
  8
CLUSTERS
 10
633.49118652499976
 20
4694.8830548899996
 30
20.0
  0
SEQEND
  5
922
  8
CLUSTERS
  0
POLYLINE
  5
32
  8
CLUSTERS
 66
     1
 10
0.0
 20
0.0
 30
20.0
 70
   129
  0
VERTEX
  5
923
  8
CLUSTERS
 10
663.39148185299996
 20
4694.5823388999997
 30
20.0
  0
VERTEX
  5
924
  8
CLUSTERS
 10
663.38421707600003
 20
4694.6825775699999
 30
20.0
  0
VERTEX
  5
925
  8
CLUSTERS
 10
663.38765864200002
 20
4694.7828162300002
 30
20.0
  0
VERTEX
  5
926
  8
CLUSTERS
 10
663.4435103999997
 20
4694.8830548899996
 30
20.0
  0
VERTEX
  5
927
  8
CLUSTERS
 10
663.48366013099985
 20
4694.9272447499998
 30
20.0
  0
VERTEX
  5
928
  8
CLUSTERS
 10
663.54776327099978
 20
4694.9832935599989
 30
20.0
  0
VERTEX
  5
929
  8
CLUSTERS
 10
663.58387799599996
 20
4695.0130338500003
 30
20.0
  0
VERTEX
  5
92A
  8
CLUSTERS
 10
663.68409586099995
 20
4695.035460009999
 30
20.0
  0
VERTEX
  5
92B
  8
CLUSTERS
 10
663.75885527299999
 20
4694.9832935599989
 30
20.0
  0
VERTEX
  5
92C
  8
CLUSTERS
 10
663.78431372499995
 20
4694.981316729999
 30
20.0
  0
VERTEX
  5
92D
  8
CLUSTERS
 10
663.88096927900006
 20
4694.8830548899996
 30
20.0
  0
VERTEX
  5
92E
  8
CLUSTERS
 10
663.883672671
 20
4694.7828162300002
 30
20.0
  0
VERTEX
  5
92F
  8
CLUSTERS
 10
663.88453159000017
 20
4694.7750968199989
 30
20.0
  0
VERTEX
  5
930
  8
CLUSTERS
 10
663.98474945500004
 20
4694.7461400900002
 30
20.0
  0
VERTEX
  5
931
  8
CLUSTERS
 10
664.02885556499984
 20
4694.6825775699999
 30
20.0
  0
VERTEX
  5
932
  8
CLUSTERS
 10
663.98474945500004
 20
4694.6305632599979
 30
20.0
  0
VERTEX
  5
933
  8
CLUSTERS
 10
663.88453159000017
 20
4694.6226827099999
 30
20.0
  0
VERTEX
  5
934
  8
CLUSTERS
 10
663.78431372499995
 20
4694.5916781200003
 30
20.0
  0
VERTEX
  5
935
  8
CLUSTERS
 10
663.78157575
 20
4694.5823388999997
 30
20.0
  0
VERTEX
  5
936
  8
CLUSTERS
 10
663.68409586099995
 20
4694.4896380199998
 30
20.0
  0
VERTEX
  5
937
  8
CLUSTERS
 10
663.58387799599996
 20
4694.4833885300013
 30
20.0
  0
VERTEX
  5
938
  8
CLUSTERS
 10
663.48366013099985
 20
4694.4902941199998
 30
20.0
  0
VERTEX
  5
939
  8
CLUSTERS
 10
663.39148185299996
 20
4694.5823388999997
 30
20.0
  0
SEQEND
  5
93A
  8
CLUSTERS
  0
POLYLINE
  5
33
  8
CLUSTERS
 66
     1
 10
0.0
 20
0.0
 30
20.0
 70
   129
  0
VERTEX
  5
93B
  8
CLUSTERS
 10
662.79848494800001
 20
4694.1813842499996
 30
20.0
  0
VERTEX
  5
93C
  8
CLUSTERS
 10
662.78213507600003
 20
4694.249780879999
 30
20.0
  0
VERTEX
  5
93D
  8
CLUSTERS
 10
662.761720072
 20
4694.2816229099999
 30
20.0
  0
VERTEX
  5
93E
  8
CLUSTERS
 10
662.70279373300002
 20
4694.381861580001
 30
20.0
  0
VERTEX
  5
93F
  8
CLUSTERS
 10
662.70950982199975
 20
4694.4821002400013
 30
20.0
  0
VERTEX
  5
940
  8
CLUSTERS
 10
662.78213507600003
 20
4694.5548649100001
 30
20.0
  0
VERTEX
  5
941
  8
CLUSTERS
 10
662.88235294099991
 20
4694.5786183700002
 30
20.0
  0
VERTEX
  5
942
  8
CLUSTERS
 10
662.98257080600001
 20
4694.56437164
 30
20.0
  0
VERTEX
  5
943
  8
CLUSTERS
 10
663.06454736199976
 20
4694.4821002400013
 30
20.0
  0
VERTEX
  5
944
  8
CLUSTERS
 10
663.07406272599985
 20
4694.381861580001
 30
20.0
  0
VERTEX
  5
945
  8
CLUSTERS
 10
663.01207716600004
 20
4694.2816229099999
 30
20.0
  0
VERTEX
  5
946
  8
CLUSTERS
 10
663.03686875999995
 20
4694.1813842499996
 30
20.0
  0
VERTEX
  5
947
  8
CLUSTERS
 10
662.98257080600001
 20
4694.1204134
 30
20.0
  0
VERTEX
  5
948
  8
CLUSTERS
 10
662.88235294099991
 20
4694.0981616700001
 30
20.0
  0
VERTEX
  5
949
  8
CLUSTERS
 10
662.79848494800001
 20
4694.1813842499996
 30
20.0
  0
SEQEND
  5
94A
  8
CLUSTERS
  0
POLYLINE
  5
34
  8
CLUSTERS
 66
     1
 10
0.0
 20
0.0
 30
20.0
 70
   129
  0
VERTEX
  5
94B
  8
CLUSTERS
 10
659.31762445499999
 20
4693.7804295899987
 30
20.0
  0
VERTEX
  5
94C
  8
CLUSTERS
 10
659.30930378000005
 20
4693.8806682599989
 30
20.0
  0
VERTEX
  5
94D
  8
CLUSTERS
 10
659.37472766899998
 20
4693.9529193099997
 30
20.0
  0
VERTEX
  5
94E
  8
CLUSTERS
 10
659.40914166300001
 20
4693.9809069200001
 30
20.0
  0
VERTEX
  5
94F
  8
CLUSTERS
 10
659.37472766899998
 20
4694.00513409
 30
20.0
  0
VERTEX
  5
950
  8
CLUSTERS
 10
659.27450980399988
 20
4694.0400377499991
 30
20.0
  0
VERTEX
  5
951
  8
CLUSTERS
 10
659.23182788899976
 20
4694.0811455800022
 30
20.0
  0
VERTEX
  5
952
  8
CLUSTERS
 10
659.17439524799988
 20
4694.1813842499996
 30
20.0
  0
VERTEX
  5
953
  8
CLUSTERS
 10
659.174291939
 20
4694.1817465200002
 30
20.0
  0
VERTEX
  5
954
  8
CLUSTERS
 10
659.11554841199995
 20
4694.2816229099999
 30
20.0
  0
VERTEX
  5
955
  8
CLUSTERS
 10
659.174291939
 20
4694.3394716599996
 30
20.0
  0
VERTEX
  5
956
  8
CLUSTERS
 10
659.25975157000005
 20
4694.381861580001
 30
20.0
  0
VERTEX
  5
957
  8
CLUSTERS
 10
659.27450980399988
 20
4694.3973383399989
 30
20.0
  0
VERTEX
  5
958
  8
CLUSTERS
 10
659.34919362599999
 20
4694.4821002400013
 30
20.0
  0
VERTEX
  5
959
  8
CLUSTERS
 10
659.34174872099993
 20
4694.5823388999997
 30
20.0
  0
VERTEX
  5
95A
  8
CLUSTERS
 10
659.37472766899998
 20
4694.6179429900003
 30
20.0
  0
VERTEX
  5
95B
  8
CLUSTERS
 10
659.47494553399974
 20
4694.6805158999996
 30
20.0
  0
VERTEX
  5
95C
  8
CLUSTERS
 10
659.55595788300002
 20
4694.6825775699999
 30
20.0
  0
VERTEX
  5
95D
  8
CLUSTERS
 10
659.57516339899985
 20
4694.6935332900002
 30
20.0
  0
VERTEX
  5
95E
  8
CLUSTERS
 10
659.60029019900003
 20
4694.6825775699999
 30
20.0
  0
VERTEX
  5
95F
  8
CLUSTERS
 10
659.67538126400007
 20
4694.6806799200003
 30
20.0
  0
VERTEX
  5
960
  8
CLUSTERS
 10
659.77199654100002
 20
4694.5823388999997
 30
20.0
  0
VERTEX
  5
961
  8
CLUSTERS
 10
659.77559912900006
 20
4694.5278987299998
 30
20.0
  0
VERTEX
  5
962
  8
CLUSTERS
 10
659.81301662400006
 20
4694.4821002400013
 30
20.0
  0
VERTEX
  5
963
  8
CLUSTERS
 10
659.87581699299994
 20
4694.4521342799999
 30
20.0
  0
VERTEX
  5
964
  8
CLUSTERS
 10
659.94448290399998
 20
4694.381861580001
 30
20.0
  0
VERTEX
  5
965
  8
CLUSTERS
 10
659.87581699299994
 20
4694.3050254600003
 30
20.0
  0
VERTEX
  5
966
  8
CLUSTERS
 10
659.78890656600004
 20
4694.381861580001
 30
20.0
  0
VERTEX
  5
967
  8
CLUSTERS
 10
659.77559912900006
 20
4694.4195548500002
 30
20.0
  0
VERTEX
  5
968
  8
CLUSTERS
 10
659.77111059900005
 20
4694.381861580001
 30
20.0
  0
VERTEX
  5
969
  8
CLUSTERS
 10
659.67538126400007
 20
4694.2878182900004
 30
20.0
  0
VERTEX
  5
96A
  8
CLUSTERS
 10
659.57516339899985
 20
4694.2921562800002
 30
20.0
  0
VERTEX
  5
96B
  8
CLUSTERS
 10
659.47494553399974
 20
4694.31688854
 30
20.0
  0
VERTEX
  5
96C
  8
CLUSTERS
 10
659.43893505000005
 20
4694.2816229099999
 30
20.0
  0
VERTEX
  5
96D
  8
CLUSTERS
 10
659.44750477800005
 20
4694.1813842499996
 30
20.0
  0
VERTEX
  5
96E
  8
CLUSTERS
 10
659.44261538699993
 20
4694.0811455800022
 30
20.0
  0
VERTEX
  5
96F
  8
CLUSTERS
 10
659.47494553399974
 20
4694.03717633
 30
20.0
  0
VERTEX
  5
970
  8
CLUSTERS
 10
659.52984109399995
 20
4693.9809069200001
 30
20.0
  0
VERTEX
  5
971
  8
CLUSTERS
 10
659.47494553399974
 20
4693.9006134900001
 30
20.0
  0
VERTEX
  5
972
  8
CLUSTERS
 10
659.45937176500001
 20
4693.8806682599989
 30
20.0
  0
VERTEX
  5
973
  8
CLUSTERS
 10
659.45601397300004
 20
4693.7804295899987
 30
20.0
  0
VERTEX
  5
974
  8
CLUSTERS
 10
659.37472766899998
 20
4693.7187758700002
 30
20.0
  0
VERTEX
  5
975
  8
CLUSTERS
 10
659.31762445499999
 20
4693.7804295899987
 30
20.0
  0
SEQEND
  5
976
  8
CLUSTERS
  0
POLYLINE
  5
35
  8
CLUSTERS
 66
     1
 10
0.0
 20
0.0
 30
20.0
 70
   129
  0
VERTEX
  5
977
  8
CLUSTERS
 10
651.67844942599993
 20
4693.5799522699999
 30
20.0
  0
VERTEX
  5
978
  8
CLUSTERS
 10
651.74207495899998
 20
4693.6801909300002
 30
20.0
  0
VERTEX
  5
979
  8
CLUSTERS
 10
651.65795206999985
 20
4693.7015267399993
 30
20.0
  0
VERTEX
  5
97A
  8
CLUSTERS
 10
651.55773420499997
 20
4693.754016079999
 30
20.0
  0
VERTEX
  5
97B
  8
CLUSTERS
 10
651.53241413199976
 20
4693.7804295899987
 30
20.0
  0
VERTEX
  5
97C
  8
CLUSTERS
 10
651.55773420499997
 20
4693.8056251999988
 30
20.0
  0
VERTEX
  5
97D
  8
CLUSTERS
 10
651.65795206999985
 20
4693.8503069999988
 30
20.0
  0
VERTEX
  5
97E
  8
CLUSTERS
 10
651.75816993499996
 20
4693.8085651499987
 30
20.0
  0
VERTEX
  5
97F
  8
CLUSTERS
 10
651.85838779999995
 20
4693.8241792999988
 30
20.0
  0
VERTEX
  5
980
  8
CLUSTERS
 10
651.90222026399999
 20
4693.7804295899987
 30
20.0
  0
VERTEX
  5
981
  8
CLUSTERS
 10
651.85838779999995
 20
4693.7168352600002
 30
20.0
  0
VERTEX
  5
982
  8
CLUSTERS
 10
651.77913603399975
 20
4693.6801909300002
 30
20.0
  0
VERTEX
  5
983
  8
CLUSTERS
 10
651.85838779999995
 20
4693.6607126600002
 30
20.0
  0
VERTEX
  5
984
  8
CLUSTERS
 10
651.92371180800001
 20
4693.5799522699999
 30
20.0
  0
VERTEX
  5
985
  8
CLUSTERS
 10
651.85838779999995
 20
4693.5123115000006
 30
20.0
  0
VERTEX
  5
986
  8
CLUSTERS
 10
651.75816993499996
 20
4693.4982214600004
 30
20.0
  0
VERTEX
  5
987
  8
CLUSTERS
 10
651.67844942599993
 20
4693.5799522699999
 30
20.0
  0
SEQEND
  5
988
  8
CLUSTERS
  0
POLYLINE
  5
36
  8
CLUSTERS
 66
     1
 10
0.0
 20
0.0
 30
20.0
 70
   129
  0
VERTEX
  5
989
  8
CLUSTERS
 10
649.87421507099998
 20
4693.5799522699999
 30
20.0
  0
VERTEX
  5
98A
  8
CLUSTERS
 10
649.88771208799994
 20
4693.6801909300002
 30
20.0
  0
VERTEX
  5
98B
  8
CLUSTERS
 10
649.85403050100001
 20
4693.7434598700002
 30
20.0
  0
VERTEX
  5
98C
  8
CLUSTERS
 10
649.81872848199998
 20
4693.7804295899987
 30
20.0
  0
VERTEX
  5
98D
  8
CLUSTERS
 10
649.80684511100003
 20
4693.8806682599989
 30
20.0
  0
VERTEX
  5
98E
  8
CLUSTERS
 10
649.85403050100001
 20
4693.9275815499977
 30
20.0
  0
VERTEX
  5
98F
  8
CLUSTERS
 10
649.95424836599989
 20
4693.8991399799997
 30
20.0
  0
VERTEX
  5
990
  8
CLUSTERS
 10
649.97279880799999
 20
4693.8806682599989
 30
20.0
  0
VERTEX
  5
991
  8
CLUSTERS
 10
649.96351970900002
 20
4693.7804295899987
 30
20.0
  0
VERTEX
  5
992
  8
CLUSTERS
 10
650.05446623099999
 20
4693.74985629
 30
20.0
  0
VERTEX
  5
993
  8
CLUSTERS
 10
650.12416644199993
 20
4693.6801909300002
 30
20.0
  0
VERTEX
  5
994
  8
CLUSTERS
 10
650.14088765400004
 20
4693.5799522699999
 30
20.0
  0
VERTEX
  5
995
  8
CLUSTERS
 10
650.05446623099999
 20
4693.4910529999979
 30
20.0
  0
VERTEX
  5
996
  8
CLUSTERS
 10
649.95424836599989
 20
4693.4976545099989
 30
20.0
  0
VERTEX
  5
997
  8
CLUSTERS
 10
649.87421507099998
 20
4693.5799522699999
 30
20.0
  0
SEQEND
  5
998
  8
CLUSTERS
  0
POLYLINE
  5
37
  8
CLUSTERS
 66
     1
 10
0.0
 20
0.0
 30
20.0
 70
   129
  0
VERTEX
  5
999
  8
CLUSTERS
 10
633.04191433999995
 20
4693.4797136000007
 30
20.0
  0
VERTEX
  5
99A
  8
CLUSTERS
 10
633.09310496599994
 20
4693.5799522699999
 30
20.0
  0
VERTEX
  5
99B
  8
CLUSTERS
 10
633.11764705899986
 20
4693.6051911499999
 30
20.0
  0
VERTEX
  5
99C
  8
CLUSTERS
 10
633.21786492399985
 20
4693.6765470899991
 30
20.0
  0
VERTEX
  5
99D
  8
CLUSTERS
 10
633.31808278899985
 20
4693.6448412600002
 30
20.0
  0
VERTEX
  5
99E
  8
CLUSTERS
 10
633.38103919399998
 20
4693.5799522699999
 30
20.0
  0
VERTEX
  5
99F
  8
CLUSTERS
 10
633.32707651299995
 20
4693.4797136000007
 30
20.0
  0
VERTEX
  5
9A0
  8
CLUSTERS
 10
633.31808278899985
 20
4693.470014739999
 30
20.0
  0
VERTEX
  5
9A1
  8
CLUSTERS
 10
633.21786492399985
 20
4693.3929692000002
 30
20.0
  0
VERTEX
  5
9A2
  8
CLUSTERS
 10
633.11764705899986
 20
4693.3963112499987
 30
20.0
  0
VERTEX
  5
9A3
  8
CLUSTERS
 10
633.04191433999995
 20
4693.4797136000007
 30
20.0
  0
SEQEND
  5
9A4
  8
CLUSTERS
  0
POLYLINE
  5
38
  8
CLUSTERS
 66
     1
 10
0.0
 20
0.0
 30
20.0
 70
   129
  0
VERTEX
  5
9A5
  8
CLUSTERS
 10
663.21874954899999
 20
4693.3794749400013
 30
20.0
  0
VERTEX
  5
9A6
  8
CLUSTERS
 10
663.22205970899995
 20
4693.4797136000007
 30
20.0
  0
VERTEX
  5
9A7
  8
CLUSTERS
 10
663.25692026499996
 20
4693.5799522699999
 30
20.0
  0
VERTEX
  5
9A8
  8
CLUSTERS
 10
663.28322440099998
 20
4693.6097165900001
 30
20.0
  0
VERTEX
  5
9A9
  8
CLUSTERS
 10
663.34222192499976
 20
4693.6801909300002
 30
20.0
  0
VERTEX
  5
9AA
  8
CLUSTERS
 10
663.38344226599975
 20
4693.7160830699986
 30
20.0
  0
VERTEX
  5
9AB
  8
CLUSTERS
 10
663.48366013099985
 20
4693.7478920800013
 30
20.0
  0
VERTEX
  5
9AC
  8
CLUSTERS
 10
663.58387799599996
 20
4693.7773403900001
 30
20.0
  0
VERTEX
  5
9AD
  8
CLUSTERS
 10
663.68409586099995
 20
4693.7712471599989
 30
20.0
  0
VERTEX
  5
9AE
  8
CLUSTERS
 10
663.77507478999996
 20
4693.6801909300002
 30
20.0
  0
VERTEX
  5
9AF
  8
CLUSTERS
 10
663.78431372499995
 20
4693.6130155299998
 30
20.0
  0
VERTEX
  5
9B0
  8
CLUSTERS
 10
663.81393592199993
 20
4693.5799522699999
 30
20.0
  0
VERTEX
  5
9B1
  8
CLUSTERS
 10
663.78431372499995
 20
4693.5397254400004
 30
20.0
  0
VERTEX
  5
9B2
  8
CLUSTERS
 10
663.75331600800007
 20
4693.4797136000007
 30
20.0
  0
VERTEX
  5
9B3
  8
CLUSTERS
 10
663.68409586099995
 20
4693.4163135700001
 30
20.0
  0
VERTEX
  5
9B4
  8
CLUSTERS
 10
663.59812715700002
 20
4693.4797136000007
 30
20.0
  0
VERTEX
  5
9B5
  8
CLUSTERS
 10
663.58387799599996
 20
4693.4867119999999
 30
20.0
  0
VERTEX
  5
9B6
  8
CLUSTERS
 10
663.48366013099985
 20
4693.5251783900003
 30
20.0
  0
VERTEX
  5
9B7
  8
CLUSTERS
 10
663.402085446
 20
4693.4797136000007
 30
20.0
  0
VERTEX
  5
9B8
  8
CLUSTERS
 10
663.38344226599975
 20
4693.45279011
 30
20.0
  0
VERTEX
  5
9B9
  8
CLUSTERS
 10
663.35640960699993
 20
4693.3794749400013
 30
20.0
  0
VERTEX
  5
9BA
  8
CLUSTERS
 10
663.28322440099998
 20
4693.3187331199988
 30
20.0
  0
VERTEX
  5
9BB
  8
CLUSTERS
 10
663.21874954899999
 20
4693.3794749400013
 30
20.0
  0
SEQEND
  5
9BC
  8
CLUSTERS
  0
POLYLINE
  5
39
  8
CLUSTERS
 66
     1
 10
0.0
 20
0.0
 30
20.0
 70
   129
  0
VERTEX
  5
9BD
  8
CLUSTERS
 10
660.40535099099986
 20
4692.6778043000004
 30
20.0
  0
VERTEX
  5
9BE
  8
CLUSTERS
 10
660.42311813599974
 20
4692.7780429599989
 30
20.0
  0
VERTEX
  5
9BF
  8
CLUSTERS
 10
660.47712418299989
 20
4692.8310849400004
 30
20.0
  0
VERTEX
  5
9C0
  8
CLUSTERS
 10
660.57734204799999
 20
4692.8761103099987
 30
20.0
  0
VERTEX
  5
9C1
  8
CLUSTERS
 10
660.57862928999975
 20
4692.8782816199991
 30
20.0
  0
VERTEX
  5
9C2
  8
CLUSTERS
 10
660.58088201999999
 20
4692.9785202900002
 30
20.0
  0
VERTEX
  5
9C3
  8
CLUSTERS
 10
660.58762964899995
 20
4693.0787589499978
 30
20.0
  0
VERTEX
  5
9C4
  8
CLUSTERS
 10
660.67755991299975
 20
4693.1652103899996
 30
20.0
  0
VERTEX
  5
9C5
  8
CLUSTERS
 10
660.77777777799997
 20
4693.1718232100002
 30
20.0
  0
VERTEX
  5
9C6
  8
CLUSTERS
 10
660.84629331999997
 20
4693.1789976099999
 30
20.0
  0
VERTEX
  5
9C7
  8
CLUSTERS
 10
660.87799564300008
 20
4693.2006148199989
 30
20.0
  0
VERTEX
  5
9C8
  8
CLUSTERS
 10
660.89989927599993
 20
4693.1789976099999
 30
20.0
  0
VERTEX
  5
9C9
  8
CLUSTERS
 10
660.97286292499996
 20
4693.0787589499978
 30
20.0
  0
VERTEX
  5
9CA
  8
CLUSTERS
 10
660.96355583199988
 20
4692.9785202900002
 30
20.0
  0
VERTEX
  5
9CB
  8
CLUSTERS
 10
660.87799564300008
 20
4692.88077729
 30
20.0
  0
VERTEX
  5
9CC
  8
CLUSTERS
 10
660.87615594900001
 20
4692.8782816199991
 30
20.0
  0
VERTEX
  5
9CD
  8
CLUSTERS
 10
660.77777777799997
 20
4692.7841307799999
 30
20.0
  0
VERTEX
  5
9CE
  8
CLUSTERS
 10
660.71764344999985
 20
4692.7780429599989
 30
20.0
  0
VERTEX
  5
9CF
  8
CLUSTERS
 10
660.67755991299975
 20
4692.7529607899996
 30
20.0
  0
VERTEX
  5
9D0
  8
CLUSTERS
 10
660.64554651199978
 20
4692.6778043000004
 30
20.0
  0
VERTEX
  5
9D1
  8
CLUSTERS
 10
660.57734204799999
 20
4692.6079440599988
 30
20.0
  0
VERTEX
  5
9D2
  8
CLUSTERS
 10
660.47712418299989
 20
4692.6054482
 30
20.0
  0
VERTEX
  5
9D3
  8
CLUSTERS
 10
660.40535099099986
 20
4692.6778043000004
 30
20.0
  0
SEQEND
  5
9D4
  8
CLUSTERS
  0
POLYLINE
  5
3A
  8
CLUSTERS
 66
     1
 10
0.0
 20
0.0
 30
20.0
 70
   129
  0
VERTEX
  5
9D5
  8
CLUSTERS
 10
635.05215392000002
 20
4692.6778043000004
 30
20.0
  0
VERTEX
  5
9D6
  8
CLUSTERS
 10
635.02360465699996
 20
4692.7780429599989
 30
20.0
  0
VERTEX
  5
9D7
  8
CLUSTERS
 10
635.02302488299995
 20
4692.8782816199991
 30
20.0
  0
VERTEX
  5
9D8
  8
CLUSTERS
 10
635.12200435699992
 20
4692.9780037
 30
20.0
  0
VERTEX
  5
9D9
  8
CLUSTERS
 10
635.13784525400001
 20
4692.9785202900002
 30
20.0
  0
VERTEX
  5
9DA
  8
CLUSTERS
 10
635.22222222199991
 20
4693.0349674600002
 30
20.0
  0
VERTEX
  5
9DB
  8
CLUSTERS
 10
635.32244008700002
 20
4693.0274141500013
 30
20.0
  0
VERTEX
  5
9DC
  8
CLUSTERS
 10
635.32805152799995
 20
4693.0787589499978
 30
20.0
  0
VERTEX
  5
9DD
  8
CLUSTERS
 10
635.32244008700002
 20
4693.0953945700003
 30
20.0
  0
VERTEX
  5
9DE
  8
CLUSTERS
 10
635.25526593899986
 20
4693.1789976099999
 30
20.0
  0
VERTEX
  5
9DF
  8
CLUSTERS
 10
635.32244008700002
 20
4693.2465783600001
 30
20.0
  0
VERTEX
  5
9E0
  8
CLUSTERS
 10
635.42265795200001
 20
4693.2774674900002
 30
20.0
  0
VERTEX
  5
9E1
  8
CLUSTERS
 10
635.52287581699989
 20
4693.2766883699996
 30
20.0
  0
VERTEX
  5
9E2
  8
CLUSTERS
 10
635.62309368199999
 20
4693.237408779999
 30
20.0
  0
VERTEX
  5
9E3
  8
CLUSTERS
 10
635.68027838800003
 20
4693.1789976099999
 30
20.0
  0
VERTEX
  5
9E4
  8
CLUSTERS
 10
635.69210479800006
 20
4693.0787589499978
 30
20.0
  0
VERTEX
  5
9E5
  8
CLUSTERS
 10
635.62309368199999
 20
4692.9947369700003
 30
20.0
  0
VERTEX
  5
9E6
  8
CLUSTERS
 10
635.58973744800005
 20
4692.9785202900002
 30
20.0
  0
VERTEX
  5
9E7
  8
CLUSTERS
 10
635.62309368199999
 20
4692.9575471199978
 30
20.0
  0
VERTEX
  5
9E8
  8
CLUSTERS
 10
635.72331154699975
 20
4692.9246352700002
 30
20.0
  0
VERTEX
  5
9E9
  8
CLUSTERS
 10
635.77140977900001
 20
4692.8782816199991
 30
20.0
  0
VERTEX
  5
9EA
  8
CLUSTERS
 10
635.80090163300008
 20
4692.7780429599989
 30
20.0
  0
VERTEX
  5
9EB
  8
CLUSTERS
 10
635.72331154699975
 20
4692.6995873999986
 30
20.0
  0
VERTEX
  5
9EC
  8
CLUSTERS
 10
635.69402900399996
 20
4692.6778043000004
 30
20.0
  0
VERTEX
  5
9ED
  8
CLUSTERS
 10
635.62309368199999
 20
4692.6120197299997
 30
20.0
  0
VERTEX
  5
9EE
  8
CLUSTERS
 10
635.52287581699989
 20
4692.57929358
 30
20.0
  0
VERTEX
  5
9EF
  8
CLUSTERS
 10
635.42265795200001
 20
4692.5794604399998
 30
20.0
  0
VERTEX
  5
9F0
  8
CLUSTERS
 10
635.32244008700002
 20
4692.5796686000003
 30
20.0
  0
VERTEX
  5
9F1
  8
CLUSTERS
 10
635.22222222199991
 20
4692.5795492899997
 30
20.0
  0
VERTEX
  5
9F2
  8
CLUSTERS
 10
635.12200435699992
 20
4692.6061198099978
 30
20.0
  0
VERTEX
  5
9F3
  8
CLUSTERS
 10
635.05215392000002
 20
4692.6778043000004
 30
20.0
  0
SEQEND
  5
9F4
  8
CLUSTERS
  0
POLYLINE
  5
3B
  8
CLUSTERS
 66
     1
 10
0.0
 20
0.0
 30
20.0
 70
   129
  0
VERTEX
  5
9F5
  8
CLUSTERS
 10
634.54891573899999
 20
4691.7756563199991
 30
20.0
  0
VERTEX
  5
9F6
  8
CLUSTERS
 10
634.52443691500002
 20
4691.8758949900002
 30
20.0
  0
VERTEX
  5
9F7
  8
CLUSTERS
 10
634.52069716799997
 20
4691.8769672799999
 30
20.0
  0
VERTEX
  5
9F8
  8
CLUSTERS
 10
634.43380088100002
 20
4691.9761336499978
 30
20.0
  0
VERTEX
  5
9F9
  8
CLUSTERS
 10
634.42144914300002
 20
4692.076372319998
 30
20.0
  0
VERTEX
  5
9FA
  8
CLUSTERS
 10
634.42047930299998
 20
4692.0838644200003
 30
20.0
  0
VERTEX
  5
9FB
  8
CLUSTERS
 10
634.33813700600001
 20
4692.1766109800001
 30
20.0
  0
VERTEX
  5
9FC
  8
CLUSTERS
 10
634.35010890199999
 20
4692.2768496400004
 30
20.0
  0
VERTEX
  5
9FD
  8
CLUSTERS
 10
634.42047930299998
 20
4692.3470813000004
 30
20.0
  0
VERTEX
  5
9FE
  8
CLUSTERS
 10
634.49943905700002
 20
4692.2768496400004
 30
20.0
  0
VERTEX
  5
9FF
  8
CLUSTERS
 10
634.52069716799997
 20
4692.2714345100003
 30
20.0
  0
VERTEX
  5
A00
  8
CLUSTERS
 10
634.62091503299996
 20
4692.1831502799987
 30
20.0
  0
VERTEX
  5
A01
  8
CLUSTERS
 10
634.62748017699994
 20
4692.1766109800001
 30
20.0
  0
VERTEX
  5
A02
  8
CLUSTERS
 10
634.71776033900005
 20
4692.076372319998
 30
20.0
  0
VERTEX
  5
A03
  8
CLUSTERS
 10
634.72113289800006
 20
4692.0487851599992
 30
20.0
  0
VERTEX
  5
A04
  8
CLUSTERS
 10
634.76566974199977
 20
4691.9761336499978
 30
20.0
  0
VERTEX
  5
A05
  8
CLUSTERS
 10
634.72113289800006
 20
4691.9155960899998
 30
20.0
  0
VERTEX
  5
A06
  8
CLUSTERS
 10
634.696260037
 20
4691.8758949900002
 30
20.0
  0
VERTEX
  5
A07
  8
CLUSTERS
 10
634.72113289800006
 20
4691.8337977299998
 30
20.0
  0
VERTEX
  5
A08
  8
CLUSTERS
 10
634.76324833099989
 20
4691.7756563199991
 30
20.0
  0
VERTEX
  5
A09
  8
CLUSTERS
 10
634.72113289800006
 20
4691.7327208899997
 30
20.0
  0
VERTEX
  5
A0A
  8
CLUSTERS
 10
634.62091503299996
 20
4691.7014399500003
 30
20.0
  0
VERTEX
  5
A0B
  8
CLUSTERS
 10
634.54891573899999
 20
4691.7756563199991
 30
20.0
  0
SEQEND
  5
A0C
  8
CLUSTERS
  0
POLYLINE
  5
3C
  8
CLUSTERS
 66
     1
 10
0.0
 20
0.0
 30
20.0
 70
   129
  0
VERTEX
  5
A0D
  8
CLUSTERS
 10
661.307848863
 20
4691.2744630099996
 30
20.0
  0
VERTEX
  5
A0E
  8
CLUSTERS
 10
661.27886710199994
 20
4691.3555249399988
 30
20.0
  0
VERTEX
  5
A0F
  8
CLUSTERS
 10
661.26378082700001
 20
4691.3747016699999
 30
20.0
  0
VERTEX
  5
A10
  8
CLUSTERS
 10
661.27886710199994
 20
4691.3940269499999
 30
20.0
  0
VERTEX
  5
A11
  8
CLUSTERS
 10
661.29768970099997
 20
4691.4749403300002
 30
20.0
  0
VERTEX
  5
A12
  8
CLUSTERS
 10
661.29359286899978
 20
4691.5751789999986
 30
20.0
  0
VERTEX
  5
A13
  8
CLUSTERS
 10
661.37908496699993
 20
4691.656179139999
 30
20.0
  0
VERTEX
  5
A14
  8
CLUSTERS
 10
661.47930283199992
 20
4691.661891589999
 30
20.0
  0
VERTEX
  5
A15
  8
CLUSTERS
 10
661.56643683499999
 20
4691.5751789999986
 30
20.0
  0
VERTEX
  5
A16
  8
CLUSTERS
 10
661.57952069700002
 20
4691.5454756500003
 30
20.0
  0
VERTEX
  5
A17
  8
CLUSTERS
 10
661.64836639700002
 20
4691.4749403300002
 30
20.0
  0
VERTEX
  5
A18
  8
CLUSTERS
 10
661.58895813800007
 20
4691.3747016699999
 30
20.0
  0
VERTEX
  5
A19
  8
CLUSTERS
 10
661.57952069700002
 20
4691.3647944900003
 30
20.0
  0
VERTEX
  5
A1A
  8
CLUSTERS
 10
661.47930283199992
 20
4691.2905526599989
 30
20.0
  0
VERTEX
  5
A1B
  8
CLUSTERS
 10
661.44928463600002
 20
4691.2744630099996
 30
20.0
  0
VERTEX
  5
A1C
  8
CLUSTERS
 10
661.37908496699993
 20
4691.2080975500003
 30
20.0
  0
VERTEX
  5
A1D
  8
CLUSTERS
 10
661.307848863
 20
4691.2744630099996
 30
20.0
  0
SEQEND
  5
A1E
  8
CLUSTERS
  0
POLYLINE
  5
3D
  8
CLUSTERS
 66
     1
 10
0.0
 20
0.0
 30
20.0
 70
   129
  0
VERTEX
  5
A1F
  8
CLUSTERS
 10
635.90717718300004
 20
4690.8735083499996
 30
20.0
  0
VERTEX
  5
A20
  8
CLUSTERS
 10
635.82352941199986
 20
4690.8745490900001
 30
20.0
  0
VERTEX
  5
A21
  8
CLUSTERS
 10
635.72768164399974
 20
4690.9737470199998
 30
20.0
  0
VERTEX
  5
A22
  8
CLUSTERS
 10
635.80092793099993
 20
4691.0739856800001
 30
20.0
  0
VERTEX
  5
A23
  8
CLUSTERS
 10
635.82352941199986
 20
4691.0964616700003
 30
20.0
  0
VERTEX
  5
A24
  8
CLUSTERS
 10
635.89994639300005
 20
4691.1742243400004
 30
20.0
  0
VERTEX
  5
A25
  8
CLUSTERS
 10
635.92374727699985
 20
4691.2193409499996
 30
20.0
  0
VERTEX
  5
A26
  8
CLUSTERS
 10
635.95247439599984
 20
4691.1742243400004
 30
20.0
  0
VERTEX
  5
A27
  8
CLUSTERS
 10
635.95690598199997
 20
4691.0739856800001
 30
20.0
  0
VERTEX
  5
A28
  8
CLUSTERS
 10
636.023891822
 20
4690.9737470199998
 30
20.0
  0
VERTEX
  5
A29
  8
CLUSTERS
 10
636.02396514199995
 20
4690.9496875799978
 30
20.0
  0
VERTEX
  5
A2A
  8
CLUSTERS
 10
636.12418300699994
 20
4690.9165646900001
 30
20.0
  0
VERTEX
  5
A2B
  8
CLUSTERS
 10
636.16771977600001
 20
4690.8735083499996
 30
20.0
  0
VERTEX
  5
A2C
  8
CLUSTERS
 10
636.12418300699994
 20
4690.8212257699979
 30
20.0
  0
VERTEX
  5
A2D
  8
CLUSTERS
 10
636.02396514199995
 20
4690.8681116500002
 30
20.0
  0
VERTEX
  5
A2E
  8
CLUSTERS
 10
635.92374727699985
 20
4690.8694776299999
 30
20.0
  0
VERTEX
  5
A2F
  8
CLUSTERS
 10
635.90717718300004
 20
4690.8735083499996
 30
20.0
  0
SEQEND
  5
A30
  8
CLUSTERS
  0
POLYLINE
  5
3E
  8
CLUSTERS
 66
     1
 10
0.0
 20
0.0
 30
20.0
 70
   129
  0
VERTEX
  5
A31
  8
CLUSTERS
 10
645.458526033
 20
4689.4701670599998
 30
20.0
  0
VERTEX
  5
A32
  8
CLUSTERS
 10
645.44444444400006
 20
4689.5524583799979
 30
20.0
  0
VERTEX
  5
A33
  8
CLUSTERS
 10
645.42656726500002
 20
4689.5704057299999
 30
20.0
  0
VERTEX
  5
A34
  8
CLUSTERS
 10
645.34728856599997
 20
4689.6706443900002
 30
20.0
  0
VERTEX
  5
A35
  8
CLUSTERS
 10
645.35198252199984
 20
4689.7708830499978
 30
20.0
  0
VERTEX
  5
A36
  8
CLUSTERS
 10
645.44444444400006
 20
4689.8586858600002
 30
20.0
  0
VERTEX
  5
A37
  8
CLUSTERS
 10
645.54466230900005
 20
4689.8645131800004
 30
20.0
  0
VERTEX
  5
A38
  8
CLUSTERS
 10
645.63845869599993
 20
4689.7708830499978
 30
20.0
  0
VERTEX
  5
A39
  8
CLUSTERS
 10
645.64484171399977
 20
4689.6706443900002
 30
20.0
  0
VERTEX
  5
A3A
  8
CLUSTERS
 10
645.64488017400004
 20
4689.6704889399998
 30
20.0
  0
VERTEX
  5
A3B
  8
CLUSTERS
 10
645.733847406
 20
4689.5704057299999
 30
20.0
  0
VERTEX
  5
A3C
  8
CLUSTERS
 10
645.69385014099976
 20
4689.4701670599998
 30
20.0
  0
VERTEX
  5
A3D
  8
CLUSTERS
 10
645.64488017400004
 20
4689.4211817799996
 30
20.0
  0
VERTEX
  5
A3E
  8
CLUSTERS
 10
645.54466230900005
 20
4689.3772856100004
 30
20.0
  0
VERTEX
  5
A3F
  8
CLUSTERS
 10
645.458526033
 20
4689.4701670599998
 30
20.0
  0
SEQEND
  5
A40
  8
CLUSTERS
  0
POLYLINE
  5
3F
  8
CLUSTERS
 66
     1
 10
0.0
 20
0.0
 30
20.0
 70
   129
  0
VERTEX
  5
A41
  8
CLUSTERS
 10
644.76221587600003
 20
4689.4701670599998
 30
20.0
  0
VERTEX
  5
A42
  8
CLUSTERS
 10
644.76871776899975
 20
4689.5704057299999
 30
20.0
  0
VERTEX
  5
A43
  8
CLUSTERS
 10
644.84313725499987
 20
4689.6598854999984
 30
20.0
  0
VERTEX
  5
A44
  8
CLUSTERS
 10
644.85003701699975
 20
4689.6706443900002
 30
20.0
  0
VERTEX
  5
A45
  8
CLUSTERS
 10
644.94335511999998
 20
4689.7555538999977
 30
20.0
  0
VERTEX
  5
A46
  8
CLUSTERS
 10
645.04357298499986
 20
4689.7653565199998
 30
20.0
  0
VERTEX
  5
A47
  8
CLUSTERS
 10
645.13840739999989
 20
4689.6706443900002
 30
20.0
  0
VERTEX
  5
A48
  8
CLUSTERS
 10
645.12095523499988
 20
4689.5704057299999
 30
20.0
  0
VERTEX
  5
A49
  8
CLUSTERS
 10
645.04357298499986
 20
4689.4930405799987
 30
20.0
  0
VERTEX
  5
A4A
  8
CLUSTERS
 10
644.94637022199993
 20
4689.5704057299999
 30
20.0
  0
VERTEX
  5
A4B
  8
CLUSTERS
 10
644.94335511999998
 20
4689.5725587500001
 30
20.0
  0
VERTEX
  5
A4C
  8
CLUSTERS
 10
644.93990106199976
 20
4689.5704057299999
 30
20.0
  0
VERTEX
  5
A4D
  8
CLUSTERS
 10
644.92430151999974
 20
4689.4701670599998
 30
20.0
  0
VERTEX
  5
A4E
  8
CLUSTERS
 10
644.84313725499987
 20
4689.3889930900004
 30
20.0
  0
VERTEX
  5
A4F
  8
CLUSTERS
 10
644.76221587600003
 20
4689.4701670599998
 30
20.0
  0
SEQEND
  5
A50
  8
CLUSTERS
  0
POLYLINE
  5
40
  8
CLUSTERS
 66
     1
 10
0.0
 20
0.0
 30
20.0
 70
   129
  0
VERTEX
  5
A51
  8
CLUSTERS
 10
663.73511999499999
 20
4689.3699283999977
 30
20.0
  0
VERTEX
  5
A52
  8
CLUSTERS
 10
663.71047527899998
 20
4689.4701670599998
 30
20.0
  0
VERTEX
  5
A53
  8
CLUSTERS
 10
663.68552233399976
 20
4689.5704057299999
 30
20.0
  0
VERTEX
  5
A54
  8
CLUSTERS
 10
663.78431372499995
 20
4689.6590624500004
 30
20.0
  0
VERTEX
  5
A55
  8
CLUSTERS
 10
663.87275162799995
 20
4689.5704057299999
 30
20.0
  0
VERTEX
  5
A56
  8
CLUSTERS
 10
663.85047388600003
 20
4689.4701670599998
 30
20.0
  0
VERTEX
  5
A57
  8
CLUSTERS
 10
663.82762275599976
 20
4689.3699283999977
 30
20.0
  0
VERTEX
  5
A58
  8
CLUSTERS
 10
663.78431372499995
 20
4689.325511869999
 30
20.0
  0
VERTEX
  5
A59
  8
CLUSTERS
 10
663.73511999499999
 20
4689.3699283999977
 30
20.0
  0
SEQEND
  5
A5A
  8
CLUSTERS
  0
POLYLINE
  5
41
  8
CLUSTERS
 66
     1
 10
0.0
 20
0.0
 30
20.0
 70
   129
  0
VERTEX
  5
A5B
  8
CLUSTERS
 10
641.26482548599995
 20
4686.3627685000001
 30
20.0
  0
VERTEX
  5
A5C
  8
CLUSTERS
 10
641.26097556299999
 20
4686.4630071600004
 30
20.0
  0
VERTEX
  5
A5D
  8
CLUSTERS
 10
641.29888485200001
 20
4686.5632458199989
 30
20.0
  0
VERTEX
  5
A5E
  8
CLUSTERS
 10
641.23737933099994
 20
4686.66348449
 30
20.0
  0
VERTEX
  5
A5F
  8
CLUSTERS
 10
641.33551198300006
 20
4686.7616609999995
 30
20.0
  0
VERTEX
  5
A60
  8
CLUSTERS
 10
641.43572984699995
 20
4686.7602694500001
 30
20.0
  0
VERTEX
  5
A61
  8
CLUSTERS
 10
641.53257183899996
 20
4686.66348449
 30
20.0
  0
VERTEX
  5
A62
  8
CLUSTERS
 10
641.53594771199994
 20
4686.6087059800002
 30
20.0
  0
VERTEX
  5
A63
  8
CLUSTERS
 10
641.63616557699993
 20
4686.6358537799988
 30
20.0
  0
VERTEX
  5
A64
  8
CLUSTERS
 10
641.72320382299995
 20
4686.5632458199989
 30
20.0
  0
VERTEX
  5
A65
  8
CLUSTERS
 10
641.73638344199992
 20
4686.5448881800012
 30
20.0
  0
VERTEX
  5
A66
  8
CLUSTERS
 10
641.80025027699992
 20
4686.4630071600004
 30
20.0
  0
VERTEX
  5
A67
  8
CLUSTERS
 10
641.73638344199992
 20
4686.3990749200002
 30
20.0
  0
VERTEX
  5
A68
  8
CLUSTERS
 10
641.63616557699993
 20
4686.3800082199978
 30
20.0
  0
VERTEX
  5
A69
  8
CLUSTERS
 10
641.60356865499989
 20
4686.3627685000001
 30
20.0
  0
VERTEX
  5
A6A
  8
CLUSTERS
 10
641.53594771199994
 20
4686.2954147600003
 30
20.0
  0
VERTEX
  5
A6B
  8
CLUSTERS
 10
641.43572984699995
 20
4686.3364113999996
 30
20.0
  0
VERTEX
  5
A6C
  8
CLUSTERS
 10
641.33551198300006
 20
4686.2919931799997
 30
20.0
  0
VERTEX
  5
A6D
  8
CLUSTERS
 10
641.26482548599995
 20
4686.3627685000001
 30
20.0
  0
SEQEND
  5
A6E
  8
CLUSTERS
  0
POLYLINE
  5
42
  8
CLUSTERS
 66
     1
 10
0.0
 20
0.0
 30
20.0
 70
   129
  0
VERTEX
  5
A6F
  8
CLUSTERS
 10
668.95729325399986
 20
4681.9522673000001
 30
20.0
  0
VERTEX
  5
A70
  8
CLUSTERS
 10
668.96823527699985
 20
4682.0525059700003
 30
20.0
  0
VERTEX
  5
A71
  8
CLUSTERS
 10
668.99564270199994
 20
4682.0812116999987
 30
20.0
  0
VERTEX
  5
A72
  8
CLUSTERS
 10
669.01719077300004
 20
4682.1527446299979
 30
20.0
  0
VERTEX
  5
A73
  8
CLUSTERS
 10
668.99564270199994
 20
4682.24640886
 30
20.0
  0
VERTEX
  5
A74
  8
CLUSTERS
 10
668.99114134099989
 20
4682.25298329
 30
20.0
  0
VERTEX
  5
A75
  8
CLUSTERS
 10
668.99564270199994
 20
4682.26001825
 30
20.0
  0
VERTEX
  5
A76
  8
CLUSTERS
 10
668.99929115800001
 20
4682.3532219600002
 30
20.0
  0
VERTEX
  5
A77
  8
CLUSTERS
 10
669.05599253100002
 20
4682.4534606200004
 30
20.0
  0
VERTEX
  5
A78
  8
CLUSTERS
 10
669.09586056599994
 20
4682.4920960999989
 30
20.0
  0
VERTEX
  5
A79
  8
CLUSTERS
 10
669.19607843099993
 20
4682.5177887199998
 30
20.0
  0
VERTEX
  5
A7A
  8
CLUSTERS
 10
669.27363447900007
 20
4682.4534606200004
 30
20.0
  0
VERTEX
  5
A7B
  8
CLUSTERS
 10
669.29629629600004
 20
4682.4435963799988
 30
20.0
  0
VERTEX
  5
A7C
  8
CLUSTERS
 10
669.37900035600001
 20
4682.3532219600002
 30
20.0
  0
VERTEX
  5
A7D
  8
CLUSTERS
 10
669.35628621599994
 20
4682.25298329
 30
20.0
  0
VERTEX
  5
A7E
  8
CLUSTERS
 10
669.36264057199992
 20
4682.1527446299979
 30
20.0
  0
VERTEX
  5
A7F
  8
CLUSTERS
 10
669.29629629600004
 20
4682.0844297800004
 30
20.0
  0
VERTEX
  5
A80
  8
CLUSTERS
 10
669.19607843099993
 20
4682.0640911599994
 30
20.0
  0
VERTEX
  5
A81
  8
CLUSTERS
 10
669.12790424599984
 20
4682.0525059700003
 30
20.0
  0
VERTEX
  5
A82
  8
CLUSTERS
 10
669.12621621300002
 20
4681.9522673000001
 30
20.0
  0
VERTEX
  5
A83
  8
CLUSTERS
 10
669.09586056599994
 20
4681.9219625799979
 30
20.0
  0
VERTEX
  5
A84
  8
CLUSTERS
 10
668.99564270199994
 20
4681.9223393499979
 30
20.0
  0
VERTEX
  5
A85
  8
CLUSTERS
 10
668.95729325399986
 20
4681.9522673000001
 30
20.0
  0
SEQEND
  5
A86
  8
CLUSTERS
  0
POLYLINE
  5
43
  8
CLUSTERS
 66
     1
 10
0.0
 20
0.0
 30
20.0
 70
   129
  0
VERTEX
  5
A87
  8
CLUSTERS
 10
637.75446174099989
 20
4678.1431980899988
 30
20.0
  0
VERTEX
  5
A88
  8
CLUSTERS
 10
637.72766884500004
 20
4678.153346600001
 30
20.0
  0
VERTEX
  5
A89
  8
CLUSTERS
 10
637.62745098000005
 20
4678.1711275300004
 30
20.0
  0
VERTEX
  5
A8A
  8
CLUSTERS
 10
637.52723311499994
 20
4678.1654692000002
 30
20.0
  0
VERTEX
  5
A8B
  8
CLUSTERS
 10
637.42701525099994
 20
4678.1850855299999
 30
20.0
  0
VERTEX
  5
A8C
  8
CLUSTERS
 10
637.32679738599995
 20
4678.21318677
 30
20.0
  0
VERTEX
  5
A8D
  8
CLUSTERS
 10
637.29656127199985
 20
4678.24343675
 30
20.0
  0
VERTEX
  5
A8E
  8
CLUSTERS
 10
637.26680714899976
 20
4678.3436754200002
 30
20.0
  0
VERTEX
  5
A8F
  8
CLUSTERS
 10
637.22657952099985
 20
4678.4288672000002
 30
20.0
  0
VERTEX
  5
A90
  8
CLUSTERS
 10
637.12636165599997
 20
4678.4079911999988
 30
20.0
  0
VERTEX
  5
A91
  8
CLUSTERS
 10
637.02614379099987
 20
4678.3932381200002
 30
20.0
  0
VERTEX
  5
A92
  8
CLUSTERS
 10
636.96848368500002
 20
4678.4439140799977
 30
20.0
  0
VERTEX
  5
A93
  8
CLUSTERS
 10
636.92936568000005
 20
4678.544152739998
 30
20.0
  0
VERTEX
  5
A94
  8
CLUSTERS
 10
636.92592592599976
 20
4678.6120999300001
 30
20.0
  0
VERTEX
  5
A95
  8
CLUSTERS
 10
636.92294756199999
 20
4678.6443914099991
 30
20.0
  0
VERTEX
  5
A96
  8
CLUSTERS
 10
636.92592592599976
 20
4678.6473790600003
 30
20.0
  0
VERTEX
  5
A97
  8
CLUSTERS
 10
637.02614379099987
 20
4678.6449003099997
 30
20.0
  0
VERTEX
  5
A98
  8
CLUSTERS
 10
637.12636165599997
 20
4678.6859533500001
 30
20.0
  0
VERTEX
  5
A99
  8
CLUSTERS
 10
637.22657952099985
 20
4678.7174102799991
 30
20.0
  0
VERTEX
  5
A9A
  8
CLUSTERS
 10
637.32679738599995
 20
4678.6968832599978
 30
20.0
  0
VERTEX
  5
A9B
  8
CLUSTERS
 10
637.42279442500001
 20
4678.6443914099991
 30
20.0
  0
VERTEX
  5
A9C
  8
CLUSTERS
 10
637.42701525099994
 20
4678.6441603699996
 30
20.0
  0
VERTEX
  5
A9D
  8
CLUSTERS
 10
637.52342788700003
 20
4678.544152739998
 30
20.0
  0
VERTEX
  5
A9E
  8
CLUSTERS
 10
637.42701525099994
 20
4678.4480820299996
 30
20.0
  0
VERTEX
  5
A9F
  8
CLUSTERS
 10
637.39350897300005
 20
4678.4439140799977
 30
20.0
  0
VERTEX
  5
AA0
  8
CLUSTERS
 10
637.42701525099994
 20
4678.4065220000002
 30
20.0
  0
VERTEX
  5
AA1
  8
CLUSTERS
 10
637.52723311499994
 20
4678.411405339999
 30
20.0
  0
VERTEX
  5
AA2
  8
CLUSTERS
 10
637.62745098000005
 20
4678.4054070299999
 30
20.0
  0
VERTEX
  5
AA3
  8
CLUSTERS
 10
637.69304501099975
 20
4678.4439140799977
 30
20.0
  0
VERTEX
  5
AA4
  8
CLUSTERS
 10
637.72766884500004
 20
4678.4781922299999
 30
20.0
  0
VERTEX
  5
AA5
  8
CLUSTERS
 10
637.82788671000003
 20
4678.5190725599987
 30
20.0
  0
VERTEX
  5
AA6
  8
CLUSTERS
 10
637.92810457499979
 20
4678.50380004
 30
20.0
  0
VERTEX
  5
AA7
  8
CLUSTERS
 10
638.02832244000001
 20
4678.4753044099998
 30
20.0
  0
VERTEX
  5
AA8
  8
CLUSTERS
 10
638.06091260599999
 20
4678.4439140799977
 30
20.0
  0
VERTEX
  5
AA9
  8
CLUSTERS
 10
638.04885580899975
 20
4678.3436754200002
 30
20.0
  0
VERTEX
  5
AAA
  8
CLUSTERS
 10
638.02832244000001
 20
4678.3286821900001
 30
20.0
  0
VERTEX
  5
AAB
  8
CLUSTERS
 10
638.013620565
 20
4678.24343675
 30
20.0
  0
VERTEX
  5
AAC
  8
CLUSTERS
 10
637.92810457499979
 20
4678.1444356399998
 30
20.0
  0
VERTEX
  5
AAD
  8
CLUSTERS
 10
637.92474872000003
 20
4678.1431980899988
 30
20.0
  0
VERTEX
  5
AAE
  8
CLUSTERS
 10
637.82788671000003
 20
4678.0763383499998
 30
20.0
  0
VERTEX
  5
AAF
  8
CLUSTERS
 10
637.75446174099989
 20
4678.1431980899988
 30
20.0
  0
SEQEND
  5
AB0
  8
CLUSTERS
  0
POLYLINE
  5
44
  8
CLUSTERS
 66
     1
 10
0.0
 20
0.0
 30
20.0
 70
   129
  0
VERTEX
  5
AB1
  8
CLUSTERS
 10
653.11998425100001
 20
4677.842482099999
 30
20.0
  0
VERTEX
  5
AB2
  8
CLUSTERS
 10
653.06100217900007
 20
4677.87285471
 30
20.0
  0
VERTEX
  5
AB3
  8
CLUSTERS
 10
652.99115665699992
 20
4677.9427207599992
 30
20.0
  0
VERTEX
  5
AB4
  8
CLUSTERS
 10
653.06100217900007
 20
4678.0349479099978
 30
20.0
  0
VERTEX
  5
AB5
  8
CLUSTERS
 10
653.16122004399995
 20
4678.0266270900001
 30
20.0
  0
VERTEX
  5
AB6
  8
CLUSTERS
 10
653.17273411500003
 20
4678.0429594300003
 30
20.0
  0
VERTEX
  5
AB7
  8
CLUSTERS
 10
653.26143790799995
 20
4678.120750449998
 30
20.0
  0
VERTEX
  5
AB8
  8
CLUSTERS
 10
653.27304636999997
 20
4678.1431980899988
 30
20.0
  0
VERTEX
  5
AB9
  8
CLUSTERS
 10
653.36165577300005
 20
4678.231799119998
 30
20.0
  0
VERTEX
  5
ABA
  8
CLUSTERS
 10
653.46187363800004
 20
4678.1479526499979
 30
20.0
  0
VERTEX
  5
ABB
  8
CLUSTERS
 10
653.46662294099986
 20
4678.1431980899988
 30
20.0
  0
VERTEX
  5
ABC
  8
CLUSTERS
 10
653.46187363800004
 20
4678.13844496
 30
20.0
  0
VERTEX
  5
ABD
  8
CLUSTERS
 10
653.36165577300005
 20
4678.0479566499998
 30
20.0
  0
VERTEX
  5
ABE
  8
CLUSTERS
 10
653.35127340099984
 20
4678.0429594300003
 30
20.0
  0
VERTEX
  5
ABF
  8
CLUSTERS
 10
653.26143790799995
 20
4677.9455382400001
 30
20.0
  0
VERTEX
  5
AC0
  8
CLUSTERS
 10
653.25727226800007
 20
4677.9427207599992
 30
20.0
  0
VERTEX
  5
AC1
  8
CLUSTERS
 10
653.21125979700003
 20
4677.842482099999
 30
20.0
  0
VERTEX
  5
AC2
  8
CLUSTERS
 10
653.16122004399995
 20
4677.8012708400001
 30
20.0
  0
VERTEX
  5
AC3
  8
CLUSTERS
 10
653.11998425100001
 20
4677.842482099999
 30
20.0
  0
SEQEND
  5
AC4
  8
CLUSTERS
  0
POLYLINE
  5
45
  8
CLUSTERS
 66
     1
 10
0.0
 20
0.0
 30
20.0
 70
   129
  0
VERTEX
  5
AC5
  8
CLUSTERS
 10
651.63200717099994
 20
4677.4415274499997
 30
20.0
  0
VERTEX
  5
AC6
  8
CLUSTERS
 10
651.58557350000001
 20
4677.54176611
 30
20.0
  0
VERTEX
  5
AC7
  8
CLUSTERS
 10
651.65795206999985
 20
4677.6141621300012
 30
20.0
  0
VERTEX
  5
AC8
  8
CLUSTERS
 10
651.75816993499996
 20
4677.6163059399987
 30
20.0
  0
VERTEX
  5
AC9
  8
CLUSTERS
 10
651.85838779999995
 20
4677.6085794500013
 30
20.0
  0
VERTEX
  5
ACA
  8
CLUSTERS
 10
651.925177039
 20
4677.54176611
 30
20.0
  0
VERTEX
  5
ACB
  8
CLUSTERS
 10
651.85838779999995
 20
4677.4749600599989
 30
20.0
  0
VERTEX
  5
ACC
  8
CLUSTERS
 10
651.75816993499996
 20
4677.4672313399979
 30
20.0
  0
VERTEX
  5
ACD
  8
CLUSTERS
 10
651.68390591599984
 20
4677.4415274499997
 30
20.0
  0
VERTEX
  5
ACE
  8
CLUSTERS
 10
651.65795206999985
 20
4677.4155821300001
 30
20.0
  0
VERTEX
  5
ACF
  8
CLUSTERS
 10
651.63200717099994
 20
4677.4415274499997
 30
20.0
  0
SEQEND
  5
AD0
  8
CLUSTERS
  0
POLYLINE
  5
46
  8
CLUSTERS
 66
     1
 10
0.0
 20
0.0
 30
20.0
 70
   129
  0
VERTEX
  5
AD1
  8
CLUSTERS
 10
651.379556256
 20
4676.6396181399996
 30
20.0
  0
VERTEX
  5
AD2
  8
CLUSTERS
 10
651.36964112099974
 20
4676.7398568000008
 30
20.0
  0
VERTEX
  5
AD3
  8
CLUSTERS
 10
651.35729847499977
 20
4676.7625881299991
 30
20.0
  0
VERTEX
  5
AD4
  8
CLUSTERS
 10
651.27985059499997
 20
4676.8400954700001
 30
20.0
  0
VERTEX
  5
AD5
  8
CLUSTERS
 10
651.30161296000017
 20
4676.9403341300012
 30
20.0
  0
VERTEX
  5
AD6
  8
CLUSTERS
 10
651.35729847499977
 20
4676.9960250699987
 30
20.0
  0
VERTEX
  5
AD7
  8
CLUSTERS
 10
651.45751633999987
 20
4676.9403920699979
 30
20.0
  0
VERTEX
  5
AD8
  8
CLUSTERS
 10
651.45757427299986
 20
4676.9403341300012
 30
20.0
  0
VERTEX
  5
AD9
  8
CLUSTERS
 10
651.529143664
 20
4676.8400954700001
 30
20.0
  0
VERTEX
  5
ADA
  8
CLUSTERS
 10
651.55773420499997
 20
4676.8067137600001
 30
20.0
  0
VERTEX
  5
ADB
  8
CLUSTERS
 10
651.62454341699993
 20
4676.7398568000008
 30
20.0
  0
VERTEX
  5
ADC
  8
CLUSTERS
 10
651.60066901800008
 20
4676.6396181399996
 30
20.0
  0
VERTEX
  5
ADD
  8
CLUSTERS
 10
651.55773420499997
 20
4676.5966458299999
 30
20.0
  0
VERTEX
  5
ADE
  8
CLUSTERS
 10
651.45751633999987
 20
4676.5616495399991
 30
20.0
  0
VERTEX
  5
ADF
  8
CLUSTERS
 10
651.379556256
 20
4676.6396181399996
 30
20.0
  0
SEQEND
  5
AE0
  8
CLUSTERS
  0
POLYLINE
  5
47
  8
CLUSTERS
 66
     1
 10
0.0
 20
0.0
 30
20.0
 70
   129
  0
VERTEX
  5
AE1
  8
CLUSTERS
 10
667.80659603300001
 20
4676.2386634799977
 30
20.0
  0
VERTEX
  5
AE2
  8
CLUSTERS
 10
667.79302832199994
 20
4676.2549680800012
 30
20.0
  0
VERTEX
  5
AE3
  8
CLUSTERS
 10
667.73886179500005
 20
4676.3389021499988
 30
20.0
  0
VERTEX
  5
AE4
  8
CLUSTERS
 10
667.79302832199994
 20
4676.3987516899979
 30
20.0
  0
VERTEX
  5
AE5
  8
CLUSTERS
 10
667.88751605499976
 20
4676.43914081
 30
20.0
  0
VERTEX
  5
AE6
  8
CLUSTERS
 10
667.89324618699993
 20
4676.4445876500004
 30
20.0
  0
VERTEX
  5
AE7
  8
CLUSTERS
 10
667.96156659400003
 20
4676.5393794700003
 30
20.0
  0
VERTEX
  5
AE8
  8
CLUSTERS
 10
667.99346405199992
 20
4676.5754065600004
 30
20.0
  0
VERTEX
  5
AE9
  8
CLUSTERS
 10
668.02969551800004
 20
4676.6396181399996
 30
20.0
  0
VERTEX
  5
AEA
  8
CLUSTERS
 10
668.09368191700003
 20
4676.6983750799991
 30
20.0
  0
VERTEX
  5
AEB
  8
CLUSTERS
 10
668.19389978200002
 20
4676.7183352000002
 30
20.0
  0
VERTEX
  5
AEC
  8
CLUSTERS
 10
668.270525873
 20
4676.6396181399996
 30
20.0
  0
VERTEX
  5
AED
  8
CLUSTERS
 10
668.26519174400005
 20
4676.5393794700003
 30
20.0
  0
VERTEX
  5
AEE
  8
CLUSTERS
 10
668.28985397600002
 20
4676.43914081
 30
20.0
  0
VERTEX
  5
AEF
  8
CLUSTERS
 10
668.28580344299996
 20
4676.3389021499988
 30
20.0
  0
VERTEX
  5
AF0
  8
CLUSTERS
 10
668.19389978200002
 20
4676.2459383799996
 30
20.0
  0
VERTEX
  5
AF1
  8
CLUSTERS
 10
668.09368191700003
 20
4676.2419228299996
 30
20.0
  0
VERTEX
  5
AF2
  8
CLUSTERS
 10
668.00480463199995
 20
4676.2386634799977
 30
20.0
  0
VERTEX
  5
AF3
  8
CLUSTERS
 10
667.99346405199992
 20
4676.2321869999987
 30
20.0
  0
VERTEX
  5
AF4
  8
CLUSTERS
 10
667.89324618699993
 20
4676.17807438
 30
20.0
  0
VERTEX
  5
AF5
  8
CLUSTERS
 10
667.80659603300001
 20
4676.2386634799977
 30
20.0
  0
SEQEND
  5
AF6
  8
CLUSTERS
  0
POLYLINE
  5
48
  8
CLUSTERS
 66
     1
 10
0.0
 20
0.0
 30
20.0
 70
   129
  0
VERTEX
  5
AF7
  8
CLUSTERS
 10
652.25441387299975
 20
4676.2386634799977
 30
20.0
  0
VERTEX
  5
AF8
  8
CLUSTERS
 10
652.25925925900003
 20
4676.2435077500004
 30
20.0
  0
VERTEX
  5
AF9
  8
CLUSTERS
 10
652.28124451999975
 20
4676.3389021499988
 30
20.0
  0
VERTEX
  5
AFA
  8
CLUSTERS
 10
652.35947712399991
 20
4676.4171468000013
 30
20.0
  0
VERTEX
  5
AFB
  8
CLUSTERS
 10
652.45969498900001
 20
4676.4212756400002
 30
20.0
  0
VERTEX
  5
AFC
  8
CLUSTERS
 10
652.559912854
 20
4676.399810169999
 30
20.0
  0
VERTEX
  5
AFD
  8
CLUSTERS
 10
652.62076578799997
 20
4676.3389021499988
 30
20.0
  0
VERTEX
  5
AFE
  8
CLUSTERS
 10
652.559912854
 20
4676.2780242500012
 30
20.0
  0
VERTEX
  5
AFF
  8
CLUSTERS
 10
652.45969498900001
 20
4676.2565546200012
 30
20.0
  0
VERTEX
  5
B00
  8
CLUSTERS
 10
652.39709541699995
 20
4676.2386634799977
 30
20.0
  0
VERTEX
  5
B01
  8
CLUSTERS
 10
652.35947712399991
 20
4676.1678108499991
 30
20.0
  0
VERTEX
  5
B02
  8
CLUSTERS
 10
652.25925925900003
 20
4676.2284048499978
 30
20.0
  0
VERTEX
  5
B03
  8
CLUSTERS
 10
652.25441387299975
 20
4676.2386634799977
 30
20.0
  0
SEQEND
  5
B04
  8
CLUSTERS
  0
POLYLINE
  5
49
  8
CLUSTERS
 66
     1
 10
0.0
 20
0.0
 30
20.0
 70
   129
  0
VERTEX
  5
B05
  8
CLUSTERS
 10
663.942835425
 20
4675.9379474899997
 30
20.0
  0
VERTEX
  5
B06
  8
CLUSTERS
 10
663.88453159000017
 20
4675.950672859999
 30
20.0
  0
VERTEX
  5
B07
  8
CLUSTERS
 10
663.78431372499995
 20
4676.0087384300014
 30
20.0
  0
VERTEX
  5
B08
  8
CLUSTERS
 10
663.68886572400004
 20
4676.0381861599999
 30
20.0
  0
VERTEX
  5
B09
  8
CLUSTERS
 10
663.78431372499995
 20
4676.0677307799979
 30
20.0
  0
VERTEX
  5
B0A
  8
CLUSTERS
 10
663.88453159000017
 20
4676.1198213799998
 30
20.0
  0
VERTEX
  5
B0B
  8
CLUSTERS
 10
663.97598540800004
 20
4676.0381861599999
 30
20.0
  0
VERTEX
  5
B0C
  8
CLUSTERS
 10
663.98474945500004
 20
4675.9902440400001
 30
20.0
  0
VERTEX
  5
B0D
  8
CLUSTERS
 10
664.08496732000003
 20
4675.9653640899987
 30
20.0
  0
VERTEX
  5
B0E
  8
CLUSTERS
 10
664.18518518500002
 20
4676.0044935200003
 30
20.0
  0
VERTEX
  5
B0F
  8
CLUSTERS
 10
664.25046751100001
 20
4675.9379474899997
 30
20.0
  0
VERTEX
  5
B10
  8
CLUSTERS
 10
664.18518518500002
 20
4675.8722083599996
 30
20.0
  0
VERTEX
  5
B11
  8
CLUSTERS
 10
664.08496732000003
 20
4675.9111596499997
 30
20.0
  0
VERTEX
  5
B12
  8
CLUSTERS
 10
663.98474945500004
 20
4675.9081578300002
 30
20.0
  0
VERTEX
  5
B13
  8
CLUSTERS
 10
663.942835425
 20
4675.9379474899997
 30
20.0
  0
SEQEND
  5
B14
  8
CLUSTERS
  0
POLYLINE
  5
4A
  8
CLUSTERS
 66
     1
 10
0.0
 20
0.0
 30
20.0
 70
   129
  0
VERTEX
  5
B15
  8
CLUSTERS
 10
663.42137295999976
 20
4675.5369928399978
 30
20.0
  0
VERTEX
  5
B16
  8
CLUSTERS
 10
663.46168368899998
 20
4675.6372314999999
 30
20.0
  0
VERTEX
  5
B17
  8
CLUSTERS
 10
663.38344226599975
 20
4675.6768505700002
 30
20.0
  0
VERTEX
  5
B18
  8
CLUSTERS
 10
663.32378026100002
 20
4675.7374701700001
 30
20.0
  0
VERTEX
  5
B19
  8
CLUSTERS
 10
663.38344226599975
 20
4675.797455259999
 30
20.0
  0
VERTEX
  5
B1A
  8
CLUSTERS
 10
663.48366013099985
 20
4675.8306498299989
 30
20.0
  0
VERTEX
  5
B1B
  8
CLUSTERS
 10
663.58387799599996
 20
4675.8301731700003
 30
20.0
  0
VERTEX
  5
B1C
  8
CLUSTERS
 10
663.67758494099996
 20
4675.7374701700001
 30
20.0
  0
VERTEX
  5
B1D
  8
CLUSTERS
 10
663.65865384300002
 20
4675.6372314999999
 30
20.0
  0
VERTEX
  5
B1E
  8
CLUSTERS
 10
663.58387799599996
 20
4675.5638841799991
 30
20.0
  0
VERTEX
  5
B1F
  8
CLUSTERS
 10
663.51510284699998
 20
4675.5369928399978
 30
20.0
  0
VERTEX
  5
B20
  8
CLUSTERS
 10
663.48366013099985
 20
4675.5062234400002
 30
20.0
  0
VERTEX
  5
B21
  8
CLUSTERS
 10
663.42137295999976
 20
4675.5369928399978
 30
20.0
  0
SEQEND
  5
B22
  8
CLUSTERS
  0
POLYLINE
  5
4B
  8
CLUSTERS
 66
     1
 10
0.0
 20
0.0
 30
20.0
 70
   129
  0
VERTEX
  5
B23
  8
CLUSTERS
 10
651.37011493900002
 20
4675.5369928399978
 30
20.0
  0
VERTEX
  5
B24
  8
CLUSTERS
 10
651.35729847499977
 20
4675.5487489699981
 30
20.0
  0
VERTEX
  5
B25
  8
CLUSTERS
 10
651.25708061
 20
4675.5755661800004
 30
20.0
  0
VERTEX
  5
B26
  8
CLUSTERS
 10
651.19543124799998
 20
4675.6372314999999
 30
20.0
  0
VERTEX
  5
B27
  8
CLUSTERS
 10
651.25708061
 20
4675.6989234599978
 30
20.0
  0
VERTEX
  5
B28
  8
CLUSTERS
 10
651.35729847499977
 20
4675.71640819
 30
20.0
  0
VERTEX
  5
B29
  8
CLUSTERS
 10
651.43652909399975
 20
4675.6372314999999
 30
20.0
  0
VERTEX
  5
B2A
  8
CLUSTERS
 10
651.45751633999987
 20
4675.6145558500002
 30
20.0
  0
VERTEX
  5
B2B
  8
CLUSTERS
 10
651.49723865199996
 20
4675.6372314999999
 30
20.0
  0
VERTEX
  5
B2C
  8
CLUSTERS
 10
651.46159253799999
 20
4675.7374701700001
 30
20.0
  0
VERTEX
  5
B2D
  8
CLUSTERS
 10
651.45751633999987
 20
4675.7548459199988
 30
20.0
  0
VERTEX
  5
B2E
  8
CLUSTERS
 10
651.38956283100003
 20
4675.8377088300003
 30
20.0
  0
VERTEX
  5
B2F
  8
CLUSTERS
 10
651.45751633999987
 20
4675.9057111100001
 30
20.0
  0
VERTEX
  5
B30
  8
CLUSTERS
 10
651.55773420499997
 20
4675.9272503000002
 30
20.0
  0
VERTEX
  5
B31
  8
CLUSTERS
 10
651.65795206999985
 20
4675.9211303100001
 30
20.0
  0
VERTEX
  5
B32
  8
CLUSTERS
 10
651.70759947600004
 20
4675.9379474899997
 30
20.0
  0
VERTEX
  5
B33
  8
CLUSTERS
 10
651.66952688100002
 20
4676.0381861599999
 30
20.0
  0
VERTEX
  5
B34
  8
CLUSTERS
 10
651.65795206999985
 20
4676.0439195199979
 30
20.0
  0
VERTEX
  5
B35
  8
CLUSTERS
 10
651.56988601399985
 20
4676.1384248200002
 30
20.0
  0
VERTEX
  5
B36
  8
CLUSTERS
 10
651.55773420499997
 20
4676.2134044499999
 30
20.0
  0
VERTEX
  5
B37
  8
CLUSTERS
 10
651.54458491100002
 20
4676.2386634799977
 30
20.0
  0
VERTEX
  5
B38
  8
CLUSTERS
 10
651.53629216900003
 20
4676.3389021499988
 30
20.0
  0
VERTEX
  5
B39
  8
CLUSTERS
 10
651.47371334299976
 20
4676.43914081
 30
20.0
  0
VERTEX
  5
B3A
  8
CLUSTERS
 10
651.55773420499997
 20
4676.4957790400003
 30
20.0
  0
VERTEX
  5
B3B
  8
CLUSTERS
 10
651.61433916299995
 20
4676.43914081
 30
20.0
  0
VERTEX
  5
B3C
  8
CLUSTERS
 10
651.57081828399998
 20
4676.3389021499988
 30
20.0
  0
VERTEX
  5
B3D
  8
CLUSTERS
 10
651.65795206999985
 20
4676.3122191900002
 30
20.0
  0
VERTEX
  5
B3E
  8
CLUSTERS
 10
651.75816993499996
 20
4676.3044271499994
 30
20.0
  0
VERTEX
  5
B3F
  8
CLUSTERS
 10
651.85838779999995
 20
4676.3077135100002
 30
20.0
  0
VERTEX
  5
B40
  8
CLUSTERS
 10
651.93258386399998
 20
4676.3389021499988
 30
20.0
  0
VERTEX
  5
B41
  8
CLUSTERS
 10
651.95860566399995
 20
4676.3648726700003
 30
20.0
  0
VERTEX
  5
B42
  8
CLUSTERS
 10
651.9890984509999
 20
4676.3389021499988
 30
20.0
  0
VERTEX
  5
B43
  8
CLUSTERS
 10
651.97411808899994
 20
4676.2386634799977
 30
20.0
  0
VERTEX
  5
B44
  8
CLUSTERS
 10
652.05882352900005
 20
4676.2323733599997
 30
20.0
  0
VERTEX
  5
B45
  8
CLUSTERS
 10
652.15732354599993
 20
4676.1384248200002
 30
20.0
  0
VERTEX
  5
B46
  8
CLUSTERS
 10
652.15904139400004
 20
4676.1366735800002
 30
20.0
  0
VERTEX
  5
B47
  8
CLUSTERS
 10
652.25925925900003
 20
4676.1238482400004
 30
20.0
  0
VERTEX
  5
B48
  8
CLUSTERS
 10
652.35947712399991
 20
4676.1073932299978
 30
20.0
  0
VERTEX
  5
B49
  8
CLUSTERS
 10
652.39526165400002
 20
4676.0381861599999
 30
20.0
  0
VERTEX
  5
B4A
  8
CLUSTERS
 10
652.44578748499998
 20
4675.9379474899997
 30
20.0
  0
VERTEX
  5
B4B
  8
CLUSTERS
 10
652.35947712399991
 20
4675.85227252
 30
20.0
  0
VERTEX
  5
B4C
  8
CLUSTERS
 10
652.35187042500002
 20
4675.8377088300003
 30
20.0
  0
VERTEX
  5
B4D
  8
CLUSTERS
 10
652.35470495699985
 20
4675.7374701700001
 30
20.0
  0
VERTEX
  5
B4E
  8
CLUSTERS
 10
652.35402832599993
 20
4675.6372314999999
 30
20.0
  0
VERTEX
  5
B4F
  8
CLUSTERS
 10
652.25925925900003
 20
4675.5424526500001
 30
20.0
  0
VERTEX
  5
B50
  8
CLUSTERS
 10
652.15904139400004
 20
4675.5522971099999
 30
20.0
  0
VERTEX
  5
B51
  8
CLUSTERS
 10
652.05882352900005
 20
4675.5654718100004
 30
20.0
  0
VERTEX
  5
B52
  8
CLUSTERS
 10
651.98690307499976
 20
4675.6372314999999
 30
20.0
  0
VERTEX
  5
B53
  8
CLUSTERS
 10
651.95860566399995
 20
4675.6524609199996
 30
20.0
  0
VERTEX
  5
B54
  8
CLUSTERS
 10
651.93525099500005
 20
4675.6372314999999
 30
20.0
  0
VERTEX
  5
B55
  8
CLUSTERS
 10
651.85838779999995
 20
4675.5605198399999
 30
20.0
  0
VERTEX
  5
B56
  8
CLUSTERS
 10
651.75816993499996
 20
4675.5484026900003
 30
20.0
  0
VERTEX
  5
B57
  8
CLUSTERS
 10
651.65795206999985
 20
4675.5446682700003
 30
20.0
  0
VERTEX
  5
B58
  8
CLUSTERS
 10
651.55773420499997
 20
4675.5768304100002
 30
20.0
  0
VERTEX
  5
B59
  8
CLUSTERS
 10
651.53498491799996
 20
4675.5369928399978
 30
20.0
  0
VERTEX
  5
B5A
  8
CLUSTERS
 10
651.45751633999987
 20
4675.4595664199978
 30
20.0
  0
VERTEX
  5
B5B
  8
CLUSTERS
 10
651.37011493900002
 20
4675.5369928399978
 30
20.0
  0
SEQEND
  5
B5C
  8
CLUSTERS
  0
POLYLINE
  5
4C
  8
CLUSTERS
 66
     1
 10
0.0
 20
0.0
 30
20.0
 70
   129
  0
VERTEX
  5
B5D
  8
CLUSTERS
 10
668.452584097
 20
4675.3365155099991
 30
20.0
  0
VERTEX
  5
B5E
  8
CLUSTERS
 10
668.394335512
 20
4675.3425759600013
 30
20.0
  0
VERTEX
  5
B5F
  8
CLUSTERS
 10
668.29411764699989
 20
4675.35567378
 30
20.0
  0
VERTEX
  5
B60
  8
CLUSTERS
 10
668.21358864399997
 20
4675.4367541800002
 30
20.0
  0
VERTEX
  5
B61
  8
CLUSTERS
 10
668.19638297499989
 20
4675.5369928399978
 30
20.0
  0
VERTEX
  5
B62
  8
CLUSTERS
 10
668.21512651800003
 20
4675.6372314999999
 30
20.0
  0
VERTEX
  5
B63
  8
CLUSTERS
 10
668.19389978200002
 20
4675.662650369999
 30
20.0
  0
VERTEX
  5
B64
  8
CLUSTERS
 10
668.09368191700003
 20
4675.6509562299998
 30
20.0
  0
VERTEX
  5
B65
  8
CLUSTERS
 10
667.99346405199992
 20
4675.6847918399999
 30
20.0
  0
VERTEX
  5
B66
  8
CLUSTERS
 10
667.94117336500017
 20
4675.7374701700001
 30
20.0
  0
VERTEX
  5
B67
  8
CLUSTERS
 10
667.89324618699993
 20
4675.8251165199999
 30
20.0
  0
VERTEX
  5
B68
  8
CLUSTERS
 10
667.88149562199999
 20
4675.8377088300003
 30
20.0
  0
VERTEX
  5
B69
  8
CLUSTERS
 10
667.89324618699993
 20
4675.8682197999988
 30
20.0
  0
VERTEX
  5
B6A
  8
CLUSTERS
 10
667.90944981999985
 20
4675.9379474899997
 30
20.0
  0
VERTEX
  5
B6B
  8
CLUSTERS
 10
667.99346405199992
 20
4676.0028572499996
 30
20.0
  0
VERTEX
  5
B6C
  8
CLUSTERS
 10
668.09368191700003
 20
4675.9913055099996
 30
20.0
  0
VERTEX
  5
B6D
  8
CLUSTERS
 10
668.14775169099994
 20
4675.9379474899997
 30
20.0
  0
VERTEX
  5
B6E
  8
CLUSTERS
 10
668.19389978200002
 20
4675.88747926
 30
20.0
  0
VERTEX
  5
B6F
  8
CLUSTERS
 10
668.24207388399998
 20
4675.8377088300003
 30
20.0
  0
VERTEX
  5
B70
  8
CLUSTERS
 10
668.26851162299999
 20
4675.7374701700001
 30
20.0
  0
VERTEX
  5
B71
  8
CLUSTERS
 10
668.29411764699989
 20
4675.716069189999
 30
20.0
  0
VERTEX
  5
B72
  8
CLUSTERS
 10
668.394335512
 20
4675.7271008799989
 30
20.0
  0
VERTEX
  5
B73
  8
CLUSTERS
 10
668.49455337699976
 20
4675.6725298399988
 30
20.0
  0
VERTEX
  5
B74
  8
CLUSTERS
 10
668.59477124199987
 20
4675.7159453000013
 30
20.0
  0
VERTEX
  5
B75
  8
CLUSTERS
 10
668.61627165599998
 20
4675.7374701700001
 30
20.0
  0
VERTEX
  5
B76
  8
CLUSTERS
 10
668.69498910699997
 20
4675.8079395799987
 30
20.0
  0
VERTEX
  5
B77
  8
CLUSTERS
 10
668.79520697199985
 20
4675.8279015199987
 30
20.0
  0
VERTEX
  5
B78
  8
CLUSTERS
 10
668.89542483699995
 20
4675.8200651899988
 30
20.0
  0
VERTEX
  5
B79
  8
CLUSTERS
 10
668.97572434000006
 20
4675.7374701700001
 30
20.0
  0
VERTEX
  5
B7A
  8
CLUSTERS
 10
668.98947978399997
 20
4675.6372314999999
 30
20.0
  0
VERTEX
  5
B7B
  8
CLUSTERS
 10
668.99187694300008
 20
4675.5369928399978
 30
20.0
  0
VERTEX
  5
B7C
  8
CLUSTERS
 10
668.995599696
 20
4675.4367541800002
 30
20.0
  0
VERTEX
  5
B7D
  8
CLUSTERS
 10
668.98950407199993
 20
4675.3365155099991
 30
20.0
  0
VERTEX
  5
B7E
  8
CLUSTERS
 10
668.89542483699995
 20
4675.2428895900002
 30
20.0
  0
VERTEX
  5
B7F
  8
CLUSTERS
 10
668.79520697199985
 20
4675.2390902200004
 30
20.0
  0
VERTEX
  5
B80
  8
CLUSTERS
 10
668.69498910699997
 20
4675.2398242099998
 30
20.0
  0
VERTEX
  5
B81
  8
CLUSTERS
 10
668.59477124199987
 20
4675.2483197399979
 30
20.0
  0
VERTEX
  5
B82
  8
CLUSTERS
 10
668.49455337699976
 20
4675.3018747899978
 30
20.0
  0
VERTEX
  5
B83
  8
CLUSTERS
 10
668.452584097
 20
4675.3365155099991
 30
20.0
  0
SEQEND
  5
B84
  8
CLUSTERS
  0
POLYLINE
  5
4D
  8
CLUSTERS
 66
     1
 10
0.0
 20
0.0
 30
20.0
 70
   129
  0
VERTEX
  5
B85
  8
CLUSTERS
 10
664.70625024599985
 20
4675.2362768499988
 30
20.0
  0
VERTEX
  5
B86
  8
CLUSTERS
 10
664.78649237499985
 20
4675.3092426900002
 30
20.0
  0
VERTEX
  5
B87
  8
CLUSTERS
 10
664.88671023999996
 20
4675.2737022499996
 30
20.0
  0
VERTEX
  5
B88
  8
CLUSTERS
 10
664.92327168999998
 20
4675.2362768499988
 30
20.0
  0
VERTEX
  5
B89
  8
CLUSTERS
 10
664.88671023999996
 20
4675.1993058400003
 30
20.0
  0
VERTEX
  5
B8A
  8
CLUSTERS
 10
664.78649237499985
 20
4675.1382327000001
 30
20.0
  0
VERTEX
  5
B8B
  8
CLUSTERS
 10
664.70625024599985
 20
4675.2362768499988
 30
20.0
  0
SEQEND
  5
B8C
  8
CLUSTERS
  0
POLYLINE
  5
4E
  8
CLUSTERS
 66
     1
 10
0.0
 20
0.0
 30
20.0
 70
   129
  0
VERTEX
  5
B8D
  8
CLUSTERS
 10
663.59098527800006
 20
4675.1360381900004
 30
20.0
  0
VERTEX
  5
B8E
  8
CLUSTERS
 10
663.64119683199999
 20
4675.2362768499988
 30
20.0
  0
VERTEX
  5
B8F
  8
CLUSTERS
 10
663.68409586099995
 20
4675.2749172200001
 30
20.0
  0
VERTEX
  5
B90
  8
CLUSTERS
 10
663.74981692799997
 20
4675.2362768499988
 30
20.0
  0
VERTEX
  5
B91
  8
CLUSTERS
 10
663.78431372499995
 20
4675.2012653600013
 30
20.0
  0
VERTEX
  5
B92
  8
CLUSTERS
 10
663.79603888400004
 20
4675.2362768499988
 30
20.0
  0
VERTEX
  5
B93
  8
CLUSTERS
 10
663.88453159000017
 20
4675.311945739998
 30
20.0
  0
VERTEX
  5
B94
  8
CLUSTERS
 10
663.97585123199997
 20
4675.3365155099991
 30
20.0
  0
VERTEX
  5
B95
  8
CLUSTERS
 10
663.90331345399989
 20
4675.4367541800002
 30
20.0
  0
VERTEX
  5
B96
  8
CLUSTERS
 10
663.90930991800008
 20
4675.5369928399978
 30
20.0
  0
VERTEX
  5
B97
  8
CLUSTERS
 10
663.98474945500004
 20
4675.61074328
 30
20.0
  0
VERTEX
  5
B98
  8
CLUSTERS
 10
664.08496732000003
 20
4675.6311424799987
 30
20.0
  0
VERTEX
  5
B99
  8
CLUSTERS
 10
664.18518518500002
 20
4675.6281618800003
 30
20.0
  0
VERTEX
  5
B9A
  8
CLUSTERS
 10
664.27443572100003
 20
4675.5369928399978
 30
20.0
  0
VERTEX
  5
B9B
  8
CLUSTERS
 10
664.26409090200002
 20
4675.4367541800002
 30
20.0
  0
VERTEX
  5
B9C
  8
CLUSTERS
 10
664.27008091799996
 20
4675.3365155099991
 30
20.0
  0
VERTEX
  5
B9D
  8
CLUSTERS
 10
664.18518518500002
 20
4675.2511406699987
 30
20.0
  0
VERTEX
  5
B9E
  8
CLUSTERS
 10
664.08496732000003
 20
4675.2451112999988
 30
20.0
  0
VERTEX
  5
B9F
  8
CLUSTERS
 10
664.07765100199993
 20
4675.2362768499988
 30
20.0
  0
VERTEX
  5
BA0
  8
CLUSTERS
 10
664.07014596399995
 20
4675.1360381900004
 30
20.0
  0
VERTEX
  5
BA1
  8
CLUSTERS
 10
663.98474945500004
 20
4675.0570513499997
 30
20.0
  0
VERTEX
  5
BA2
  8
CLUSTERS
 10
663.88453159000017
 20
4675.0848178699998
 30
20.0
  0
VERTEX
  5
BA3
  8
CLUSTERS
 10
663.78431372499995
 20
4675.0983060099979
 30
20.0
  0
VERTEX
  5
BA4
  8
CLUSTERS
 10
663.68409586099995
 20
4675.0501283499998
 30
20.0
  0
VERTEX
  5
BA5
  8
CLUSTERS
 10
663.59098527800006
 20
4675.1360381900004
 30
20.0
  0
SEQEND
  5
BA6
  8
CLUSTERS
  0
POLYLINE
  5
4F
  8
CLUSTERS
 66
     1
 10
0.0
 20
0.0
 30
20.0
 70
   129
  0
VERTEX
  5
BA7
  8
CLUSTERS
 10
662.98506210400001
 20
4675.0357995200002
 30
20.0
  0
VERTEX
  5
BA8
  8
CLUSTERS
 10
663.082788671
 20
4675.0994774899991
 30
20.0
  0
VERTEX
  5
BA9
  8
CLUSTERS
 10
663.11246339599995
 20
4675.1360381900004
 30
20.0
  0
VERTEX
  5
BAA
  8
CLUSTERS
 10
663.12629055599984
 20
4675.2362768499988
 30
20.0
  0
VERTEX
  5
BAB
  8
CLUSTERS
 10
663.18300653599988
 20
4675.2916679800001
 30
20.0
  0
VERTEX
  5
BAC
  8
CLUSTERS
 10
663.28322440099998
 20
4675.322948619998
 30
20.0
  0
VERTEX
  5
BAD
  8
CLUSTERS
 10
663.38344226599975
 20
4675.3128551000009
 30
20.0
  0
VERTEX
  5
BAE
  8
CLUSTERS
 10
663.45881532199996
 20
4675.2362768499988
 30
20.0
  0
VERTEX
  5
BAF
  8
CLUSTERS
 10
663.46715960999995
 20
4675.1360381900004
 30
20.0
  0
VERTEX
  5
BB0
  8
CLUSTERS
 10
663.42618999599995
 20
4675.0357995200002
 30
20.0
  0
VERTEX
  5
BB1
  8
CLUSTERS
 10
663.38344226599975
 20
4674.99318829
 30
20.0
  0
VERTEX
  5
BB2
  8
CLUSTERS
 10
663.28322440099998
 20
4674.9763832999988
 30
20.0
  0
VERTEX
  5
BB3
  8
CLUSTERS
 10
663.18990211699975
 20
4675.0357995200002
 30
20.0
  0
VERTEX
  5
BB4
  8
CLUSTERS
 10
663.18300653599988
 20
4675.0412924700013
 30
20.0
  0
VERTEX
  5
BB5
  8
CLUSTERS
 10
663.17565783099997
 20
4675.0357995200002
 30
20.0
  0
VERTEX
  5
BB6
  8
CLUSTERS
 10
663.082788671
 20
4674.9783035299988
 30
20.0
  0
VERTEX
  5
BB7
  8
CLUSTERS
 10
662.98506210400001
 20
4675.0357995200002
 30
20.0
  0
SEQEND
  5
BB8
  8
CLUSTERS
  0
POLYLINE
  5
50
  8
CLUSTERS
 66
     1
 10
0.0
 20
0.0
 30
20.0
 70
   129
  0
VERTEX
  5
BB9
  8
CLUSTERS
 10
662.72915116000001
 20
4675.0357995200002
 30
20.0
  0
VERTEX
  5
BBA
  8
CLUSTERS
 10
662.78213507600003
 20
4675.0953722300001
 30
20.0
  0
VERTEX
  5
BBB
  8
CLUSTERS
 10
662.88235294099991
 20
4675.1202907500001
 30
20.0
  0
VERTEX
  5
BBC
  8
CLUSTERS
 10
662.98060871099995
 20
4675.0357995200002
 30
20.0
  0
VERTEX
  5
BBD
  8
CLUSTERS
 10
662.88235294099991
 20
4674.9724545899999
 30
20.0
  0
VERTEX
  5
BBE
  8
CLUSTERS
 10
662.78213507600003
 20
4674.9853175099997
 30
20.0
  0
VERTEX
  5
BBF
  8
CLUSTERS
 10
662.72915116000001
 20
4675.0357995200002
 30
20.0
  0
SEQEND
  5
BC0
  8
CLUSTERS
  0
POLYLINE
  5
51
  8
CLUSTERS
 66
     1
 10
0.0
 20
0.0
 30
20.0
 70
   129
  0
VERTEX
  5
BC1
  8
CLUSTERS
 10
664.73970840100003
 20
4674.8353221999978
 30
20.0
  0
VERTEX
  5
BC2
  8
CLUSTERS
 10
664.76686313699997
 20
4674.9355608599981
 30
20.0
  0
VERTEX
  5
BC3
  8
CLUSTERS
 10
664.78649237499985
 20
4674.95502657
 30
20.0
  0
VERTEX
  5
BC4
  8
CLUSTERS
 10
664.88671023999996
 20
4675.0120560300002
 30
20.0
  0
VERTEX
  5
BC5
  8
CLUSTERS
 10
664.96147766800004
 20
4674.9355608599981
 30
20.0
  0
VERTEX
  5
BC6
  8
CLUSTERS
 10
664.96866573499995
 20
4674.8353221999978
 30
20.0
  0
VERTEX
  5
BC7
  8
CLUSTERS
 10
664.88671023999996
 20
4674.7530797700001
 30
20.0
  0
VERTEX
  5
BC8
  8
CLUSTERS
 10
664.78649237499985
 20
4674.79128416
 30
20.0
  0
VERTEX
  5
BC9
  8
CLUSTERS
 10
664.73970840100003
 20
4674.8353221999978
 30
20.0
  0
SEQEND
  5
BCA
  8
CLUSTERS
  0
POLYLINE
  5
52
  8
CLUSTERS
 66
     1
 10
0.0
 20
0.0
 30
20.0
 70
   129
  0
VERTEX
  5
BCB
  8
CLUSTERS
 10
665.45402101499985
 20
4674.7350835300003
 30
20.0
  0
VERTEX
  5
BCC
  8
CLUSTERS
 10
665.38779956400003
 20
4674.7865711200002
 30
20.0
  0
VERTEX
  5
BCD
  8
CLUSTERS
 10
665.28758169900004
 20
4674.74731195
 30
20.0
  0
VERTEX
  5
BCE
  8
CLUSTERS
 10
665.18736383400005
 20
4674.8242864200001
 30
20.0
  0
VERTEX
  5
BCF
  8
CLUSTERS
 10
665.17668150600002
 20
4674.8353221999978
 30
20.0
  0
VERTEX
  5
BD0
  8
CLUSTERS
 10
665.18736383400005
 20
4674.8530797900003
 30
20.0
  0
VERTEX
  5
BD1
  8
CLUSTERS
 10
665.21538719300008
 20
4674.9355608599981
 30
20.0
  0
VERTEX
  5
BD2
  8
CLUSTERS
 10
665.28758169900004
 20
4674.9968413400002
 30
20.0
  0
VERTEX
  5
BD3
  8
CLUSTERS
 10
665.36046421200001
 20
4674.9355608599981
 30
20.0
  0
VERTEX
  5
BD4
  8
CLUSTERS
 10
665.38779956400003
 20
4674.8930721099978
 30
20.0
  0
VERTEX
  5
BD5
  8
CLUSTERS
 10
665.48801742900002
 20
4674.8898204799989
 30
20.0
  0
VERTEX
  5
BD6
  8
CLUSTERS
 10
665.5882352939999
 20
4674.8389570899999
 30
20.0
  0
VERTEX
  5
BD7
  8
CLUSTERS
 10
665.59060611400002
 20
4674.8353221999978
 30
20.0
  0
VERTEX
  5
BD8
  8
CLUSTERS
 10
665.5882352939999
 20
4674.8296648100004
 30
20.0
  0
VERTEX
  5
BD9
  8
CLUSTERS
 10
665.54030923400001
 20
4674.7350835300003
 30
20.0
  0
VERTEX
  5
BDA
  8
CLUSTERS
 10
665.48801742900002
 20
4674.7068716200001
 30
20.0
  0
VERTEX
  5
BDB
  8
CLUSTERS
 10
665.45402101499985
 20
4674.7350835300003
 30
20.0
  0
SEQEND
  5
BDC
  8
CLUSTERS
  0
POLYLINE
  5
53
  8
CLUSTERS
 66
     1
 10
0.0
 20
0.0
 30
20.0
 70
   129
  0
VERTEX
  5
BDD
  8
CLUSTERS
 10
662.26433152300001
 20
4674.4343675399987
 30
20.0
  0
VERTEX
  5
BDE
  8
CLUSTERS
 10
662.28104575199995
 20
4674.4587936099988
 30
20.0
  0
VERTEX
  5
BDF
  8
CLUSTERS
 10
662.38126361699995
 20
4674.4703672699989
 30
20.0
  0
VERTEX
  5
BE0
  8
CLUSTERS
 10
662.48148148099995
 20
4674.4508450800004
 30
20.0
  0
VERTEX
  5
BE1
  8
CLUSTERS
 10
662.49209081699996
 20
4674.4343675399987
 30
20.0
  0
VERTEX
  5
BE2
  8
CLUSTERS
 10
662.48148148099995
 20
4674.4237790099978
 30
20.0
  0
VERTEX
  5
BE3
  8
CLUSTERS
 10
662.38126361699995
 20
4674.4125288100004
 30
20.0
  0
VERTEX
  5
BE4
  8
CLUSTERS
 10
662.28104575199995
 20
4674.4183894300013
 30
20.0
  0
VERTEX
  5
BE5
  8
CLUSTERS
 10
662.26433152300001
 20
4674.4343675399987
 30
20.0
  0
SEQEND
  5
BE6
  8
CLUSTERS
  0
POLYLINE
  5
54
  8
CLUSTERS
 66
     1
 10
0.0
 20
0.0
 30
20.0
 70
   129
  0
VERTEX
  5
BE7
  8
CLUSTERS
 10
658.08233124900005
 20
4674.4343675399987
 30
20.0
  0
VERTEX
  5
BE8
  8
CLUSTERS
 10
658.15673137299996
 20
4674.5346062099989
 30
20.0
  0
VERTEX
  5
BE9
  8
CLUSTERS
 10
658.07189542499987
 20
4674.5585468999998
 30
20.0
  0
VERTEX
  5
BEA
  8
CLUSTERS
 10
657.99624739399997
 20
4674.6348448700001
 30
20.0
  0
VERTEX
  5
BEB
  8
CLUSTERS
 10
658.07189542499987
 20
4674.7115574199988
 30
20.0
  0
VERTEX
  5
BEC
  8
CLUSTERS
 10
658.17211328999997
 20
4674.7320043299997
 30
20.0
  0
VERTEX
  5
BED
  8
CLUSTERS
 10
658.1870124699999
 20
4674.7350835300003
 30
20.0
  0
VERTEX
  5
BEE
  8
CLUSTERS
 10
658.17211328999997
 20
4674.7871677299991
 30
20.0
  0
VERTEX
  5
BEF
  8
CLUSTERS
 10
658.13628477199995
 20
4674.8353221999978
 30
20.0
  0
VERTEX
  5
BF0
  8
CLUSTERS
 10
658.11076646599997
 20
4674.9355608599981
 30
20.0
  0
VERTEX
  5
BF1
  8
CLUSTERS
 10
658.17211328999997
 20
4674.99676791
 30
20.0
  0
VERTEX
  5
BF2
  8
CLUSTERS
 10
658.27233115499985
 20
4675.0114117299991
 30
20.0
  0
VERTEX
  5
BF3
  8
CLUSTERS
 10
658.34810716200002
 20
4674.9355608599981
 30
20.0
  0
VERTEX
  5
BF4
  8
CLUSTERS
 10
658.36523107199969
 20
4674.8353221999978
 30
20.0
  0
VERTEX
  5
BF5
  8
CLUSTERS
 10
658.37254901999995
 20
4674.8330973599977
 30
20.0
  0
VERTEX
  5
BF6
  8
CLUSTERS
 10
658.46993971099994
 20
4674.7350835300003
 30
20.0
  0
VERTEX
  5
BF7
  8
CLUSTERS
 10
658.47093826900004
 20
4674.6348448700001
 30
20.0
  0
VERTEX
  5
BF8
  8
CLUSTERS
 10
658.47276688500017
 20
4674.5968278700002
 30
20.0
  0
VERTEX
  5
BF9
  8
CLUSTERS
 10
658.53098377000003
 20
4674.5346062099989
 30
20.0
  0
VERTEX
  5
BFA
  8
CLUSTERS
 10
658.47276688500017
 20
4674.4592914200002
 30
20.0
  0
VERTEX
  5
BFB
  8
CLUSTERS
 10
658.37254901999995
 20
4674.4955979200004
 30
20.0
  0
VERTEX
  5
BFC
  8
CLUSTERS
 10
658.35051375800003
 20
4674.4343675399987
 30
20.0
  0
VERTEX
  5
BFD
  8
CLUSTERS
 10
658.27233115499985
 20
4674.3523870199988
 30
20.0
  0
VERTEX
  5
BFE
  8
CLUSTERS
 10
658.17211328999997
 20
4674.3387817700004
 30
20.0
  0
VERTEX
  5
BFF
  8
CLUSTERS
 10
658.08233124900005
 20
4674.4343675399987
 30
20.0
  0
SEQEND
  5
C00
  8
CLUSTERS
  0
POLYLINE
  5
55
  8
CLUSTERS
 66
     1
 10
0.0
 20
0.0
 30
20.0
 70
   129
  0
VERTEX
  5
C01
  8
CLUSTERS
 10
635.82542852199992
 20
4674.4343675399987
 30
20.0
  0
VERTEX
  5
C02
  8
CLUSTERS
 10
635.82352941199986
 20
4674.4470083400001
 30
20.0
  0
VERTEX
  5
C03
  8
CLUSTERS
 10
635.80026191900004
 20
4674.5346062099989
 30
20.0
  0
VERTEX
  5
C04
  8
CLUSTERS
 10
635.82352941199986
 20
4674.5583329600022
 30
20.0
  0
VERTEX
  5
C05
  8
CLUSTERS
 10
635.88078414599988
 20
4674.6348448700001
 30
20.0
  0
VERTEX
  5
C06
  8
CLUSTERS
 10
635.92374727699985
 20
4674.67771481
 30
20.0
  0
VERTEX
  5
C07
  8
CLUSTERS
 10
636.02396514199995
 20
4674.6741759200004
 30
20.0
  0
VERTEX
  5
C08
  8
CLUSTERS
 10
636.06400437499997
 20
4674.6348448700001
 30
20.0
  0
VERTEX
  5
C09
  8
CLUSTERS
 10
636.10194114499996
 20
4674.5346062099989
 30
20.0
  0
VERTEX
  5
C0A
  8
CLUSTERS
 10
636.04699711499995
 20
4674.4343675399987
 30
20.0
  0
VERTEX
  5
C0B
  8
CLUSTERS
 10
636.02396514199995
 20
4674.4118358100004
 30
20.0
  0
VERTEX
  5
C0C
  8
CLUSTERS
 10
635.92374727699985
 20
4674.3646279499999
 30
20.0
  0
VERTEX
  5
C0D
  8
CLUSTERS
 10
635.82542852199992
 20
4674.4343675399987
 30
20.0
  0
SEQEND
  5
C0E
  8
CLUSTERS
  0
POLYLINE
  5
56
  8
CLUSTERS
 66
     1
 10
0.0
 20
0.0
 30
20.0
 70
   129
  0
VERTEX
  5
C0F
  8
CLUSTERS
 10
667.32566263599995
 20
4674.23389021
 30
20.0
  0
VERTEX
  5
C10
  8
CLUSTERS
 10
667.29484200599995
 20
4674.3341288800002
 30
20.0
  0
VERTEX
  5
C11
  8
CLUSTERS
 10
667.31111347699994
 20
4674.4343675399987
 30
20.0
  0
VERTEX
  5
C12
  8
CLUSTERS
 10
667.39215686299997
 20
4674.518263089999
 30
20.0
  0
VERTEX
  5
C13
  8
CLUSTERS
 10
667.49237472800007
 20
4674.5330666099999
 30
20.0
  0
VERTEX
  5
C14
  8
CLUSTERS
 10
667.59259259299995
 20
4674.531166669999
 30
20.0
  0
VERTEX
  5
C15
  8
CLUSTERS
 10
667.69281045800005
 20
4674.5061098899987
 30
20.0
  0
VERTEX
  5
C16
  8
CLUSTERS
 10
667.79302832199994
 20
4674.5205764599987
 30
20.0
  0
VERTEX
  5
C17
  8
CLUSTERS
 10
667.88852173800001
 20
4674.5346062099989
 30
20.0
  0
VERTEX
  5
C18
  8
CLUSTERS
 10
667.89324618699993
 20
4674.5366994799988
 30
20.0
  0
VERTEX
  5
C19
  8
CLUSTERS
 10
667.89525609999998
 20
4674.5346062099989
 30
20.0
  0
VERTEX
  5
C1A
  8
CLUSTERS
 10
667.93669226099985
 20
4674.4343675399987
 30
20.0
  0
VERTEX
  5
C1B
  8
CLUSTERS
 10
667.89324618699993
 20
4674.3893312299988
 30
20.0
  0
VERTEX
  5
C1C
  8
CLUSTERS
 10
667.83195921000004
 20
4674.3341288800002
 30
20.0
  0
VERTEX
  5
C1D
  8
CLUSTERS
 10
667.79302832199994
 20
4674.2936654699988
 30
20.0
  0
VERTEX
  5
C1E
  8
CLUSTERS
 10
667.74177525300001
 20
4674.23389021
 30
20.0
  0
VERTEX
  5
C1F
  8
CLUSTERS
 10
667.69281045800005
 20
4674.1853887200004
 30
20.0
  0
VERTEX
  5
C20
  8
CLUSTERS
 10
667.59259259299995
 20
4674.1472296099992
 30
20.0
  0
VERTEX
  5
C21
  8
CLUSTERS
 10
667.49237472800007
 20
4674.1426407899999
 30
20.0
  0
VERTEX
  5
C22
  8
CLUSTERS
 10
667.39215686299997
 20
4674.1677328899987
 30
20.0
  0
VERTEX
  5
C23
  8
CLUSTERS
 10
667.32566263599995
 20
4674.23389021
 30
20.0
  0
SEQEND
  5
C24
  8
CLUSTERS
  0
POLYLINE
  5
57
  8
CLUSTERS
 66
     1
 10
0.0
 20
0.0
 30
20.0
 70
   129
  0
VERTEX
  5
C25
  8
CLUSTERS
 10
663.13509609100004
 20
4674.23389021
 30
20.0
  0
VERTEX
  5
C26
  8
CLUSTERS
 10
663.18300653599988
 20
4674.2804305500003
 30
20.0
  0
VERTEX
  5
C27
  8
CLUSTERS
 10
663.28322440099998
 20
4674.3003589299997
 30
20.0
  0
VERTEX
  5
C28
  8
CLUSTERS
 10
663.34889232299997
 20
4674.3341288800002
 30
20.0
  0
VERTEX
  5
C29
  8
CLUSTERS
 10
663.38344226599975
 20
4674.4213297099986
 30
20.0
  0
VERTEX
  5
C2A
  8
CLUSTERS
 10
663.41343958699974
 20
4674.3341288800002
 30
20.0
  0
VERTEX
  5
C2B
  8
CLUSTERS
 10
663.38344226599975
 20
4674.30374381
 30
20.0
  0
VERTEX
  5
C2C
  8
CLUSTERS
 10
663.34529726499977
 20
4674.23389021
 30
20.0
  0
VERTEX
  5
C2D
  8
CLUSTERS
 10
663.28322440099998
 20
4674.1718609299978
 30
20.0
  0
VERTEX
  5
C2E
  8
CLUSTERS
 10
663.18300653599988
 20
4674.1887447199997
 30
20.0
  0
VERTEX
  5
C2F
  8
CLUSTERS
 10
663.13509609100004
 20
4674.23389021
 30
20.0
  0
SEQEND
  5
C30
  8
CLUSTERS
  0
POLYLINE
  5
58
  8
CLUSTERS
 66
     1
 10
0.0
 20
0.0
 30
20.0
 70
   129
  0
VERTEX
  5
C31
  8
CLUSTERS
 10
663.33752646799996
 20
4673.6324582300012
 30
20.0
  0
VERTEX
  5
C32
  8
CLUSTERS
 10
663.38344226599975
 20
4673.6824026999984
 30
20.0
  0
VERTEX
  5
C33
  8
CLUSTERS
 10
663.48366013099985
 20
4673.6970985199987
 30
20.0
  0
VERTEX
  5
C34
  8
CLUSTERS
 10
663.49817642199991
 20
4673.7326968999987
 30
20.0
  0
VERTEX
  5
C35
  8
CLUSTERS
 10
663.58387799599996
 20
4673.8167499199999
 30
20.0
  0
VERTEX
  5
C36
  8
CLUSTERS
 10
663.67209589200002
 20
4673.7326968999987
 30
20.0
  0
VERTEX
  5
C37
  8
CLUSTERS
 10
663.58387799599996
 20
4673.6594116599999
 30
20.0
  0
VERTEX
  5
C38
  8
CLUSTERS
 10
663.52930089599977
 20
4673.6324582300012
 30
20.0
  0
VERTEX
  5
C39
  8
CLUSTERS
 10
663.48366013099985
 20
4673.5875081300001
 30
20.0
  0
VERTEX
  5
C3A
  8
CLUSTERS
 10
663.38344226599975
 20
4673.5897003599994
 30
20.0
  0
VERTEX
  5
C3B
  8
CLUSTERS
 10
663.33752646799996
 20
4673.6324582300012
 30
20.0
  0
SEQEND
  5
C3C
  8
CLUSTERS
  0
POLYLINE
  5
59
  8
CLUSTERS
 66
     1
 10
0.0
 20
0.0
 30
20.0
 70
   129
  0
VERTEX
  5
C3D
  8
CLUSTERS
 10
662.11024796300001
 20
4673.6324582300012
 30
20.0
  0
VERTEX
  5
C3E
  8
CLUSTERS
 10
662.08061002199997
 20
4673.66345542
 30
20.0
  0
VERTEX
  5
C3F
  8
CLUSTERS
 10
662.01801213199985
 20
4673.7326968999987
 30
20.0
  0
VERTEX
  5
C40
  8
CLUSTERS
 10
661.98039215699987
 20
4673.8189522399998
 30
20.0
  0
VERTEX
  5
C41
  8
CLUSTERS
 10
661.94767019599999
 20
4673.8329355599999
 30
20.0
  0
VERTEX
  5
C42
  8
CLUSTERS
 10
661.98039215699987
 20
4673.8529127800002
 30
20.0
  0
VERTEX
  5
C43
  8
CLUSTERS
 10
662.03069921300005
 20
4673.8329355599999
 30
20.0
  0
VERTEX
  5
C44
  8
CLUSTERS
 10
662.08061002199997
 20
4673.8241004499996
 30
20.0
  0
VERTEX
  5
C45
  8
CLUSTERS
 10
662.11036607000017
 20
4673.8329355599999
 30
20.0
  0
VERTEX
  5
C46
  8
CLUSTERS
 10
662.18082788699985
 20
4673.8603264099993
 30
20.0
  0
VERTEX
  5
C47
  8
CLUSTERS
 10
662.24159157999975
 20
4673.8329355599999
 30
20.0
  0
VERTEX
  5
C48
  8
CLUSTERS
 10
662.28104575199995
 20
4673.8320411999994
 30
20.0
  0
VERTEX
  5
C49
  8
CLUSTERS
 10
662.37805735899985
 20
4673.7326968999987
 30
20.0
  0
VERTEX
  5
C4A
  8
CLUSTERS
 10
662.36866708199977
 20
4673.6324582300012
 30
20.0
  0
VERTEX
  5
C4B
  8
CLUSTERS
 10
662.28104575199995
 20
4673.5448820999991
 30
20.0
  0
VERTEX
  5
C4C
  8
CLUSTERS
 10
662.18082788699985
 20
4673.5683443500002
 30
20.0
  0
VERTEX
  5
C4D
  8
CLUSTERS
 10
662.11024796300001
 20
4673.6324582300012
 30
20.0
  0
SEQEND
  5
C4E
  8
CLUSTERS
  0
POLYLINE
  5
5A
  8
CLUSTERS
 66
     1
 10
0.0
 20
0.0
 30
20.0
 70
   129
  0
VERTEX
  5
C4F
  8
CLUSTERS
 10
662.04041561500003
 20
4673.2315035800011
 30
20.0
  0
VERTEX
  5
C50
  8
CLUSTERS
 10
662.04860780499985
 20
4673.3317422399996
 30
20.0
  0
VERTEX
  5
C51
  8
CLUSTERS
 10
662.08061002199997
 20
4673.3637012199997
 30
20.0
  0
VERTEX
  5
C52
  8
CLUSTERS
 10
662.18082788699985
 20
4673.4098310500003
 30
20.0
  0
VERTEX
  5
C53
  8
CLUSTERS
 10
662.25705016099994
 20
4673.3317422399996
 30
20.0
  0
VERTEX
  5
C54
  8
CLUSTERS
 10
662.25494110900001
 20
4673.2315035800011
 30
20.0
  0
VERTEX
  5
C55
  8
CLUSTERS
 10
662.18082788699985
 20
4673.1572173599998
 30
20.0
  0
VERTEX
  5
C56
  8
CLUSTERS
 10
662.08061002199997
 20
4673.1501235300002
 30
20.0
  0
VERTEX
  5
C57
  8
CLUSTERS
 10
662.04041561500003
 20
4673.2315035800011
 30
20.0
  0
SEQEND
  5
C58
  8
CLUSTERS
  0
POLYLINE
  5
5B
  8
CLUSTERS
 66
     1
 10
0.0
 20
0.0
 30
20.0
 70
   129
  0
VERTEX
  5
C59
  8
CLUSTERS
 10
634.44467295599975
 20
4673.0310262499997
 30
20.0
  0
VERTEX
  5
C5A
  8
CLUSTERS
 10
634.42047930299998
 20
4673.0372929200012
 30
20.0
  0
VERTEX
  5
C5B
  8
CLUSTERS
 10
634.32026143799987
 20
4673.0500987300002
 30
20.0
  0
VERTEX
  5
C5C
  8
CLUSTERS
 10
634.22004357299977
 20
4673.0584389599999
 30
20.0
  0
VERTEX
  5
C5D
  8
CLUSTERS
 10
634.14724029000001
 20
4673.1312649199999
 30
20.0
  0
VERTEX
  5
C5E
  8
CLUSTERS
 10
634.12264885499985
 20
4673.2315035800011
 30
20.0
  0
VERTEX
  5
C5F
  8
CLUSTERS
 10
634.14758055699997
 20
4673.3317422399996
 30
20.0
  0
VERTEX
  5
C60
  8
CLUSTERS
 10
634.11982570800001
 20
4673.3896474499998
 30
20.0
  0
VERTEX
  5
C61
  8
CLUSTERS
 10
634.0196078429999
 20
4673.3769055299999
 30
20.0
  0
VERTEX
  5
C62
  8
CLUSTERS
 10
633.96485910900003
 20
4673.4319809099998
 30
20.0
  0
VERTEX
  5
C63
  8
CLUSTERS
 10
634.00136828999985
 20
4673.5322195700001
 30
20.0
  0
VERTEX
  5
C64
  8
CLUSTERS
 10
634.0196078429999
 20
4673.5531831899998
 30
20.0
  0
VERTEX
  5
C65
  8
CLUSTERS
 10
634.11982570800001
 20
4673.571381499999
 30
20.0
  0
VERTEX
  5
C66
  8
CLUSTERS
 10
634.15385131999994
 20
4673.5322195700001
 30
20.0
  0
VERTEX
  5
C67
  8
CLUSTERS
 10
634.16123459799996
 20
4673.4319809099998
 30
20.0
  0
VERTEX
  5
C68
  8
CLUSTERS
 10
634.22004357299977
 20
4673.4034599099996
 30
20.0
  0
VERTEX
  5
C69
  8
CLUSTERS
 10
634.32026143799987
 20
4673.40125618
 30
20.0
  0
VERTEX
  5
C6A
  8
CLUSTERS
 10
634.42047930299998
 20
4673.3943130199996
 30
20.0
  0
VERTEX
  5
C6B
  8
CLUSTERS
 10
634.52069716799997
 20
4673.3878528599998
 30
20.0
  0
VERTEX
  5
C6C
  8
CLUSTERS
 10
634.62091503299996
 20
4673.4043872199991
 30
20.0
  0
VERTEX
  5
C6D
  8
CLUSTERS
 10
634.72113289800006
 20
4673.4201845300013
 30
20.0
  0
VERTEX
  5
C6E
  8
CLUSTERS
 10
634.82135076300005
 20
4673.4089602699978
 30
20.0
  0
VERTEX
  5
C6F
  8
CLUSTERS
 10
634.90489320199993
 20
4673.3317422399996
 30
20.0
  0
VERTEX
  5
C70
  8
CLUSTERS
 10
634.92156862699994
 20
4673.3199890899987
 30
20.0
  0
VERTEX
  5
C71
  8
CLUSTERS
 10
635.02178649199993
 20
4673.27790757
 30
20.0
  0
VERTEX
  5
C72
  8
CLUSTERS
 10
635.06824327900006
 20
4673.2315035800011
 30
20.0
  0
VERTEX
  5
C73
  8
CLUSTERS
 10
635.09952395899995
 20
4673.1312649199999
 30
20.0
  0
VERTEX
  5
C74
  8
CLUSTERS
 10
635.07515356900001
 20
4673.0310262499997
 30
20.0
  0
VERTEX
  5
C75
  8
CLUSTERS
 10
635.02178649199993
 20
4672.9794223500003
 30
20.0
  0
VERTEX
  5
C76
  8
CLUSTERS
 10
634.92156862699994
 20
4672.9482346000004
 30
20.0
  0
VERTEX
  5
C77
  8
CLUSTERS
 10
634.82135076300005
 20
4672.9717777199994
 30
20.0
  0
VERTEX
  5
C78
  8
CLUSTERS
 10
634.72113289800006
 20
4672.9914446000002
 30
20.0
  0
VERTEX
  5
C79
  8
CLUSTERS
 10
634.62091503299996
 20
4672.9748262100002
 30
20.0
  0
VERTEX
  5
C7A
  8
CLUSTERS
 10
634.52069716799997
 20
4672.9861622699991
 30
20.0
  0
VERTEX
  5
C7B
  8
CLUSTERS
 10
634.44467295599975
 20
4673.0310262499997
 30
20.0
  0
SEQEND
  5
C7C
  8
CLUSTERS
  0
POLYLINE
  5
5C
  8
CLUSTERS
 66
     1
 10
0.0
 20
0.0
 30
20.0
 70
   129
  0
VERTEX
  5
C7D
  8
CLUSTERS
 10
656.83352487100001
 20
4672.730310259999
 30
20.0
  0
VERTEX
  5
C7E
  8
CLUSTERS
 10
656.80963964
 20
4672.8305489300001
 30
20.0
  0
VERTEX
  5
C7F
  8
CLUSTERS
 10
656.86928104599986
 20
4672.9089901599991
 30
20.0
  0
VERTEX
  5
C80
  8
CLUSTERS
 10
656.92832043299995
 20
4672.8305489300001
 30
20.0
  0
VERTEX
  5
C81
  8
CLUSTERS
 10
656.90468010899986
 20
4672.730310259999
 30
20.0
  0
VERTEX
  5
C82
  8
CLUSTERS
 10
656.86928104599986
 20
4672.6948155999989
 30
20.0
  0
VERTEX
  5
C83
  8
CLUSTERS
 10
656.83352487100001
 20
4672.730310259999
 30
20.0
  0
SEQEND
  5
C84
  8
CLUSTERS
  0
POLYLINE
  5
5D
  8
CLUSTERS
 66
     1
 10
0.0
 20
0.0
 30
20.0
 70
   129
  0
VERTEX
  5
C85
  8
CLUSTERS
 10
635.35390780199975
 20
4672.730310259999
 30
20.0
  0
VERTEX
  5
C86
  8
CLUSTERS
 10
635.32244008700002
 20
4672.732664889998
 30
20.0
  0
VERTEX
  5
C87
  8
CLUSTERS
 10
635.22222222199991
 20
4672.7494853400003
 30
20.0
  0
VERTEX
  5
C88
  8
CLUSTERS
 10
635.14136992199997
 20
4672.8305489300001
 30
20.0
  0
VERTEX
  5
C89
  8
CLUSTERS
 10
635.18719335699996
 20
4672.9307875900004
 30
20.0
  0
VERTEX
  5
C8A
  8
CLUSTERS
 10
635.22222222199991
 20
4672.9663164100002
 30
20.0
  0
VERTEX
  5
C8B
  8
CLUSTERS
 10
635.32244008700002
 20
4673.0102466899998
 30
20.0
  0
VERTEX
  5
C8C
  8
CLUSTERS
 10
635.35110849
 20
4673.0310262499997
 30
20.0
  0
VERTEX
  5
C8D
  8
CLUSTERS
 10
635.42265795200001
 20
4673.0967396100004
 30
20.0
  0
VERTEX
  5
C8E
  8
CLUSTERS
 10
635.47950995400004
 20
4673.0310262499997
 30
20.0
  0
VERTEX
  5
C8F
  8
CLUSTERS
 10
635.42265795200001
 20
4672.9629621699978
 30
20.0
  0
VERTEX
  5
C90
  8
CLUSTERS
 10
635.39902850199996
 20
4672.9307875900004
 30
20.0
  0
VERTEX
  5
C91
  8
CLUSTERS
 10
635.42265795200001
 20
4672.9131236200001
 30
20.0
  0
VERTEX
  5
C92
  8
CLUSTERS
 10
635.49622878299999
 20
4672.8305489300001
 30
20.0
  0
VERTEX
  5
C93
  8
CLUSTERS
 10
635.44981215400003
 20
4672.730310259999
 30
20.0
  0
VERTEX
  5
C94
  8
CLUSTERS
 10
635.42265795200001
 20
4672.7041655900002
 30
20.0
  0
VERTEX
  5
C95
  8
CLUSTERS
 10
635.35390780199975
 20
4672.730310259999
 30
20.0
  0
SEQEND
  5
C96
  8
CLUSTERS
  0
POLYLINE
  5
5E
  8
CLUSTERS
 66
     1
 10
0.0
 20
0.0
 30
20.0
 70
   129
  0
VERTEX
  5
C97
  8
CLUSTERS
 10
637.359939457
 20
4672.5298329400002
 30
20.0
  0
VERTEX
  5
C98
  8
CLUSTERS
 10
637.34260187500001
 20
4672.6300715999987
 30
20.0
  0
VERTEX
  5
C99
  8
CLUSTERS
 10
637.42701525099994
 20
4672.7220503299986
 30
20.0
  0
VERTEX
  5
C9A
  8
CLUSTERS
 10
637.43536426699995
 20
4672.730310259999
 30
20.0
  0
VERTEX
  5
C9B
  8
CLUSTERS
 10
637.52723311499994
 20
4672.8162057099998
 30
20.0
  0
VERTEX
  5
C9C
  8
CLUSTERS
 10
637.62745098000005
 20
4672.8247837700001
 30
20.0
  0
VERTEX
  5
C9D
  8
CLUSTERS
 10
637.71554264500003
 20
4672.8305489300001
 30
20.0
  0
VERTEX
  5
C9E
  8
CLUSTERS
 10
637.72766884500004
 20
4672.8395505099988
 30
20.0
  0
VERTEX
  5
C9F
  8
CLUSTERS
 10
637.82788671000003
 20
4672.9221778399988
 30
20.0
  0
VERTEX
  5
CA0
  8
CLUSTERS
 10
637.92810457499979
 20
4672.9177144499999
 30
20.0
  0
VERTEX
  5
CA1
  8
CLUSTERS
 10
638.01538037499995
 20
4672.8305489300001
 30
20.0
  0
VERTEX
  5
CA2
  8
CLUSTERS
 10
638.01772513499998
 20
4672.730310259999
 30
20.0
  0
VERTEX
  5
CA3
  8
CLUSTERS
 10
637.92810457499979
 20
4672.63233322
 30
20.0
  0
VERTEX
  5
CA4
  8
CLUSTERS
 10
637.92768209099995
 20
4672.6300715999987
 30
20.0
  0
VERTEX
  5
CA5
  8
CLUSTERS
 10
637.82788671000003
 20
4672.5319459700004
 30
20.0
  0
VERTEX
  5
CA6
  8
CLUSTERS
 10
637.72766884500004
 20
4672.535902229999
 30
20.0
  0
VERTEX
  5
CA7
  8
CLUSTERS
 10
637.62745098000005
 20
4672.5384905399997
 30
20.0
  0
VERTEX
  5
CA8
  8
CLUSTERS
 10
637.61269282399985
 20
4672.5298329400002
 30
20.0
  0
VERTEX
  5
CA9
  8
CLUSTERS
 10
637.52723311499994
 20
4672.4470361100002
 30
20.0
  0
VERTEX
  5
CAA
  8
CLUSTERS
 10
637.42701525099994
 20
4672.46271213
 30
20.0
  0
VERTEX
  5
CAB
  8
CLUSTERS
 10
637.359939457
 20
4672.5298329400002
 30
20.0
  0
SEQEND
  5
CAC
  8
CLUSTERS
  0
POLYLINE
  5
5F
  8
CLUSTERS
 66
     1
 10
0.0
 20
0.0
 30
20.0
 70
   129
  0
VERTEX
  5
CAD
  8
CLUSTERS
 10
645.58491974000003
 20
4672.4295942700001
 30
20.0
  0
VERTEX
  5
CAE
  8
CLUSTERS
 10
645.54466230900005
 20
4672.4596386100002
 30
20.0
  0
VERTEX
  5
CAF
  8
CLUSTERS
 10
645.474505561
 20
4672.5298329400002
 30
20.0
  0
VERTEX
  5
CB0
  8
CLUSTERS
 10
645.44854577499984
 20
4672.6300715999987
 30
20.0
  0
VERTEX
  5
CB1
  8
CLUSTERS
 10
645.54466230900005
 20
4672.7086971799999
 30
20.0
  0
VERTEX
  5
CB2
  8
CLUSTERS
 10
645.64118489700002
 20
4672.6300715999987
 30
20.0
  0
VERTEX
  5
CB3
  8
CLUSTERS
 10
645.64488017400004
 20
4672.6194519399996
 30
20.0
  0
VERTEX
  5
CB4
  8
CLUSTERS
 10
645.74509803899991
 20
4672.6046198699987
 30
20.0
  0
VERTEX
  5
CB5
  8
CLUSTERS
 10
645.81967618800002
 20
4672.5298329400002
 30
20.0
  0
VERTEX
  5
CB6
  8
CLUSTERS
 10
645.81953443899988
 20
4672.4295942700001
 30
20.0
  0
VERTEX
  5
CB7
  8
CLUSTERS
 10
645.74509803899991
 20
4672.3552379800003
 30
20.0
  0
VERTEX
  5
CB8
  8
CLUSTERS
 10
645.64488017400004
 20
4672.3697251499998
 30
20.0
  0
VERTEX
  5
CB9
  8
CLUSTERS
 10
645.58491974000003
 20
4672.4295942700001
 30
20.0
  0
SEQEND
  5
CBA
  8
CLUSTERS
  0
POLYLINE
  5
60
  8
CLUSTERS
 66
     1
 10
0.0
 20
0.0
 30
20.0
 70
   129
  0
VERTEX
  5
CBB
  8
CLUSTERS
 10
634.48363810599994
 20
4672.3293556099989
 30
20.0
  0
VERTEX
  5
CBC
  8
CLUSTERS
 10
634.52069716799997
 20
4672.3689156799992
 30
20.0
  0
VERTEX
  5
CBD
  8
CLUSTERS
 10
634.62091503299996
 20
4672.3759751400003
 30
20.0
  0
VERTEX
  5
CBE
  8
CLUSTERS
 10
634.644415493
 20
4672.4295942700001
 30
20.0
  0
VERTEX
  5
CBF
  8
CLUSTERS
 10
634.62091503299996
 20
4672.4393308299977
 30
20.0
  0
VERTEX
  5
CC0
  8
CLUSTERS
 10
634.54024076099995
 20
4672.5298329400002
 30
20.0
  0
VERTEX
  5
CC1
  8
CLUSTERS
 10
634.62091503299996
 20
4672.59217429
 30
20.0
  0
VERTEX
  5
CC2
  8
CLUSTERS
 10
634.72113289800006
 20
4672.6225238099996
 30
20.0
  0
VERTEX
  5
CC3
  8
CLUSTERS
 10
634.73908665699992
 20
4672.6300715999987
 30
20.0
  0
VERTEX
  5
CC4
  8
CLUSTERS
 10
634.82135076300005
 20
4672.6859895999996
 30
20.0
  0
VERTEX
  5
CC5
  8
CLUSTERS
 10
634.92156862699994
 20
4672.66601042
 30
20.0
  0
VERTEX
  5
CC6
  8
CLUSTERS
 10
634.95792260099995
 20
4672.6300715999987
 30
20.0
  0
VERTEX
  5
CC7
  8
CLUSTERS
 10
634.95310900699997
 20
4672.5298329400002
 30
20.0
  0
VERTEX
  5
CC8
  8
CLUSTERS
 10
634.92156862699994
 20
4672.4985714799996
 30
20.0
  0
VERTEX
  5
CC9
  8
CLUSTERS
 10
634.82135076300005
 20
4672.4383626299987
 30
20.0
  0
VERTEX
  5
CCA
  8
CLUSTERS
 10
634.78465910599994
 20
4672.4295942700001
 30
20.0
  0
VERTEX
  5
CCB
  8
CLUSTERS
 10
634.72113289800006
 20
4672.3933058999992
 30
20.0
  0
VERTEX
  5
CCC
  8
CLUSTERS
 10
634.63407260600002
 20
4672.3293556099989
 30
20.0
  0
VERTEX
  5
CCD
  8
CLUSTERS
 10
634.62091503299996
 20
4672.3038963799991
 30
20.0
  0
VERTEX
  5
CCE
  8
CLUSTERS
 10
634.52069716799997
 20
4672.2445149200003
 30
20.0
  0
VERTEX
  5
CCF
  8
CLUSTERS
 10
634.48363810599994
 20
4672.3293556099989
 30
20.0
  0
SEQEND
  5
CD0
  8
CLUSTERS
  0
POLYLINE
  5
61
  8
CLUSTERS
 66
     1
 10
0.0
 20
0.0
 30
20.0
 70
   129
  0
VERTEX
  5
CD1
  8
CLUSTERS
 10
656.42670433399996
 20
4672.0286396199999
 30
20.0
  0
VERTEX
  5
CD2
  8
CLUSTERS
 10
656.46840958600001
 20
4672.1038636699986
 30
20.0
  0
VERTEX
  5
CD3
  8
CLUSTERS
 10
656.47442949599974
 20
4672.1288782800002
 30
20.0
  0
VERTEX
  5
CD4
  8
CLUSTERS
 10
656.56862745099988
 20
4672.2207033000004
 30
20.0
  0
VERTEX
  5
CD5
  8
CLUSTERS
 10
656.62511775199994
 20
4672.2291169500004
 30
20.0
  0
VERTEX
  5
CD6
  8
CLUSTERS
 10
656.66884531599999
 20
4672.2507176999989
 30
20.0
  0
VERTEX
  5
CD7
  8
CLUSTERS
 10
656.70019253299995
 20
4672.3293556099989
 30
20.0
  0
VERTEX
  5
CD8
  8
CLUSTERS
 10
656.70684184000004
 20
4672.4295942700001
 30
20.0
  0
VERTEX
  5
CD9
  8
CLUSTERS
 10
656.76906318099975
 20
4672.4921209699996
 30
20.0
  0
VERTEX
  5
CDA
  8
CLUSTERS
 10
656.86928104599986
 20
4672.51553315
 30
20.0
  0
VERTEX
  5
CDB
  8
CLUSTERS
 10
656.96827082200002
 20
4672.4295942700001
 30
20.0
  0
VERTEX
  5
CDC
  8
CLUSTERS
 10
656.96949891099985
 20
4672.4253712600012
 30
20.0
  0
VERTEX
  5
CDD
  8
CLUSTERS
 10
657.03042434099984
 20
4672.3293556099989
 30
20.0
  0
VERTEX
  5
CDE
  8
CLUSTERS
 10
656.96949891099985
 20
4672.2672760300002
 30
20.0
  0
VERTEX
  5
CDF
  8
CLUSTERS
 10
656.86928104599986
 20
4672.236781139999
 30
20.0
  0
VERTEX
  5
CE0
  8
CLUSTERS
 10
656.76906318099975
 20
4672.2611229000004
 30
20.0
  0
VERTEX
  5
CE1
  8
CLUSTERS
 10
656.68993595499978
 20
4672.2291169500004
 30
20.0
  0
VERTEX
  5
CE2
  8
CLUSTERS
 10
656.73559939300003
 20
4672.1288782800002
 30
20.0
  0
VERTEX
  5
CE3
  8
CLUSTERS
 10
656.66884531599999
 20
4672.038312149999
 30
20.0
  0
VERTEX
  5
CE4
  8
CLUSTERS
 10
656.66351953000003
 20
4672.0286396199999
 30
20.0
  0
VERTEX
  5
CE5
  8
CLUSTERS
 10
656.56862745099988
 20
4671.9460150599998
 30
20.0
  0
VERTEX
  5
CE6
  8
CLUSTERS
 10
656.46840958600001
 20
4671.9872166699979
 30
20.0
  0
VERTEX
  5
CE7
  8
CLUSTERS
 10
656.42670433399996
 20
4672.0286396199999
 30
20.0
  0
SEQEND
  5
CE8
  8
CLUSTERS
  0
POLYLINE
  5
62
  8
CLUSTERS
 66
     1
 10
0.0
 20
0.0
 30
20.0
 70
   129
  0
VERTEX
  5
CE9
  8
CLUSTERS
 10
657.74392688499995
 20
4671.9284009499979
 30
20.0
  0
VERTEX
  5
CEA
  8
CLUSTERS
 10
657.72313262800003
 20
4672.0286396199999
 30
20.0
  0
VERTEX
  5
CEB
  8
CLUSTERS
 10
657.77124182999989
 20
4672.07693819
 30
20.0
  0
VERTEX
  5
CEC
  8
CLUSTERS
 10
657.871459695
 20
4672.0984685900003
 30
20.0
  0
VERTEX
  5
CED
  8
CLUSTERS
 10
657.97167755999976
 20
4672.0662548500004
 30
20.0
  0
VERTEX
  5
CEE
  8
CLUSTERS
 10
658.07189542499987
 20
4672.06972107
 30
20.0
  0
VERTEX
  5
CEF
  8
CLUSTERS
 10
658.11229520500001
 20
4672.0286396199999
 30
20.0
  0
VERTEX
  5
CF0
  8
CLUSTERS
 10
658.07605158299975
 20
4671.9284009499979
 30
20.0
  0
VERTEX
  5
CF1
  8
CLUSTERS
 10
658.07189542499987
 20
4671.9240995199989
 30
20.0
  0
VERTEX
  5
CF2
  8
CLUSTERS
 10
658.00584586199989
 20
4671.9284009499979
 30
20.0
  0
VERTEX
  5
CF3
  8
CLUSTERS
 10
657.97167755999976
 20
4671.9321420300012
 30
20.0
  0
VERTEX
  5
CF4
  8
CLUSTERS
 10
657.96904310900004
 20
4671.9284009499979
 30
20.0
  0
VERTEX
  5
CF5
  8
CLUSTERS
 10
657.871459695
 20
4671.8828077600001
 30
20.0
  0
VERTEX
  5
CF6
  8
CLUSTERS
 10
657.77124182999989
 20
4671.9014947799997
 30
20.0
  0
VERTEX
  5
CF7
  8
CLUSTERS
 10
657.74392688499995
 20
4671.9284009499979
 30
20.0
  0
SEQEND
  5
CF8
  8
CLUSTERS
  0
POLYLINE
  5
63
  8
CLUSTERS
 66
     1
 10
0.0
 20
0.0
 30
20.0
 70
   129
  0
VERTEX
  5
CF9
  8
CLUSTERS
 10
650.15821203500002
 20
4671.627684959999
 30
20.0
  0
VERTEX
  5
CFA
  8
CLUSTERS
 10
650.15575637400002
 20
4671.7279236300001
 30
20.0
  0
VERTEX
  5
CFB
  8
CLUSTERS
 10
650.25490196099986
 20
4671.8275679799999
 30
20.0
  0
VERTEX
  5
CFC
  8
CLUSTERS
 10
650.25604858700001
 20
4671.8281622900004
 30
20.0
  0
VERTEX
  5
CFD
  8
CLUSTERS
 10
650.27509982100003
 20
4671.9284009499979
 30
20.0
  0
VERTEX
  5
CFE
  8
CLUSTERS
 10
650.35511982599985
 20
4672.0076366699996
 30
20.0
  0
VERTEX
  5
CFF
  8
CLUSTERS
 10
650.434748227
 20
4671.9284009499979
 30
20.0
  0
VERTEX
  5
D00
  8
CLUSTERS
 10
650.45262202000004
 20
4671.8281622900004
 30
20.0
  0
VERTEX
  5
D01
  8
CLUSTERS
 10
650.45518581099998
 20
4671.7279236300001
 30
20.0
  0
VERTEX
  5
D02
  8
CLUSTERS
 10
650.45287013799987
 20
4671.627684959999
 30
20.0
  0
VERTEX
  5
D03
  8
CLUSTERS
 10
650.35511982599985
 20
4671.5302110800003
 30
20.0
  0
VERTEX
  5
D04
  8
CLUSTERS
 10
650.25490196099986
 20
4671.5311847100002
 30
20.0
  0
VERTEX
  5
D05
  8
CLUSTERS
 10
650.15821203500002
 20
4671.627684959999
 30
20.0
  0
SEQEND
  5
D06
  8
CLUSTERS
  0
POLYLINE
  5
64
  8
CLUSTERS
 66
     1
 10
0.0
 20
0.0
 30
20.0
 70
   129
  0
VERTEX
  5
D07
  8
CLUSTERS
 10
630.45607158500002
 20
4671.627684959999
 30
20.0
  0
VERTEX
  5
D08
  8
CLUSTERS
 10
630.51198257099998
 20
4671.7171595599993
 30
20.0
  0
VERTEX
  5
D09
  8
CLUSTERS
 10
630.51749276400005
 20
4671.7279236300001
 30
20.0
  0
VERTEX
  5
D0A
  8
CLUSTERS
 10
630.581543431
 20
4671.8281622900004
 30
20.0
  0
VERTEX
  5
D0B
  8
CLUSTERS
 10
630.61220043599985
 20
4671.8589538400001
 30
20.0
  0
VERTEX
  5
D0C
  8
CLUSTERS
 10
630.67369464900003
 20
4671.8281622900004
 30
20.0
  0
VERTEX
  5
D0D
  8
CLUSTERS
 10
630.704254268
 20
4671.7279236300001
 30
20.0
  0
VERTEX
  5
D0E
  8
CLUSTERS
 10
630.71241830099984
 20
4671.63329531
 30
20.0
  0
VERTEX
  5
D0F
  8
CLUSTERS
 10
630.71377903600001
 20
4671.627684959999
 30
20.0
  0
VERTEX
  5
D10
  8
CLUSTERS
 10
630.71241830099984
 20
4671.6262852399996
 30
20.0
  0
VERTEX
  5
D11
  8
CLUSTERS
 10
630.61220043599985
 20
4671.5439853099997
 30
20.0
  0
VERTEX
  5
D12
  8
CLUSTERS
 10
630.51198257099998
 20
4671.57128603
 30
20.0
  0
VERTEX
  5
D13
  8
CLUSTERS
 10
630.45607158500002
 20
4671.627684959999
 30
20.0
  0
SEQEND
  5
D14
  8
CLUSTERS
  0
POLYLINE
  5
65
  8
CLUSTERS
 66
     1
 10
0.0
 20
0.0
 30
20.0
 70
   129
  0
VERTEX
  5
D15
  8
CLUSTERS
 10
634.13237390899985
 20
4671.4272076399993
 30
20.0
  0
VERTEX
  5
D16
  8
CLUSTERS
 10
634.13389131899999
 20
4671.5274462999978
 30
20.0
  0
VERTEX
  5
D17
  8
CLUSTERS
 10
634.22004357299977
 20
4671.5961284599998
 30
20.0
  0
VERTEX
  5
D18
  8
CLUSTERS
 10
634.29437463199974
 20
4671.5274462999978
 30
20.0
  0
VERTEX
  5
D19
  8
CLUSTERS
 10
634.32026143799987
 20
4671.4834157200003
 30
20.0
  0
VERTEX
  5
D1A
  8
CLUSTERS
 10
634.36977116299988
 20
4671.4272076399993
 30
20.0
  0
VERTEX
  5
D1B
  8
CLUSTERS
 10
634.32026143799987
 20
4671.3795572600002
 30
20.0
  0
VERTEX
  5
D1C
  8
CLUSTERS
 10
634.22004357299977
 20
4671.3643357499977
 30
20.0
  0
VERTEX
  5
D1D
  8
CLUSTERS
 10
634.13237390899985
 20
4671.4272076399993
 30
20.0
  0
SEQEND
  5
D1E
  8
CLUSTERS
  0
POLYLINE
  5
66
  8
CLUSTERS
 66
     1
 10
0.0
 20
0.0
 30
20.0
 70
   129
  0
VERTEX
  5
D1F
  8
CLUSTERS
 10
633.80733894199977
 20
4671.2267303099989
 30
20.0
  0
VERTEX
  5
D20
  8
CLUSTERS
 10
633.71928191500001
 20
4671.3269689699991
 30
20.0
  0
VERTEX
  5
D21
  8
CLUSTERS
 10
633.71895424800005
 20
4671.3715925799988
 30
20.0
  0
VERTEX
  5
D22
  8
CLUSTERS
 10
633.61873638300005
 20
4671.4261858099999
 30
20.0
  0
VERTEX
  5
D23
  8
CLUSTERS
 10
633.61784629299996
 20
4671.4272076399993
 30
20.0
  0
VERTEX
  5
D24
  8
CLUSTERS
 10
633.55008761099998
 20
4671.5274462999978
 30
20.0
  0
VERTEX
  5
D25
  8
CLUSTERS
 10
633.61873638300005
 20
4671.6095617399997
 30
20.0
  0
VERTEX
  5
D26
  8
CLUSTERS
 10
633.71895424800005
 20
4671.6241470699997
 30
20.0
  0
VERTEX
  5
D27
  8
CLUSTERS
 10
633.80827289699994
 20
4671.5274462999978
 30
20.0
  0
VERTEX
  5
D28
  8
CLUSTERS
 10
633.81917211300004
 20
4671.5193759299991
 30
20.0
  0
VERTEX
  5
D29
  8
CLUSTERS
 10
633.91938997800003
 20
4671.4916294900013
 30
20.0
  0
VERTEX
  5
D2A
  8
CLUSTERS
 10
634.01213422299975
 20
4671.4272076399993
 30
20.0
  0
VERTEX
  5
D2B
  8
CLUSTERS
 10
634.0196078429999
 20
4671.4148732499989
 30
20.0
  0
VERTEX
  5
D2C
  8
CLUSTERS
 10
634.06924492400003
 20
4671.3269689699991
 30
20.0
  0
VERTEX
  5
D2D
  8
CLUSTERS
 10
634.04548662299987
 20
4671.2267303099989
 30
20.0
  0
VERTEX
  5
D2E
  8
CLUSTERS
 10
634.0196078429999
 20
4671.2018345200004
 30
20.0
  0
VERTEX
  5
D2F
  8
CLUSTERS
 10
633.91938997800003
 20
4671.15094004
 30
20.0
  0
VERTEX
  5
D30
  8
CLUSTERS
 10
633.81917211300004
 20
4671.2171579899987
 30
20.0
  0
VERTEX
  5
D31
  8
CLUSTERS
 10
633.80733894199977
 20
4671.2267303099989
 30
20.0
  0
SEQEND
  5
D32
  8
CLUSTERS
  0
POLYLINE
  5
67
  8
CLUSTERS
 66
     1
 10
0.0
 20
0.0
 30
20.0
 70
   129
  0
VERTEX
  5
D33
  8
CLUSTERS
 10
633.32014561899985
 20
4670.926014319999
 30
20.0
  0
VERTEX
  5
D34
  8
CLUSTERS
 10
633.31903003499997
 20
4671.0262529800002
 30
20.0
  0
VERTEX
  5
D35
  8
CLUSTERS
 10
633.31895662099976
 20
4671.1264916500004
 30
20.0
  0
VERTEX
  5
D36
  8
CLUSTERS
 10
633.31808278899985
 20
4671.1560373299999
 30
20.0
  0
VERTEX
  5
D37
  8
CLUSTERS
 10
633.26504834100001
 20
4671.2267303099989
 30
20.0
  0
VERTEX
  5
D38
  8
CLUSTERS
 10
633.21786492399985
 20
4671.2773649899991
 30
20.0
  0
VERTEX
  5
D39
  8
CLUSTERS
 10
633.17227520999995
 20
4671.3269689699991
 30
20.0
  0
VERTEX
  5
D3A
  8
CLUSTERS
 10
633.16451212900006
 20
4671.4272076399993
 30
20.0
  0
VERTEX
  5
D3B
  8
CLUSTERS
 10
633.21786492399985
 20
4671.482833359998
 30
20.0
  0
VERTEX
  5
D3C
  8
CLUSTERS
 10
633.31808278899985
 20
4671.489037549999
 30
20.0
  0
VERTEX
  5
D3D
  8
CLUSTERS
 10
633.38370066000004
 20
4671.4272076399993
 30
20.0
  0
VERTEX
  5
D3E
  8
CLUSTERS
 10
633.39785787799997
 20
4671.3269689699991
 30
20.0
  0
VERTEX
  5
D3F
  8
CLUSTERS
 10
633.41830065399995
 20
4671.3016686800001
 30
20.0
  0
VERTEX
  5
D40
  8
CLUSTERS
 10
633.51851851900005
 20
4671.2966276300003
 30
20.0
  0
VERTEX
  5
D41
  8
CLUSTERS
 10
633.61553499599995
 20
4671.2267303099989
 30
20.0
  0
VERTEX
  5
D42
  8
CLUSTERS
 10
633.61873638300005
 20
4671.2247189
 30
20.0
  0
VERTEX
  5
D43
  8
CLUSTERS
 10
633.69858260699993
 20
4671.1264916500004
 30
20.0
  0
VERTEX
  5
D44
  8
CLUSTERS
 10
633.69560560599996
 20
4671.0262529800002
 30
20.0
  0
VERTEX
  5
D45
  8
CLUSTERS
 10
633.62238556800003
 20
4670.926014319999
 30
20.0
  0
VERTEX
  5
D46
  8
CLUSTERS
 10
633.61873638300005
 20
4670.9223632900002
 30
20.0
  0
VERTEX
  5
D47
  8
CLUSTERS
 10
633.51851851900005
 20
4670.8341532300001
 30
20.0
  0
VERTEX
  5
D48
  8
CLUSTERS
 10
633.41830065399995
 20
4670.8332271999998
 30
20.0
  0
VERTEX
  5
D49
  8
CLUSTERS
 10
633.32014561899985
 20
4670.926014319999
 30
20.0
  0
SEQEND
  5
D4A
  8
CLUSTERS
  0
POLYLINE
  5
68
  8
CLUSTERS
 66
     1
 10
0.0
 20
0.0
 30
20.0
 70
   129
  0
VERTEX
  5
D4B
  8
CLUSTERS
 10
634.40467421499977
 20
4670.5250596699998
 30
20.0
  0
VERTEX
  5
D4C
  8
CLUSTERS
 10
634.32026143799987
 20
4670.5448294300004
 30
20.0
  0
VERTEX
  5
D4D
  8
CLUSTERS
 10
634.24131359900002
 20
4670.6252983300001
 30
20.0
  0
VERTEX
  5
D4E
  8
CLUSTERS
 10
634.22004357299977
 20
4670.6404095599992
 30
20.0
  0
VERTEX
  5
D4F
  8
CLUSTERS
 10
634.127076579
 20
4670.7255369900004
 30
20.0
  0
VERTEX
  5
D50
  8
CLUSTERS
 10
634.11982570800001
 20
4670.7292934200004
 30
20.0
  0
VERTEX
  5
D51
  8
CLUSTERS
 10
634.02599224100004
 20
4670.8257756599996
 30
20.0
  0
VERTEX
  5
D52
  8
CLUSTERS
 10
634.03758380799991
 20
4670.926014319999
 30
20.0
  0
VERTEX
  5
D53
  8
CLUSTERS
 10
634.11982570800001
 20
4671.01222573
 30
20.0
  0
VERTEX
  5
D54
  8
CLUSTERS
 10
634.17172189099995
 20
4671.0262529800002
 30
20.0
  0
VERTEX
  5
D55
  8
CLUSTERS
 10
634.22004357299977
 20
4671.0677718200004
 30
20.0
  0
VERTEX
  5
D56
  8
CLUSTERS
 10
634.32026143799987
 20
4671.1181988199987
 30
20.0
  0
VERTEX
  5
D57
  8
CLUSTERS
 10
634.42047930299998
 20
4671.1205009199994
 30
20.0
  0
VERTEX
  5
D58
  8
CLUSTERS
 10
634.52069716799997
 20
4671.1171636999989
 30
20.0
  0
VERTEX
  5
D59
  8
CLUSTERS
 10
634.62091503299996
 20
4671.1146424999997
 30
20.0
  0
VERTEX
  5
D5A
  8
CLUSTERS
 10
634.72113289800006
 20
4671.1261169500003
 30
20.0
  0
VERTEX
  5
D5B
  8
CLUSTERS
 10
634.72907439300002
 20
4671.1264916500004
 30
20.0
  0
VERTEX
  5
D5C
  8
CLUSTERS
 10
634.82135076300005
 20
4671.19157636
 30
20.0
  0
VERTEX
  5
D5D
  8
CLUSTERS
 10
634.82212555800004
 20
4671.2267303099989
 30
20.0
  0
VERTEX
  5
D5E
  8
CLUSTERS
 10
634.84457074099976
 20
4671.3269689699991
 30
20.0
  0
VERTEX
  5
D5F
  8
CLUSTERS
 10
634.92156862699994
 20
4671.4234811799979
 30
20.0
  0
VERTEX
  5
D60
  8
CLUSTERS
 10
634.92176912199977
 20
4671.4272076399993
 30
20.0
  0
VERTEX
  5
D61
  8
CLUSTERS
 10
634.922876632
 20
4671.5274462999978
 30
20.0
  0
VERTEX
  5
D62
  8
CLUSTERS
 10
634.92907927800002
 20
4671.627684959999
 30
20.0
  0
VERTEX
  5
D63
  8
CLUSTERS
 10
635.02178649199993
 20
4671.7219959800004
 30
20.0
  0
VERTEX
  5
D64
  8
CLUSTERS
 10
635.12200435699992
 20
4671.7197342400004
 30
20.0
  0
VERTEX
  5
D65
  8
CLUSTERS
 10
635.21925447699994
 20
4671.627684959999
 30
20.0
  0
VERTEX
  5
D66
  8
CLUSTERS
 10
635.22222222199991
 20
4671.61324203
 30
20.0
  0
VERTEX
  5
D67
  8
CLUSTERS
 10
635.32244008700002
 20
4671.6056536899996
 30
20.0
  0
VERTEX
  5
D68
  8
CLUSTERS
 10
635.42265795200001
 20
4671.6195548100004
 30
20.0
  0
VERTEX
  5
D69
  8
CLUSTERS
 10
635.52287581699989
 20
4671.62403765
 30
20.0
  0
VERTEX
  5
D6A
  8
CLUSTERS
 10
635.55282672999999
 20
4671.627684959999
 30
20.0
  0
VERTEX
  5
D6B
  8
CLUSTERS
 10
635.62309368199999
 20
4671.70200596
 30
20.0
  0
VERTEX
  5
D6C
  8
CLUSTERS
 10
635.62356101599994
 20
4671.7279236300001
 30
20.0
  0
VERTEX
  5
D6D
  8
CLUSTERS
 10
635.65921565500003
 20
4671.8281622900004
 30
20.0
  0
VERTEX
  5
D6E
  8
CLUSTERS
 10
635.72331154699975
 20
4671.8883570899998
 30
20.0
  0
VERTEX
  5
D6F
  8
CLUSTERS
 10
635.82352941199986
 20
4671.9100547899989
 30
20.0
  0
VERTEX
  5
D70
  8
CLUSTERS
 10
635.92374727699985
 20
4671.8990180800001
 30
20.0
  0
VERTEX
  5
D71
  8
CLUSTERS
 10
636.01246994600001
 20
4671.8281622900004
 30
20.0
  0
VERTEX
  5
D72
  8
CLUSTERS
 10
636.02396514199995
 20
4671.8175587699989
 30
20.0
  0
VERTEX
  5
D73
  8
CLUSTERS
 10
636.10413440699995
 20
4671.7279236300001
 30
20.0
  0
VERTEX
  5
D74
  8
CLUSTERS
 10
636.12418300699994
 20
4671.7179587199998
 30
20.0
  0
VERTEX
  5
D75
  8
CLUSTERS
 10
636.17441694699994
 20
4671.7279236300001
 30
20.0
  0
VERTEX
  5
D76
  8
CLUSTERS
 10
636.22440087099994
 20
4671.7649533900003
 30
20.0
  0
VERTEX
  5
D77
  8
CLUSTERS
 10
636.32461873599993
 20
4671.82020096
 30
20.0
  0
VERTEX
  5
D78
  8
CLUSTERS
 10
636.33882107900001
 20
4671.8281622900004
 30
20.0
  0
VERTEX
  5
D79
  8
CLUSTERS
 10
636.42483660100004
 20
4671.9088299699988
 30
20.0
  0
VERTEX
  5
D7A
  8
CLUSTERS
 10
636.50737493600002
 20
4671.8281622900004
 30
20.0
  0
VERTEX
  5
D7B
  8
CLUSTERS
 10
636.50882948799995
 20
4671.7279236300001
 30
20.0
  0
VERTEX
  5
D7C
  8
CLUSTERS
 10
636.52505446600003
 20
4671.6971229700002
 30
20.0
  0
VERTEX
  5
D7D
  8
CLUSTERS
 10
636.61337445399988
 20
4671.627684959999
 30
20.0
  0
VERTEX
  5
D7E
  8
CLUSTERS
 10
636.62527233100002
 20
4671.6218195399988
 30
20.0
  0
VERTEX
  5
D7F
  8
CLUSTERS
 10
636.7254901959999
 20
4671.597351299999
 30
20.0
  0
VERTEX
  5
D80
  8
CLUSTERS
 10
636.825708061
 20
4671.6126571599989
 30
20.0
  0
VERTEX
  5
D81
  8
CLUSTERS
 10
636.92592592599976
 20
4671.6173606199991
 30
20.0
  0
VERTEX
  5
D82
  8
CLUSTERS
 10
637.02614379099987
 20
4671.5966420299992
 30
20.0
  0
VERTEX
  5
D83
  8
CLUSTERS
 10
637.10863585699985
 20
4671.5274462999978
 30
20.0
  0
VERTEX
  5
D84
  8
CLUSTERS
 10
637.12636165599997
 20
4671.5155413899993
 30
20.0
  0
VERTEX
  5
D85
  8
CLUSTERS
 10
637.21890990999975
 20
4671.4272076399993
 30
20.0
  0
VERTEX
  5
D86
  8
CLUSTERS
 10
637.22657952099985
 20
4671.4226647400001
 30
20.0
  0
VERTEX
  5
D87
  8
CLUSTERS
 10
637.32679738599995
 20
4671.3839452700004
 30
20.0
  0
VERTEX
  5
D88
  8
CLUSTERS
 10
637.38998335899998
 20
4671.3269689699991
 30
20.0
  0
VERTEX
  5
D89
  8
CLUSTERS
 10
637.42701525099994
 20
4671.2744704999996
 30
20.0
  0
VERTEX
  5
D8A
  8
CLUSTERS
 10
637.46357313800002
 20
4671.2267303099989
 30
20.0
  0
VERTEX
  5
D8B
  8
CLUSTERS
 10
637.47290325699998
 20
4671.1264916500004
 30
20.0
  0
VERTEX
  5
D8C
  8
CLUSTERS
 10
637.42701525099994
 20
4671.0759390800004
 30
20.0
  0
VERTEX
  5
D8D
  8
CLUSTERS
 10
637.32679738599995
 20
4671.026638719999
 30
20.0
  0
VERTEX
  5
D8E
  8
CLUSTERS
 10
637.31372191699995
 20
4671.0262529800002
 30
20.0
  0
VERTEX
  5
D8F
  8
CLUSTERS
 10
637.22657952099985
 20
4670.9593026499997
 30
20.0
  0
VERTEX
  5
D90
  8
CLUSTERS
 10
637.12636165599997
 20
4670.9273481399996
 30
20.0
  0
VERTEX
  5
D91
  8
CLUSTERS
 10
637.02614379099987
 20
4670.9480487700002
 30
20.0
  0
VERTEX
  5
D92
  8
CLUSTERS
 10
636.92592592599976
 20
4670.9328375499999
 30
20.0
  0
VERTEX
  5
D93
  8
CLUSTERS
 10
636.86018833100002
 20
4670.926014319999
 30
20.0
  0
VERTEX
  5
D94
  8
CLUSTERS
 10
636.825708061
 20
4670.9011327300004
 30
20.0
  0
VERTEX
  5
D95
  8
CLUSTERS
 10
636.7254901959999
 20
4670.8271477500002
 30
20.0
  0
VERTEX
  5
D96
  8
CLUSTERS
 10
636.72488165300001
 20
4670.8257756599996
 30
20.0
  0
VERTEX
  5
D97
  8
CLUSTERS
 10
636.62527233100002
 20
4670.7332333900004
 30
20.0
  0
VERTEX
  5
D98
  8
CLUSTERS
 10
636.52505446600003
 20
4670.7356140000002
 30
20.0
  0
VERTEX
  5
D99
  8
CLUSTERS
 10
636.428341553
 20
4670.8257756599996
 30
20.0
  0
VERTEX
  5
D9A
  8
CLUSTERS
 10
636.42483660100004
 20
4670.8307006300001
 30
20.0
  0
VERTEX
  5
D9B
  8
CLUSTERS
 10
636.32461873599993
 20
4670.8259686999991
 30
20.0
  0
VERTEX
  5
D9C
  8
CLUSTERS
 10
636.22440087099994
 20
4670.8258590699979
 30
20.0
  0
VERTEX
  5
D9D
  8
CLUSTERS
 10
636.12418300699994
 20
4670.8258457800002
 30
20.0
  0
VERTEX
  5
D9E
  8
CLUSTERS
 10
636.11661480999976
 20
4670.8257756599996
 30
20.0
  0
VERTEX
  5
D9F
  8
CLUSTERS
 10
636.02396514199995
 20
4670.7959070799998
 30
20.0
  0
VERTEX
  5
DA0
  8
CLUSTERS
 10
635.92374727699985
 20
4670.7634887699978
 30
20.0
  0
VERTEX
  5
DA1
  8
CLUSTERS
 10
635.82352941199986
 20
4670.7313758700002
 30
20.0
  0
VERTEX
  5
DA2
  8
CLUSTERS
 10
635.81899275399985
 20
4670.7255369900004
 30
20.0
  0
VERTEX
  5
DA3
  8
CLUSTERS
 10
635.72331154699975
 20
4670.6356375100013
 30
20.0
  0
VERTEX
  5
DA4
  8
CLUSTERS
 10
635.70597375199998
 20
4670.6252983300001
 30
20.0
  0
VERTEX
  5
DA5
  8
CLUSTERS
 10
635.62309368199999
 20
4670.5527358600002
 30
20.0
  0
VERTEX
  5
DA6
  8
CLUSTERS
 10
635.52287581699989
 20
4670.5484914899989
 30
20.0
  0
VERTEX
  5
DA7
  8
CLUSTERS
 10
635.44174300999975
 20
4670.6252983300001
 30
20.0
  0
VERTEX
  5
DA8
  8
CLUSTERS
 10
635.42265795200001
 20
4670.6479953899998
 30
20.0
  0
VERTEX
  5
DA9
  8
CLUSTERS
 10
635.32244008700002
 20
4670.6313073999981
 30
20.0
  0
VERTEX
  5
DAA
  8
CLUSTERS
 10
635.22222222199991
 20
4670.6291412600003
 30
20.0
  0
VERTEX
  5
DAB
  8
CLUSTERS
 10
635.12200435699992
 20
4670.630501759998
 30
20.0
  0
VERTEX
  5
DAC
  8
CLUSTERS
 10
635.03227207899999
 20
4670.6252983300001
 30
20.0
  0
VERTEX
  5
DAD
  8
CLUSTERS
 10
635.02178649199993
 20
4670.6182541099979
 30
20.0
  0
VERTEX
  5
DAE
  8
CLUSTERS
 10
635.01292598199996
 20
4670.6252983300001
 30
20.0
  0
VERTEX
  5
DAF
  8
CLUSTERS
 10
634.92156862699994
 20
4670.6796890200003
 30
20.0
  0
VERTEX
  5
DB0
  8
CLUSTERS
 10
634.86396437400003
 20
4670.7255369900004
 30
20.0
  0
VERTEX
  5
DB1
  8
CLUSTERS
 10
634.82135076300005
 20
4670.7282259900003
 30
20.0
  0
VERTEX
  5
DB2
  8
CLUSTERS
 10
634.73018857
 20
4670.7255369900004
 30
20.0
  0
VERTEX
  5
DB3
  8
CLUSTERS
 10
634.72113289800006
 20
4670.7178763700012
 30
20.0
  0
VERTEX
  5
DB4
  8
CLUSTERS
 10
634.70901751500003
 20
4670.6252983300001
 30
20.0
  0
VERTEX
  5
DB5
  8
CLUSTERS
 10
634.62091503299996
 20
4670.5389522799996
 30
20.0
  0
VERTEX
  5
DB6
  8
CLUSTERS
 10
634.52069716799997
 20
4670.5252458599998
 30
20.0
  0
VERTEX
  5
DB7
  8
CLUSTERS
 10
634.48562467399995
 20
4670.5250596699998
 30
20.0
  0
VERTEX
  5
DB8
  8
CLUSTERS
 10
634.42047930299998
 20
4670.51298847
 30
20.0
  0
VERTEX
  5
DB9
  8
CLUSTERS
 10
634.40467421499977
 20
4670.5250596699998
 30
20.0
  0
SEQEND
  5
DBA
  8
CLUSTERS
  0
POLYLINE
  5
69
  8
CLUSTERS
 66
     1
 10
0.0
 20
0.0
 30
20.0
 70
   129
  0
VERTEX
  5
DBB
  8
CLUSTERS
 10
644.16732462499976
 20
4670.2243436799999
 30
20.0
  0
VERTEX
  5
DBC
  8
CLUSTERS
 10
644.198965617
 20
4670.3245823400011
 30
20.0
  0
VERTEX
  5
DBD
  8
CLUSTERS
 10
644.23358663399995
 20
4670.4248210000014
 30
20.0
  0
VERTEX
  5
DBE
  8
CLUSTERS
 10
644.24183006500004
 20
4670.4331406399988
 30
20.0
  0
VERTEX
  5
DBF
  8
CLUSTERS
 10
644.25192672000003
 20
4670.4248210000014
 30
20.0
  0
VERTEX
  5
DC0
  8
CLUSTERS
 10
644.28601672000002
 20
4670.3245823400011
 30
20.0
  0
VERTEX
  5
DC1
  8
CLUSTERS
 10
644.30784870100001
 20
4670.2243436799999
 30
20.0
  0
VERTEX
  5
DC2
  8
CLUSTERS
 10
644.24183006500004
 20
4670.1586264899997
 30
20.0
  0
VERTEX
  5
DC3
  8
CLUSTERS
 10
644.16732462499976
 20
4670.2243436799999
 30
20.0
  0
SEQEND
  5
DC4
  8
CLUSTERS
  0
POLYLINE
  5
6A
  8
CLUSTERS
 66
     1
 10
0.0
 20
0.0
 30
20.0
 70
   129
  0
VERTEX
  5
DC5
  8
CLUSTERS
 10
644.59957308699995
 20
4670.1241050099998
 30
20.0
  0
VERTEX
  5
DC6
  8
CLUSTERS
 10
644.55806480699994
 20
4670.2243436799999
 30
20.0
  0
VERTEX
  5
DC7
  8
CLUSTERS
 10
644.5424836599999
 20
4670.2872819200002
 30
20.0
  0
VERTEX
  5
DC8
  8
CLUSTERS
 10
644.505699693
 20
4670.3245823400011
 30
20.0
  0
VERTEX
  5
DC9
  8
CLUSTERS
 10
644.5424836599999
 20
4670.4110417399988
 30
20.0
  0
VERTEX
  5
DCA
  8
CLUSTERS
 10
644.55007875900003
 20
4670.4248210000014
 30
20.0
  0
VERTEX
  5
DCB
  8
CLUSTERS
 10
644.64270152500001
 20
4670.4785285799999
 30
20.0
  0
VERTEX
  5
DCC
  8
CLUSTERS
 10
644.69621903899986
 20
4670.4248210000014
 30
20.0
  0
VERTEX
  5
DCD
  8
CLUSTERS
 10
644.72560730400005
 20
4670.3245823400011
 30
20.0
  0
VERTEX
  5
DCE
  8
CLUSTERS
 10
644.74291938999977
 20
4670.2826580299989
 30
20.0
  0
VERTEX
  5
DCF
  8
CLUSTERS
 10
644.79825703499978
 20
4670.2243436799999
 30
20.0
  0
VERTEX
  5
DD0
  8
CLUSTERS
 10
644.74291938999977
 20
4670.1676253100004
 30
20.0
  0
VERTEX
  5
DD1
  8
CLUSTERS
 10
644.68729885899995
 20
4670.1241050099998
 30
20.0
  0
VERTEX
  5
DD2
  8
CLUSTERS
 10
644.64270152500001
 20
4670.0811229000001
 30
20.0
  0
VERTEX
  5
DD3
  8
CLUSTERS
 10
644.59957308699995
 20
4670.1241050099998
 30
20.0
  0
SEQEND
  5
DD4
  8
CLUSTERS
  0
POLYLINE
  5
6B
  8
CLUSTERS
 66
     1
 10
0.0
 20
0.0
 30
20.0
 70
   129
  0
VERTEX
  5
DD5
  8
CLUSTERS
 10
644.46322468099993
 20
4669.4224343699998
 30
20.0
  0
VERTEX
  5
DD6
  8
CLUSTERS
 10
644.5424836599999
 20
4669.5150583499999
 30
20.0
  0
VERTEX
  5
DD7
  8
CLUSTERS
 10
644.64270152500001
 20
4669.5140681000003
 30
20.0
  0
VERTEX
  5
DD8
  8
CLUSTERS
 10
644.69421138400003
 20
4669.5226730300001
 30
20.0
  0
VERTEX
  5
DD9
  8
CLUSTERS
 10
644.74291938999977
 20
4669.5632932899989
 30
20.0
  0
VERTEX
  5
DDA
  8
CLUSTERS
 10
644.79702721199999
 20
4669.5226730300001
 30
20.0
  0
VERTEX
  5
DDB
  8
CLUSTERS
 10
644.74291938999977
 20
4669.478739539999
 30
20.0
  0
VERTEX
  5
DDC
  8
CLUSTERS
 10
644.73267959299994
 20
4669.4224343699998
 30
20.0
  0
VERTEX
  5
DDD
  8
CLUSTERS
 10
644.64270152500001
 20
4669.3339176500003
 30
20.0
  0
VERTEX
  5
DDE
  8
CLUSTERS
 10
644.5424836599999
 20
4669.3432338999992
 30
20.0
  0
VERTEX
  5
DDF
  8
CLUSTERS
 10
644.46322468099993
 20
4669.4224343699998
 30
20.0
  0
SEQEND
  5
DE0
  8
CLUSTERS
  0
POLYLINE
  5
6C
  8
CLUSTERS
 66
     1
 10
0.0
 20
0.0
 30
20.0
 70
   129
  0
VERTEX
  5
DE1
  8
CLUSTERS
 10
649.05401880699992
 20
4669.1217183799999
 30
20.0
  0
VERTEX
  5
DE2
  8
CLUSTERS
 10
649.05312195400006
 20
4669.2219570400002
 30
20.0
  0
VERTEX
  5
DE3
  8
CLUSTERS
 10
649.06227039700002
 20
4669.3221956999996
 30
20.0
  0
VERTEX
  5
DE4
  8
CLUSTERS
 10
649.15250544699995
 20
4669.4163295099979
 30
20.0
  0
VERTEX
  5
DE5
  8
CLUSTERS
 10
649.21892442199999
 20
4669.4224343699998
 30
20.0
  0
VERTEX
  5
DE6
  8
CLUSTERS
 10
649.25272331199994
 20
4669.44431859
 30
20.0
  0
VERTEX
  5
DE7
  8
CLUSTERS
 10
649.27200306099996
 20
4669.4224343699998
 30
20.0
  0
VERTEX
  5
DE8
  8
CLUSTERS
 10
649.34226655500004
 20
4669.3221956999996
 30
20.0
  0
VERTEX
  5
DE9
  8
CLUSTERS
 10
649.33795109899995
 20
4669.2219570400002
 30
20.0
  0
VERTEX
  5
DEA
  8
CLUSTERS
 10
649.25272331199994
 20
4669.13380753
 30
20.0
  0
VERTEX
  5
DEB
  8
CLUSTERS
 10
649.25091798300002
 20
4669.1217183799999
 30
20.0
  0
VERTEX
  5
DEC
  8
CLUSTERS
 10
649.15250544699995
 20
4669.0236749400001
 30
20.0
  0
VERTEX
  5
DED
  8
CLUSTERS
 10
649.05401880699992
 20
4669.1217183799999
 30
20.0
  0
SEQEND
  5
DEE
  8
CLUSTERS
  0
POLYLINE
  5
6D
  8
CLUSTERS
 66
     1
 10
0.0
 20
0.0
 30
20.0
 70
   129
  0
VERTEX
  5
DEF
  8
CLUSTERS
 10
636.34959720999996
 20
4668.8210023900001
 30
20.0
  0
VERTEX
  5
DF0
  8
CLUSTERS
 10
636.32461873599993
 20
4668.8269907699987
 30
20.0
  0
VERTEX
  5
DF1
  8
CLUSTERS
 10
636.22440087099994
 20
4668.8395940399978
 30
20.0
  0
VERTEX
  5
DF2
  8
CLUSTERS
 10
636.12418300699994
 20
4668.8482463
 30
20.0
  0
VERTEX
  5
DF3
  8
CLUSTERS
 10
636.02396514199995
 20
4668.8613843599987
 30
20.0
  0
VERTEX
  5
DF4
  8
CLUSTERS
 10
635.96397098199975
 20
4668.9212410500004
 30
20.0
  0
VERTEX
  5
DF5
  8
CLUSTERS
 10
635.92374727699985
 20
4669.0039197300002
 30
20.0
  0
VERTEX
  5
DF6
  8
CLUSTERS
 10
635.90653440800008
 20
4669.0214797099989
 30
20.0
  0
VERTEX
  5
DF7
  8
CLUSTERS
 10
635.92374727699985
 20
4669.0399159400004
 30
20.0
  0
VERTEX
  5
DF8
  8
CLUSTERS
 10
636.02396514199995
 20
4669.087165869998
 30
20.0
  0
VERTEX
  5
DF9
  8
CLUSTERS
 10
636.09710584200002
 20
4669.0214797099989
 30
20.0
  0
VERTEX
  5
DFA
  8
CLUSTERS
 10
636.12418300699994
 20
4669.0029902400001
 30
20.0
  0
VERTEX
  5
DFB
  8
CLUSTERS
 10
636.22440087099994
 20
4669.00892879
 30
20.0
  0
VERTEX
  5
DFC
  8
CLUSTERS
 10
636.32461873599993
 20
4669.0105084300003
 30
20.0
  0
VERTEX
  5
DFD
  8
CLUSTERS
 10
636.42483660100004
 20
4669.0019308800001
 30
20.0
  0
VERTEX
  5
DFE
  8
CLUSTERS
 10
636.50316340799998
 20
4668.9212410500004
 30
20.0
  0
VERTEX
  5
DFF
  8
CLUSTERS
 10
636.47476639800004
 20
4668.8210023900001
 30
20.0
  0
VERTEX
  5
E00
  8
CLUSTERS
 10
636.42483660100004
 20
4668.7738612800003
 30
20.0
  0
VERTEX
  5
E01
  8
CLUSTERS
 10
636.34959720999996
 20
4668.8210023900001
 30
20.0
  0
SEQEND
  5
E02
  8
CLUSTERS
  0
POLYLINE
  5
6E
  8
CLUSTERS
 66
     1
 10
0.0
 20
0.0
 30
20.0
 70
   129
  0
VERTEX
  5
E03
  8
CLUSTERS
 10
655.98132052099993
 20
4667.618138419999
 30
20.0
  0
VERTEX
  5
E04
  8
CLUSTERS
 10
655.96732026099994
 20
4667.6405685
 30
20.0
  0
VERTEX
  5
E05
  8
CLUSTERS
 10
655.86710239699994
 20
4667.632617469998
 30
20.0
  0
VERTEX
  5
E06
  8
CLUSTERS
 10
655.77924797399976
 20
4667.7183770899992
 30
20.0
  0
VERTEX
  5
E07
  8
CLUSTERS
 10
655.82804808499975
 20
4667.8186157500004
 30
20.0
  0
VERTEX
  5
E08
  8
CLUSTERS
 10
655.86710239699994
 20
4667.8563914200004
 30
20.0
  0
VERTEX
  5
E09
  8
CLUSTERS
 10
655.90916546599999
 20
4667.8186157500004
 30
20.0
  0
VERTEX
  5
E0A
  8
CLUSTERS
 10
655.96732026099994
 20
4667.7801448600003
 30
20.0
  0
VERTEX
  5
E0B
  8
CLUSTERS
 10
656.06753812599993
 20
4667.8054668900004
 30
20.0
  0
VERTEX
  5
E0C
  8
CLUSTERS
 10
656.16775599100004
 20
4667.7739117700012
 30
20.0
  0
VERTEX
  5
E0D
  8
CLUSTERS
 10
656.21967904500002
 20
4667.7183770899992
 30
20.0
  0
VERTEX
  5
E0E
  8
CLUSTERS
 10
656.16775599100004
 20
4667.6515062099998
 30
20.0
  0
VERTEX
  5
E0F
  8
CLUSTERS
 10
656.14842583500001
 20
4667.618138419999
 30
20.0
  0
VERTEX
  5
E10
  8
CLUSTERS
 10
656.06753812599993
 20
4667.5489272200002
 30
20.0
  0
VERTEX
  5
E11
  8
CLUSTERS
 10
655.98132052099993
 20
4667.618138419999
 30
20.0
  0
SEQEND
  5
E12
  8
CLUSTERS
  0
POLYLINE
  5
6F
  8
CLUSTERS
 66
     1
 10
0.0
 20
0.0
 30
20.0
 70
   129
  0
VERTEX
  5
E13
  8
CLUSTERS
 10
652.41251978800005
 20
4667.1169451100004
 30
20.0
  0
VERTEX
  5
E14
  8
CLUSTERS
 10
652.45969498900001
 20
4667.1867457099997
 30
20.0
  0
VERTEX
  5
E15
  8
CLUSTERS
 10
652.5569418099999
 20
4667.2171837699998
 30
20.0
  0
VERTEX
  5
E16
  8
CLUSTERS
 10
652.45969498900001
 20
4667.2365485999999
 30
20.0
  0
VERTEX
  5
E17
  8
CLUSTERS
 10
652.39744414999996
 20
4667.3174224300001
 30
20.0
  0
VERTEX
  5
E18
  8
CLUSTERS
 10
652.45969498900001
 20
4667.3827063099989
 30
20.0
  0
VERTEX
  5
E19
  8
CLUSTERS
 10
652.559912854
 20
4667.3532088000002
 30
20.0
  0
VERTEX
  5
E1A
  8
CLUSTERS
 10
652.593760481
 20
4667.3174224300001
 30
20.0
  0
VERTEX
  5
E1B
  8
CLUSTERS
 10
652.56108485200002
 20
4667.2171837699998
 30
20.0
  0
VERTEX
  5
E1C
  8
CLUSTERS
 10
652.64069003400004
 20
4667.1169451100004
 30
20.0
  0
VERTEX
  5
E1D
  8
CLUSTERS
 10
652.559912854
 20
4667.0364364099996
 30
20.0
  0
VERTEX
  5
E1E
  8
CLUSTERS
 10
652.45969498900001
 20
4667.07018496
 30
20.0
  0
VERTEX
  5
E1F
  8
CLUSTERS
 10
652.41251978800005
 20
4667.1169451100004
 30
20.0
  0
SEQEND
  5
E20
  8
CLUSTERS
  0
POLYLINE
  5
70
  8
CLUSTERS
 66
     1
 10
0.0
 20
0.0
 30
20.0
 70
   129
  0
VERTEX
  5
E21
  8
CLUSTERS
 10
646.981614315
 20
4667.1169451100004
 30
20.0
  0
VERTEX
  5
E22
  8
CLUSTERS
 10
647.04793028300003
 20
4667.1867129499997
 30
20.0
  0
VERTEX
  5
E23
  8
CLUSTERS
 10
647.14814814800002
 20
4667.1178446000004
 30
20.0
  0
VERTEX
  5
E24
  8
CLUSTERS
 10
647.2483660129999
 20
4667.1855489999998
 30
20.0
  0
VERTEX
  5
E25
  8
CLUSTERS
 10
647.31355624399976
 20
4667.1169451100004
 30
20.0
  0
VERTEX
  5
E26
  8
CLUSTERS
 10
647.2483660129999
 20
4667.0521084700003
 30
20.0
  0
VERTEX
  5
E27
  8
CLUSTERS
 10
647.14814814800002
 20
4667.1160654799996
 30
20.0
  0
VERTEX
  5
E28
  8
CLUSTERS
 10
647.04793028300003
 20
4667.0253481600012
 30
20.0
  0
VERTEX
  5
E29
  8
CLUSTERS
 10
646.981614315
 20
4667.1169451100004
 30
20.0
  0
SEQEND
  5
E2A
  8
CLUSTERS
  0
POLYLINE
  5
71
  8
CLUSTERS
 66
     1
 10
0.0
 20
0.0
 30
20.0
 70
   129
  0
VERTEX
  5
E2B
  8
CLUSTERS
 10
641.37614517400004
 20
4667.1169451100004
 30
20.0
  0
VERTEX
  5
E2C
  8
CLUSTERS
 10
641.36002160099974
 20
4667.2171837699998
 30
20.0
  0
VERTEX
  5
E2D
  8
CLUSTERS
 10
641.34198392600001
 20
4667.3174224300001
 30
20.0
  0
VERTEX
  5
E2E
  8
CLUSTERS
 10
641.43572984699995
 20
4667.3937318699991
 30
20.0
  0
VERTEX
  5
E2F
  8
CLUSTERS
 10
641.5217330349999
 20
4667.4176611000003
 30
20.0
  0
VERTEX
  5
E30
  8
CLUSTERS
 10
641.53594771199994
 20
4667.4336064099989
 30
20.0
  0
VERTEX
  5
E31
  8
CLUSTERS
 10
641.61167014
 20
4667.5178997599987
 30
20.0
  0
VERTEX
  5
E32
  8
CLUSTERS
 10
641.63616557699993
 20
4667.53659057
 30
20.0
  0
VERTEX
  5
E33
  8
CLUSTERS
 10
641.65428889700001
 20
4667.5178997599987
 30
20.0
  0
VERTEX
  5
E34
  8
CLUSTERS
 10
641.67069913299997
 20
4667.4176611000003
 30
20.0
  0
VERTEX
  5
E35
  8
CLUSTERS
 10
641.69576939900003
 20
4667.3174224300001
 30
20.0
  0
VERTEX
  5
E36
  8
CLUSTERS
 10
641.63616557699993
 20
4667.2575871499994
 30
20.0
  0
VERTEX
  5
E37
  8
CLUSTERS
 10
641.55450089800001
 20
4667.2171837699998
 30
20.0
  0
VERTEX
  5
E38
  8
CLUSTERS
 10
641.57439781400001
 20
4667.1169451100004
 30
20.0
  0
VERTEX
  5
E39
  8
CLUSTERS
 10
641.53594771199994
 20
4667.07915039
 30
20.0
  0
VERTEX
  5
E3A
  8
CLUSTERS
 10
641.43572984699995
 20
4667.0576139199993
 30
20.0
  0
VERTEX
  5
E3B
  8
CLUSTERS
 10
641.37614517400004
 20
4667.1169451100004
 30
20.0
  0
SEQEND
  5
E3C
  8
CLUSTERS
  0
POLYLINE
  5
72
  8
CLUSTERS
 66
     1
 10
0.0
 20
0.0
 30
20.0
 70
   129
  0
VERTEX
  5
E3D
  8
CLUSTERS
 10
654.76651661099993
 20
4666.8162291199997
 30
20.0
  0
VERTEX
  5
E3E
  8
CLUSTERS
 10
654.78592649300003
 20
4666.9164677799999
 30
20.0
  0
VERTEX
  5
E3F
  8
CLUSTERS
 10
654.86492374699992
 20
4666.9979944499992
 30
20.0
  0
VERTEX
  5
E40
  8
CLUSTERS
 10
654.88030854900001
 20
4667.0167064400002
 30
20.0
  0
VERTEX
  5
E41
  8
CLUSTERS
 10
654.91558867599986
 20
4667.1169451100004
 30
20.0
  0
VERTEX
  5
E42
  8
CLUSTERS
 10
654.88660332500001
 20
4667.2171837699998
 30
20.0
  0
VERTEX
  5
E43
  8
CLUSTERS
 10
654.96514161200002
 20
4667.3033143899993
 30
20.0
  0
VERTEX
  5
E44
  8
CLUSTERS
 10
655.04836155800001
 20
4667.2171837699998
 30
20.0
  0
VERTEX
  5
E45
  8
CLUSTERS
 10
655.01503261000005
 20
4667.1169451100004
 30
20.0
  0
VERTEX
  5
E46
  8
CLUSTERS
 10
655.0653594769999
 20
4667.0189883100002
 30
20.0
  0
VERTEX
  5
E47
  8
CLUSTERS
 10
655.06741100800002
 20
4667.0167064400002
 30
20.0
  0
VERTEX
  5
E48
  8
CLUSTERS
 10
655.0653594769999
 20
4667.0141391300003
 30
20.0
  0
VERTEX
  5
E49
  8
CLUSTERS
 10
655.04771218400003
 20
4666.9164677799999
 30
20.0
  0
VERTEX
  5
E4A
  8
CLUSTERS
 10
655.0653594769999
 20
4666.8549122000004
 30
20.0
  0
VERTEX
  5
E4B
  8
CLUSTERS
 10
655.16557734200001
 20
4666.8937680199988
 30
20.0
  0
VERTEX
  5
E4C
  8
CLUSTERS
 10
655.23685032699996
 20
4666.8162291199997
 30
20.0
  0
VERTEX
  5
E4D
  8
CLUSTERS
 10
655.16557734200001
 20
4666.7324897199996
 30
20.0
  0
VERTEX
  5
E4E
  8
CLUSTERS
 10
655.0653594769999
 20
4666.780444269999
 30
20.0
  0
VERTEX
  5
E4F
  8
CLUSTERS
 10
655.02836676200002
 20
4666.8162291199997
 30
20.0
  0
VERTEX
  5
E50
  8
CLUSTERS
 10
654.96514161200002
 20
4666.8349431999977
 30
20.0
  0
VERTEX
  5
E51
  8
CLUSTERS
 10
654.95682365000005
 20
4666.8162291199997
 30
20.0
  0
VERTEX
  5
E52
  8
CLUSTERS
 10
654.86492374699992
 20
4666.7252542099986
 30
20.0
  0
VERTEX
  5
E53
  8
CLUSTERS
 10
654.76651661099993
 20
4666.8162291199997
 30
20.0
  0
SEQEND
  5
E54
  8
CLUSTERS
  0
POLYLINE
  5
73
  8
CLUSTERS
 66
     1
 10
0.0
 20
0.0
 30
20.0
 70
   129
  0
VERTEX
  5
E55
  8
CLUSTERS
 10
647.89296677599998
 20
4666.8162291199997
 30
20.0
  0
VERTEX
  5
E56
  8
CLUSTERS
 10
647.87157438199995
 20
4666.9164677799999
 30
20.0
  0
VERTEX
  5
E57
  8
CLUSTERS
 10
647.90630751599997
 20
4667.0167064400002
 30
20.0
  0
VERTEX
  5
E58
  8
CLUSTERS
 10
647.89535892200001
 20
4667.1169451100004
 30
20.0
  0
VERTEX
  5
E59
  8
CLUSTERS
 10
647.84967320299995
 20
4667.1189973299988
 30
20.0
  0
VERTEX
  5
E5A
  8
CLUSTERS
 10
647.84693468299997
 20
4667.1169451100004
 30
20.0
  0
VERTEX
  5
E5B
  8
CLUSTERS
 10
647.74945533799996
 20
4667.0401845300012
 30
20.0
  0
VERTEX
  5
E5C
  8
CLUSTERS
 10
647.672312455
 20
4667.1169451100004
 30
20.0
  0
VERTEX
  5
E5D
  8
CLUSTERS
 10
647.68016491699996
 20
4667.2171837699998
 30
20.0
  0
VERTEX
  5
E5E
  8
CLUSTERS
 10
647.73565670199991
 20
4667.3174224300001
 30
20.0
  0
VERTEX
  5
E5F
  8
CLUSTERS
 10
647.74945533799996
 20
4667.3319609399987
 30
20.0
  0
VERTEX
  5
E60
  8
CLUSTERS
 10
647.84967320299995
 20
4667.4063768300002
 30
20.0
  0
VERTEX
  5
E61
  8
CLUSTERS
 10
647.94989106800006
 20
4667.4097955400002
 30
20.0
  0
VERTEX
  5
E62
  8
CLUSTERS
 10
647.95814625399976
 20
4667.4176611000003
 30
20.0
  0
VERTEX
  5
E63
  8
CLUSTERS
 10
648.00646394699993
 20
4667.5178997599987
 30
20.0
  0
VERTEX
  5
E64
  8
CLUSTERS
 10
648.05010893199994
 20
4667.5619712300004
 30
20.0
  0
VERTEX
  5
E65
  8
CLUSTERS
 10
648.109773991
 20
4667.5178997599987
 30
20.0
  0
VERTEX
  5
E66
  8
CLUSTERS
 10
648.15032679699993
 20
4667.47982185
 30
20.0
  0
VERTEX
  5
E67
  8
CLUSTERS
 10
648.25054466199992
 20
4667.4858280600001
 30
20.0
  0
VERTEX
  5
E68
  8
CLUSTERS
 10
648.34769244400002
 20
4667.4176611000003
 30
20.0
  0
VERTEX
  5
E69
  8
CLUSTERS
 10
648.30443594400003
 20
4667.3174224300001
 30
20.0
  0
VERTEX
  5
E6A
  8
CLUSTERS
 10
648.319248593
 20
4667.2171837699998
 30
20.0
  0
VERTEX
  5
E6B
  8
CLUSTERS
 10
648.30420069800005
 20
4667.1169451100004
 30
20.0
  0
VERTEX
  5
E6C
  8
CLUSTERS
 10
648.25054466199992
 20
4667.0320367100003
 30
20.0
  0
VERTEX
  5
E6D
  8
CLUSTERS
 10
648.15644261400007
 20
4667.0167064400002
 30
20.0
  0
VERTEX
  5
E6E
  8
CLUSTERS
 10
648.17887009599997
 20
4666.9164677799999
 30
20.0
  0
VERTEX
  5
E6F
  8
CLUSTERS
 10
648.15032679699993
 20
4666.8834065499987
 30
20.0
  0
VERTEX
  5
E70
  8
CLUSTERS
 10
648.06505489300002
 20
4666.8162291199997
 30
20.0
  0
VERTEX
  5
E71
  8
CLUSTERS
 10
648.05010893199994
 20
4666.80227698
 30
20.0
  0
VERTEX
  5
E72
  8
CLUSTERS
 10
647.94989106800006
 20
4666.75974425
 30
20.0
  0
VERTEX
  5
E73
  8
CLUSTERS
 10
647.89296677599998
 20
4666.8162291199997
 30
20.0
  0
SEQEND
  5
E74
  8
CLUSTERS
  0
POLYLINE
  5
74
  8
CLUSTERS
 66
     1
 10
0.0
 20
0.0
 30
20.0
 70
   129
  0
VERTEX
  5
E75
  8
CLUSTERS
 10
643.38007480600004
 20
4666.6157517900001
 30
20.0
  0
VERTEX
  5
E76
  8
CLUSTERS
 10
643.440087146
 20
4666.6802299899991
 30
20.0
  0
VERTEX
  5
E77
  8
CLUSTERS
 10
643.54030501099976
 20
4666.6587981700013
 30
20.0
  0
VERTEX
  5
E78
  8
CLUSTERS
 10
643.58168989499995
 20
4666.6157517900001
 30
20.0
  0
VERTEX
  5
E79
  8
CLUSTERS
 10
643.54030501099976
 20
4666.5193469400001
 30
20.0
  0
VERTEX
  5
E7A
  8
CLUSTERS
 10
643.440087146
 20
4666.5449932299998
 30
20.0
  0
VERTEX
  5
E7B
  8
CLUSTERS
 10
643.38007480600004
 20
4666.6157517900001
 30
20.0
  0
SEQEND
  5
E7C
  8
CLUSTERS
  0
POLYLINE
  5
75
  8
CLUSTERS
 66
     1
 10
0.0
 20
0.0
 30
20.0
 70
   129
  0
VERTEX
  5
E7D
  8
CLUSTERS
 10
643.49308566299999
 20
4666.4152744599987
 30
20.0
  0
VERTEX
  5
E7E
  8
CLUSTERS
 10
643.54030501099976
 20
4666.5125582600003
 30
20.0
  0
VERTEX
  5
E7F
  8
CLUSTERS
 10
643.64052287599986
 20
4666.5009567099996
 30
20.0
  0
VERTEX
  5
E80
  8
CLUSTERS
 10
643.70034633199987
 20
4666.4152744599987
 30
20.0
  0
VERTEX
  5
E81
  8
CLUSTERS
 10
643.64052287599986
 20
4666.35621128
 30
20.0
  0
VERTEX
  5
E82
  8
CLUSTERS
 10
643.54030501099976
 20
4666.3691176700004
 30
20.0
  0
VERTEX
  5
E83
  8
CLUSTERS
 10
643.49308566299999
 20
4666.4152744599987
 30
20.0
  0
SEQEND
  5
E84
  8
CLUSTERS
  0
POLYLINE
  5
76
  8
CLUSTERS
 66
     1
 10
0.0
 20
0.0
 30
20.0
 70
   129
  0
VERTEX
  5
E85
  8
CLUSTERS
 10
644.71217449400001
 20
4666.0143198100004
 30
20.0
  0
VERTEX
  5
E86
  8
CLUSTERS
 10
644.74291938999977
 20
4666.0531971399996
 30
20.0
  0
VERTEX
  5
E87
  8
CLUSTERS
 10
644.84313725499987
 20
4666.0886868400012
 30
20.0
  0
VERTEX
  5
E88
  8
CLUSTERS
 10
644.86464451199993
 20
4666.1145584699998
 30
20.0
  0
VERTEX
  5
E89
  8
CLUSTERS
 10
644.84313725499987
 20
4666.1153293899997
 30
20.0
  0
VERTEX
  5
E8A
  8
CLUSTERS
 10
644.74291938999977
 20
4666.1234817799977
 30
20.0
  0
VERTEX
  5
E8B
  8
CLUSTERS
 10
644.65216832099998
 20
4666.21479714
 30
20.0
  0
VERTEX
  5
E8C
  8
CLUSTERS
 10
644.64751014699993
 20
4666.3150358000003
 30
20.0
  0
VERTEX
  5
E8D
  8
CLUSTERS
 10
644.70047980599998
 20
4666.4152744599987
 30
20.0
  0
VERTEX
  5
E8E
  8
CLUSTERS
 10
644.74291938999977
 20
4666.5118181400003
 30
20.0
  0
VERTEX
  5
E8F
  8
CLUSTERS
 10
644.74651207300008
 20
4666.5155131299998
 30
20.0
  0
VERTEX
  5
E90
  8
CLUSTERS
 10
644.74291938999977
 20
4666.5545458500001
 30
20.0
  0
VERTEX
  5
E91
  8
CLUSTERS
 10
644.73926600800007
 20
4666.6157517900001
 30
20.0
  0
VERTEX
  5
E92
  8
CLUSTERS
 10
644.74291938999977
 20
4666.6196348599988
 30
20.0
  0
VERTEX
  5
E93
  8
CLUSTERS
 10
644.84313725499987
 20
4666.6664129399978
 30
20.0
  0
VERTEX
  5
E94
  8
CLUSTERS
 10
644.89179867400003
 20
4666.6157517900001
 30
20.0
  0
VERTEX
  5
E95
  8
CLUSTERS
 10
644.88755356599995
 20
4666.5155131299998
 30
20.0
  0
VERTEX
  5
E96
  8
CLUSTERS
 10
644.94335511999998
 20
4666.4856661800004
 30
20.0
  0
VERTEX
  5
E97
  8
CLUSTERS
 10
645.01080498999977
 20
4666.5155131299998
 30
20.0
  0
VERTEX
  5
E98
  8
CLUSTERS
 10
645.04357298499986
 20
4666.5461179000004
 30
20.0
  0
VERTEX
  5
E99
  8
CLUSTERS
 10
645.14379084999985
 20
4666.5277638600001
 30
20.0
  0
VERTEX
  5
E9A
  8
CLUSTERS
 10
645.15585004100001
 20
4666.5155131299998
 30
20.0
  0
VERTEX
  5
E9B
  8
CLUSTERS
 10
645.22669987300003
 20
4666.4152744599987
 30
20.0
  0
VERTEX
  5
E9C
  8
CLUSTERS
 10
645.14379084999985
 20
4666.332239039999
 30
20.0
  0
VERTEX
  5
E9D
  8
CLUSTERS
 10
645.04357298499986
 20
4666.3996096700002
 30
20.0
  0
VERTEX
  5
E9E
  8
CLUSTERS
 10
645.04271203999986
 20
4666.3150358000003
 30
20.0
  0
VERTEX
  5
E9F
  8
CLUSTERS
 10
645.04357298499986
 20
4666.2901221800003
 30
20.0
  0
VERTEX
  5
EA0
  8
CLUSTERS
 10
645.08656086300005
 20
4666.21479714
 30
20.0
  0
VERTEX
  5
EA1
  8
CLUSTERS
 10
645.04357298499986
 20
4666.1633431999999
 30
20.0
  0
VERTEX
  5
EA2
  8
CLUSTERS
 10
645.01283095400004
 20
4666.1145584699998
 30
20.0
  0
VERTEX
  5
EA3
  8
CLUSTERS
 10
644.94335511999998
 20
4666.052336759999
 30
20.0
  0
VERTEX
  5
EA4
  8
CLUSTERS
 10
644.89950575399985
 20
4666.0143198100004
 30
20.0
  0
VERTEX
  5
EA5
  8
CLUSTERS
 10
644.84313725499987
 20
4665.9595981000002
 30
20.0
  0
VERTEX
  5
EA6
  8
CLUSTERS
 10
644.74291938999977
 20
4665.9839264399998
 30
20.0
  0
VERTEX
  5
EA7
  8
CLUSTERS
 10
644.71217449400001
 20
4666.0143198100004
 30
20.0
  0
SEQEND
  5
EA8
  8
CLUSTERS
  0
POLYLINE
  5
77
  8
CLUSTERS
 66
     1
 10
0.0
 20
0.0
 30
20.0
 70
   129
  0
VERTEX
  5
EA9
  8
CLUSTERS
 10
646.36119684300002
 20
4665.4128878299998
 30
20.0
  0
VERTEX
  5
EAA
  8
CLUSTERS
 10
646.36971703699976
 20
4665.5131264900001
 30
20.0
  0
VERTEX
  5
EAB
  8
CLUSTERS
 10
646.34640522899986
 20
4665.5665936000014
 30
20.0
  0
VERTEX
  5
EAC
  8
CLUSTERS
 10
646.29732308400003
 20
4665.6133651600003
 30
20.0
  0
VERTEX
  5
EAD
  8
CLUSTERS
 10
646.24618736399975
 20
4665.6531033800002
 30
20.0
  0
VERTEX
  5
EAE
  8
CLUSTERS
 10
646.19058188500003
 20
4665.7136038199997
 30
20.0
  0
VERTEX
  5
EAF
  8
CLUSTERS
 10
646.16163139599985
 20
4665.8138424799999
 30
20.0
  0
VERTEX
  5
EB0
  8
CLUSTERS
 10
646.24618736399975
 20
4665.9066433999978
 30
20.0
  0
VERTEX
  5
EB1
  8
CLUSTERS
 10
646.34640522899986
 20
4665.901761359999
 30
20.0
  0
VERTEX
  5
EB2
  8
CLUSTERS
 10
646.42717312599984
 20
4665.8138424799999
 30
20.0
  0
VERTEX
  5
EB3
  8
CLUSTERS
 10
646.42418488199985
 20
4665.7136038199997
 30
20.0
  0
VERTEX
  5
EB4
  8
CLUSTERS
 10
646.40351674800002
 20
4665.6133651600003
 30
20.0
  0
VERTEX
  5
EB5
  8
CLUSTERS
 10
646.44662309399985
 20
4665.5966491500003
 30
20.0
  0
VERTEX
  5
EB6
  8
CLUSTERS
 10
646.52280337699995
 20
4665.5131264900001
 30
20.0
  0
VERTEX
  5
EB7
  8
CLUSTERS
 10
646.52316959099994
 20
4665.4128878299998
 30
20.0
  0
VERTEX
  5
EB8
  8
CLUSTERS
 10
646.44662309399985
 20
4665.33722734
 30
20.0
  0
VERTEX
  5
EB9
  8
CLUSTERS
 10
646.36119684300002
 20
4665.4128878299998
 30
20.0
  0
SEQEND
  5
EBA
  8
CLUSTERS
  0
POLYLINE
  5
78
  8
CLUSTERS
 66
     1
 10
0.0
 20
0.0
 30
20.0
 70
   129
  0
VERTEX
  5
EBB
  8
CLUSTERS
 10
644.33558775300003
 20
4665.1121718399991
 30
20.0
  0
VERTEX
  5
EBC
  8
CLUSTERS
 10
644.34204793000004
 20
4665.1150945500003
 30
20.0
  0
VERTEX
  5
EBD
  8
CLUSTERS
 10
644.38309993199994
 20
4665.2124105000003
 30
20.0
  0
VERTEX
  5
EBE
  8
CLUSTERS
 10
644.44226579500003
 20
4665.2769748600003
 30
20.0
  0
VERTEX
  5
EBF
  8
CLUSTERS
 10
644.518375558
 20
4665.3126491599987
 30
20.0
  0
VERTEX
  5
EC0
  8
CLUSTERS
 10
644.5424836599999
 20
4665.3309276399987
 30
20.0
  0
VERTEX
  5
EC1
  8
CLUSTERS
 10
644.64270152500001
 20
4665.3596685599978
 30
20.0
  0
VERTEX
  5
EC2
  8
CLUSTERS
 10
644.68805625300001
 20
4665.3126491599987
 30
20.0
  0
VERTEX
  5
EC3
  8
CLUSTERS
 10
644.72569339500001
 20
4665.2124105000003
 30
20.0
  0
VERTEX
  5
EC4
  8
CLUSTERS
 10
644.64270152500001
 20
4665.12576919
 30
20.0
  0
VERTEX
  5
EC5
  8
CLUSTERS
 10
644.5424836599999
 20
4665.1236509600003
 30
20.0
  0
VERTEX
  5
EC6
  8
CLUSTERS
 10
644.44226579500003
 20
4665.1565767900001
 30
20.0
  0
VERTEX
  5
EC7
  8
CLUSTERS
 10
644.34460676699996
 20
4665.1121718399991
 30
20.0
  0
VERTEX
  5
EC8
  8
CLUSTERS
 10
644.34204793000004
 20
4665.1075315600001
 30
20.0
  0
VERTEX
  5
EC9
  8
CLUSTERS
 10
644.33558775300003
 20
4665.1121718399991
 30
20.0
  0
SEQEND
  5
ECA
  8
CLUSTERS
  0
POLYLINE
  5
79
  8
CLUSTERS
 66
     1
 10
0.0
 20
0.0
 30
20.0
 70
   129
  0
VERTEX
  5
ECB
  8
CLUSTERS
 10
646.97562706999975
 20
4664.8114558500001
 30
20.0
  0
VERTEX
  5
ECC
  8
CLUSTERS
 10
646.955903154
 20
4664.9116945100004
 30
20.0
  0
VERTEX
  5
ECD
  8
CLUSTERS
 10
646.95055060599987
 20
4665.011933169998
 30
20.0
  0
VERTEX
  5
ECE
  8
CLUSTERS
 10
646.95601876099988
 20
4665.1121718399991
 30
20.0
  0
VERTEX
  5
ECF
  8
CLUSTERS
 10
647.02999095899975
 20
4665.2124105000003
 30
20.0
  0
VERTEX
  5
ED0
  8
CLUSTERS
 10
647.04793028300003
 20
4665.2265516899997
 30
20.0
  0
VERTEX
  5
ED1
  8
CLUSTERS
 10
647.14814814800002
 20
4665.3091083500003
 30
20.0
  0
VERTEX
  5
ED2
  8
CLUSTERS
 10
647.19904462300008
 20
4665.3126491599987
 30
20.0
  0
VERTEX
  5
ED3
  8
CLUSTERS
 10
647.2483660129999
 20
4665.3281348600012
 30
20.0
  0
VERTEX
  5
ED4
  8
CLUSTERS
 10
647.348583878
 20
4665.3567912099979
 30
20.0
  0
VERTEX
  5
ED5
  8
CLUSTERS
 10
647.39280248
 20
4665.3126491599987
 30
20.0
  0
VERTEX
  5
ED6
  8
CLUSTERS
 10
647.44880174299976
 20
4665.2272353699991
 30
20.0
  0
VERTEX
  5
ED7
  8
CLUSTERS
 10
647.46222756799978
 20
4665.2124105000003
 30
20.0
  0
VERTEX
  5
ED8
  8
CLUSTERS
 10
647.52025424199985
 20
4665.1121718399991
 30
20.0
  0
VERTEX
  5
ED9
  8
CLUSTERS
 10
647.44880174299976
 20
4665.0410957100003
 30
20.0
  0
VERTEX
  5
EDA
  8
CLUSTERS
 10
647.348583878
 20
4665.0275624799979
 30
20.0
  0
VERTEX
  5
EDB
  8
CLUSTERS
 10
647.2483660129999
 20
4665.0231987300012
 30
20.0
  0
VERTEX
  5
EDC
  8
CLUSTERS
 10
647.24562099199977
 20
4665.011933169998
 30
20.0
  0
VERTEX
  5
EDD
  8
CLUSTERS
 10
647.24541537599998
 20
4664.9116945100004
 30
20.0
  0
VERTEX
  5
EDE
  8
CLUSTERS
 10
647.14814814800002
 20
4664.8144001299997
 30
20.0
  0
VERTEX
  5
EDF
  8
CLUSTERS
 10
647.12818345699998
 20
4664.8114558500001
 30
20.0
  0
VERTEX
  5
EE0
  8
CLUSTERS
 10
647.04793028300003
 20
4664.7404027599978
 30
20.0
  0
VERTEX
  5
EE1
  8
CLUSTERS
 10
646.97562706999975
 20
4664.8114558500001
 30
20.0
  0
SEQEND
  5
EE2
  8
CLUSTERS
  0
POLYLINE
  5
7A
  8
CLUSTERS
 66
     1
 10
0.0
 20
0.0
 30
20.0
 70
   129
  0
VERTEX
  5
EE3
  8
CLUSTERS
 10
642.14151196599994
 20
4664.7112171799999
 30
20.0
  0
VERTEX
  5
EE4
  8
CLUSTERS
 10
642.13725490199988
 20
4664.7155137899999
 30
20.0
  0
VERTEX
  5
EE5
  8
CLUSTERS
 10
642.06997832900004
 20
4664.8114558500001
 30
20.0
  0
VERTEX
  5
EE6
  8
CLUSTERS
 10
642.13725490199988
 20
4664.8912485000001
 30
20.0
  0
VERTEX
  5
EE7
  8
CLUSTERS
 10
642.23747276699999
 20
4664.8996529399992
 30
20.0
  0
VERTEX
  5
EE8
  8
CLUSTERS
 10
642.26776771200002
 20
4664.9116945100004
 30
20.0
  0
VERTEX
  5
EE9
  8
CLUSTERS
 10
642.33769063199975
 20
4664.9662249399998
 30
20.0
  0
VERTEX
  5
EEA
  8
CLUSTERS
 10
642.43790849699985
 20
4664.9237991999989
 30
20.0
  0
VERTEX
  5
EEB
  8
CLUSTERS
 10
642.44829620400003
 20
4664.9116945100004
 30
20.0
  0
VERTEX
  5
EEC
  8
CLUSTERS
 10
642.43790849699985
 20
4664.8965849699998
 30
20.0
  0
VERTEX
  5
EED
  8
CLUSTERS
 10
642.37825302699991
 20
4664.8114558500001
 30
20.0
  0
VERTEX
  5
EEE
  8
CLUSTERS
 10
642.33769063199975
 20
4664.7788330599979
 30
20.0
  0
VERTEX
  5
EEF
  8
CLUSTERS
 10
642.30655670600004
 20
4664.7112171799999
 30
20.0
  0
VERTEX
  5
EF0
  8
CLUSTERS
 10
642.23747276699999
 20
4664.6443081300004
 30
20.0
  0
VERTEX
  5
EF1
  8
CLUSTERS
 10
642.14151196599994
 20
4664.7112171799999
 30
20.0
  0
SEQEND
  5
EF2
  8
CLUSTERS
  0
POLYLINE
  5
7B
  8
CLUSTERS
 66
     1
 10
0.0
 20
0.0
 30
20.0
 70
   129
  0
VERTEX
  5
EF3
  8
CLUSTERS
 10
646.56420595099985
 20
4664.6109785199978
 30
20.0
  0
VERTEX
  5
EF4
  8
CLUSTERS
 10
646.58618609799976
 20
4664.7112171799999
 30
20.0
  0
VERTEX
  5
EF5
  8
CLUSTERS
 10
646.54684095899995
 20
4664.73289071
 30
20.0
  0
VERTEX
  5
EF6
  8
CLUSTERS
 10
646.44662309399985
 20
4664.7160795199979
 30
20.0
  0
VERTEX
  5
EF7
  8
CLUSTERS
 10
646.35205418400005
 20
4664.8114558500001
 30
20.0
  0
VERTEX
  5
EF8
  8
CLUSTERS
 10
646.37452201099995
 20
4664.9116945100004
 30
20.0
  0
VERTEX
  5
EF9
  8
CLUSTERS
 10
646.44662309399985
 20
4664.9864716900001
 30
20.0
  0
VERTEX
  5
EFA
  8
CLUSTERS
 10
646.54684095899995
 20
4664.981287239998
 30
20.0
  0
VERTEX
  5
EFB
  8
CLUSTERS
 10
646.62683338900001
 20
4664.9116945100004
 30
20.0
  0
VERTEX
  5
EFC
  8
CLUSTERS
 10
646.63970032599991
 20
4664.8114558500001
 30
20.0
  0
VERTEX
  5
EFD
  8
CLUSTERS
 10
646.64705882400006
 20
4664.7957592700004
 30
20.0
  0
VERTEX
  5
EFE
  8
CLUSTERS
 10
646.73016019399995
 20
4664.7112171799999
 30
20.0
  0
VERTEX
  5
EFF
  8
CLUSTERS
 10
646.73018389900005
 20
4664.6109785199978
 30
20.0
  0
VERTEX
  5
F00
  8
CLUSTERS
 10
646.64705882400006
 20
4664.5358763800004
 30
20.0
  0
VERTEX
  5
F01
  8
CLUSTERS
 10
646.56420595099985
 20
4664.6109785199978
 30
20.0
  0
SEQEND
  5
F02
  8
CLUSTERS
  0
POLYLINE
  5
7C
  8
CLUSTERS
 66
     1
 10
0.0
 20
0.0
 30
20.0
 70
   129
  0
VERTEX
  5
F03
  8
CLUSTERS
 10
640.874810217
 20
4664.2100238700004
 30
20.0
  0
VERTEX
  5
F04
  8
CLUSTERS
 10
640.93292133099999
 20
4664.3102625299989
 30
20.0
  0
VERTEX
  5
F05
  8
CLUSTERS
 10
640.83675683199999
 20
4664.4105011900001
 30
20.0
  0
VERTEX
  5
F06
  8
CLUSTERS
 10
640.837590869
 20
4664.5107398600003
 30
20.0
  0
VERTEX
  5
F07
  8
CLUSTERS
 10
640.86714458699976
 20
4664.6109785199978
 30
20.0
  0
VERTEX
  5
F08
  8
CLUSTERS
 10
640.93464052299987
 20
4664.6761756200012
 30
20.0
  0
VERTEX
  5
F09
  8
CLUSTERS
 10
641.03485838799998
 20
4664.69304938
 30
20.0
  0
VERTEX
  5
F0A
  8
CLUSTERS
 10
641.13507625299997
 20
4664.6980085799987
 30
20.0
  0
VERTEX
  5
F0B
  8
CLUSTERS
 10
641.23529411799996
 20
4664.6470663600003
 30
20.0
  0
VERTEX
  5
F0C
  8
CLUSTERS
 10
641.26250290699988
 20
4664.7112171799999
 30
20.0
  0
VERTEX
  5
F0D
  8
CLUSTERS
 10
641.28428764800003
 20
4664.8114558500001
 30
20.0
  0
VERTEX
  5
F0E
  8
CLUSTERS
 10
641.33551198300006
 20
4664.8734772600001
 30
20.0
  0
VERTEX
  5
F0F
  8
CLUSTERS
 10
641.34454238699993
 20
4664.9116945100004
 30
20.0
  0
VERTEX
  5
F10
  8
CLUSTERS
 10
641.33551198300006
 20
4664.9305649899979
 30
20.0
  0
VERTEX
  5
F11
  8
CLUSTERS
 10
641.23693225800002
 20
4665.011933169998
 30
20.0
  0
VERTEX
  5
F12
  8
CLUSTERS
 10
641.23529411799996
 20
4665.0147790700003
 30
20.0
  0
VERTEX
  5
F13
  8
CLUSTERS
 10
641.17218778999995
 20
4665.1121718399991
 30
20.0
  0
VERTEX
  5
F14
  8
CLUSTERS
 10
641.13507625299997
 20
4665.1769883899979
 30
20.0
  0
VERTEX
  5
F15
  8
CLUSTERS
 10
641.10335091499996
 20
4665.2124105000003
 30
20.0
  0
VERTEX
  5
F16
  8
CLUSTERS
 10
641.13507625299997
 20
4665.2530857600004
 30
20.0
  0
VERTEX
  5
F17
  8
CLUSTERS
 10
641.23465356199995
 20
4665.3126491599987
 30
20.0
  0
VERTEX
  5
F18
  8
CLUSTERS
 10
641.23529411799996
 20
4665.3131104599997
 30
20.0
  0
VERTEX
  5
F19
  8
CLUSTERS
 10
641.23590468299994
 20
4665.3126491599987
 30
20.0
  0
VERTEX
  5
F1A
  8
CLUSTERS
 10
641.33551198300006
 20
4665.2978545300002
 30
20.0
  0
VERTEX
  5
F1B
  8
CLUSTERS
 10
641.37752622899995
 20
4665.3126491599987
 30
20.0
  0
VERTEX
  5
F1C
  8
CLUSTERS
 10
641.43572984699995
 20
4665.3688705100003
 30
20.0
  0
VERTEX
  5
F1D
  8
CLUSTERS
 10
641.52142649199993
 20
4665.4128878299998
 30
20.0
  0
VERTEX
  5
F1E
  8
CLUSTERS
 10
641.53594771199994
 20
4665.4256895799999
 30
20.0
  0
VERTEX
  5
F1F
  8
CLUSTERS
 10
641.56370915299976
 20
4665.5131264900001
 30
20.0
  0
VERTEX
  5
F20
  8
CLUSTERS
 10
641.63616557699993
 20
4665.5930448299987
 30
20.0
  0
VERTEX
  5
F21
  8
CLUSTERS
 10
641.73638344199992
 20
4665.6069555100003
 30
20.0
  0
VERTEX
  5
F22
  8
CLUSTERS
 10
641.75116181899978
 20
4665.6133651600003
 30
20.0
  0
VERTEX
  5
F23
  8
CLUSTERS
 10
641.83660130699991
 20
4665.6823282199994
 30
20.0
  0
VERTEX
  5
F24
  8
CLUSTERS
 10
641.93681917200001
 20
4665.6890481299988
 30
20.0
  0
VERTEX
  5
F25
  8
CLUSTERS
 10
642.037037037
 20
4665.6607359099999
 30
20.0
  0
VERTEX
  5
F26
  8
CLUSTERS
 10
642.13725490199988
 20
4665.6739274399988
 30
20.0
  0
VERTEX
  5
F27
  8
CLUSTERS
 10
642.14519548199996
 20
4665.7136038199997
 30
20.0
  0
VERTEX
  5
F28
  8
CLUSTERS
 10
642.23747276699999
 20
4665.81088989
 30
20.0
  0
VERTEX
  5
F29
  8
CLUSTERS
 10
642.24908942900004
 20
4665.8138424799999
 30
20.0
  0
VERTEX
  5
F2A
  8
CLUSTERS
 10
642.23747276699999
 20
4665.818871729999
 30
20.0
  0
VERTEX
  5
F2B
  8
CLUSTERS
 10
642.14760080300005
 20
4665.9140811500001
 30
20.0
  0
VERTEX
  5
F2C
  8
CLUSTERS
 10
642.18356011599985
 20
4666.0143198100004
 30
20.0
  0
VERTEX
  5
F2D
  8
CLUSTERS
 10
642.13725490199988
 20
4666.0584941099987
 30
20.0
  0
VERTEX
  5
F2E
  8
CLUSTERS
 10
642.037037037
 20
4666.0370515200002
 30
20.0
  0
VERTEX
  5
F2F
  8
CLUSTERS
 10
642.03082521600004
 20
4666.0143198100004
 30
20.0
  0
VERTEX
  5
F30
  8
CLUSTERS
 10
642.01135910999994
 20
4665.9140811500001
 30
20.0
  0
VERTEX
  5
F31
  8
CLUSTERS
 10
641.93681917200001
 20
4665.8413338399978
 30
20.0
  0
VERTEX
  5
F32
  8
CLUSTERS
 10
641.83660130699991
 20
4665.8471013500002
 30
20.0
  0
VERTEX
  5
F33
  8
CLUSTERS
 10
641.73638344199992
 20
4665.9032616399991
 30
20.0
  0
VERTEX
  5
F34
  8
CLUSTERS
 10
641.724909056
 20
4665.9140811500001
 30
20.0
  0
VERTEX
  5
F35
  8
CLUSTERS
 10
641.63616557699993
 20
4665.9318128300001
 30
20.0
  0
VERTEX
  5
F36
  8
CLUSTERS
 10
641.53676004800002
 20
4666.0143198100004
 30
20.0
  0
VERTEX
  5
F37
  8
CLUSTERS
 10
641.53594771199994
 20
4666.0153586400002
 30
20.0
  0
VERTEX
  5
F38
  8
CLUSTERS
 10
641.53494499299995
 20
4666.0143198100004
 30
20.0
  0
VERTEX
  5
F39
  8
CLUSTERS
 10
641.516660065
 20
4665.9140811500001
 30
20.0
  0
VERTEX
  5
F3A
  8
CLUSTERS
 10
641.43572984699995
 20
4665.8599097499991
 30
20.0
  0
VERTEX
  5
F3B
  8
CLUSTERS
 10
641.34273970300001
 20
4665.9140811500001
 30
20.0
  0
VERTEX
  5
F3C
  8
CLUSTERS
 10
641.33551198300006
 20
4665.9183916399988
 30
20.0
  0
VERTEX
  5
F3D
  8
CLUSTERS
 10
641.23529411799996
 20
4665.9288522500001
 30
20.0
  0
VERTEX
  5
F3E
  8
CLUSTERS
 10
641.18427942799997
 20
4666.0143198100004
 30
20.0
  0
VERTEX
  5
F3F
  8
CLUSTERS
 10
641.23529411799996
 20
4666.1036885100002
 30
20.0
  0
VERTEX
  5
F40
  8
CLUSTERS
 10
641.25216160800005
 20
4666.1145584699998
 30
20.0
  0
VERTEX
  5
F41
  8
CLUSTERS
 10
641.23529411799996
 20
4666.1186959400002
 30
20.0
  0
VERTEX
  5
F42
  8
CLUSTERS
 10
641.13507625299997
 20
4666.1336886600002
 30
20.0
  0
VERTEX
  5
F43
  8
CLUSTERS
 10
641.07542181999997
 20
4666.1145584699998
 30
20.0
  0
VERTEX
  5
F44
  8
CLUSTERS
 10
641.12339514099995
 20
4666.0143198100004
 30
20.0
  0
VERTEX
  5
F45
  8
CLUSTERS
 10
641.03485838799998
 20
4665.9283204999992
 30
20.0
  0
VERTEX
  5
F46
  8
CLUSTERS
 10
640.93464052299987
 20
4665.9538798800004
 30
20.0
  0
VERTEX
  5
F47
  8
CLUSTERS
 10
640.87409463400002
 20
4666.0143198100004
 30
20.0
  0
VERTEX
  5
F48
  8
CLUSTERS
 10
640.90305840500002
 20
4666.1145584699998
 30
20.0
  0
VERTEX
  5
F49
  8
CLUSTERS
 10
640.83442265799977
 20
4666.1490207200004
 30
20.0
  0
VERTEX
  5
F4A
  8
CLUSTERS
 10
640.76945559000001
 20
4666.21479714
 30
20.0
  0
VERTEX
  5
F4B
  8
CLUSTERS
 10
640.83442265799977
 20
4666.2880496300004
 30
20.0
  0
VERTEX
  5
F4C
  8
CLUSTERS
 10
640.93464052299987
 20
4666.3123084299996
 30
20.0
  0
VERTEX
  5
F4D
  8
CLUSTERS
 10
640.94456607199993
 20
4666.3150358000003
 30
20.0
  0
VERTEX
  5
F4E
  8
CLUSTERS
 10
641.03485838799998
 20
4666.3812327100004
 30
20.0
  0
VERTEX
  5
F4F
  8
CLUSTERS
 10
641.13507625299997
 20
4666.3845497000002
 30
20.0
  0
VERTEX
  5
F50
  8
CLUSTERS
 10
641.23529411799996
 20
4666.3804609199997
 30
20.0
  0
VERTEX
  5
F51
  8
CLUSTERS
 10
641.31792699799996
 20
4666.3150358000003
 30
20.0
  0
VERTEX
  5
F52
  8
CLUSTERS
 10
641.33551198300006
 20
4666.3028026700003
 30
20.0
  0
VERTEX
  5
F53
  8
CLUSTERS
 10
641.43572984699995
 20
4666.3017898099997
 30
20.0
  0
VERTEX
  5
F54
  8
CLUSTERS
 10
641.53594771199994
 20
4666.3073666500004
 30
20.0
  0
VERTEX
  5
F55
  8
CLUSTERS
 10
641.63616557699993
 20
4666.3139969900003
 30
20.0
  0
VERTEX
  5
F56
  8
CLUSTERS
 10
641.63649265200002
 20
4666.3150358000003
 30
20.0
  0
VERTEX
  5
F57
  8
CLUSTERS
 10
641.73638344199992
 20
4666.4130618700001
 30
20.0
  0
VERTEX
  5
F58
  8
CLUSTERS
 10
641.83660130699991
 20
4666.4115183999984
 30
20.0
  0
VERTEX
  5
F59
  8
CLUSTERS
 10
641.93038632499974
 20
4666.3150358000003
 30
20.0
  0
VERTEX
  5
F5A
  8
CLUSTERS
 10
641.93681917200001
 20
4666.3015050200001
 30
20.0
  0
VERTEX
  5
F5B
  8
CLUSTERS
 10
642.01872222199995
 20
4666.3150358000003
 30
20.0
  0
VERTEX
  5
F5C
  8
CLUSTERS
 10
642.037037037
 20
4666.3244184200003
 30
20.0
  0
VERTEX
  5
F5D
  8
CLUSTERS
 10
642.06712907899976
 20
4666.3150358000003
 30
20.0
  0
VERTEX
  5
F5E
  8
CLUSTERS
 10
642.13725490199988
 20
4666.3110943000001
 30
20.0
  0
VERTEX
  5
F5F
  8
CLUSTERS
 10
642.22456423300002
 20
4666.21479714
 30
20.0
  0
VERTEX
  5
F60
  8
CLUSTERS
 10
642.19748836199994
 20
4666.1145584699998
 30
20.0
  0
VERTEX
  5
F61
  8
CLUSTERS
 10
642.23747276699999
 20
4666.0724757799999
 30
20.0
  0
VERTEX
  5
F62
  8
CLUSTERS
 10
642.33626719699976
 20
4666.1145584699998
 30
20.0
  0
VERTEX
  5
F63
  8
CLUSTERS
 10
642.33769063199975
 20
4666.1155991599999
 30
20.0
  0
VERTEX
  5
F64
  8
CLUSTERS
 10
642.35382533300003
 20
4666.1145584699998
 30
20.0
  0
VERTEX
  5
F65
  8
CLUSTERS
 10
642.43790849699985
 20
4666.1138235999988
 30
20.0
  0
VERTEX
  5
F66
  8
CLUSTERS
 10
642.53812636199984
 20
4666.1096608500002
 30
20.0
  0
VERTEX
  5
F67
  8
CLUSTERS
 10
642.63834422699995
 20
4666.0869456399996
 30
20.0
  0
VERTEX
  5
F68
  8
CLUSTERS
 10
642.70500831100003
 20
4666.0143198100004
 30
20.0
  0
VERTEX
  5
F69
  8
CLUSTERS
 10
642.71214014199995
 20
4665.9140811500001
 30
20.0
  0
VERTEX
  5
F6A
  8
CLUSTERS
 10
642.63834422699995
 20
4665.8416316399998
 30
20.0
  0
VERTEX
  5
F6B
  8
CLUSTERS
 10
642.53812636199984
 20
4665.8342522299999
 30
20.0
  0
VERTEX
  5
F6C
  8
CLUSTERS
 10
642.43790849699985
 20
4665.826598069998
 30
20.0
  0
VERTEX
  5
F6D
  8
CLUSTERS
 10
642.40607423199992
 20
4665.8138424799999
 30
20.0
  0
VERTEX
  5
F6E
  8
CLUSTERS
 10
642.42353219099994
 20
4665.7136038199997
 30
20.0
  0
VERTEX
  5
F6F
  8
CLUSTERS
 10
642.33769063199975
 20
4665.6334470499996
 30
20.0
  0
VERTEX
  5
F70
  8
CLUSTERS
 10
642.31695596500003
 20
4665.6133651600003
 30
20.0
  0
VERTEX
  5
F71
  8
CLUSTERS
 10
642.23747276699999
 20
4665.5368041900001
 30
20.0
  0
VERTEX
  5
F72
  8
CLUSTERS
 10
642.13725490199988
 20
4665.5681808700001
 30
20.0
  0
VERTEX
  5
F73
  8
CLUSTERS
 10
642.12055254699999
 20
4665.5131264900001
 30
20.0
  0
VERTEX
  5
F74
  8
CLUSTERS
 10
642.037037037
 20
4665.4183247399997
 30
20.0
  0
VERTEX
  5
F75
  8
CLUSTERS
 10
642.03315788899988
 20
4665.4128878299998
 30
20.0
  0
VERTEX
  5
F76
  8
CLUSTERS
 10
641.93681917200001
 20
4665.3234501999978
 30
20.0
  0
VERTEX
  5
F77
  8
CLUSTERS
 10
641.91537910099998
 20
4665.3126491599987
 30
20.0
  0
VERTEX
  5
F78
  8
CLUSTERS
 10
641.83660130699991
 20
4665.2377804199987
 30
20.0
  0
VERTEX
  5
F79
  8
CLUSTERS
 10
641.73638344199992
 20
4665.2197027899992
 30
20.0
  0
VERTEX
  5
F7A
  8
CLUSTERS
 10
641.72629361899999
 20
4665.2124105000003
 30
20.0
  0
VERTEX
  5
F7B
  8
CLUSTERS
 10
641.63616557699993
 20
4665.1248779199987
 30
20.0
  0
VERTEX
  5
F7C
  8
CLUSTERS
 10
641.56358160900004
 20
4665.1121718399991
 30
20.0
  0
VERTEX
  5
F7D
  8
CLUSTERS
 10
641.53594771199994
 20
4665.0822343500004
 30
20.0
  0
VERTEX
  5
F7E
  8
CLUSTERS
 10
641.47063624999976
 20
4665.011933169998
 30
20.0
  0
VERTEX
  5
F7F
  8
CLUSTERS
 10
641.52613644999997
 20
4664.9116945100004
 30
20.0
  0
VERTEX
  5
F80
  8
CLUSTERS
 10
641.53181365499995
 20
4664.8114558500001
 30
20.0
  0
VERTEX
  5
F81
  8
CLUSTERS
 10
641.53557779100004
 20
4664.7112171799999
 30
20.0
  0
VERTEX
  5
F82
  8
CLUSTERS
 10
641.43572984699995
 20
4664.6141640699998
 30
20.0
  0
VERTEX
  5
F83
  8
CLUSTERS
 10
641.33551198300006
 20
4664.6374911499979
 30
20.0
  0
VERTEX
  5
F84
  8
CLUSTERS
 10
641.27220265999995
 20
4664.6109785199978
 30
20.0
  0
VERTEX
  5
F85
  8
CLUSTERS
 10
641.32423432400003
 20
4664.5107398600003
 30
20.0
  0
VERTEX
  5
F86
  8
CLUSTERS
 10
641.32902870999976
 20
4664.4105011900001
 30
20.0
  0
VERTEX
  5
F87
  8
CLUSTERS
 10
641.26123397100002
 20
4664.3102625299989
 30
20.0
  0
VERTEX
  5
F88
  8
CLUSTERS
 10
641.23529411799996
 20
4664.2867098400002
 30
20.0
  0
VERTEX
  5
F89
  8
CLUSTERS
 10
641.13507625299997
 20
4664.2169828599999
 30
20.0
  0
VERTEX
  5
F8A
  8
CLUSTERS
 10
641.03485838799998
 20
4664.212760729999
 30
20.0
  0
VERTEX
  5
F8B
  8
CLUSTERS
 10
641.01698413199995
 20
4664.2100238700004
 30
20.0
  0
VERTEX
  5
F8C
  8
CLUSTERS
 10
640.93464052299987
 20
4664.1496630800002
 30
20.0
  0
VERTEX
  5
F8D
  8
CLUSTERS
 10
640.874810217
 20
4664.2100238700004
 30
20.0
  0
SEQEND
  5
F8E
  8
CLUSTERS
  0
POLYLINE
  5
7D
  8
CLUSTERS
 66
     1
 10
0.0
 20
0.0
 30
20.0
 70
   129
  0
VERTEX
  5
F8F
  8
CLUSTERS
 10
640.55226886499975
 20
4664.2100238700004
 30
20.0
  0
VERTEX
  5
F90
  8
CLUSTERS
 10
640.53376906300002
 20
4664.2529230800001
 30
20.0
  0
VERTEX
  5
F91
  8
CLUSTERS
 10
640.43355119800003
 20
4664.23351207
 30
20.0
  0
VERTEX
  5
F92
  8
CLUSTERS
 10
640.34676901599994
 20
4664.3102625299989
 30
20.0
  0
VERTEX
  5
F93
  8
CLUSTERS
 10
640.33333333300004
 20
4664.3356817999993
 30
20.0
  0
VERTEX
  5
F94
  8
CLUSTERS
 10
640.27266307000002
 20
4664.4105011900001
 30
20.0
  0
VERTEX
  5
F95
  8
CLUSTERS
 10
640.31558634199985
 20
4664.5107398600003
 30
20.0
  0
VERTEX
  5
F96
  8
CLUSTERS
 10
640.33333333300004
 20
4664.5302462600002
 30
20.0
  0
VERTEX
  5
F97
  8
CLUSTERS
 10
640.36034460099995
 20
4664.5107398600003
 30
20.0
  0
VERTEX
  5
F98
  8
CLUSTERS
 10
640.43355119800003
 20
4664.48460849
 30
20.0
  0
VERTEX
  5
F99
  8
CLUSTERS
 10
640.51474645400003
 20
4664.4105011900001
 30
20.0
  0
VERTEX
  5
F9A
  8
CLUSTERS
 10
640.53376906300002
 20
4664.3833153100013
 30
20.0
  0
VERTEX
  5
F9B
  8
CLUSTERS
 10
640.57205442999998
 20
4664.4105011900001
 30
20.0
  0
VERTEX
  5
F9C
  8
CLUSTERS
 10
640.6339869279999
 20
4664.4493161700002
 30
20.0
  0
VERTEX
  5
F9D
  8
CLUSTERS
 10
640.67910337199999
 20
4664.4105011900001
 30
20.0
  0
VERTEX
  5
F9E
  8
CLUSTERS
 10
640.72713915400004
 20
4664.3102625299989
 30
20.0
  0
VERTEX
  5
F9F
  8
CLUSTERS
 10
640.71529692000001
 20
4664.2100238700004
 30
20.0
  0
VERTEX
  5
FA0
  8
CLUSTERS
 10
640.6339869279999
 20
4664.1324706100022
 30
20.0
  0
VERTEX
  5
FA1
  8
CLUSTERS
 10
640.55226886499975
 20
4664.2100238700004
 30
20.0
  0
SEQEND
  5
FA2
  8
CLUSTERS
  0
ENDSEC
  0
EOF
