  0
SECTION
  2
HEADER
  9
$ACADVER
  1
AC1009
  9
$INSBASE
 10
0.0
 20
0.0
 30
0.0
  9
$EXTMIN
 10
576202.26255754032
 20
517046.65805785829
 30
0.0
  9
$EXTMAX
 10
584796.87839796836
 20
524311.15574251045
 30
0.0
  9
$LIMMIN
 10
0.0
 20
0.0
  9
$LIMMAX
 10
12.0
 20
9.0
  9
$ORTHOMODE
 70
     0
  9
$REGENMODE
 70
     1
  9
$FILLMODE
 70
     1
  9
$QTEXTMODE
 70
     0
  9
$MIRRTEXT
 70
     0
  9
$DRAGMODE
 70
     2
  9
$LTSCALE
 40
1.0
  9
$OSMODE
 70
    37
  9
$ATTMODE
 70
     1
  9
$TEXTSIZE
 40
1200.0
  9
$TRACEWID
 40
0.05
  9
$TEXTSTYLE
  7
STANDARD
  9
$CLAYER
  8
2800
  9
$CELTYPE
  6
BYLAYER
  9
$CECOLOR
 62
   256
  9
$DIMSCALE
 40
1.0
  9
$DIMASZ
 40
0.18
  9
$DIMEXO
 40
0.0625
  9
$DIMDLI
 40
0.38
  9
$DIMRND
 40
0.0
  9
$DIMDLE
 40
0.0
  9
$DIMEXE
 40
0.18
  9
$DIMTP
 40
0.0
  9
$DIMTM
 40
0.0
  9
$DIMTXT
 40
0.18
  9
$DIMCEN
 40
0.09
  9
$DIMTSZ
 40
0.0
  9
$DIMTOL
 70
     0
  9
$DIMLIM
 70
     0
  9
$DIMTIH
 70
     1
  9
$DIMTOH
 70
     1
  9
$DIMSE1
 70
     0
  9
$DIMSE2
 70
     0
  9
$DIMTAD
 70
     0
  9
$DIMZIN
 70
     0
  9
$DIMBLK
  1

  9
$DIMASO
 70
     1
  9
$DIMSHO
 70
     1
  9
$DIMPOST
  1

  9
$DIMAPOST
  1

  9
$DIMALT
 70
     0
  9
$DIMALTD
 70
     2
  9
$DIMALTF
 40
25.399999999999999
  9
$DIMLFAC
 40
1.0
  9
$DIMTOFL
 70
     0
  9
$DIMTVP
 40
0.0
  9
$DIMTIX
 70
     0
  9
$DIMSOXD
 70
     0
  9
$DIMSAH
 70
     0
  9
$DIMBLK1
  1

  9
$DIMBLK2
  1

  9
$DIMSTYLE
  2
STANDARD
  9
$DIMCLRD
 70
     0
  9
$DIMCLRE
 70
     0
  9
$DIMCLRT
 70
     0
  9
$DIMTFAC
 40
1.0
  9
$DIMGAP
 40
0.09
  9
$LUNITS
 70
     2
  9
$LUPREC
 70
     4
  9
$SKETCHINC
 40
0.1
  9
$FILLETRAD
 40
0.0
  9
$AUNITS
 70
     0
  9
$AUPREC
 70
     0
  9
$MENU
  1
.
  9
$ELEVATION
 40
0.0
  9
$PELEVATION
 40
0.0
  9
$THICKNESS
 40
0.0
  9
$LIMCHECK
 70
     0
  9
$BLIPMODE
 70
     0
  9
$CHAMFERA
 40
0.0
  9
$CHAMFERB
 40
0.0
  9
$SKPOLY
 70
     0
  9
$TDCREATE
 40
2455804.6739510992
  9
$TDUPDATE
 40
2456345.726258704
  9
$TDINDWG
 40
0.5377605556
  9
$TDUSRTIMER
 40
0.5377549653
  9
$USRTIMER
 70
     1
  9
$ANGBASE
 50
0.0
  9
$ANGDIR
 70
     0
  9
$PDMODE
 70
     0
  9
$PDSIZE
 40
0.0
  9
$PLINEWID
 40
0.0
  9
$COORDS
 70
     1
  9
$SPLFRAME
 70
     0
  9
$SPLINETYPE
 70
     6
  9
$SPLINESEGS
 70
     8
  9
$ATTDIA
 70
     0
  9
$ATTREQ
 70
     1
  9
$HANDLING
 70
     1
  9
$HANDSEED
  5
5C5
  9
$SURFTAB1
 70
     6
  9
$SURFTAB2
 70
     6
  9
$SURFTYPE
 70
     6
  9
$SURFU
 70
     6
  9
$SURFV
 70
     6
  9
$UCSNAME
  2

  9
$UCSORG
 10
0.0
 20
0.0
 30
0.0
  9
$UCSXDIR
 10
1.0
 20
0.0
 30
0.0
  9
$UCSYDIR
 10
0.0
 20
1.0
 30
0.0
  9
$PUCSNAME
  2

  9
$PUCSORG
 10
0.0
 20
0.0
 30
0.0
  9
$PUCSXDIR
 10
1.0
 20
0.0
 30
0.0
  9
$PUCSYDIR
 10
0.0
 20
1.0
 30
0.0
  9
$USERI1
 70
     0
  9
$USERI2
 70
     0
  9
$USERI3
 70
     0
  9
$USERI4
 70
     0
  9
$USERI5
 70
     0
  9
$USERR1
 40
0.0
  9
$USERR2
 40
0.0
  9
$USERR3
 40
0.0
  9
$USERR4
 40
0.0
  9
$USERR5
 40
0.0
  9
$WORLDVIEW
 70
     1
  9
$SHADEDGE
 70
     3
  9
$SHADEDIF
 70
    70
  9
$TILEMODE
 70
     1
  9
$MAXACTVP
 70
    64
  9
$PLIMCHECK
 70
     0
  9
$PEXTMIN
 10
0.0
 20
0.0
 30
0.0
  9
$PEXTMAX
 10
0.0
 20
0.0
 30
0.0
  9
$PLIMMIN
 10
0.0
 20
0.0
  9
$PLIMMAX
 10
12.0
 20
9.0
  9
$UNITMODE
 70
     0
  9
$VISRETAIN
 70
     1
  9
$PLINEGEN
 70
     0
  9
$PSLTSCALE
 70
     1
  0
ENDSEC
  0
SECTION
  2
TABLES
  0
TABLE
  2
VPORT
 70
     1
  0
VPORT
  2
*ACTIVE
 70
     0
 10
0.0
 20
0.0
 11
1.0
 21
1.0
 12
578897.61518404051
 22
521710.65687813918
 13
0.0
 23
0.0
 14
0.5
 24
0.5
 15
0.5
 25
0.5
 16
0.0
 26
0.0
 36
1.0
 17
0.0
 27
0.0
 37
0.0
 40
14049.14115457114
 41
2.2329700272479558
 42
50.0
 43
0.0
 44
0.0
 50
0.0
 51
0.0
 71
     0
 72
  1000
 73
     1
 74
     3
 75
     0
 76
     0
 77
     0
 78
     0
  0
ENDTAB
  0
TABLE
  2
LTYPE
 70
     1
  0
LTYPE
  2
CONTINUOUS
 70
     0
  3
Solid line
 72
    65
 73
     0
 40
0.0
  0
ENDTAB
  0
TABLE
  2
LAYER
 70
     6
  0
LAYER
  2
0
 70
     0
 62
     7
  6
CONTINUOUS
  0
LAYER
  2
2800
 70
     0
 62
   119
  6
CONTINUOUS
  0
LAYER
  2
2550
 70
     0
 62
     3
  6
CONTINUOUS
  0
LAYER
  2
2600
 70
     0
 62
   104
  6
CONTINUOUS
  0
LAYER
  2
2700
 70
     0
 62
    97
  6
CONTINUOUS
  0
LAYER
  2
FRAME
 70
     0
 62
   170
  6
CONTINUOUS
  0
ENDTAB
  0
TABLE
  2
STYLE
 70
     1
  0
STYLE
  2
STANDARD
 70
     0
 40
0.0
 41
1.0
 50
0.0
 71
     0
 42
1200.0
  3
txt
  4

  0
ENDTAB
  0
TABLE
  2
VIEW
 70
     0
  0
ENDTAB
  0
TABLE
  2
UCS
 70
     0
  0
ENDTAB
  0
TABLE
  2
APPID
 70
     2
  0
APPID
  2
ACAD
 70
     0
  0
APPID
  2
ADE
 70
     0
  0
ENDTAB
  0
TABLE
  2
DIMSTYLE
 70
     1
  0
DIMSTYLE
  2
STANDARD
 70
     0
  3

  4

  5

  6

  7

 40
1.0
 41
0.18
 42
0.0625
 43
0.38
 44
0.18
 45
0.0
 46
0.0
 47
0.0
 48
0.0
140
0.18
141
0.09
142
0.0
143
25.399999999999999
144
1.0
145
0.0
146
1.0
147
0.09
 71
     0
 72
     0
 73
     1
 74
     1
 75
     0
 76
     0
 77
     0
 78
     0
170
     0
171
     2
172
     0
173
     0
174
     0
175
     0
176
     0
177
     0
178
     0
  0
ENDTAB
  0
ENDSEC
  0
SECTION
  2
BLOCKS
  0
BLOCK
  8
0
  2
$MODEL_SPACE
 70
     0
 10
0.0
 20
0.0
 30
0.0
  3
$MODEL_SPACE
  1

  0
ENDBLK
  5
17
  8
0
  0
BLOCK
 67
     1
  8
0
  2
$PAPER_SPACE
 70
     0
 10
0.0
 20
0.0
 30
0.0
  3
$PAPER_SPACE
  1

  0
ENDBLK
  5
1E
 67
     1
  8
0
  0
ENDSEC
  0
SECTION
  2
ENTITIES
  0
POLYLINE
  5
73
  8
2600
 66
     1
 10
0.0
 20
0.0
 30
0.0
 70
     1
  0
VERTEX
  5
BA
  8
2600
 10
580677.9338147107
 20
517383.15815769602
 30
0.0
  0
VERTEX
  5
BB
  8
2600
 10
580650.37132452405
 20
517383.10366107023
 30
0.0
  0
VERTEX
  5
BC
  8
2600
 10
580610.99606886564
 20
517383.02580821438
 30
0.0
  0
VERTEX
  5
BD
  8
2600
 10
580563.66809208237
 20
517422.27390924032
 30
0.0
  0
VERTEX
  5
BE
  8
2600
 10
580547.90251960175
 20
517430.11112942657
 30
0.0
  0
VERTEX
  5
BF
  8
2600
 10
580535.00573218043
 20
517466.30179551069
 30
0.0
  0
VERTEX
  5
C0
  8
2600
 10
580564.59284397773
 20
517513.74190636142
 30
0.0
  0
VERTEX
  5
C1
  8
2600
 10
580596.72164333577
 20
517554.23894586298
 30
0.0
  0
VERTEX
  5
C2
  8
2600
 10
580604.86281495658
 20
517587.1041242237
 30
0.0
  0
VERTEX
  5
C3
  8
2600
 10
580595.87920837617
 20
517652.14841053728
 30
0.0
  0
VERTEX
  5
C4
  8
2600
 10
580615.37299328565
 20
517693.2499389415
 30
0.0
  0
VERTEX
  5
C5
  8
2600
 10
580634.25277144986
 20
517726.13823206222
 30
0.0
  0
VERTEX
  5
C6
  8
2600
 10
580646.15820535459
 20
517771.01354059263
 30
0.0
  0
VERTEX
  5
C7
  8
2600
 10
580646.03855248005
 20
517826.60162152292
 30
0.0
  0
VERTEX
  5
C8
  8
2600
 10
580621.38524971157
 20
517834.7604691367
 30
0.0
  0
VERTEX
  5
C9
  8
2600
 10
580578.39003278548
 20
517853.61849223298
 30
0.0
  0
VERTEX
  5
CA
  8
2600
 10
580544.93532213115
 20
517842.1761392887
 30
0.0
  0
VERTEX
  5
CB
  8
2600
 10
580513.47219780472
 20
517785.88839103281
 30
0.0
  0
VERTEX
  5
CC
  8
2600
 10
580482.50342734926
 20
517793.40195899119
 30
0.0
  0
VERTEX
  5
CD
  8
2600
 10
580457.15181694657
 20
517832.51190106763
 30
0.0
  0
VERTEX
  5
CE
  8
2600
 10
580482.28587666887
 20
517894.47119704651
 30
0.0
  0
VERTEX
  5
CF
  8
2600
 10
580499.89141182345
 20
517932.4102326865
 30
0.0
  0
VERTEX
  5
D0
  8
2600
 10
580538.95784376387
 20
517977.9756907
 30
0.0
  0
VERTEX
  5
D1
  8
2600
 10
580561.73649369529
 20
517960.33752294327
 30
0.0
  0
VERTEX
  5
D2
  8
2600
 10
580604.12722171855
 20
517928.8444853985
 30
0.0
  0
VERTEX
  5
D3
  8
2600
 10
580652.15686486301
 20
517918.840898166
 30
0.0
  0
VERTEX
  5
D4
  8
2600
 10
580688.11383201706
 20
517941.65897915862
 30
0.0
  0
VERTEX
  5
D5
  8
2600
 10
580715.84260727814
 20
517972.03957701218
 30
0.0
  0
VERTEX
  5
D6
  8
2600
 10
580746.66589071625
 20
518032.11606200342
 30
0.0
  0
VERTEX
  5
D7
  8
2600
 10
580775.02906809852
 20
518061.2346540732
 30
0.0
  0
VERTEX
  5
D8
  8
2600
 10
580807.86977200781
 20
518064.46377173351
 30
0.0
  0
VERTEX
  5
D9
  8
2600
 10
580840.75670543662
 20
518046.2156763071
 30
0.0
  0
VERTEX
  5
DA
  8
2600
 10
580882.51847010537
 20
518013.45791359461
 30
0.0
  0
VERTEX
  5
DB
  8
2600
 10
580909.14024444262
 20
517971.1922772128
 30
0.0
  0
VERTEX
  5
DC
  8
2600
 10
580896.59496964957
 20
517930.10570541758
 30
0.0
  0
VERTEX
  5
DD
  8
2600
 10
580869.53186942008
 20
517883.93439880939
 30
0.0
  0
VERTEX
  5
DE
  8
2600
 10
580834.25417421525
 20
517839.00878168421
 30
0.0
  0
VERTEX
  5
DF
  8
2600
 10
580782.58807981177
 20
517777.62406138959
 30
0.0
  0
VERTEX
  5
E0
  8
2600
 10
580734.71480121894
 20
517714.98413376953
 30
0.0
  0
VERTEX
  5
E1
  8
2600
 10
580679.28036545648
 20
517643.48433151882
 30
0.0
  0
VERTEX
  5
E2
  8
2600
 10
580673.08319095219
 20
517587.88265367103
 30
0.0
  0
VERTEX
  5
E3
  8
2600
 10
580703.57256414637
 20
517509.61925938207
 30
0.0
  0
VERTEX
  5
E4
  8
2600
 10
580699.30986891617
 20
517435.70286121173
 30
0.0
  0
VERTEX
  5
E5
  8
2600
 10
580677.9338147107
 20
517383.15815769602
 30
0.0
  0
SEQEND
  5
E6
  8
2600
  0
POLYLINE
  5
77
  8
2600
 66
     1
 10
0.0
 20
0.0
 30
0.0
 70
     1
  0
VERTEX
  5
E7
  8
2600
 10
580778.82768476545
 20
517176.882900164
 30
0.0
  0
VERTEX
  5
E8
  8
2600
 10
580771.9172460183
 20
517159.18082689529
 30
0.0
  0
VERTEX
  5
E9
  8
2600
 10
580749.76348036574
 20
517179.9787680328
 30
0.0
  0
VERTEX
  5
EA
  8
2600
 10
580717.41984971112
 20
517239.28760111082
 30
0.0
  0
VERTEX
  5
EB
  8
2600
 10
580732.40483518317
 20
517320.80730689521
 30
0.0
  0
VERTEX
  5
EC
  8
2600
 10
580771.48894311616
 20
517358.16088931658
 30
0.0
  0
VERTEX
  5
ED
  8
2600
 10
580798.72336450638
 20
517324.74017095612
 30
0.0
  0
VERTEX
  5
EE
  8
2600
 10
580800.15254888567
 20
517304.71645284467
 30
0.0
  0
VERTEX
  5
EF
  8
2600
 10
580800.24589239119
 20
517257.50656746503
 30
0.0
  0
VERTEX
  5
F0
  8
2600
 10
580792.45637695852
 20
517214.21533896163
 30
0.0
  0
VERTEX
  5
F1
  8
2600
 10
580778.82768476545
 20
517176.882900164
 30
0.0
  0
SEQEND
  5
F2
  8
2600
  0
POLYLINE
  5
78
  8
2600
 66
     1
 10
0.0
 20
0.0
 30
0.0
 70
     1
  0
VERTEX
  5
F3
  8
2600
 10
581700.97842606402
 20
517228.13930367469
 30
0.0
  0
VERTEX
  5
F4
  8
2600
 10
581824.06244495255
 20
517228.0575740551
 30
0.0
  0
VERTEX
  5
F5
  8
2600
 10
581903.84784241032
 20
517182.46292486432
 30
0.0
  0
VERTEX
  5
F6
  8
2600
 10
581955.06173338683
 20
517160.46416407148
 30
0.0
  0
VERTEX
  5
F7
  8
2600
 10
582017.02102936595
 20
517135.33010434947
 30
0.0
  0
VERTEX
  5
F8
  8
2600
 10
582075.76752398571
 20
517135.45655568253
 30
0.0
  0
VERTEX
  5
F9
  8
2600
 10
582097.80843522295
 20
517167.08828178619
 30
0.0
  0
VERTEX
  5
FA
  8
2600
 10
582073.04907649755
 20
517224.51838295179
 30
0.0
  0
VERTEX
  5
FB
  8
2600
 10
582026.84649697901
 20
517266.11018615181
 30
0.0
  0
VERTEX
  5
FC
  8
2600
 10
582010.25142463401
 20
517345.66685913462
 30
0.0
  0
VERTEX
  5
FD
  8
2600
 10
581998.73972741107
 20
517411.33738941897
 30
0.0
  0
VERTEX
  5
FE
  8
2600
 10
581937.45018553885
 20
517418.78569217329
 30
0.0
  0
VERTEX
  5
FF
  8
2600
 10
581854.65079797781
 20
517441.34815111611
 30
0.0
  0
VERTEX
  5
100
  8
2600
 10
581782.55602466641
 20
517479.7257932651
 30
0.0
  0
VERTEX
  5
101
  8
2600
 10
581709.93562457396
 20
517468.8308221703
 30
0.0
  0
VERTEX
  5
102
  8
2600
 10
581665.24387443007
 20
517395.45908646542
 30
0.0
  0
VERTEX
  5
103
  8
2600
 10
581624.33134317945
 20
517327.14897081431
 30
0.0
  0
VERTEX
  5
104
  8
2600
 10
581603.03768847918
 20
517241.82557168562
 30
0.0
  0
VERTEX
  5
105
  8
2600
 10
581651.1108417596
 20
517211.6081368422
 30
0.0
  0
VERTEX
  5
106
  8
2600
 10
581700.97842606402
 20
517228.13930367469
 30
0.0
  0
SEQEND
  5
107
  8
2600
  0
POLYLINE
  5
79
  8
2600
 66
     1
 10
0.0
 20
0.0
 30
0.0
  0
VERTEX
  5
108
  8
2600
 10
581630.27169478685
 20
518050.24070236698
 30
0.0
  0
VERTEX
  5
109
  8
2600
 10
581747.60833058343
 20
518058.01598398702
 30
0.0
  0
VERTEX
  5
10A
  8
2600
 10
581767.28810722788
 20
518061.98904392298
 30
0.0
  0
VERTEX
  5
10B
  8
2600
 10
581780.78507305274
 20
518069.23902511352
 30
0.0
  0
VERTEX
  5
10C
  8
2600
 10
581794.85511200887
 20
518079.09259838291
 30
0.0
  0
VERTEX
  5
10D
  8
2600
 10
581826.82837400457
 20
518101.25750174472
 30
0.0
  0
VERTEX
  5
10E
  8
2600
 10
581872.99567782797
 20
518140.22081394732
 30
0.0
  0
VERTEX
  5
10F
  8
2600
 10
581871.20302731707
 20
518181.30357064039
 30
0.0
  0
VERTEX
  5
110
  8
2600
 10
581827.11007603072
 20
518187.77481801942
 30
0.0
  0
VERTEX
  5
111
  8
2600
 10
581773.55822874932
 20
518159.67970937782
 30
0.0
  0
VERTEX
  5
112
  8
2600
 10
581724.44836826262
 20
518132.76838719472
 30
0.0
  0
VERTEX
  5
113
  8
2600
 10
581665.09031857352
 20
518133.19669941079
 30
0.0
  0
VERTEX
  5
114
  8
2600
 10
581623.82719406707
 20
518121.30246988701
 30
0.0
  0
VERTEX
  5
115
  8
2600
 10
581630.27169478685
 20
518050.24070236698
 30
0.0
  0
SEQEND
  5
116
  8
2600
  0
POLYLINE
  5
7A
  8
2600
 66
     1
 10
0.0
 20
0.0
 30
0.0
 70
     1
  0
VERTEX
  5
117
  8
2600
 10
581966.66686769237
 20
517883.936427054
 30
0.0
  0
VERTEX
  5
118
  8
2600
 10
581950.59065963747
 20
517827.32768956991
 30
0.0
  0
VERTEX
  5
119
  8
2600
 10
581891.62897084025
 20
517776.06689139828
 30
0.0
  0
VERTEX
  5
11A
  8
2600
 10
581864.62659788795
 20
517747.90436835331
 30
0.0
  0
VERTEX
  5
11B
  8
2600
 10
581843.74707524548
 20
517763.65156697179
 30
0.0
  0
VERTEX
  5
11C
  8
2600
 10
581856.27195466228
 20
517814.2133798342
 30
0.0
  0
VERTEX
  5
11D
  8
2600
 10
581873.85437505681
 20
517862.89102201757
 30
0.0
  0
VERTEX
  5
11E
  8
2600
 10
581900.31570576725
 20
517895.16394870111
 30
0.0
  0
VERTEX
  5
11F
  8
2600
 10
581937.51564302074
 20
517927.45999014471
 30
0.0
  0
VERTEX
  5
120
  8
2600
 10
581967.81465936918
 20
517937.63217915437
 30
0.0
  0
VERTEX
  5
121
  8
2600
 10
581982.38551278401
 20
517918.08128719148
 30
0.0
  0
VERTEX
  5
122
  8
2600
 10
581966.66686769237
 20
517883.936427054
 30
0.0
  0
SEQEND
  5
123
  8
2600
  0
POLYLINE
  5
7B
  8
2700
 66
     1
 10
0.0
 20
0.0
 30
0.0
  0
VERTEX
  5
124
  8
2700
 10
580014.25707669277
 20
517066.08885260788
 30
0.0
  0
VERTEX
  5
125
  8
2700
 10
580011.56430588046
 20
517067.8448092512
 30
0.0
  0
VERTEX
  5
126
  8
2700
 10
579929.37212660594
 20
517101.7789171671
 30
0.0
  0
VERTEX
  5
127
  8
2700
 10
579878.84158665349
 20
517099.77509361331
 30
0.0
  0
VERTEX
  5
128
  8
2700
 10
579834.01794640976
 20
517087.6765834798
 30
0.0
  0
VERTEX
  5
129
  8
2700
 10
579756.99072376161
 20
517069.82358442631
 30
0.0
  0
VERTEX
  5
12A
  8
2700
 10
579642.65614821156
 20
517069.57748021942
 30
0.0
  0
VERTEX
  5
12B
  8
2700
 10
579586.40239224921
 20
517085.24853609939
 30
0.0
  0
VERTEX
  5
12C
  8
2700
 10
579544.06333251263
 20
517092.73762960592
 30
0.0
  0
VERTEX
  5
12D
  8
2700
 10
579520.06618693331
 20
517089.52754763019
 30
0.0
  0
VERTEX
  5
12E
  8
2700
 10
579489.15588322317
 20
517069.87875786109
 30
0.0
  0
VERTEX
  5
12F
  8
2700
 10
579467.6664329106
 20
517075.51767298201
 30
0.0
  0
VERTEX
  5
130
  8
2700
 10
579461.23267204151
 20
517129.82879151928
 30
0.0
  0
VERTEX
  5
131
  8
2700
 10
579427.57944639144
 20
517210.61211830069
 30
0.0
  0
VERTEX
  5
132
  8
2700
 10
579363.6204059337
 20
517284.38166976179
 30
0.0
  0
VERTEX
  5
133
  8
2700
 10
579321.22016006825
 20
517320.29648647137
 30
0.0
  0
VERTEX
  5
134
  8
2700
 10
579316.69504433009
 20
517368.29485670582
 30
0.0
  0
VERTEX
  5
135
  8
2700
 10
579338.18041556748
 20
517364.55098979798
 30
0.0
  0
VERTEX
  5
136
  8
2700
 10
579341.28580127831
 20
517389.19341503287
 30
0.0
  0
VERTEX
  5
137
  8
2700
 10
579286.16488038388
 20
517465.50873312983
 30
0.0
  0
VERTEX
  5
138
  8
2700
 10
579270.87804334238
 20
517524.2225951475
 30
0.0
  0
VERTEX
  5
139
  8
2700
 10
579338.35116280115
 20
517578.69279761967
 30
0.0
  0
VERTEX
  5
13A
  8
2700
 10
579385.68385800347
 20
517599.0086221121
 30
0.0
  0
VERTEX
  5
13B
  8
2700
 10
579371.69029965659
 20
517643.8281832806
 30
0.0
  0
VERTEX
  5
13C
  8
2700
 10
579349.44951373199
 20
517705.05381964042
 30
0.0
  0
VERTEX
  5
13D
  8
2700
 10
579234.95041547995
 20
517781.2413267126
 30
0.0
  0
VERTEX
  5
13E
  8
2700
 10
579256.36236336245
 20
517811.6083276486
 30
0.0
  0
VERTEX
  5
13F
  8
2700
 10
579286.66953786148
 20
517817.9904202313
 30
0.0
  0
VERTEX
  5
140
  8
2700
 10
579275.19319262367
 20
517867.23719933181
 30
0.0
  0
VERTEX
  5
141
  8
2700
 10
579229.57062755676
 20
517932.83430626162
 30
0.0
  0
VERTEX
  5
142
  8
2700
 10
579170.07279732474
 20
517988.29457616719
 30
0.0
  0
VERTEX
  5
143
  8
2700
 10
579164.32646655536
 20
518016.70806214481
 30
0.0
  0
VERTEX
  5
144
  8
2700
 10
579181.91160633357
 20
518064.12233885197
 30
0.0
  0
VERTEX
  5
145
  8
2700
 10
579174.15614028287
 20
518081.2469947341
 30
0.0
  0
VERTEX
  5
146
  8
2700
 10
579151.94956508547
 20
518094.92528724659
 30
0.0
  0
VERTEX
  5
147
  8
2700
 10
579110.92420041456
 20
518108.34284617961
 30
0.0
  0
VERTEX
  5
148
  8
2700
 10
579068.68961441016
 20
518136.93040852703
 30
0.0
  0
VERTEX
  5
149
  8
2700
 10
579037.20404737687
 20
518167.37500149861
 30
0.0
  0
VERTEX
  5
14A
  8
2700
 10
578991.82818022708
 20
518201.02908396878
 30
0.0
  0
VERTEX
  5
14B
  8
2700
 10
578943.23372913105
 20
518218.26529029058
 30
0.0
  0
VERTEX
  5
14C
  8
2700
 10
578896.43264752941
 20
518207.05944541842
 30
0.0
  0
VERTEX
  5
14D
  8
2700
 10
578867.85872685246
 20
518168.61622346193
 30
0.0
  0
VERTEX
  5
14E
  8
2700
 10
578854.45935681369
 20
518132.64601085481
 30
0.0
  0
VERTEX
  5
14F
  8
2700
 10
578849.59361011104
 20
518097.66519868211
 30
0.0
  0
VERTEX
  5
150
  8
2700
 10
578850.86362218286
 20
518084.88707346038
 30
0.0
  0
VERTEX
  5
151
  8
2700
 10
578838.27619694534
 20
518063.3826665387
 30
0.0
  0
VERTEX
  5
152
  8
2700
 10
578825.04077266925
 20
518049.45709277951
 30
0.0
  0
VERTEX
  5
153
  8
2700
 10
578797.28208418959
 20
518032.97351515852
 30
0.0
  0
VERTEX
  5
154
  8
2700
 10
578766.3840177051
 20
518007.63958074863
 30
0.0
  0
VERTEX
  5
155
  8
2700
 10
578736.78058960673
 20
517967.77966275188
 30
0.0
  0
VERTEX
  5
156
  8
2700
 10
578746.31293772825
 20
517941.26938313851
 30
0.0
  0
VERTEX
  5
157
  8
2700
 10
578752.07558479847
 20
517905.27570430719
 30
0.0
  0
VERTEX
  5
158
  8
2700
 10
578706.63249904255
 20
517887.49068984139
 30
0.0
  0
VERTEX
  5
159
  8
2700
 10
578669.39313072816
 20
517873.51344779541
 30
0.0
  0
VERTEX
  5
15A
  8
2700
 10
578623.96092250664
 20
517850.67497142678
 30
0.0
  0
VERTEX
  5
15B
  8
2700
 10
578588.60436518001
 20
517842.38695309649
 30
0.0
  0
VERTEX
  5
15C
  8
2700
 10
578541.22408076632
 20
517844.18002442882
 30
0.0
  0
VERTEX
  5
15D
  8
2700
 10
578478.06260544038
 20
517840.88564156432
 30
0.0
  0
VERTEX
  5
15E
  8
2700
 10
578438.32098062616
 20
517815.53267147008
 30
0.0
  0
VERTEX
  5
15F
  8
2700
 10
578413.13525261742
 20
517777.57731952931
 30
0.0
  0
VERTEX
  5
160
  8
2700
 10
578429.71264896926
 20
517706.2325221381
 30
0.0
  0
VERTEX
  5
161
  8
2700
 10
578436.14369045536
 20
517653.18476907682
 30
0.0
  0
VERTEX
  5
162
  8
2700
 10
578437.52398942143
 20
517598.86277300533
 30
0.0
  0
VERTEX
  5
163
  8
2700
 10
578424.92296726676
 20
517583.67519346182
 30
0.0
  0
VERTEX
  5
164
  8
2700
 10
578371.9404794093
 20
517546.92338055978
 30
0.0
  0
VERTEX
  5
165
  8
2700
 10
578342.98233096628
 20
517500.74799487641
 30
0.0
  0
VERTEX
  5
166
  8
2700
 10
578352.58538305887
 20
517441.390212895
 30
0.0
  0
VERTEX
  5
167
  8
2700
 10
578391.78506479075
 20
517425.05076259968
 30
0.0
  0
VERTEX
  5
168
  8
2700
 10
578446.09618332784
 20
517431.484523469
 30
0.0
  0
VERTEX
  5
169
  8
2700
 10
578483.9590762296
 20
517449.25322163373
 30
0.0
  0
VERTEX
  5
16A
  8
2700
 10
578521.83284666552
 20
517461.9684578958
 30
0.0
  0
VERTEX
  5
16B
  8
2700
 10
578548.95169425674
 20
517482.24077225232
 30
0.0
  0
VERTEX
  5
16C
  8
2700
 10
578591.86125060241
 20
517503.17876164021
 30
0.0
  0
VERTEX
  5
16D
  8
2700
 10
578604.52753796126
 20
517488.0455697673
 30
0.0
  0
VERTEX
  5
16E
  8
2700
 10
578606.50008860475
 20
517452.04373278492
 30
0.0
  0
VERTEX
  5
16F
  8
2700
 10
578605.95814552263
 20
517410.35131239571
 30
0.0
  0
VERTEX
  5
170
  8
2700
 10
578580.16656891908
 20
517360.3926287439
 30
0.0
  0
VERTEX
  5
171
  8
2700
 10
578562.57055160683
 20
517318.03181393922
 30
0.0
  0
VERTEX
  5
172
  8
2700
 10
578562.70244170702
 20
517256.75858836807
 30
0.0
  0
VERTEX
  5
173
  8
2700
 10
578579.8571331267
 20
517210.68246018258
 30
0.0
  0
VERTEX
  5
174
  8
2700
 10
578615.28303473291
 20
517186.75465888262
 30
0.0
  0
VERTEX
  5
175
  8
2700
 10
578647.48933652055
 20
517191.24578232679
 30
0.0
  0
VERTEX
  5
176
  8
2700
 10
578683.50477042026
 20
517186.90150559181
 30
0.0
  0
VERTEX
  5
177
  8
2700
 10
578692.39999703655
 20
517162.91659723828
 30
0.0
  0
VERTEX
  5
178
  8
2700
 10
578703.18891217478
 20
517139.56745069782
 30
0.0
  0
VERTEX
  5
179
  8
2700
 10
578701.37136639096
 20
517103.5574555652
 30
0.0
  0
VERTEX
  5
17A
  8
2700
 10
578698.90582156868
 20
517075.1262935953
 30
0.0
  0
VERTEX
  5
17B
  8
2700
 10
578697.12978502153
 20
517063.4846251717
 30
0.0
  0
SEQEND
  5
17C
  8
2700
  0
POLYLINE
  5
7F
  8
2800
 66
     1
 10
0.0
 20
0.0
 30
0.0
  0
VERTEX
  5
17D
  8
2800
 10
579291.63599379652
 20
517064.66008436203
 30
0.0
  0
VERTEX
  5
17E
  8
2800
 10
579289.50606669462
 20
517087.13621192711
 30
0.0
  0
VERTEX
  5
17F
  8
2800
 10
579287.51040129142
 20
517133.87665545242
 30
0.0
  0
VERTEX
  5
180
  8
2800
 10
579265.31856427004
 20
517172.3617132497
 30
0.0
  0
VERTEX
  5
181
  8
2800
 10
579224.85007829533
 20
517191.22517511301
 30
0.0
  0
VERTEX
  5
182
  8
2800
 10
579180.62684787926
 20
517193.65672764141
 30
0.0
  0
VERTEX
  5
183
  8
2800
 10
579135.1252953778
 20
517203.0340709032
 30
0.0
  0
VERTEX
  5
184
  8
2800
 10
579123.67750366707
 20
517239.01551250892
 30
0.0
  0
VERTEX
  5
185
  8
2800
 10
579087.57640918705
 20
517283.15580172819
 30
0.0
  0
VERTEX
  5
186
  8
2800
 10
579040.74894538929
 20
517321.58783154702
 30
0.0
  0
VERTEX
  5
187
  8
2800
 10
578988.88433599018
 20
517352.42879097781
 30
0.0
  0
VERTEX
  5
188
  8
2800
 10
578950.96977480175
 20
517358.6640368512
 30
0.0
  0
VERTEX
  5
189
  8
2800
 10
578938.42042093386
 20
517319.47251326957
 30
0.0
  0
VERTEX
  5
18A
  8
2800
 10
578975.86646239425
 20
517237.43397916289
 30
0.0
  0
VERTEX
  5
18B
  8
2800
 10
578976.02146725426
 20
517165.42214704858
 30
0.0
  0
VERTEX
  5
18C
  8
2800
 10
578957.84815487405
 20
517097.79266303848
 30
0.0
  0
VERTEX
  5
18D
  8
2800
 10
578957.92089273175
 20
517064.00026201422
 30
0.0
  0
SEQEND
  5
18E
  8
2800
  0
POLYLINE
  5
80
  8
2600
 66
     1
 10
0.0
 20
0.0
 30
0.0
  0
VERTEX
  5
18F
  8
2600
 10
577367.18457969348
 20
517060.85505412391
 30
0.0
  0
VERTEX
  5
190
  8
2600
 10
577359.63915983716
 20
517118.35658694291
 30
0.0
  0
VERTEX
  5
191
  8
2600
 10
577373.4382822637
 20
517163.86765728652
 30
0.0
  0
VERTEX
  5
192
  8
2600
 10
577409.52034105896
 20
517128.57092639687
 30
0.0
  0
VERTEX
  5
193
  8
2600
 10
577444.97615588352
 20
517090.74610486423
 30
0.0
  0
VERTEX
  5
194
  8
2600
 10
577481.63550974673
 20
517080.7180431803
 30
0.0
  0
VERTEX
  5
195
  8
2600
 10
577527.73339299997
 20
517087.76581079449
 30
0.0
  0
VERTEX
  5
196
  8
2600
 10
577573.84759255475
 20
517087.23338555457
 30
0.0
  0
VERTEX
  5
197
  8
2600
 10
577624.37405343167
 20
517091.13225732191
 30
0.0
  0
VERTEX
  5
198
  8
2600
 10
577673.68201866106
 20
517074.18287935661
 30
0.0
  0
VERTEX
  5
199
  8
2600
 10
577724.87959333695
 20
517059.76431141829
 30
0.0
  0
VERTEX
  5
19A
  8
2600
 10
577798.81502719177
 20
517046.65805785829
 30
0.0
  0
VERTEX
  5
19B
  8
2600
 10
577849.94733666326
 20
517062.56026133662
 30
0.0
  0
VERTEX
  5
19C
  8
2600
 10
577816.42328172992
 20
517083.33372802282
 30
0.0
  0
VERTEX
  5
19D
  8
2600
 10
577770.27916895656
 20
517097.76317349519
 30
0.0
  0
VERTEX
  5
19E
  8
2600
 10
577732.92966561043
 20
517134.9522332148
 30
0.0
  0
VERTEX
  5
19F
  8
2600
 10
577708.82510438259
 20
517181.64508752868
 30
0.0
  0
VERTEX
  5
1A0
  8
2600
 10
577687.85584208404
 20
517239.08334684483
 30
0.0
  0
VERTEX
  5
1A1
  8
2600
 10
577652.37691249989
 20
517287.64677492081
 30
0.0
  0
VERTEX
  5
1A2
  8
2600
 10
577625.72114586912
 20
517345.7044797492
 30
0.0
  0
VERTEX
  5
1A3
  8
2600
 10
577681.32690279221
 20
517337.61225703137
 30
0.0
  0
VERTEX
  5
1A4
  8
2600
 10
577747.05997889745
 20
517320.0665483136
 30
0.0
  0
VERTEX
  5
1A5
  8
2600
 10
577835.57714370103
 20
517282.35594088823
 30
0.0
  0
VERTEX
  5
1A6
  8
2600
 10
577924.69335864019
 20
517259.80707886303
 30
0.0
  0
VERTEX
  5
1A7
  8
2600
 10
577975.86509917281
 20
517257.39048294368
 30
0.0
  0
VERTEX
  5
1A8
  8
2600
 10
577978.98816087644
 20
517273.82103258639
 30
0.0
  0
VERTEX
  5
1A9
  8
2600
 10
577993.47879247798
 20
517291.53942215652
 30
0.0
  0
VERTEX
  5
1AA
  8
2600
 10
578029.46839223418
 20
517299.1971174404
 30
0.0
  0
VERTEX
  5
1AB
  8
2600
 10
578047.13375382591
 20
517309.34211261501
 30
0.0
  0
VERTEX
  5
1AC
  8
2600
 10
578047.07936615567
 20
517334.60942212888
 30
0.0
  0
VERTEX
  5
1AD
  8
2600
 10
578036.87998331105
 20
517377.54209323443
 30
0.0
  0
VERTEX
  5
1AE
  8
2600
 10
578026.06251464575
 20
517414.1565772696
 30
0.0
  0
VERTEX
  5
1AF
  8
2600
 10
578012.07847414119
 20
517454.55435927311
 30
0.0
  0
VERTEX
  5
1B0
  8
2600
 10
577987.2932812724
 20
517523.98643245798
 30
0.0
  0
VERTEX
  5
1B1
  8
2600
 10
577991.58724941278
 20
517583.37412765768
 30
0.0
  0
VERTEX
  5
1B2
  8
2600
 10
578031.86673823395
 20
517652.31456635508
 30
0.0
  0
VERTEX
  5
1B3
  8
2600
 10
578031.77291950281
 20
517695.9006752664
 30
0.0
  0
VERTEX
  5
1B4
  8
2600
 10
577991.98642486089
 20
517691.39323552122
 30
0.0
  0
VERTEX
  5
1B5
  8
2600
 10
577969.35972313466
 20
517681.6504443388
 30
0.0
  0
VERTEX
  5
1B6
  8
2600
 10
577925.46149382333
 20
517706.59542242478
 30
0.0
  0
VERTEX
  5
1B7
  8
2600
 10
577875.34857963957
 20
517706.49633904308
 30
0.0
  0
VERTEX
  5
1B8
  8
2600
 10
577794.81575007224
 20
517730.7650241786
 30
0.0
  0
VERTEX
  5
1B9
  8
2600
 10
577781.50826213334
 20
517750.31863552501
 30
0.0
  0
VERTEX
  5
1BA
  8
2600
 10
577753.61360447854
 20
517797.00333168852
 30
0.0
  0
VERTEX
  5
1BB
  8
2600
 10
577742.7675822865
 20
517846.88315321889
 30
0.0
  0
VERTEX
  5
1BC
  8
2600
 10
577765.41298242658
 20
517891.14989377098
 30
0.0
  0
VERTEX
  5
1BD
  8
2600
 10
577806.36358504638
 20
517941.7728927625
 30
0.0
  0
VERTEX
  5
1BE
  8
2600
 10
577837.23037862033
 20
517981.63553014281
 30
0.0
  0
VERTEX
  5
1BF
  8
2600
 10
577898.43154052855
 20
518015.2466053486
 30
0.0
  0
VERTEX
  5
1C0
  8
2600
 10
577945.17470343737
 20
518015.9789052761
 30
0.0
  0
VERTEX
  5
1C1
  8
2600
 10
577993.26553271047
 20
517977.54959484068
 30
0.0
  0
VERTEX
  5
1C2
  8
2600
 10
578041.97716718738
 20
517944.17510599969
 30
0.0
  0
VERTEX
  5
1C3
  8
2600
 10
578102.01694050163
 20
517930.40725648362
 30
0.0
  0
VERTEX
  5
1C4
  8
2600
 10
578158.79632324469
 20
517964.00881384709
 30
0.0
  0
VERTEX
  5
1C5
  8
2600
 10
578202.24646298075
 20
518027.27090636262
 30
0.0
  0
VERTEX
  5
1C6
  8
2600
 10
578234.24765204662
 20
518055.40554170811
 30
0.0
  0
VERTEX
  5
1C7
  8
2600
 10
578261.82243375899
 20
518047.42628787737
 30
0.0
  0
VERTEX
  5
1C8
  8
2600
 10
578317.73868196656
 20
518078.08455874701
 30
0.0
  0
VERTEX
  5
1C9
  8
2600
 10
578344.26498219417
 20
518085.76750177302
 30
0.0
  0
VERTEX
  5
1CA
  8
2600
 10
578394.92601061438
 20
518063.19027065008
 30
0.0
  0
VERTEX
  5
1CB
  8
2600
 10
578407.46535564435
 20
518092.31875947461
 30
0.0
  0
VERTEX
  5
1CC
  8
2600
 10
578425.01677578897
 20
518134.11021609302
 30
0.0
  0
VERTEX
  5
1CD
  8
2600
 10
578460.21576711826
 20
518191.13935737842
 30
0.0
  0
VERTEX
  5
1CE
  8
2600
 10
578557.40103139682
 20
518240.80605910177
 30
0.0
  0
VERTEX
  5
1CF
  8
2600
 10
578597.64872680861
 20
518300.38244553271
 30
0.0
  0
VERTEX
  5
1D0
  8
2600
 10
578555.93968536623
 20
518295.17348971782
 30
0.0
  0
VERTEX
  5
1D1
  8
2600
 10
578505.31986453407
 20
518306.37053286098
 30
0.0
  0
VERTEX
  5
1D2
  8
2600
 10
578429.36037225032
 20
518331.3851222276
 30
0.0
  0
VERTEX
  5
1D3
  8
2600
 10
578371.13086632674
 20
518348.87702030072
 30
0.0
  0
VERTEX
  5
1D4
  8
2600
 10
578365.98601120489
 20
518372.88354710792
 30
0.0
  0
VERTEX
  5
1D5
  8
2600
 10
578382.29585912346
 20
518408.34809845028
 30
0.0
  0
VERTEX
  5
1D6
  8
2600
 10
578417.65510218497
 20
518421.12095314718
 30
0.0
  0
VERTEX
  5
1D7
  8
2600
 10
578441.58837105718
 20
518446.4972535664
 30
0.0
  0
VERTEX
  5
1D8
  8
2600
 10
578494.62723564962
 20
518465.6565356116
 30
0.0
  0
VERTEX
  5
1D9
  8
2600
 10
578471.76613002946
 20
518493.39235771901
 30
0.0
  0
VERTEX
  5
1DA
  8
2600
 10
578426.13091258716
 20
518524.83916064329
 30
0.0
  0
VERTEX
  5
1DB
  8
2600
 10
578413.30311443936
 20
518575.37198767782
 30
0.0
  0
VERTEX
  5
1DC
  8
2600
 10
578429.63127684151
 20
518605.77867769601
 30
0.0
  0
VERTEX
  5
1DD
  8
2600
 10
578478.89048130345
 20
518621.130827885
 30
0.0
  0
VERTEX
  5
1DE
  8
2600
 10
578447.22390457487
 20
518636.18994633493
 30
0.0
  0
VERTEX
  5
1DF
  8
2600
 10
578415.50238439546
 20
518666.42264875863
 30
0.0
  0
VERTEX
  5
1E0
  8
2600
 10
578443.13289822184
 20
518718.36645699362
 30
0.0
  0
VERTEX
  5
1E1
  8
2600
 10
578502.44830326026
 20
518750.19328545412
 30
0.0
  0
VERTEX
  5
1E2
  8
2600
 10
578477.01248076896
 20
518790.56460363063
 30
0.0
  0
VERTEX
  5
1E3
  8
2600
 10
578360.57636202686
 20
518819.22607312113
 30
0.0
  0
VERTEX
  5
1E4
  8
2600
 10
578355.28499103582
 20
518883.69549052342
 30
0.0
  0
VERTEX
  5
1E5
  8
2600
 10
578371.54447412409
 20
518933.06916050782
 30
0.0
  0
VERTEX
  5
1E6
  8
2600
 10
578329.91784785828
 20
518905.09982873348
 30
0.0
  0
VERTEX
  5
1E7
  8
2600
 10
578271.80280745798
 20
518890.98009352922
 30
0.0
  0
VERTEX
  5
1E8
  8
2600
 10
578232.70511185424
 20
518863.01991899678
 30
0.0
  0
VERTEX
  5
1E9
  8
2600
 10
578184.74700169091
 20
518837.55662477971
 30
0.0
  0
VERTEX
  5
1EA
  8
2600
 10
578139.12552011141
 20
518865.21003171062
 30
0.0
  0
VERTEX
  5
1EB
  8
2600
 10
578132.8856086327
 20
518842.42676264641
 30
0.0
  0
VERTEX
  5
1EC
  8
2600
 10
578101.29686845967
 20
518835.98997046781
 30
0.0
  0
VERTEX
  5
1ED
  8
2600
 10
578088.53317100496
 20
518868.82028286718
 30
0.0
  0
VERTEX
  5
1EE
  8
2600
 10
578116.21404966153
 20
518906.85497246019
 30
0.0
  0
VERTEX
  5
1EF
  8
2600
 10
578155.31632388604
 20
518933.55068166181
 30
0.0
  0
VERTEX
  5
1F0
  8
2600
 10
578177.93018397619
 20
518974.09598743351
 30
0.0
  0
VERTEX
  5
1F1
  8
2600
 10
578115.82944550435
 20
519013.07006027218
 30
0.0
  0
VERTEX
  5
1F2
  8
2600
 10
578120.64463991963
 20
519080.10503730399
 30
0.0
  0
VERTEX
  5
1F3
  8
2600
 10
578178.56279962033
 20
519148.5967817452
 30
0.0
  0
VERTEX
  5
1F4
  8
2600
 10
578262.03582595615
 20
519143.84110940149
 30
0.0
  0
VERTEX
  5
1F5
  8
2600
 10
578452.25048150995
 20
518994.05652813939
 30
0.0
  0
VERTEX
  5
1F6
  8
2600
 10
578560.13295329385
 20
518883.17276178132
 30
0.0
  0
VERTEX
  5
1F7
  8
2600
 10
578647.84350185224
 20
518755.77768818417
 30
0.0
  0
VERTEX
  5
1F8
  8
2600
 10
578734.20259128197
 20
518652.40287725697
 30
0.0
  0
VERTEX
  5
1F9
  8
2600
 10
578834.56695039314
 20
518522.52465920721
 30
0.0
  0
VERTEX
  5
1FA
  8
2600
 10
578865.08810593456
 20
518474.58486352768
 30
0.0
  0
VERTEX
  5
1FB
  8
2600
 10
578921.0862915552
 20
518374.8935616918
 30
0.0
  0
VERTEX
  5
1FC
  8
2600
 10
578995.82710471738
 20
518337.22974039312
 30
0.0
  0
VERTEX
  5
1FD
  8
2600
 10
579111.13611675578
 20
518270.62973234878
 30
0.0
  0
VERTEX
  5
1FE
  8
2600
 10
579213.71806030662
 20
518226.74431405531
 30
0.0
  0
VERTEX
  5
1FF
  8
2600
 10
579313.85806699283
 20
518158.82489722851
 30
0.0
  0
VERTEX
  5
200
  8
2600
 10
579446.56355873111
 20
518075.43065623968
 30
0.0
  0
VERTEX
  5
201
  8
2600
 10
579495.92591163074
 20
518033.21396876068
 30
0.0
  0
VERTEX
  5
202
  8
2600
 10
579555.42782093748
 20
517975.8586506414
 30
0.0
  0
VERTEX
  5
203
  8
2600
 10
579595.96157211636
 20
517926.67441736168
 30
0.0
  0
VERTEX
  5
204
  8
2600
 10
579616.29099352646
 20
517873.02489478089
 30
0.0
  0
VERTEX
  5
205
  8
2600
 10
579613.9521192885
 20
517835.9777554188
 30
0.0
  0
VERTEX
  5
206
  8
2600
 10
579618.75448303693
 20
517802.86199205928
 30
0.0
  0
VERTEX
  5
207
  8
2600
 10
579618.83869122458
 20
517760.27243139711
 30
0.0
  0
VERTEX
  5
208
  8
2600
 10
579618.89482995367
 20
517731.8794227335
 30
0.0
  0
VERTEX
  5
209
  8
2600
 10
579609.54272645502
 20
517670.342553464
 30
0.0
  0
VERTEX
  5
20A
  8
2600
 10
579618.09415662766
 20
517622.24956723972
 30
0.0
  0
VERTEX
  5
20B
  8
2600
 10
579658.09004379937
 20
517529.47786535649
 30
0.0
  0
VERTEX
  5
20C
  8
2600
 10
579679.06474486506
 20
517469.51287508901
 30
0.0
  0
VERTEX
  5
20D
  8
2600
 10
579699.38192904938
 20
517421.54849714867
 30
0.0
  0
VERTEX
  5
20E
  8
2600
 10
579753.90244011639
 20
517330.70311638969
 30
0.0
  0
VERTEX
  5
20F
  8
2600
 10
579819.67630697403
 20
517294.20692553691
 30
0.0
  0
VERTEX
  5
210
  8
2600
 10
579882.90984596277
 20
517264.02212329541
 30
0.0
  0
VERTEX
  5
211
  8
2600
 10
579955.59415156778
 20
517245.22800571151
 30
0.0
  0
VERTEX
  5
212
  8
2600
 10
580027.03276768967
 20
517218.21929315221
 30
0.0
  0
VERTEX
  5
213
  8
2600
 10
580087.74909356923
 20
517183.60727297899
 30
0.0
  0
VERTEX
  5
214
  8
2600
 10
580149.07670681039
 20
517158.47185356502
 30
0.0
  0
VERTEX
  5
215
  8
2600
 10
580211.65000953444
 20
517141.55102912651
 30
0.0
  0
VERTEX
  5
216
  8
2600
 10
580273.59434890409
 20
517123.36547952081
 30
0.0
  0
VERTEX
  5
217
  8
2600
 10
580319.75749736174
 20
517100.09247571859
 30
0.0
  0
VERTEX
  5
218
  8
2600
 10
580372.87187531928
 20
517075.57106304978
 30
0.0
  0
VERTEX
  5
219
  8
2600
 10
580392.58929492906
 20
517066.83689203352
 30
0.0
  0
SEQEND
  5
21A
  8
2600
  0
POLYLINE
  5
81
  8
2550
 66
     1
 10
0.0
 20
0.0
 30
0.0
 70
     1
  0
VERTEX
  5
21B
  8
2550
 10
580138.47020220465
 20
517684.01149607683
 30
0.0
  0
VERTEX
  5
21C
  8
2550
 10
580170.63707293151
 20
517706.82141891861
 30
0.0
  0
VERTEX
  5
21D
  8
2550
 10
580169.93876529799
 20
517737.77251338097
 30
0.0
  0
VERTEX
  5
21E
  8
2550
 10
580120.04398715845
 20
517733.87500130571
 30
0.0
  0
VERTEX
  5
21F
  8
2550
 10
580064.55788310966
 20
517686.3791430929
 30
0.0
  0
VERTEX
  5
220
  8
2550
 10
580026.08098346298
 20
517660.39720964461
 30
0.0
  0
VERTEX
  5
221
  8
2550
 10
579985.71583406138
 20
517631.25278343132
 30
0.0
  0
VERTEX
  5
222
  8
2550
 10
579967.489493703
 20
517588.25892619701
 30
0.0
  0
VERTEX
  5
223
  8
2550
 10
580007.28958526254
 20
517586.44953856379
 30
0.0
  0
VERTEX
  5
224
  8
2550
 10
580035.65820141206
 20
517613.04139968229
 30
0.0
  0
VERTEX
  5
225
  8
2550
 10
580080.46144627966
 20
517634.61515088339
 30
0.0
  0
SEQEND
  5
226
  8
2550
  0
POLYLINE
  5
85
  8
2600
 66
     1
 10
0.0
 20
0.0
 30
0.0
  0
VERTEX
  5
227
  8
2600
 10
576337.43564733781
 20
518072.2841195314
 30
0.0
  0
VERTEX
  5
228
  8
2600
 10
576351.97710828576
 20
518102.69099577831
 30
0.0
  0
VERTEX
  5
229
  8
2600
 10
576383.59738372592
 20
518116.65830257209
 30
0.0
  0
VERTEX
  5
22A
  8
2600
 10
576405.75051360787
 20
518070.5550653378
 30
0.0
  0
VERTEX
  5
22B
  8
2600
 10
576415.88031295466
 20
518008.26531237853
 30
0.0
  0
VERTEX
  5
22C
  8
2600
 10
576416.58677873865
 20
517973.52412148879
 30
0.0
  0
VERTEX
  5
22D
  8
2600
 10
576418.62731396977
 20
517905.93814761471
 30
0.0
  0
VERTEX
  5
22E
  8
2600
 10
576416.25150880299
 20
517835.81592494663
 30
0.0
  0
VERTEX
  5
22F
  8
2600
 10
576478.86968135496
 20
517798.0495701594
 30
0.0
  0
VERTEX
  5
230
  8
2600
 10
576562.86444980372
 20
517807.07396749221
 30
0.0
  0
VERTEX
  5
231
  8
2600
 10
576603.9170293049
 20
517810.3207611455
 30
0.0
  0
VERTEX
  5
232
  8
2600
 10
576624.19342273672
 20
517781.30686534062
 30
0.0
  0
VERTEX
  5
233
  8
2600
 10
576620.49034658179
 20
517740.87101196812
 30
0.0
  0
VERTEX
  5
234
  8
2600
 10
576615.48855296569
 20
517716.85619039577
 30
0.0
  0
VERTEX
  5
235
  8
2600
 10
576657.86160499614
 20
517693.57502844289
 30
0.0
  0
VERTEX
  5
236
  8
2600
 10
576676.27014404943
 20
517651.92339880578
 30
0.0
  0
VERTEX
  5
237
  8
2600
 10
576661.78495121526
 20
517631.67827828438
 30
0.0
  0
VERTEX
  5
238
  8
2600
 10
576661.82846135111
 20
517611.46443067357
 30
0.0
  0
VERTEX
  5
239
  8
2600
 10
576665.04534178565
 20
517584.30887140479
 30
0.0
  0
VERTEX
  5
23A
  8
2600
 10
576656.24121451669
 20
517565.97103632271
 30
0.0
  0
VERTEX
  5
23B
  8
2600
 10
576673.97184131225
 20
517545.7952600806
 30
0.0
  0
VERTEX
  5
23C
  8
2600
 10
576670.86237652611
 20
517523.04788305942
 30
0.0
  0
VERTEX
  5
23D
  8
2600
 10
576652.56941127207
 20
517511.00647997973
 30
0.0
  0
VERTEX
  5
23E
  8
2600
 10
576660.20399179624
 20
517485.75548676681
 30
0.0
  0
VERTEX
  5
23F
  8
2600
 10
576683.65103614295
 20
517451.06324478018
 30
0.0
  0
VERTEX
  5
240
  8
2600
 10
576679.28228495631
 20
517426.41810016183
 30
0.0
  0
VERTEX
  5
241
  8
2600
 10
576644.55469098408
 20
517419.39480699907
 30
0.0
  0
VERTEX
  5
242
  8
2600
 10
576606.0302021259
 20
517415.52176937519
 30
0.0
  0
VERTEX
  5
243
  8
2600
 10
576564.96266601537
 20
517419.22348583839
 30
0.0
  0
VERTEX
  5
244
  8
2600
 10
576554.25261299883
 20
517405.93503358378
 30
0.0
  0
VERTEX
  5
245
  8
2600
 10
576551.83465738758
 20
517355.39497578912
 30
0.0
  0
VERTEX
  5
246
  8
2600
 10
576516.87608465459
 20
517278.26897023001
 30
0.0
  0
VERTEX
  5
247
  8
2600
 10
576510.66139997018
 20
517253.22481342981
 30
0.0
  0
VERTEX
  5
248
  8
2600
 10
576492.12392947776
 20
517216.29560274642
 30
0.0
  0
VERTEX
  5
249
  8
2600
 10
576473.81736730621
 20
517210.57102704502
 30
0.0
  0
VERTEX
  5
24A
  8
2600
 10
576453.65654767328
 20
517185.89189013297
 30
0.0
  0
VERTEX
  5
24B
  8
2600
 10
576429.79809065268
 20
517118.2501688971
 30
0.0
  0
VERTEX
  5
24C
  8
2600
 10
576424.16053522355
 20
517096.12903584662
 30
0.0
  0
VERTEX
  5
24D
  8
2600
 10
576416.6524060322
 20
517062.63353443972
 30
0.0
  0
VERTEX
  5
24E
  8
2600
 10
576419.81489879661
 20
517060.74528468511
 30
0.0
  0
VERTEX
  5
24F
  8
2600
 10
576420.40651726001
 20
517058.98308212712
 30
0.0
  0
SEQEND
  5
250
  8
2600
  0
POLYLINE
  5
86
  8
2550
 66
     1
 10
0.0
 20
0.0
 30
0.0
  0
VERTEX
  5
251
  8
2550
 10
576331.19934855052
 20
521226.3862603911
 30
0.0
  0
VERTEX
  5
252
  8
2550
 10
576338.80238896818
 20
521227.06569100649
 30
0.0
  0
VERTEX
  5
253
  8
2550
 10
576371.73343102774
 20
521212.01115117723
 30
0.0
  0
VERTEX
  5
254
  8
2550
 10
576385.74327932973
 20
521184.24327872321
 30
0.0
  0
VERTEX
  5
255
  8
2550
 10
576385.86232347379
 20
521151.36718011479
 30
0.0
  0
VERTEX
  5
256
  8
2550
 10
576423.86496272055
 20
521132.53755877621
 30
0.0
  0
VERTEX
  5
257
  8
2550
 10
576402.54303968675
 20
521084.41003963893
 30
0.0
  0
VERTEX
  5
258
  8
2550
 10
576410.1847751243
 20
521069.26392739109
 30
0.0
  0
VERTEX
  5
259
  8
2550
 10
576429.22043440468
 20
521050.36562673881
 30
0.0
  0
VERTEX
  5
25A
  8
2550
 10
576391.49709103419
 20
520992.06286288082
 30
0.0
  0
VERTEX
  5
25B
  8
2550
 10
576424.36403240077
 20
520994.71083768678
 30
0.0
  0
VERTEX
  5
25C
  8
2550
 10
576468.55621829606
 20
521012.57360405428
 30
0.0
  0
VERTEX
  5
25D
  8
2550
 10
576509.05115923786
 20
521003.868862606
 30
0.0
  0
VERTEX
  5
25E
  8
2550
 10
576536.92433997255
 20
520988.79600829328
 30
0.0
  0
VERTEX
  5
25F
  8
2550
 10
576509.31671925099
 20
520930.52987340261
 30
0.0
  0
VERTEX
  5
260
  8
2550
 10
576529.63057972491
 20
520907.84275537782
 30
0.0
  0
VERTEX
  5
261
  8
2550
 10
576507.05792722292
 20
520855.91726162611
 30
0.0
  0
VERTEX
  5
262
  8
2550
 10
576537.40051654831
 20
520857.29161385942
 30
0.0
  0
VERTEX
  5
263
  8
2550
 10
576603.07029858872
 20
520880.29007810692
 30
0.0
  0
VERTEX
  5
264
  8
2550
 10
576644.72897520114
 20
520899.40815256379
 30
0.0
  0
VERTEX
  5
265
  8
2550
 10
576705.27221660316
 20
520941.35528229398
 30
0.0
  0
VERTEX
  5
266
  8
2550
 10
576747.01330839214
 20
520937.71298079111
 30
0.0
  0
VERTEX
  5
267
  8
2550
 10
576778.50589752535
 20
520970.70354492252
 30
0.0
  0
VERTEX
  5
268
  8
2550
 10
576829.14403284097
 20
520954.44864045491
 30
0.0
  0
VERTEX
  5
269
  8
2550
 10
576874.77009304182
 20
520925.53076819301
 30
0.0
  0
VERTEX
  5
26A
  8
2550
 10
576889.96657011937
 20
520919.26338498859
 30
0.0
  0
VERTEX
  5
26B
  8
2550
 10
576927.85474384297
 20
520932.04539692722
 30
0.0
  0
VERTEX
  5
26C
  8
2550
 10
576936.71515840257
 20
520929.54851661128
 30
0.0
  0
VERTEX
  5
26D
  8
2550
 10
576958.27059110312
 20
520913.18830386287
 30
0.0
  0
VERTEX
  5
26E
  8
2550
 10
576940.67796336976
 20
520882.77703522373
 30
0.0
  0
VERTEX
  5
26F
  8
2550
 10
576925.6875242336
 20
520832.1434785286
 30
0.0
  0
VERTEX
  5
270
  8
2550
 10
576944.75065523922
 20
520805.65838588978
 30
0.0
  0
VERTEX
  5
271
  8
2550
 10
576942.32245423738
 20
520777.83099136379
 30
0.0
  0
VERTEX
  5
272
  8
2550
 10
576943.68307060772
 20
520751.28179803141
 30
0.0
  0
VERTEX
  5
273
  8
2550
 10
576970.21394945623
 20
520757.7002757265
 30
0.0
  0
VERTEX
  5
274
  8
2550
 10
577024.46691454935
 20
520790.77325503458
 30
0.0
  0
VERTEX
  5
275
  8
2550
 10
577067.41294959746
 20
520803.5735814565
 30
0.0
  0
VERTEX
  5
276
  8
2550
 10
577112.87417944486
 20
520820.17646111391
 30
0.0
  0
VERTEX
  5
277
  8
2550
 10
577149.5116236998
 20
520829.16049843829
 30
0.0
  0
VERTEX
  5
278
  8
2550
 10
577186.24521899456
 20
520811.59076380992
 30
0.0
  0
VERTEX
  5
279
  8
2550
 10
577188.89319380058
 20
520778.72382244311
 30
0.0
  0
VERTEX
  5
27A
  8
2550
 10
577210.49441271042
 20
520749.71895638382
 30
0.0
  0
VERTEX
  5
27B
  8
2550
 10
577185.38825092546
 20
520699.04877072159
 30
0.0
  0
VERTEX
  5
27C
  8
2550
 10
577174.18662916147
 20
520649.69341522048
 30
0.0
  0
VERTEX
  5
27D
  8
2550
 10
577188.16442711721
 20
520630.77680008439
 30
0.0
  0
VERTEX
  5
27E
  8
2550
 10
577271.67866104143
 20
520614.6409397606
 30
0.0
  0
VERTEX
  5
27F
  8
2550
 10
577294.48940183129
 20
520600.81423629541
 30
0.0
  0
VERTEX
  5
280
  8
2550
 10
577327.33345009328
 20
520609.7845377567
 30
0.0
  0
VERTEX
  5
281
  8
2550
 10
577401.82243910478
 20
520641.66630966851
 30
0.0
  0
VERTEX
  5
282
  8
2550
 10
577433.48901583324
 20
520626.6071912183
 30
0.0
  0
VERTEX
  5
283
  8
2550
 10
577475.33999452426
 20
520592.61772176903
 30
0.0
  0
VERTEX
  5
284
  8
2550
 10
577532.43323650176
 20
520539.71621580439
 30
0.0
  0
VERTEX
  5
285
  8
2550
 10
577527.61346346547
 20
520473.94570410391
 30
0.0
  0
VERTEX
  5
286
  8
2550
 10
577560.60402759688
 20
520442.45311497059
 30
0.0
  0
VERTEX
  5
287
  8
2550
 10
577584.74791303161
 20
520409.66401015938
 30
0.0
  0
VERTEX
  5
288
  8
2550
 10
577555.87582697871
 20
520351.39329664799
 30
0.0
  0
VERTEX
  5
289
  8
2550
 10
577548.48591569171
 20
520296.99381568539
 30
0.0
  0
VERTEX
  5
28A
  8
2550
 10
577589.04037870525
 20
520271.85102493328
 30
0.0
  0
VERTEX
  5
28B
  8
2550
 10
577638.48272800352
 20
520236.62456187833
 30
0.0
  0
VERTEX
  5
28C
  8
2550
 10
577651.28305442573
 20
520193.67852683028
 30
0.0
  0
VERTEX
  5
28D
  8
2550
 10
577619.87745908985
 20
520136.66312140803
 30
0.0
  0
VERTEX
  5
28E
  8
2550
 10
577626.31425126817
 20
520105.07438123529
 30
0.0
  0
VERTEX
  5
28F
  8
2550
 10
577655.52515526919
 20
520069.77466024569
 30
0.0
  0
VERTEX
  5
290
  8
2550
 10
577656.99565854168
 20
520012.87829896761
 30
0.0
  0
VERTEX
  5
291
  8
2550
 10
577700.02410876646
 20
520002.91824943031
 30
0.0
  0
VERTEX
  5
292
  8
2550
 10
577739.29121334385
 20
519984.09320671222
 30
0.0
  0
VERTEX
  5
293
  8
2550
 10
577773.54166418547
 20
519953.86966153083
 30
0.0
  0
VERTEX
  5
294
  8
2550
 10
577802.71593921923
 20
519928.68566319009
 30
0.0
  0
VERTEX
  5
295
  8
2550
 10
577929.30898819806
 20
519888.68063468701
 30
0.0
  0
VERTEX
  5
296
  8
2550
 10
577933.18479936768
 20
519865.93399459007
 30
0.0
  0
VERTEX
  5
297
  8
2550
 10
577908.02369413176
 20
519830.43739290122
 30
0.0
  0
VERTEX
  5
298
  8
2550
 10
577939.61243430467
 20
519836.87418507959
 30
0.0
  0
VERTEX
  5
299
  8
2550
 10
577963.71969077166
 20
519814.20080291742
 30
0.0
  0
VERTEX
  5
29A
  8
2550
 10
577994.15843113663
 20
519789.0213831978
 30
0.0
  0
VERTEX
  5
29B
  8
2550
 10
578037.2967682631
 20
519748.71416571381
 30
0.0
  0
VERTEX
  5
29C
  8
2550
 10
578023.5982661834
 20
519690.49839565333
 30
0.0
  0
VERTEX
  5
29D
  8
2550
 10
578052.80001294252
 20
519657.72760532581
 30
0.0
  0
VERTEX
  5
29E
  8
2550
 10
578111.01578300295
 20
519644.0291032464
 30
0.0
  0
VERTEX
  5
29F
  8
2550
 10
578135.11846084916
 20
519622.62018641533
 30
0.0
  0
VERTEX
  5
2A0
  8
2550
 10
578097.29438781855
 20
519592.13565984147
 30
0.0
  0
VERTEX
  5
2A1
  8
2550
 10
578027.79915943847
 20
519577.97471704858
 30
0.0
  0
VERTEX
  5
2A2
  8
2550
 10
577948.20194427238
 20
519559.98374929518
 30
0.0
  0
VERTEX
  5
2A3
  8
2550
 10
577916.69104065537
 20
519532.05104648852
 30
0.0
  0
VERTEX
  5
2A4
  8
2550
 10
577861.20566057751
 20
519490.12223124172
 30
0.0
  0
VERTEX
  5
2A5
  8
2550
 10
577795.46262060245
 20
519487.35521229182
 30
0.0
  0
VERTEX
  5
2A6
  8
2550
 10
577729.61885096726
 20
519512.40643062571
 30
0.0
  0
VERTEX
  5
2A7
  8
2550
 10
577658.74011311214
 20
519531.11700782058
 30
0.0
  0
VERTEX
  5
2A8
  8
2550
 10
577610.77284570725
 20
519508.18264426623
 30
0.0
  0
VERTEX
  5
2A9
  8
2550
 10
577543.87522730301
 20
519475.06387874868
 30
0.0
  0
VERTEX
  5
2AA
  8
2550
 10
577485.72813655646
 20
519469.79540086212
 30
0.0
  0
VERTEX
  5
2AB
  8
2550
 10
577493.39734371938
 20
519447.06249662791
 30
0.0
  0
VERTEX
  5
2AC
  8
2550
 10
577487.18490396615
 20
519416.69243557722
 30
0.0
  0
VERTEX
  5
2AD
  8
2550
 10
577478.42521906679
 20
519391.37107860867
 30
0.0
  0
VERTEX
  5
2AE
  8
2550
 10
577501.16728054301
 20
519396.51135510992
 30
0.0
  0
VERTEX
  5
2AF
  8
2550
 10
577535.23458654783
 20
519416.86642317212
 30
0.0
  0
VERTEX
  5
2B0
  8
2550
 10
577564.32186778367
 20
519415.70726612228
 30
0.0
  0
VERTEX
  5
2B1
  8
2550
 10
577563.1489748715
 20
519390.41338087933
 30
0.0
  0
VERTEX
  5
2B2
  8
2550
 10
577490.15338223672
 20
519295.31292103411
 30
0.0
  0
VERTEX
  5
2B3
  8
2550
 10
577506.7654191358
 20
519247.3227605244
 30
0.0
  0
VERTEX
  5
2B4
  8
2550
 10
577508.30002310127
 20
519172.72388461052
 30
0.0
  0
VERTEX
  5
2B5
  8
2550
 10
577550.33872524998
 20
519086.89133658662
 30
0.0
  0
VERTEX
  5
2B6
  8
2550
 10
577579.57252235536
 20
519045.26928894152
 30
0.0
  0
VERTEX
  5
2B7
  8
2550
 10
577628.9690854447
 20
519022.6874791978
 30
0.0
  0
VERTEX
  5
2B8
  8
2550
 10
577648.04595231311
 20
518992.40899056551
 30
0.0
  0
VERTEX
  5
2B9
  8
2550
 10
577672.22646671534
 20
518949.5041631058
 30
0.0
  0
VERTEX
  5
2BA
  8
2550
 10
577685.0817365885
 20
518891.38454408431
 30
0.0
  0
VERTEX
  5
2BB
  8
2550
 10
577681.47148543189
 20
518840.79219497822
 30
0.0
  0
VERTEX
  5
2BC
  8
2550
 10
577700.36978608463
 20
518859.82785425812
 30
0.0
  0
VERTEX
  5
2BD
  8
2550
 10
577709.33550892537
 20
518828.24827132717
 30
0.0
  0
VERTEX
  5
2BE
  8
2550
 10
577728.25212406158
 20
518842.22606928321
 30
0.0
  0
VERTEX
  5
2BF
  8
2550
 10
577754.66853738693
 20
518880.25618025521
 30
0.0
  0
VERTEX
  5
2C0
  8
2550
 10
577816.59070964309
 20
518890.59625532897
 30
0.0
  0
VERTEX
  5
2C1
  8
2550
 10
577829.02932501305
 20
518947.54298143752
 30
0.0
  0
VERTEX
  5
2C2
  8
2550
 10
577861.6535994705
 20
519017.20761879138
 30
0.0
  0
VERTEX
  5
2C3
  8
2550
 10
577848.80748683901
 20
519072.7983071506
 30
0.0
  0
VERTEX
  5
2C4
  8
2550
 10
577862.53346064419
 20
519123.42728522461
 30
0.0
  0
VERTEX
  5
2C5
  8
2550
 10
577842.14176361461
 20
519167.61031387822
 30
0.0
  0
VERTEX
  5
2C6
  8
2550
 10
577793.89520033356
 20
519221.80833552009
 30
0.0
  0
VERTEX
  5
2C7
  8
2550
 10
577789.85455881059
 20
519290.0757275364
 30
0.0
  0
VERTEX
  5
2C8
  8
2550
 10
577840.21339825029
 20
519350.95320826571
 30
0.0
  0
VERTEX
  5
2C9
  8
2550
 10
577890.74164666387
 20
519365.04547174461
 30
0.0
  0
VERTEX
  5
2CA
  8
2550
 10
577965.23063567537
 20
519396.92724365642
 30
0.0
  0
VERTEX
  5
2CB
  8
2550
 10
578044.80495773675
 20
519421.24053806497
 30
0.0
  0
VERTEX
  5
2CC
  8
2550
 10
578119.45877710148
 20
519407.6015580573
 30
0.0
  0
VERTEX
  5
2CD
  8
2550
 10
578183.97398071294
 20
519400.2482757378
 30
0.0
  0
VERTEX
  5
2CE
  8
2550
 10
578208.13618063112
 20
519362.4013096022
 30
0.0
  0
VERTEX
  5
2CF
  8
2550
 10
578204.53508671653
 20
519309.28002983361
 30
0.0
  0
VERTEX
  5
2D0
  8
2550
 10
578208.48415582103
 20
519266.30194443912
 30
0.0
  0
VERTEX
  5
2D1
  8
2550
 10
578247.85656867991
 20
519218.39419910609
 30
0.0
  0
VERTEX
  5
2D2
  8
2550
 10
578322.61569632578
 20
519175.67251648288
 30
0.0
  0
VERTEX
  5
2D3
  8
2550
 10
578432.76153875852
 20
519138.13689657039
 30
0.0
  0
VERTEX
  5
2D4
  8
2550
 10
578525.26896724885
 20
519082.8346613294
 30
0.0
  0
VERTEX
  5
2D5
  8
2550
 10
578560.97618550027
 20
518999.5081508627
 30
0.0
  0
VERTEX
  5
2D6
  8
2550
 10
578624.58863483323
 20
518892.25752876583
 30
0.0
  0
VERTEX
  5
2D7
  8
2550
 10
578685.37912176515
 20
518865.92353061709
 30
0.0
  0
VERTEX
  5
2D8
  8
2550
 10
578700.26425262028
 20
518945.63978992688
 30
0.0
  0
VERTEX
  5
2D9
  8
2550
 10
578712.58382384607
 20
519035.46261464403
 30
0.0
  0
VERTEX
  5
2DA
  8
2550
 10
578688.21558598604
 20
519130.21052067849
 30
0.0
  0
VERTEX
  5
2DB
  8
2550
 10
578722.08601129125
 20
519204.93759797781
 30
0.0
  0
VERTEX
  5
2DC
  8
2550
 10
578785.23144129047
 20
519226.66243965249
 30
0.0
  0
VERTEX
  5
2DD
  8
2550
 10
578860.96658114926
 20
519263.60665150947
 30
0.0
  0
VERTEX
  5
2DE
  8
2550
 10
578885.9994849998
 20
519334.50828246918
 30
0.0
  0
VERTEX
  5
2DF
  8
2550
 10
578955.32988302666
 20
519394.18997718109
 30
0.0
  0
VERTEX
  5
2E0
  8
2550
 10
579042.62377708138
 20
519381.86124871369
 30
0.0
  0
VERTEX
  5
2E1
  8
2550
 10
579124.96511809295
 20
519340.43150314729
 30
0.0
  0
VERTEX
  5
2E2
  8
2550
 10
579218.81942709093
 20
519262.37347056757
 30
0.0
  0
VERTEX
  5
2E3
  8
2550
 10
579272.66870758578
 20
519057.72238900879
 30
0.0
  0
VERTEX
  5
2E4
  8
2550
 10
579219.87250990246
 20
518971.54644441587
 30
0.0
  0
VERTEX
  5
2E5
  8
2550
 10
579225.13183054724
 20
518915.92828433152
 30
0.0
  0
VERTEX
  5
2E6
  8
2550
 10
579188.7278959587
 20
518842.45651512139
 30
0.0
  0
VERTEX
  5
2E7
  8
2550
 10
579144.6089679983
 20
518804.36230345629
 30
0.0
  0
VERTEX
  5
2E8
  8
2550
 10
579072.66264551156
 20
518768.69629279332
 30
0.0
  0
VERTEX
  5
2E9
  8
2550
 10
578988.15866351151
 20
518708.95965463039
 30
0.0
  0
VERTEX
  5
2EA
  8
2550
 10
578934.99617615459
 20
518723.94093652471
 30
0.0
  0
VERTEX
  5
2EB
  8
2550
 10
578899.78344896249
 20
518670.7051912329
 30
0.0
  0
VERTEX
  5
2EC
  8
2550
 10
578918.92899514479
 20
518621.45972263417
 30
0.0
  0
VERTEX
  5
2ED
  8
2550
 10
578984.68577098253
 20
518620.43334559078
 30
0.0
  0
VERTEX
  5
2EE
  8
2550
 10
579064.2875647695
 20
518637.1598480129
 30
0.0
  0
VERTEX
  5
2EF
  8
2550
 10
579101.08526075725
 20
518601.88759874902
 30
0.0
  0
VERTEX
  5
2F0
  8
2550
 10
579151.71881745185
 20
518586.89715961262
 30
0.0
  0
VERTEX
  5
2F1
  8
2550
 10
579172.21582276304
 20
518513.631428344
 30
0.0
  0
VERTEX
  5
2F2
  8
2550
 10
579216.72393350152
 20
518444.24608686601
 30
0.0
  0
VERTEX
  5
2F3
  8
2550
 10
579268.86004381545
 20
518363.50802913361
 30
0.0
  0
VERTEX
  5
2F4
  8
2550
 10
579318.32070759754
 20
518323.22370475472
 30
0.0
  0
VERTEX
  5
2F5
  8
2550
 10
579300.72350124305
 20
518294.0769014465
 30
0.0
  0
VERTEX
  5
2F6
  8
2550
 10
579352.77261775965
 20
518237.36368500511
 30
0.0
  0
VERTEX
  5
2F7
  8
2550
 10
579419.96784652339
 20
518188.29220400099
 30
0.0
  0
VERTEX
  5
2F8
  8
2550
 10
579525.03293452715
 20
518157.06059626001
 30
0.0
  0
VERTEX
  5
2F9
  8
2550
 10
579615.14628435322
 20
518145.88628025458
 30
0.0
  0
VERTEX
  5
2FA
  8
2550
 10
579670.67126992287
 20
518125.84193549608
 30
0.0
  0
VERTEX
  5
2FB
  8
2550
 10
579730.90802300675
 20
518082.2459497829
 30
0.0
  0
VERTEX
  5
2FC
  8
2550
 10
579772.79845318035
 20
518034.85257250862
 30
0.0
  0
VERTEX
  5
2FD
  8
2550
 10
579766.52595816867
 20
517970.88987538568
 30
0.0
  0
VERTEX
  5
2FE
  8
2550
 10
579804.77764003526
 20
517937.16421658359
 30
0.0
  0
VERTEX
  5
2FF
  8
2550
 10
579833.11214004422
 20
517963.55945388653
 30
0.0
  0
VERTEX
  5
300
  8
2550
 10
579858.87175677216
 20
517895.83001965837
 30
0.0
  0
VERTEX
  5
301
  8
2550
 10
579843.38250243932
 20
517804.47302216821
 30
0.0
  0
VERTEX
  5
302
  8
2550
 10
579933.76689930714
 20
517816.82683655748
 30
0.0
  0
VERTEX
  5
303
  8
2550
 10
579988.1758570621
 20
517850.39804411941
 30
0.0
  0
VERTEX
  5
304
  8
2550
 10
580077.90843286458
 20
517855.08445696271
 30
0.0
  0
VERTEX
  5
305
  8
2550
 10
580154.1174794829
 20
517870.10441903683
 30
0.0
  0
VERTEX
  5
306
  8
2550
 10
580236.36950595956
 20
517904.64822722122
 30
0.0
  0
VERTEX
  5
307
  8
2550
 10
580298.9756360671
 20
517789.11931029701
 30
0.0
  0
VERTEX
  5
308
  8
2550
 10
580316.74707169144
 20
517757.55216740252
 30
0.0
  0
VERTEX
  5
309
  8
2550
 10
580379.60324085597
 20
517843.8387856569
 30
0.0
  0
VERTEX
  5
30A
  8
2550
 10
580416.81752013857
 20
517964.86632626777
 30
0.0
  0
VERTEX
  5
30B
  8
2550
 10
580465.90444447531
 20
518048.77517541318
 30
0.0
  0
VERTEX
  5
30C
  8
2550
 10
580510.63167406432
 20
518076.4902553375
 30
0.0
  0
VERTEX
  5
30D
  8
2550
 10
580579.27484549186
 20
518090.90105927881
 30
0.0
  0
VERTEX
  5
30E
  8
2550
 10
580591.78311112104
 20
518093.17730203219
 30
0.0
  0
VERTEX
  5
30F
  8
2550
 10
580634.61374093685
 20
518081.39592138177
 30
0.0
  0
VERTEX
  5
310
  8
2550
 10
580670.77603227005
 20
518089.38410248491
 30
0.0
  0
VERTEX
  5
311
  8
2550
 10
580708.03891302389
 20
518115.22904507781
 30
0.0
  0
VERTEX
  5
312
  8
2550
 10
580821.99200973113
 20
518102.82824434259
 30
0.0
  0
VERTEX
  5
313
  8
2550
 10
580907.75479571777
 20
518078.0045038432
 30
0.0
  0
VERTEX
  5
314
  8
2550
 10
580977.73401025671
 20
518044.29504553188
 30
0.0
  0
VERTEX
  5
315
  8
2550
 10
581056.9035216748
 20
517991.01907817752
 30
0.0
  0
VERTEX
  5
316
  8
2550
 10
581090.22901359294
 20
517923.89880208252
 30
0.0
  0
VERTEX
  5
317
  8
2550
 10
581101.58376491792
 20
517814.39666452649
 30
0.0
  0
VERTEX
  5
318
  8
2550
 10
581107.92106189113
 20
517751.44923095859
 30
0.0
  0
VERTEX
  5
319
  8
2550
 10
581189.05629845732
 20
517799.86381032609
 30
0.0
  0
VERTEX
  5
31A
  8
2550
 10
581215.02922984771
 20
517808.30075978371
 30
0.0
  0
VERTEX
  5
31B
  8
2550
 10
581268.63191529724
 20
517741.5439261779
 30
0.0
  0
VERTEX
  5
31C
  8
2550
 10
581292.78331082745
 20
517662.26262645278
 30
0.0
  0
VERTEX
  5
31D
  8
2550
 10
581364.09262993978
 20
517690.84878064378
 30
0.0
  0
VERTEX
  5
31E
  8
2550
 10
581353.59275239159
 20
517805.49636134942
 30
0.0
  0
VERTEX
  5
31F
  8
2550
 10
581354.73600474419
 20
517838.58639957593
 30
0.0
  0
VERTEX
  5
320
  8
2550
 10
581423.9294708817
 20
517861.925584262
 30
0.0
  0
VERTEX
  5
321
  8
2550
 10
581417.75256368716
 20
517907.11778269621
 30
0.0
  0
VERTEX
  5
322
  8
2550
 10
581428.05371193762
 20
517984.09637722571
 30
0.0
  0
VERTEX
  5
323
  8
2550
 10
581443.96527218248
 20
518038.68192524929
 30
0.0
  0
VERTEX
  5
324
  8
2550
 10
581473.89179289865
 20
518108.35656072199
 30
0.0
  0
VERTEX
  5
325
  8
2550
 10
581466.36217378138
 20
518134.43087042862
 30
0.0
  0
VERTEX
  5
326
  8
2550
 10
581461.20866343402
 20
518189.8445772967
 30
0.0
  0
VERTEX
  5
327
  8
2550
 10
581471.17735926935
 20
518250.32684181968
 30
0.0
  0
VERTEX
  5
328
  8
2550
 10
581551.84305823653
 20
518270.64046314708
 30
0.0
  0
VERTEX
  5
329
  8
2550
 10
581622.47032583493
 20
518265.74161725672
 30
0.0
  0
VERTEX
  5
32A
  8
2550
 10
581723.4021686581
 20
518240.74839306111
 30
0.0
  0
VERTEX
  5
32B
  8
2550
 10
581788.96558559616
 20
518245.91651551961
 30
0.0
  0
VERTEX
  5
32C
  8
2550
 10
581879.72987779661
 20
518261.21161350742
 30
0.0
  0
VERTEX
  5
32D
  8
2550
 10
581955.47080710274
 20
518221.05311086233
 30
0.0
  0
VERTEX
  5
32E
  8
2550
 10
582006.01163929049
 20
518170.76763422642
 30
0.0
  0
VERTEX
  5
32F
  8
2550
 10
582041.39998932974
 20
518130.52934635879
 30
0.0
  0
VERTEX
  5
330
  8
2550
 10
582036.47560907237
 20
518070.05705546902
 30
0.0
  0
SEQEND
  5
331
  8
2550
  0
POLYLINE
  5
87
  8
2600
 66
     1
 10
0.0
 20
0.0
 30
0.0
  0
VERTEX
  5
332
  8
2600
 10
580862.89940303797
 20
521627.99204170442
 30
0.0
  0
VERTEX
  5
333
  8
2600
 10
580891.79106207169
 20
521679.22507296759
 30
0.0
  0
VERTEX
  5
334
  8
2600
 10
580929.59779387247
 20
521736.25151431857
 30
0.0
  0
VERTEX
  5
335
  8
2600
 10
580989.02139110025
 20
521750.32001158688
 30
0.0
  0
VERTEX
  5
336
  8
2600
 10
581004.15057292103
 20
521770.60040568979
 30
0.0
  0
VERTEX
  5
337
  8
2600
 10
581026.7048299911
 20
521855.4199192503
 30
0.0
  0
VERTEX
  5
338
  8
2600
 10
581087.29942648066
 20
521906.17930641212
 30
0.0
  0
VERTEX
  5
339
  8
2600
 10
581132.75510749815
 20
521940.45357312728
 30
0.0
  0
VERTEX
  5
33A
  8
2600
 10
581203.42825458397
 20
522007.68510253512
 30
0.0
  0
VERTEX
  5
33B
  8
2600
 10
581270.4002199712
 20
522038.21925294847
 30
0.0
  0
VERTEX
  5
33C
  8
2600
 10
581310.77931336255
 20
522078.80599755648
 30
0.0
  0
VERTEX
  5
33D
  8
2600
 10
581367.60459259758
 20
522119.43492131779
 30
0.0
  0
VERTEX
  5
33E
  8
2600
 10
581404.21436873497
 20
522149.891202525
 30
0.0
  0
VERTEX
  5
33F
  8
2600
 10
581430.56714401161
 20
522233.45535851741
 30
0.0
  0
VERTEX
  5
340
  8
2600
 10
581470.884590948
 20
522298.07883628132
 30
0.0
  0
VERTEX
  5
341
  8
2600
 10
581536.57524236524
 20
522334.93519823853
 30
0.0
  0
VERTEX
  5
342
  8
2600
 10
581577.04193861387
 20
522341.36447994033
 30
0.0
  0
VERTEX
  5
343
  8
2600
 10
581598.619869438
 20
522313.58763048227
 30
0.0
  0
VERTEX
  5
344
  8
2600
 10
581634.07811361563
 20
522299.7624744834
 30
0.0
  0
VERTEX
  5
345
  8
2600
 10
581658.35169894039
 20
522207.47246197029
 30
0.0
  0
VERTEX
  5
346
  8
2600
 10
581690.2677443818
 20
522094.96045725851
 30
0.0
  0
VERTEX
  5
347
  8
2600
 10
581718.26522325748
 20
522030.5121852085
 30
0.0
  0
VERTEX
  5
348
  8
2600
 10
581703.26906799723
 20
521958.36305113719
 30
0.0
  0
VERTEX
  5
349
  8
2600
 10
581662.89646370616
 20
521915.24612409162
 30
0.0
  0
VERTEX
  5
34A
  8
2600
 10
581618.88432417146
 20
521811.39508489601
 30
0.0
  0
VERTEX
  5
34B
  8
2600
 10
581611.4754716733
 20
521740.530509345
 30
0.0
  0
VERTEX
  5
34C
  8
2600
 10
581643.81433727057
 20
521658.34747492347
 30
0.0
  0
SEQEND
  5
34D
  8
2600
  0
POLYLINE
  5
88
  8
2700
 66
     1
 10
0.0
 20
0.0
 30
0.0
 70
     1
  0
VERTEX
  5
34E
  8
2700
 10
581447.85691292235
 20
521904.57382079808
 30
0.0
  0
VERTEX
  5
34F
  8
2700
 10
581331.79622037406
 20
521776.5011090815
 30
0.0
  0
VERTEX
  5
350
  8
2700
 10
581273.78371912637
 20
521705.50675152021
 30
0.0
  0
VERTEX
  5
351
  8
2700
 10
581244.85533770872
 20
521639.64738348959
 30
0.0
  0
VERTEX
  5
352
  8
2700
 10
581191.95186958974
 20
521549.68963584799
 30
0.0
  0
VERTEX
  5
353
  8
2700
 10
581141.48773650115
 20
521495.16093143192
 30
0.0
  0
VERTEX
  5
354
  8
2700
 10
581113.74982164649
 20
521458.40190598287
 30
0.0
  0
VERTEX
  5
355
  8
2700
 10
581146.74601894221
 20
521418.00334528979
 30
0.0
  0
VERTEX
  5
356
  8
2700
 10
581182.31133327796
 20
521362.43017907249
 30
0.0
  0
VERTEX
  5
357
  8
2700
 10
581219.10280422948
 20
521322.04135203012
 30
0.0
  0
VERTEX
  5
358
  8
2700
 10
581288.72500041395
 20
521305.77361645078
 30
0.0
  0
VERTEX
  5
359
  8
2700
 10
581392.4851922025
 20
521297.18403104052
 30
0.0
  0
VERTEX
  5
35A
  8
2700
 10
581457.00159980822
 20
521298.61459432257
 30
0.0
  0
VERTEX
  5
35B
  8
2700
 10
581517.74869015941
 20
521289.91469420388
 30
0.0
  0
VERTEX
  5
35C
  8
2700
 10
581553.05768502527
 20
521334.28373426682
 30
0.0
  0
VERTEX
  5
35D
  8
2700
 10
581531.3953958943
 20
521394.95295541198
 30
0.0
  0
VERTEX
  5
35E
  8
2700
 10
581508.48748284613
 20
521448.02838469448
 30
0.0
  0
VERTEX
  5
35F
  8
2700
 10
581493.17336166068
 20
521499.85819005978
 30
0.0
  0
VERTEX
  5
360
  8
2700
 10
581490.52313086367
 20
521546.66007605282
 30
0.0
  0
VERTEX
  5
361
  8
2700
 10
581519.4969359847
 20
521594.80816702108
 30
0.0
  0
VERTEX
  5
362
  8
2700
 10
581505.42194961593
 20
521656.76194668631
 30
0.0
  0
VERTEX
  5
363
  8
2700
 10
581495.16170420498
 20
521711.13491268991
 30
0.0
  0
VERTEX
  5
364
  8
2700
 10
581506.33987395745
 20
521792.12995164213
 30
0.0
  0
VERTEX
  5
365
  8
2700
 10
581497.32849701354
 20
521852.83161828958
 30
0.0
  0
VERTEX
  5
366
  8
2700
 10
581485.8291167859
 20
521897.08060999343
 30
0.0
  0
VERTEX
  5
367
  8
2700
 10
581461.78913907963
 20
521898.2840547571
 30
0.0
  0
SEQEND
  5
368
  8
2700
  0
POLYLINE
  5
89
  8
2700
 66
     1
 10
0.0
 20
0.0
 30
0.0
 70
     1
  0
VERTEX
  5
369
  8
2700
 10
581109.42300851166
 20
520679.08949248702
 30
0.0
  0
VERTEX
  5
36A
  8
2700
 10
581071.54165205488
 20
520651.16014916688
 30
0.0
  0
VERTEX
  5
36B
  8
2700
 10
581050.15514969581
 20
520604.29661671899
 30
0.0
  0
VERTEX
  5
36C
  8
2700
 10
581047.74177106761
 20
520558.74684374389
 30
0.0
  0
VERTEX
  5
36D
  8
2700
 10
581087.0699135575
 20
520515.83432336478
 30
0.0
  0
VERTEX
  5
36E
  8
2700
 10
581101.09947622253
 20
520471.5918207615
 30
0.0
  0
VERTEX
  5
36F
  8
2700
 10
581120.14073550876
 20
520446.33866464061
 30
0.0
  0
VERTEX
  5
370
  8
2700
 10
581146.76280845667
 20
520424.90024947748
 30
0.0
  0
VERTEX
  5
371
  8
2700
 10
581178.36088797287
 20
520436.36718420283
 30
0.0
  0
VERTEX
  5
372
  8
2700
 10
581209.82594092854
 20
520499.70285889611
 30
0.0
  0
VERTEX
  5
373
  8
2700
 10
581238.81921335112
 20
520540.26040255179
 30
0.0
  0
VERTEX
  5
374
  8
2700
 10
581251.40523453359
 20
520565.59467242903
 30
0.0
  0
VERTEX
  5
375
  8
2700
 10
581234.84224488074
 20
520611.0957771503
 30
0.0
  0
VERTEX
  5
376
  8
2700
 10
581200.60366821825
 20
520642.63545476209
 30
0.0
  0
VERTEX
  5
377
  8
2700
 10
581160.0428800123
 20
520672.89381840383
 30
0.0
  0
VERTEX
  5
378
  8
2700
 10
581129.6839353129
 20
520671.5508579787
 30
0.0
  0
VERTEX
  5
379
  8
2700
 10
581118.26891339174
 20
520682.90747799509
 30
0.0
  0
SEQEND
  5
37A
  8
2700
  0
POLYLINE
  5
8A
  8
2700
 66
     1
 10
0.0
 20
0.0
 30
0.0
 70
     1
  0
VERTEX
  5
37B
  8
2700
 10
580949.9144447915
 20
520720.42868937302
 30
0.0
  0
VERTEX
  5
37C
  8
2700
 10
580925.949091741
 20
520692.53503610572
 30
0.0
  0
VERTEX
  5
37D
  8
2700
 10
580922.22519819066
 20
520664.6932956425
 30
0.0
  0
VERTEX
  5
37E
  8
2700
 10
580951.38069812628
 20
520641.99627836118
 30
0.0
  0
VERTEX
  5
37F
  8
2700
 10
580971.60917942505
 20
520647.10855604021
 30
0.0
  0
VERTEX
  5
380
  8
2700
 10
580996.81691184221
 20
520683.86109238921
 30
0.0
  0
VERTEX
  5
381
  8
2700
 10
581003.09045513207
 20
520704.11877464008
 30
0.0
  0
VERTEX
  5
382
  8
2700
 10
580996.70335258357
 20
520728.13928504498
 30
0.0
  0
SEQEND
  5
383
  8
2700
  0
POLYLINE
  5
8B
  8
2550
 66
     1
 10
0.0
 20
0.0
 30
0.0
  0
VERTEX
  5
384
  8
2550
 10
580172.10989702027
 20
521616.65454537142
 30
0.0
  0
VERTEX
  5
385
  8
2550
 10
580211.6586689275
 20
521487.71582211769
 30
0.0
  0
VERTEX
  5
386
  8
2550
 10
580197.91787123529
 20
521419.36520625302
 30
0.0
  0
VERTEX
  5
387
  8
2550
 10
580170.23835828505
 20
521359.83453886618
 30
0.0
  0
VERTEX
  5
388
  8
2550
 10
580148.89727962948
 20
521295.2597293561
 30
0.0
  0
VERTEX
  5
389
  8
2550
 10
580118.60647048557
 20
521267.34985333768
 30
0.0
  0
VERTEX
  5
38A
  8
2550
 10
580080.6083102196
 20
521284.9637938923
 30
0.0
  0
VERTEX
  5
38B
  8
2550
 10
579992.191440569
 20
521230.3377529686
 30
0.0
  0
VERTEX
  5
38C
  8
2550
 10
580040.44335714495
 20
521160.88102884742
 30
0.0
  0
VERTEX
  5
38D
  8
2550
 10
580084.90973371605
 20
521087.61929741933
 30
0.0
  0
VERTEX
  5
38E
  8
2550
 10
580014.47343879903
 20
520928.03610904369
 30
0.0
  0
VERTEX
  5
38F
  8
2550
 10
580008.36212302232
 20
520844.52386585547
 30
0.0
  0
VERTEX
  5
390
  8
2550
 10
579949.3278718252
 20
520678.64442233823
 30
0.0
  0
VERTEX
  5
391
  8
2550
 10
579942.00013308378
 20
520576.15256631857
 30
0.0
  0
VERTEX
  5
392
  8
2550
 10
580011.52499276004
 20
520597.83756730129
 30
0.0
  0
VERTEX
  5
393
  8
2550
 10
580124.86082985532
 20
520801.80926304183
 30
0.0
  0
VERTEX
  5
394
  8
2550
 10
580213.09276014136
 20
520928.54550343432
 30
0.0
  0
VERTEX
  5
395
  8
2550
 10
580272.38657535904
 20
520993.2176494521
 30
0.0
  0
VERTEX
  5
396
  8
2550
 10
580330.66188517748
 20
520961.73961829522
 30
0.0
  0
VERTEX
  5
397
  8
2550
 10
580392.74544685322
 20
520925.21095591452
 30
0.0
  0
VERTEX
  5
398
  8
2550
 10
580455.98054048896
 20
520932.96373073978
 30
0.0
  0
VERTEX
  5
399
  8
2550
 10
580481.3764568211
 20
520896.34097640152
 30
0.0
  0
VERTEX
  5
39A
  8
2550
 10
580406.93074793101
 20
520820.24407481193
 30
0.0
  0
VERTEX
  5
39B
  8
2550
 10
580379.43617434544
 20
520688.603207957
 30
0.0
  0
VERTEX
  5
39C
  8
2550
 10
580371.02179464966
 20
520516.52809035638
 30
0.0
  0
VERTEX
  5
39D
  8
2550
 10
580413.00016793597
 20
520426.81368398428
 30
0.0
  0
VERTEX
  5
39E
  8
2550
 10
580471.31765690795
 20
520378.88946698408
 30
0.0
  0
VERTEX
  5
39F
  8
2550
 10
580577.71834584291
 20
520327.2932692371
 30
0.0
  0
VERTEX
  5
3A0
  8
2550
 10
580614.60390875186
 20
520250.21679685143
 30
0.0
  0
VERTEX
  5
3A1
  8
2550
 10
580549.04628389538
 20
520161.49169492599
 30
0.0
  0
VERTEX
  5
3A2
  8
2550
 10
580469.52723192936
 20
520090.44218001032
 30
0.0
  0
VERTEX
  5
3A3
  8
2550
 10
580517.73696935247
 20
520037.4316417331
 30
0.0
  0
VERTEX
  5
3A4
  8
2550
 10
580627.9653774458
 20
519973.19426544983
 30
0.0
  0
VERTEX
  5
3A5
  8
2550
 10
580740.72721252707
 20
519907.69828704791
 30
0.0
  0
VERTEX
  5
3A6
  8
2550
 10
580816.70731030754
 20
519878.79586203251
 30
0.0
  0
VERTEX
  5
3A7
  8
2550
 10
580792.66084350075
 20
519882.52948923409
 30
0.0
  0
VERTEX
  5
3A8
  8
2550
 10
580887.53944035596
 20
519884.03792172187
 30
0.0
  0
VERTEX
  5
3A9
  8
2550
 10
580976.15422757249
 20
519861.49339830258
 30
0.0
  0
VERTEX
  5
3AA
  8
2550
 10
581101.61239854491
 20
519778.31858834118
 30
0.0
  0
VERTEX
  5
3AB
  8
2550
 10
581113.14422427537
 20
519721.41868444998
 30
0.0
  0
VERTEX
  5
3AC
  8
2550
 10
581093.27588805498
 20
519575.88128149079
 30
0.0
  0
VERTEX
  5
3AD
  8
2550
 10
581116.2389584576
 20
519501.29930148961
 30
0.0
  0
VERTEX
  5
3AE
  8
2550
 10
581135.37755425146
 20
519438.09340880648
 30
0.0
  0
VERTEX
  5
3AF
  8
2550
 10
581189.89003591647
 20
519393.95473181159
 30
0.0
  0
VERTEX
  5
3B0
  8
2550
 10
581308.83456688025
 20
519384.1389897858
 30
0.0
  0
VERTEX
  5
3B1
  8
2550
 10
581358.08552155411
 20
519418.42299015191
 30
0.0
  0
VERTEX
  5
3B2
  8
2550
 10
581374.47006094293
 20
519442.50190246152
 30
0.0
  0
VERTEX
  5
3B3
  8
2550
 10
581437.8479147898
 20
519394.59066366212
 30
0.0
  0
VERTEX
  5
3B4
  8
2550
 10
581550.51241336344
 20
519367.04742182279
 30
0.0
  0
VERTEX
  5
3B5
  8
2550
 10
581483.62156173284
 20
519304.88599094062
 30
0.0
  0
VERTEX
  5
3B6
  8
2550
 10
581419.2576479892
 20
519243.99614037789
 30
0.0
  0
VERTEX
  5
3B7
  8
2550
 10
581437.07923976018
 20
519201.02846264438
 30
0.0
  0
VERTEX
  5
3B8
  8
2550
 10
581481.35094331566
 20
519203.67220434092
 30
0.0
  0
VERTEX
  5
3B9
  8
2550
 10
581509.12130367325
 20
519227.7803176025
 30
0.0
  0
VERTEX
  5
3BA
  8
2550
 10
581534.59184466151
 20
519162.06046523323
 30
0.0
  0
VERTEX
  5
3BB
  8
2550
 10
581577.74770631001
 20
519106.50676631741
 30
0.0
  0
VERTEX
  5
3BC
  8
2550
 10
581662.57695352088
 20
519080.15723559121
 30
0.0
  0
VERTEX
  5
3BD
  8
2550
 10
581691.65458425041
 20
519087.82240755938
 30
0.0
  0
VERTEX
  5
3BE
  8
2550
 10
581714.7247248115
 20
518971.49241734011
 30
0.0
  0
VERTEX
  5
3BF
  8
2550
 10
581785.76126152615
 20
518897.03373024869
 30
0.0
  0
VERTEX
  5
3C0
  8
2550
 10
581902.26645745966
 20
518851.78894499748
 30
0.0
  0
VERTEX
  5
3C1
  8
2550
 10
582002.25408744405
 20
518834.33398740558
 30
0.0
  0
VERTEX
  5
3C2
  8
2550
 10
582112.27808887127
 20
518849.7973579028
 30
0.0
  0
VERTEX
  5
3C3
  8
2550
 10
582216.21673092409
 20
518771.62775546208
 30
0.0
  0
VERTEX
  5
3C4
  8
2550
 10
582277.02546773036
 20
518738.8911221872
 30
0.0
  0
VERTEX
  5
3C5
  8
2550
 10
582305.99278375122
 20
518789.56939559279
 30
0.0
  0
VERTEX
  5
3C6
  8
2550
 10
582294.35064331186
 20
518889.482400921
 30
0.0
  0
VERTEX
  5
3C7
  8
2550
 10
582209.41757049272
 20
518956.314850647
 30
0.0
  0
VERTEX
  5
3C8
  8
2550
 10
582152.2581025809
 20
519045.99032241601
 30
0.0
  0
VERTEX
  5
3C9
  8
2550
 10
582155.96252883004
 20
519081.42261019151
 30
0.0
  0
VERTEX
  5
3CA
  8
2550
 10
582226.61620861443
 20
519156.2446869117
 30
0.0
  0
VERTEX
  5
3CB
  8
2550
 10
582249.17695478536
 20
519238.53401803458
 30
0.0
  0
VERTEX
  5
3CC
  8
2550
 10
582228.7375777195
 20
519315.65266957361
 30
0.0
  0
VERTEX
  5
3CD
  8
2550
 10
582267.85482444242
 20
519354.97107841249
 30
0.0
  0
VERTEX
  5
3CE
  8
2550
 10
582320.8783409209
 20
519398.12045096041
 30
0.0
  0
VERTEX
  5
3CF
  8
2550
 10
582297.94771602075
 20
519460.05151877442
 30
0.0
  0
VERTEX
  5
3D0
  8
2550
 10
582242.17987678817
 20
519500.3916775625
 30
0.0
  0
VERTEX
  5
3D1
  8
2550
 10
582244.58352176566
 20
519549.73672419408
 30
0.0
  0
VERTEX
  5
3D2
  8
2550
 10
582301.36662184715
 20
519606.811833799
 30
0.0
  0
VERTEX
  5
3D3
  8
2550
 10
582326.44132770412
 20
519695.43311011599
 30
0.0
  0
VERTEX
  5
3D4
  8
2550
 10
582311.14667381998
 20
519739.67236816912
 30
0.0
  0
VERTEX
  5
3D5
  8
2550
 10
582283.23679780157
 20
519769.96317731327
 30
0.0
  0
VERTEX
  5
3D6
  8
2550
 10
582312.29820577963
 20
519783.9538053752
 30
0.0
  0
VERTEX
  5
3D7
  8
2550
 10
582334.93682115676
 20
519835.88094724802
 30
0.0
  0
VERTEX
  5
3D8
  8
2550
 10
582343.49071651371
 20
519953.55714244302
 30
0.0
  0
VERTEX
  5
3D9
  8
2550
 10
582383.70109329186
 20
520059.9286304253
 30
0.0
  0
VERTEX
  5
3DA
  8
2550
 10
582380.96001508785
 20
520142.15307054319
 30
0.0
  0
VERTEX
  5
3DB
  8
2550
 10
582335.27721555182
 20
520196.4351891398
 30
0.0
  0
VERTEX
  5
3DC
  8
2550
 10
582342.71202445182
 20
520257.1790349409
 30
0.0
  0
VERTEX
  5
3DD
  8
2550
 10
582389.32897108025
 20
520331.93946520617
 30
0.0
  0
VERTEX
  5
3DE
  8
2550
 10
582382.72123911395
 20
520441.98617848533
 30
0.0
  0
VERTEX
  5
3DF
  8
2550
 10
582320.52411817922
 20
520522.79303352209
 30
0.0
  0
VERTEX
  5
3E0
  8
2550
 10
582319.15520135232
 20
520563.27270797163
 30
0.0
  0
VERTEX
  5
3E1
  8
2550
 10
582368.44184607908
 20
520583.64070493128
 30
0.0
  0
VERTEX
  5
3E2
  8
2550
 10
582363.18031908805
 20
520662.06338229222
 30
0.0
  0
VERTEX
  5
3E3
  8
2550
 10
582387.02237922873
 20
520738.03050187201
 30
0.0
  0
VERTEX
  5
3E4
  8
2550
 10
582323.78079649271
 20
520732.8079094839
 30
0.0
  0
VERTEX
  5
3E5
  8
2550
 10
582309.50464800792
 20
520873.19734471152
 30
0.0
  0
VERTEX
  5
3E6
  8
2550
 10
582277.65998267219
 20
520957.87734261062
 30
0.0
  0
VERTEX
  5
3E7
  8
2550
 10
582288.89006522857
 20
521018.63092206238
 30
0.0
  0
VERTEX
  5
3E8
  8
2550
 10
582310.27656758763
 20
521065.49445451051
 30
0.0
  0
VERTEX
  5
3E9
  8
2550
 10
582255.65701576427
 20
521151.3811417236
 30
0.0
  0
VERTEX
  5
3EA
  8
2550
 10
582146.1615926472
 20
521423.09672243102
 30
0.0
  0
VERTEX
  5
3EB
  8
2550
 10
582057.38782246795
 20
521507.63071556872
 30
0.0
  0
VERTEX
  5
3EC
  8
2550
 10
582019.21445648815
 20
521593.55958193511
 30
0.0
  0
VERTEX
  5
3ED
  8
2550
 10
581986.2409710444
 20
521625.10250409693
 30
0.0
  0
VERTEX
  5
3EE
  8
2550
 10
581890.04861471651
 20
521642.56719533989
 30
0.0
  0
VERTEX
  5
3EF
  8
2550
 10
581838.12147284346
 20
521665.20581071661
 30
0.0
  0
VERTEX
  5
3F0
  8
2550
 10
581898.6414446769
 20
521745.0622959098
 30
0.0
  0
VERTEX
  5
3F1
  8
2550
 10
581947.81453014468
 20
521809.70848552563
 30
0.0
  0
VERTEX
  5
3F2
  8
2550
 10
581966.5475571563
 20
521904.63899518491
 30
0.0
  0
VERTEX
  5
3F3
  8
2550
 10
581942.43944389455
 20
521932.40935554227
 30
0.0
  0
VERTEX
  5
3F4
  8
2550
 10
581909.56653950887
 20
521924.7344499231
 30
0.0
  0
VERTEX
  5
3F5
  8
2550
 10
581875.50965766096
 20
521885.42901928542
 30
0.0
  0
VERTEX
  5
3F6
  8
2550
 10
581827.35507759242
 20
521916.9330068439
 30
0.0
  0
VERTEX
  5
3F7
  8
2550
 10
581773.9616823846
 20
522018.00403323252
 30
0.0
  0
VERTEX
  5
3F8
  8
2550
 10
581766.05316914676
 20
522141.96350536752
 30
0.0
  0
VERTEX
  5
3F9
  8
2550
 10
581779.78747773857
 20
522212.84430366982
 30
0.0
  0
VERTEX
  5
3FA
  8
2550
 10
581780.99416705244
 20
522235.61919015751
 30
0.0
  0
VERTEX
  5
3FB
  8
2550
 10
581780.75731488387
 20
522327.97084912582
 30
0.0
  0
VERTEX
  5
3FC
  8
2550
 10
581769.17682089959
 20
522403.84712129779
 30
0.0
  0
VERTEX
  5
3FD
  8
2550
 10
581742.4768787456
 20
522455.64772571082
 30
0.0
  0
VERTEX
  5
3FE
  8
2550
 10
581666.59411747276
 20
522446.59741416399
 30
0.0
  0
VERTEX
  5
3FF
  8
2550
 10
581622.21534375893
 20
522485.70168268582
 30
0.0
  0
VERTEX
  5
400
  8
2550
 10
581582.89044581971
 20
522527.34911184647
 30
0.0
  0
VERTEX
  5
401
  8
2550
 10
581526.00352012936
 20
522510.75692124112
 30
0.0
  0
VERTEX
  5
402
  8
2550
 10
581408.61933445802
 20
522405.45260691171
 30
0.0
  0
VERTEX
  5
403
  8
2550
 10
581326.44680714444
 20
522382.47006920772
 30
0.0
  0
VERTEX
  5
404
  8
2550
 10
581303.82765906921
 20
522322.95238002238
 30
0.0
  0
VERTEX
  5
405
  8
2550
 10
581281.07548443344
 20
522315.30343080522
 30
0.0
  0
VERTEX
  5
406
  8
2550
 10
581221.75895736367
 20
522259.48692331841
 30
0.0
  0
VERTEX
  5
407
  8
2550
 10
581200.17778198957
 20
522288.5288639951
 30
0.0
  0
VERTEX
  5
408
  8
2550
 10
581149.34377017128
 20
522378.22055851552
 30
0.0
  0
VERTEX
  5
409
  8
2550
 10
581074.46653609688
 20
522470.38078901829
 30
0.0
  0
VERTEX
  5
40A
  8
2550
 10
581021.31648215849
 20
522476.56997400121
 30
0.0
  0
VERTEX
  5
40B
  8
2550
 10
580988.33975216455
 20
522509.37798738183
 30
0.0
  0
VERTEX
  5
40C
  8
2550
 10
580842.58820888784
 20
522612.7423440392
 30
0.0
  0
VERTEX
  5
40D
  8
2550
 10
580708.46582784981
 20
522621.25406024279
 30
0.0
  0
VERTEX
  5
40E
  8
2550
 10
580616.11092433135
 20
522622.2822992928
 30
0.0
  0
VERTEX
  5
40F
  8
2550
 10
580465.73378591461
 20
522556.1114544376
 30
0.0
  0
VERTEX
  5
410
  8
2550
 10
580298.93641805614
 20
522479.77770067909
 30
0.0
  0
VERTEX
  5
411
  8
2550
 10
580158.84548145276
 20
522349.11316007009
 30
0.0
  0
VERTEX
  5
412
  8
2550
 10
580079.40429869248
 20
522247.70145590458
 30
0.0
  0
VERTEX
  5
413
  8
2550
 10
580102.30247808958
 20
522198.42130027828
 30
0.0
  0
VERTEX
  5
414
  8
2550
 10
580187.27448551205
 20
522116.40775592742
 30
0.0
  0
VERTEX
  5
415
  8
2550
 10
580287.44381031056
 20
522028.10769008577
 30
0.0
  0
VERTEX
  5
416
  8
2550
 10
580355.95989823877
 20
521949.84724023793
 30
0.0
  0
VERTEX
  5
417
  8
2550
 10
580321.3653061263
 20
521945.17802605027
 30
0.0
  0
VERTEX
  5
418
  8
2550
 10
580262.46319641138
 20
521902.79876842542
 30
0.0
  0
VERTEX
  5
419
  8
2550
 10
580198.09928266797
 20
521841.90891786257
 30
0.0
  0
VERTEX
  5
41A
  8
2550
 10
580258.92748677568
 20
521801.58173727518
 30
0.0
  0
VERTEX
  5
41B
  8
2550
 10
580240.129568759
 20
521731.95305199071
 30
0.0
  0
VERTEX
  5
41C
  8
2550
 10
580189.67841387144
 20
521672.36398269958
 30
0.0
  0
VERTEX
  5
41D
  8
2550
 10
580172.10989702027
 20
521616.65454537142
 30
0.0
  0
SEQEND
  5
41E
  8
2550
  0
POLYLINE
  5
8C
  8
2700
 66
     1
 10
0.0
 20
0.0
 30
0.0
 70
     1
  0
VERTEX
  5
41F
  8
2700
 10
581432.6928911939
 20
520418.04297052318
 30
0.0
  0
VERTEX
  5
420
  8
2700
 10
581413.78465846821
 20
520391.42738667573
 30
0.0
  0
VERTEX
  5
421
  8
2700
 10
581421.46280863753
 20
520357.2893910713
 30
0.0
  0
VERTEX
  5
422
  8
2700
 10
581445.54496549722
 20
520339.63976046379
 30
0.0
  0
VERTEX
  5
423
  8
2700
 10
581468.25496097957
 20
520363.73489552469
 30
0.0
  0
VERTEX
  5
424
  8
2700
 10
581461.85812478035
 20
520391.55067958549
 30
0.0
  0
VERTEX
  5
425
  8
2700
 10
581454.2221537641
 20
520409.2424893463
 30
0.0
  0
SEQEND
  5
426
  8
2700
  0
POLYLINE
  5
8D
  8
2600
 66
     1
 10
0.0
 20
0.0
 30
0.0
 70
     1
  0
VERTEX
  5
427
  8
2600
 10
577477.41028191347
 20
518529.4283703285
 30
0.0
  0
VERTEX
  5
428
  8
2600
 10
577459.6311230869
 20
518488.69507627399
 30
0.0
  0
VERTEX
  5
429
  8
2600
 10
577448.19927010848
 20
518449.74309840071
 30
0.0
  0
VERTEX
  5
42A
  8
2600
 10
577430.8147272151
 20
518395.74020890309
 30
0.0
  0
VERTEX
  5
42B
  8
2600
 10
577444.05056503392
 20
518358.87397923798
 30
0.0
  0
VERTEX
  5
42C
  8
2600
 10
577495.07701756211
 20
518387.01417983259
 30
0.0
  0
VERTEX
  5
42D
  8
2600
 10
577512.61944363348
 20
518414.48915143282
 30
0.0
  0
VERTEX
  5
42E
  8
2600
 10
577524.08511557686
 20
518455.33517537091
 30
0.0
  0
VERTEX
  5
42F
  8
2600
 10
577523.90468642232
 20
518480.60039589141
 30
0.0
  0
VERTEX
  5
430
  8
2600
 10
577512.41634581995
 20
518509.22527364379
 30
0.0
  0
VERTEX
  5
431
  8
2600
 10
577507.50083217362
 20
518516.89164181013
 30
0.0
  0
SEQEND
  5
432
  8
2600
  0
POLYLINE
  5
8E
  8
2600
 66
     1
 10
0.0
 20
0.0
 30
0.0
 70
     1
  0
VERTEX
  5
433
  8
2600
 10
576960.51576729887
 20
518725.59652446088
 30
0.0
  0
VERTEX
  5
434
  8
2600
 10
576927.69696983625
 20
518691.44726900948
 30
0.0
  0
VERTEX
  5
435
  8
2600
 10
576914.58525757154
 20
518664.52473517932
 30
0.0
  0
VERTEX
  5
436
  8
2600
 10
576901.23681255151
 20
518624.34387889452
 30
0.0
  0
VERTEX
  5
437
  8
2600
 10
576901.99222545279
 20
518595.91064194421
 30
0.0
  0
VERTEX
  5
438
  8
2600
 10
576919.94060178683
 20
518575.38056725648
 30
0.0
  0
VERTEX
  5
439
  8
2600
 10
576954.45053152367
 20
518598.1317273532
 30
0.0
  0
VERTEX
  5
43A
  8
2600
 10
576985.33019096788
 20
518629.78940701648
 30
0.0
  0
VERTEX
  5
43B
  8
2600
 10
577002.41036317626
 20
518666.7458819297
 30
0.0
  0
VERTEX
  5
43C
  8
2600
 10
577005.22885562619
 20
518683.11585587222
 30
0.0
  0
VERTEX
  5
43D
  8
2600
 10
576996.63797973352
 20
518697.16334885138
 30
0.0
  0
VERTEX
  5
43E
  8
2600
 10
576977.33672211634
 20
518712.66518000967
 30
0.0
  0
SEQEND
  5
43F
  8
2600
  0
POLYLINE
  5
8F
  8
2600
 66
     1
 10
0.0
 20
0.0
 30
0.0
 70
     1
  0
VERTEX
  5
440
  8
2600
 10
577012.66657428676
 20
520514.47797149239
 30
0.0
  0
VERTEX
  5
441
  8
2600
 10
577003.04973377287
 20
520541.80633290292
 30
0.0
  0
VERTEX
  5
442
  8
2600
 10
576969.26127528935
 20
520559.46148885781
 30
0.0
  0
VERTEX
  5
443
  8
2600
 10
576923.24045897322
 20
520564.07250913652
 30
0.0
  0
VERTEX
  5
444
  8
2600
 10
576895.43857071118
 20
520563.30582324712
 30
0.0
  0
VERTEX
  5
445
  8
2600
 10
576886.37429064885
 20
520515.46987178421
 30
0.0
  0
VERTEX
  5
446
  8
2600
 10
576859.07980954484
 20
520472.3802778016
 30
0.0
  0
VERTEX
  5
447
  8
2600
 10
576845.52845073433
 20
520420.8351451272
 30
0.0
  0
VERTEX
  5
448
  8
2600
 10
576875.58518202952
 20
520406.40437054401
 30
0.0
  0
VERTEX
  5
449
  8
2600
 10
576941.83164100745
 20
520438.06211154832
 30
0.0
  0
VERTEX
  5
44A
  8
2600
 10
576959.73486404645
 20
520450.37344164093
 30
0.0
  0
VERTEX
  5
44B
  8
2600
 10
576997.55935906223
 20
520481.9071184324
 30
0.0
  0
SEQEND
  5
44C
  8
2600
  0
POLYLINE
  5
90
  8
2600
 66
     1
 10
0.0
 20
0.0
 30
0.0
  0
VERTEX
  5
44D
  8
2600
 10
580862.89940303797
 20
521627.99204170442
 30
0.0
  0
VERTEX
  5
44E
  8
2600
 10
580864.06070486049
 20
521586.92055799928
 30
0.0
  0
VERTEX
  5
44F
  8
2600
 10
580839.8327219499
 20
521574.09060910181
 30
0.0
  0
VERTEX
  5
450
  8
2600
 10
580799.2797957086
 20
521601.97134694102
 30
0.0
  0
VERTEX
  5
451
  8
2600
 10
580730.62061052013
 20
521612.03898430691
 30
0.0
  0
VERTEX
  5
452
  8
2600
 10
580653.78783403081
 20
521553.41361751861
 30
0.0
  0
VERTEX
  5
453
  8
2600
 10
580590.41635512747
 20
521470.54899483162
 30
0.0
  0
VERTEX
  5
454
  8
2600
 10
580542.9525349621
 20
521429.71418254112
 30
0.0
  0
VERTEX
  5
455
  8
2600
 10
580497.28130396665
 20
521383.16341309051
 30
0.0
  0
VERTEX
  5
456
  8
2600
 10
580454.23692461976
 20
521342.24968988099
 30
0.0
  0
VERTEX
  5
457
  8
2600
 10
580430.92217644688
 20
521309.8253856696
 30
0.0
  0
VERTEX
  5
458
  8
2600
 10
580409.80590636528
 20
521259.04687754338
 30
0.0
  0
VERTEX
  5
459
  8
2600
 10
580366.07381338847
 20
521214.98768388119
 30
0.0
  0
VERTEX
  5
45A
  8
2600
 10
580331.29333193076
 20
521177.08415526518
 30
0.0
  0
VERTEX
  5
45B
  8
2600
 10
580338.7793936251
 20
521136.53129036498
 30
0.0
  0
VERTEX
  5
45C
  8
2600
 10
580455.89448329387
 20
521187.49035032792
 30
0.0
  0
VERTEX
  5
45D
  8
2600
 10
580525.55702578626
 20
521198.24594668788
 30
0.0
  0
VERTEX
  5
45E
  8
2600
 10
580589.85307375714
 20
521226.78076321591
 30
0.0
  0
VERTEX
  5
45F
  8
2600
 10
580612.18701060291
 20
521239.64453107817
 30
0.0
  0
VERTEX
  5
460
  8
2600
 10
580654.00263422076
 20
521211.74124726211
 30
0.0
  0
VERTEX
  5
461
  8
2600
 10
580747.99467786006
 20
521205.64213118103
 30
0.0
  0
VERTEX
  5
462
  8
2600
 10
580814.66957173566
 20
521225.92432280752
 30
0.0
  0
VERTEX
  5
463
  8
2600
 10
580872.48303799832
 20
521245.10163889412
 30
0.0
  0
VERTEX
  5
464
  8
2600
 10
580908.00765936868
 20
521253.94058187149
 30
0.0
  0
VERTEX
  5
465
  8
2600
 10
580901.61532290839
 20
521214.26707140321
 30
0.0
  0
VERTEX
  5
466
  8
2600
 10
580846.59786446008
 20
521174.83023234899
 30
0.0
  0
VERTEX
  5
467
  8
2600
 10
580802.73049562273
 20
521123.19485442701
 30
0.0
  0
VERTEX
  5
468
  8
2600
 10
580794.34265620285
 20
521077.87302472902
 30
0.0
  0
VERTEX
  5
469
  8
2600
 10
580809.73181881814
 20
521055.49399592978
 30
0.0
  0
VERTEX
  5
46A
  8
2600
 10
580859.54072726425
 20
521050.81533772108
 30
0.0
  0
VERTEX
  5
46B
  8
2600
 10
580856.49677504739
 20
521021.81839001219
 30
0.0
  0
VERTEX
  5
46C
  8
2600
 10
580815.79736129881
 20
521006.12479537033
 30
0.0
  0
VERTEX
  5
46D
  8
2600
 10
580802.55037317413
 20
520971.62607728038
 30
0.0
  0
VERTEX
  5
46E
  8
2600
 10
580800.69020741514
 20
520938.1871427765
 30
0.0
  0
VERTEX
  5
46F
  8
2600
 10
580813.27215056925
 20
520900.06948872318
 30
0.0
  0
VERTEX
  5
470
  8
2600
 10
580835.61742174427
 20
520878.19780574052
 30
0.0
  0
VERTEX
  5
471
  8
2600
 10
580870.66857760411
 20
520860.5201038089
 30
0.0
  0
VERTEX
  5
472
  8
2600
 10
580871.33380659879
 20
520827.03607735212
 30
0.0
  0
VERTEX
  5
473
  8
2600
 10
580823.12584652065
 20
520815.26585070009
 30
0.0
  0
VERTEX
  5
474
  8
2600
 10
580787.68013606896
 20
520810.84634854092
 30
0.0
  0
VERTEX
  5
475
  8
2600
 10
580749.05519753997
 20
520769.85371441318
 30
0.0
  0
VERTEX
  5
476
  8
2600
 10
580716.20258111251
 20
520733.8104128968
 30
0.0
  0
VERTEX
  5
477
  8
2600
 10
580715.49238284689
 20
520694.03544553381
 30
0.0
  0
VERTEX
  5
478
  8
2600
 10
580752.76456277457
 20
520659.26623706461
 30
0.0
  0
VERTEX
  5
479
  8
2600
 10
580745.35759602254
 20
520598.13814418227
 30
0.0
  0
VERTEX
  5
47A
  8
2600
 10
580732.99002367037
 20
520542.1510247133
 30
0.0
  0
VERTEX
  5
47B
  8
2600
 10
580720.13765147864
 20
520494.3827111806
 30
0.0
  0
VERTEX
  5
47C
  8
2600
 10
580710.47584169346
 20
520448.45207877108
 30
0.0
  0
VERTEX
  5
47D
  8
2600
 10
580746.40641332627
 20
520409.28597546078
 30
0.0
  0
VERTEX
  5
47E
  8
2600
 10
580818.33507183974
 20
520405.47546003619
 30
0.0
  0
VERTEX
  5
47F
  8
2600
 10
580858.86539076292
 20
520411.69882435369
 30
0.0
  0
VERTEX
  5
480
  8
2600
 10
580927.20893227821
 20
520383.95342371537
 30
0.0
  0
VERTEX
  5
481
  8
2600
 10
580946.3749140352
 20
520360.87540829799
 30
0.0
  0
VERTEX
  5
482
  8
2600
 10
580882.50723962137
 20
520356.33184192592
 30
0.0
  0
VERTEX
  5
483
  8
2600
 10
580843.83714779769
 20
520348.18061257852
 30
0.0
  0
VERTEX
  5
484
  8
2600
 10
580832.25874597079
 20
520301.02110175719
 30
0.0
  0
VERTEX
  5
485
  8
2600
 10
580803.66774852469
 20
520256.0600076862
 30
0.0
  0
VERTEX
  5
486
  8
2600
 10
580760.80373699113
 20
520225.24786349002
 30
0.0
  0
VERTEX
  5
487
  8
2600
 10
580717.61274745432
 20
520211.49340686639
 30
0.0
  0
VERTEX
  5
488
  8
2600
 10
580701.27665381809
 20
520180.839145848
 30
0.0
  0
VERTEX
  5
489
  8
2600
 10
580699.83364996896
 20
520135.39331327821
 30
0.0
  0
VERTEX
  5
48A
  8
2600
 10
580642.68535135977
 20
520118.0987702682
 30
0.0
  0
VERTEX
  5
48B
  8
2600
 10
580619.92304095707
 20
520081.24375224998
 30
0.0
  0
VERTEX
  5
48C
  8
2600
 10
580656.9021231879
 20
520030.05947788531
 30
0.0
  0
VERTEX
  5
48D
  8
2600
 10
580777.32068916992
 20
519983.0693072537
 30
0.0
  0
VERTEX
  5
48E
  8
2600
 10
580849.8806963719
 20
519979.24751884089
 30
0.0
  0
VERTEX
  5
48F
  8
2600
 10
580905.75502461637
 20
519995.93325913942
 30
0.0
  0
VERTEX
  5
490
  8
2600
 10
580973.99704789498
 20
519997.87251984002
 30
0.0
  0
VERTEX
  5
491
  8
2600
 10
581005.39532614406
 20
520023.20543963171
 30
0.0
  0
VERTEX
  5
492
  8
2600
 10
581028.24788179493
 20
520029.74444762291
 30
0.0
  0
VERTEX
  5
493
  8
2600
 10
581037.59417058877
 20
519987.26371769293
 30
0.0
  0
VERTEX
  5
494
  8
2600
 10
581105.89262015058
 20
519956.9929223017
 30
0.0
  0
VERTEX
  5
495
  8
2600
 10
581165.79183462099
 20
519951.5025475907
 30
0.0
  0
VERTEX
  5
496
  8
2600
 10
581223.83082199167
 20
519947.94003791001
 30
0.0
  0
VERTEX
  5
497
  8
2600
 10
581291.20476382703
 20
519936.6322491446
 30
0.0
  0
VERTEX
  5
498
  8
2600
 10
581332.85123127862
 20
519934.62553453719
 30
0.0
  0
VERTEX
  5
499
  8
2600
 10
581377.71080711321
 20
519935.71919843007
 30
0.0
  0
VERTEX
  5
49A
  8
2600
 10
581399.94328706409
 20
519942.9008280976
 30
0.0
  0
VERTEX
  5
49B
  8
2600
 10
581426.17804592347
 20
519962.01044491329
 30
0.0
  0
VERTEX
  5
49C
  8
2600
 10
581443.06663867051
 20
519952.86719259177
 30
0.0
  0
VERTEX
  5
49D
  8
2600
 10
581459.35776303615
 20
519910.26245978981
 30
0.0
  0
VERTEX
  5
49E
  8
2600
 10
581469.60595223843
 20
519882.92282539088
 30
0.0
  0
VERTEX
  5
49F
  8
2600
 10
581556.92377336777
 20
519856.73328116728
 30
0.0
  0
VERTEX
  5
4A0
  8
2600
 10
581653.41866578325
 20
519849.32637575618
 30
0.0
  0
VERTEX
  5
4A1
  8
2600
 10
581707.87253615551
 20
519821.82898086152
 30
0.0
  0
VERTEX
  5
4A2
  8
2600
 10
581745.52805902821
 20
519773.15882826142
 30
0.0
  0
VERTEX
  5
4A3
  8
2600
 10
581753.53273952706
 20
519726.2812034901
 30
0.0
  0
VERTEX
  5
4A4
  8
2600
 10
581760.56782034622
 20
519695.8411905914
 30
0.0
  0
VERTEX
  5
4A5
  8
2600
 10
581785.93449776212
 20
519701.70375794062
 30
0.0
  0
VERTEX
  5
4A6
  8
2600
 10
581821.08717185794
 20
519654.34139467072
 30
0.0
  0
VERTEX
  5
4A7
  8
2600
 10
581860.10684900254
 20
519611.3308342885
 30
0.0
  0
VERTEX
  5
4A8
  8
2600
 10
581911.42652190989
 20
519585.15250171209
 30
0.0
  0
VERTEX
  5
4A9
  8
2600
 10
581959.93891401403
 20
519578.60234341532
 30
0.0
  0
VERTEX
  5
4AA
  8
2600
 10
582001.75447629089
 20
519586.06585913262
 30
0.0
  0
VERTEX
  5
4AB
  8
2600
 10
582016.56859381904
 20
519602.2216462965
 30
0.0
  0
VERTEX
  5
4AC
  8
2600
 10
582018.76688788645
 20
519689.96784098278
 30
0.0
  0
VERTEX
  5
4AD
  8
2600
 10
582050.51450609206
 20
519805.60616917879
 30
0.0
  0
VERTEX
  5
4AE
  8
2600
 10
582015.37310498417
 20
519853.5998811372
 30
0.0
  0
VERTEX
  5
4AF
  8
2600
 10
581967.02974636375
 20
519904.9870692924
 30
0.0
  0
VERTEX
  5
4B0
  8
2600
 10
581950.87395919964
 20
519919.80118682049
 30
0.0
  0
VERTEX
  5
4B1
  8
2600
 10
581968.28110941115
 20
519939.69997416082
 30
0.0
  0
VERTEX
  5
4B2
  8
2600
 10
581986.80434680905
 20
519986.73548211018
 30
0.0
  0
VERTEX
  5
4B3
  8
2600
 10
581992.29472152004
 20
520046.63469658111
 30
0.0
  0
VERTEX
  5
4B4
  8
2600
 10
581999.44240954053
 20
520093.24176963209
 30
0.0
  0
VERTEX
  5
4B5
  8
2600
 10
582017.19902239018
 20
520132.71236631018
 30
0.0
  0
VERTEX
  5
4B6
  8
2600
 10
582001.08826583822
 20
520185.41867812478
 30
0.0
  0
VERTEX
  5
4B7
  8
2600
 10
581958.73147743905
 20
520218.38402443542
 30
0.0
  0
VERTEX
  5
4B8
  8
2600
 10
581958.44959138939
 20
520237.96710676159
 30
0.0
  0
VERTEX
  5
4B9
  8
2600
 10
581989.28422022145
 20
520231.73259213782
 30
0.0
  0
VERTEX
  5
4BA
  8
2600
 10
582034.73011413205
 20
520194.92278875539
 30
0.0
  0
VERTEX
  5
4BB
  8
2600
 10
582096.87289864745
 20
520173.60360488371
 30
0.0
  0
VERTEX
  5
4BC
  8
2600
 10
582115.61038416496
 20
520197.26793837728
 30
0.0
  0
VERTEX
  5
4BD
  8
2600
 10
582107.16605712078
 20
520219.5229643049
 30
0.0
  0
VERTEX
  5
4BE
  8
2600
 10
582119.10519457457
 20
520286.88563315163
 30
0.0
  0
VERTEX
  5
4BF
  8
2600
 10
582115.12540030177
 20
520311.5871429143
 30
0.0
  0
VERTEX
  5
4C0
  8
2600
 10
582130.60468548315
 20
520329.62570315477
 30
0.0
  0
VERTEX
  5
4C1
  8
2600
 10
582165.7685098853
 20
520353.62828763988
 30
0.0
  0
VERTEX
  5
4C2
  8
2600
 10
582171.60840857576
 20
520397.73251191463
 30
0.0
  0
VERTEX
  5
4C3
  8
2600
 10
582164.39295994304
 20
520418.0709458004
 30
0.0
  0
VERTEX
  5
4C4
  8
2600
 10
582139.52229401458
 20
520439.98772073671
 30
0.0
  0
VERTEX
  5
4C5
  8
2600
 10
582138.13553242479
 20
520468.43223067542
 30
0.0
  0
VERTEX
  5
4C6
  8
2600
 10
582170.6048672488
 20
520483.00967678928
 30
0.0
  0
VERTEX
  5
4C7
  8
2600
 10
582197.6062506563
 20
520509.68420487602
 30
0.0
  0
VERTEX
  5
4C8
  8
2600
 10
582195.98269497044
 20
520560.23719189392
 30
0.0
  0
VERTEX
  5
4C9
  8
2600
 10
582125.03484778397
 20
520583.60824366717
 30
0.0
  0
VERTEX
  5
4CA
  8
2600
 10
582071.44912019651
 20
520588.98588849453
 30
0.0
  0
VERTEX
  5
4CB
  8
2600
 10
582042.09137551964
 20
520607.19348221901
 30
0.0
  0
VERTEX
  5
4CC
  8
2600
 10
582065.85710456711
 20
520629.50493442948
 30
0.0
  0
VERTEX
  5
4CD
  8
2600
 10
582102.22726140427
 20
520650.32822949631
 30
0.0
  0
VERTEX
  5
4CE
  8
2600
 10
582130.15302985581
 20
520728.77335002401
 30
0.0
  0
VERTEX
  5
4CF
  8
2600
 10
582144.20046149427
 20
520772.7310254504
 30
0.0
  0
VERTEX
  5
4D0
  8
2600
 10
582182.12647474592
 20
520774.58004090318
 30
0.0
  0
VERTEX
  5
4D1
  8
2600
 10
582203.15262226202
 20
520784.94095998892
 30
0.0
  0
VERTEX
  5
4D2
  8
2600
 10
582170.63807280245
 20
520838.5717181887
 30
0.0
  0
VERTEX
  5
4D3
  8
2600
 10
582108.04418472981
 20
520940.73735312861
 30
0.0
  0
VERTEX
  5
4D4
  8
2600
 10
582076.08207304054
 20
520989.9373975218
 30
0.0
  0
VERTEX
  5
4D5
  8
2600
 10
582041.72990379878
 20
521011.39191859472
 30
0.0
  0
VERTEX
  5
4D6
  8
2600
 10
581975.23531639564
 20
521036.57810551481
 30
0.0
  0
VERTEX
  5
4D7
  8
2600
 10
581932.35997053247
 20
521040.5014121636
 30
0.0
  0
VERTEX
  5
4D8
  8
2600
 10
581916.50855405361
 20
521072.36194427579
 30
0.0
  0
VERTEX
  5
4D9
  8
2600
 10
581931.06339284976
 20
521073.99671160872
 30
0.0
  0
VERTEX
  5
4DA
  8
2600
 10
581951.25527788722
 20
521073.0046272935
 30
0.0
  0
VERTEX
  5
4DB
  8
2600
 10
581942.78840486612
 20
521093.99695584452
 30
0.0
  0
VERTEX
  5
4DC
  8
2600
 10
581922.17935791903
 20
521106.99593822582
 30
0.0
  0
VERTEX
  5
4DD
  8
2600
 10
581921.88619888097
 20
521125.94767186343
 30
0.0
  0
VERTEX
  5
4DE
  8
2600
 10
581944.53584074159
 20
521121.12240346492
 30
0.0
  0
VERTEX
  5
4DF
  8
2600
 10
581976.45279913675
 20
521104.76376385172
 30
0.0
  0
VERTEX
  5
4E0
  8
2600
 10
581994.45747907099
 20
521122.75723213912
 30
0.0
  0
VERTEX
  5
4E1
  8
2600
 10
581969.57547881303
 20
521179.40945792029
 30
0.0
  0
VERTEX
  5
4E2
  8
2600
 10
581976.84716970497
 20
521232.96136654302
 30
0.0
  0
VERTEX
  5
4E3
  8
2600
 10
582004.19807709241
 20
521243.84090443351
 30
0.0
  0
VERTEX
  5
4E4
  8
2600
 10
582019.21523109288
 20
521200.62736892042
 30
0.0
  0
VERTEX
  5
4E5
  8
2600
 10
582022.87938169192
 20
521158.24809588538
 30
0.0
  0
VERTEX
  5
4E6
  8
2600
 10
582047.37803900521
 20
521115.49681423517
 30
0.0
  0
VERTEX
  5
4E7
  8
2600
 10
582077.89702416374
 20
521091.5845363391
 30
0.0
  0
VERTEX
  5
4E8
  8
2600
 10
582114.30106130708
 20
521078.93507793749
 30
0.0
  0
VERTEX
  5
4E9
  8
2600
 10
582132.20422300498
 20
521126.61320756329
 30
0.0
  0
VERTEX
  5
4EA
  8
2600
 10
582127.61556467961
 20
521187.95548722422
 30
0.0
  0
VERTEX
  5
4EB
  8
2600
 10
582135.42842035333
 20
521236.44533335202
 30
0.0
  0
VERTEX
  5
4EC
  8
2600
 10
582139.63355171075
 20
521295.10439642263
 30
0.0
  0
VERTEX
  5
4ED
  8
2600
 10
582073.24035986105
 20
521361.33952107088
 30
0.0
  0
VERTEX
  5
4EE
  8
2600
 10
581920.52149253886
 20
521438.58927544649
 30
0.0
  0
VERTEX
  5
4EF
  8
2600
 10
581830.655669339
 20
521498.92801378033
 30
0.0
  0
VERTEX
  5
4F0
  8
2600
 10
581765.58160114894
 20
521532.93053635961
 30
0.0
  0
VERTEX
  5
4F1
  8
2600
 10
581708.41063388041
 20
521585.10689503991
 30
0.0
  0
VERTEX
  5
4F2
  8
2600
 10
581643.81433727057
 20
521658.34747492347
 30
0.0
  0
SEQEND
  5
4F3
  8
2600
  0
POLYLINE
  5
91
  8
2700
 66
     1
 10
0.0
 20
0.0
 30
0.0
 70
     1
  0
VERTEX
  5
4F4
  8
2700
 10
581242.63373715896
 20
521248.59724673833
 30
0.0
  0
VERTEX
  5
4F5
  8
2700
 10
581208.16889937513
 20
521228.37148139463
 30
0.0
  0
VERTEX
  5
4F6
  8
2700
 10
581164.18873931339
 20
521205.78941612301
 30
0.0
  0
VERTEX
  5
4F7
  8
2700
 10
581131.51649069937
 20
521179.84769361938
 30
0.0
  0
VERTEX
  5
4F8
  8
2700
 10
581145.3724042183
 20
521142.33884227788
 30
0.0
  0
VERTEX
  5
4F9
  8
2700
 10
581134.10964606493
 20
521112.85709472903
 30
0.0
  0
VERTEX
  5
4FA
  8
2700
 10
581151.13357601373
 20
521075.92322713352
 30
0.0
  0
VERTEX
  5
4FB
  8
2700
 10
581175.73369022203
 20
521038.85408367851
 30
0.0
  0
VERTEX
  5
4FC
  8
2700
 10
581206.13994549715
 20
521008.62831889931
 30
0.0
  0
VERTEX
  5
4FD
  8
2700
 10
581247.51586122811
 20
520991.46923577267
 30
0.0
  0
VERTEX
  5
4FE
  8
2700
 10
581295.79145923641
 20
521007.02755455452
 30
0.0
  0
VERTEX
  5
4FF
  8
2700
 10
581310.12077692442
 20
521031.40214765491
 30
0.0
  0
VERTEX
  5
500
  8
2700
 10
581302.44307442871
 20
521061.22208485391
 30
0.0
  0
VERTEX
  5
501
  8
2700
 10
581274.75385470886
 20
521102.13568538072
 30
0.0
  0
VERTEX
  5
502
  8
2700
 10
581271.50686601922
 20
521132.50806034962
 30
0.0
  0
VERTEX
  5
503
  8
2700
 10
581312.36410160456
 20
521157.0405366277
 30
0.0
  0
VERTEX
  5
504
  8
2700
 10
581367.53944323061
 20
521169.94945778482
 30
0.0
  0
VERTEX
  5
505
  8
2700
 10
581376.28807961917
 20
521200.10764597508
 30
0.0
  0
VERTEX
  5
506
  8
2700
 10
581338.68898302957
 20
521216.56774248322
 30
0.0
  0
VERTEX
  5
507
  8
2700
 10
581302.85992963286
 20
521226.04918445513
 30
0.0
  0
VERTEX
  5
508
  8
2700
 10
581278.66570434591
 20
521250.48008115613
 30
0.0
  0
VERTEX
  5
509
  8
2700
 10
581255.40725977381
 20
521256.57931991928
 30
0.0
  0
VERTEX
  5
50A
  8
2700
 10
581242.63373715896
 20
521248.59724673833
 30
0.0
  0
SEQEND
  5
50B
  8
2700
  0
POLYLINE
  5
92
  8
2550
 66
     1
 10
0.0
 20
0.0
 30
0.0
 70
     1
  0
VERTEX
  5
50C
  8
2550
 10
578803.02859217289
 20
520597.42527373502
 30
0.0
  0
VERTEX
  5
50D
  8
2550
 10
578766.48272033606
 20
520563.15192978887
 30
0.0
  0
VERTEX
  5
50E
  8
2550
 10
578737.38628185785
 20
520566.84001750092
 30
0.0
  0
VERTEX
  5
50F
  8
2550
 10
578725.87789249246
 20
520602.2038391832
 30
0.0
  0
VERTEX
  5
510
  8
2550
 10
578685.34174396272
 20
520622.28876861132
 30
0.0
  0
VERTEX
  5
511
  8
2550
 10
578629.81973491749
 20
520590.47567601368
 30
0.0
  0
VERTEX
  5
512
  8
2550
 10
578598.38208923512
 20
520542.3115279089
 30
0.0
  0
VERTEX
  5
513
  8
2550
 10
578545.33864602225
 20
520524.41671119491
 30
0.0
  0
VERTEX
  5
514
  8
2550
 10
578489.80747973535
 20
520495.1325492594
 30
0.0
  0
VERTEX
  5
515
  8
2550
 10
578484.86408393388
 20
520463.50260149827
 30
0.0
  0
VERTEX
  5
516
  8
2550
 10
578522.92624525237
 20
520428.23493085522
 30
0.0
  0
VERTEX
  5
517
  8
2550
 10
578565.98674582341
 20
520409.42362400028
 30
0.0
  0
VERTEX
  5
518
  8
2550
 10
578575.0028334941
 20
520363.93492242711
 30
0.0
  0
VERTEX
  5
519
  8
2550
 10
578565.16182810068
 20
520288.03037359408
 30
0.0
  0
VERTEX
  5
51A
  8
2550
 10
578546.31389227812
 20
520255.0855956719
 30
0.0
  0
VERTEX
  5
51B
  8
2550
 10
578586.81799046136
 20
520243.85192356142
 30
0.0
  0
VERTEX
  5
51C
  8
2550
 10
578637.21345886856
 20
520294.61368164222
 30
0.0
  0
VERTEX
  5
51D
  8
2550
 10
578685.258562829
 20
520296.0521345681
 30
0.0
  0
VERTEX
  5
51E
  8
2550
 10
578735.83259745175
 20
520297.49974473601
 30
0.0
  0
VERTEX
  5
51F
  8
2550
 10
578760.94791647862
 20
520345.64099973609
 30
0.0
  0
VERTEX
  5
520
  8
2550
 10
578750.54831933288
 20
520424.00122129673
 30
0.0
  0
VERTEX
  5
521
  8
2550
 10
578765.61659502506
 20
520453.13886736281
 30
0.0
  0
VERTEX
  5
522
  8
2550
 10
578795.8172471018
 20
520493.7116448601
 30
0.0
  0
VERTEX
  5
523
  8
2550
 10
578818.49978650606
 20
520515.28997066501
 30
0.0
  0
VERTEX
  5
524
  8
2550
 10
578844.94367155677
 20
520545.7332896507
 30
0.0
  0
VERTEX
  5
525
  8
2550
 10
578834.79589856148
 20
520554.54791800102
 30
0.0
  0
VERTEX
  5
526
  8
2550
 10
578801.96100754139
 20
520543.04868587729
 30
0.0
  0
VERTEX
  5
527
  8
2550
 10
578804.4212588896
 20
520562.02482308529
 30
0.0
  0
VERTEX
  5
528
  8
2550
 10
578815.73734617676
 20
520579.76854530902
 30
0.0
  0
VERTEX
  5
529
  8
2550
 10
578819.48495596065
 20
520592.42693448259
 30
0.0
  0
SEQEND
  5
52A
  8
2550
  0
POLYLINE
  5
93
  8
2600
 66
     1
 10
0.0
 20
0.0
 30
0.0
 70
     1
  0
VERTEX
  5
52B
  8
2600
 10
578072.54840517207
 20
518743.57869301678
 30
0.0
  0
VERTEX
  5
52C
  8
2600
 10
578003.12185610551
 20
518710.45077025791
 30
0.0
  0
VERTEX
  5
52D
  8
2600
 10
577993.13891346345
 20
518673.74464668892
 30
0.0
  0
VERTEX
  5
52E
  8
2600
 10
578013.4573525585
 20
518649.79306333262
 30
0.0
  0
VERTEX
  5
52F
  8
2600
 10
578005.98960471607
 20
518616.88949299877
 30
0.0
  0
VERTEX
  5
530
  8
2600
 10
577961.84320502973
 20
518586.38207332022
 30
0.0
  0
VERTEX
  5
531
  8
2600
 10
577934.23100568715
 20
518529.38040376088
 30
0.0
  0
VERTEX
  5
532
  8
2600
 10
577930.54291797476
 20
518500.2839652829
 30
0.0
  0
VERTEX
  5
533
  8
2600
 10
577969.8237584153
 20
518477.6655265718
 30
0.0
  0
VERTEX
  5
534
  8
2600
 10
578027.9250629528
 20
518495.57865776948
 30
0.0
  0
VERTEX
  5
535
  8
2600
 10
578067.09601649106
 20
518503.30738700437
 30
0.0
  0
VERTEX
  5
536
  8
2600
 10
578107.53601398156
 20
518509.77622952958
 30
0.0
  0
VERTEX
  5
537
  8
2600
 10
578113.62483096984
 20
518574.28685451963
 30
0.0
  0
VERTEX
  5
538
  8
2600
 10
578108.31514549511
 20
518643.81413324631
 30
0.0
  0
VERTEX
  5
539
  8
2600
 10
578106.82174911816
 20
518707.03282118018
 30
0.0
  0
VERTEX
  5
53A
  8
2600
 10
578087.76777535421
 20
518730.98898315709
 30
0.0
  0
SEQEND
  5
53B
  8
2600
  0
POLYLINE
  5
94
  8
2600
 66
     1
 10
0.0
 20
0.0
 30
0.0
 70
     1
  0
VERTEX
  5
53C
  8
2600
 10
576930.84227482916
 20
518335.09424376342
 30
0.0
  0
VERTEX
  5
53D
  8
2600
 10
576895.51508211426
 20
518313.47013174911
 30
0.0
  0
VERTEX
  5
53E
  8
2600
 10
576866.54226640111
 20
518283.01765552169
 30
0.0
  0
VERTEX
  5
53F
  8
2600
 10
576840.03428065742
 20
518270.27685117139
 30
0.0
  0
VERTEX
  5
540
  8
2600
 10
576851.56556312786
 20
518228.59070283372
 30
0.0
  0
VERTEX
  5
541
  8
2600
 10
576888.47314601706
 20
518162.97128562321
 30
0.0
  0
VERTEX
  5
542
  8
2600
 10
576907.37144666968
 20
518182.00694490352
 30
0.0
  0
VERTEX
  5
543
  8
2600
 10
576890.72735942411
 20
518238.84836273082
 30
0.0
  0
VERTEX
  5
544
  8
2600
 10
576917.18040171685
 20
518266.76275105408
 30
0.0
  0
VERTEX
  5
545
  8
2600
 10
576934.77302944998
 20
518297.17401969351
 30
0.0
  0
VERTEX
  5
546
  8
2600
 10
576947.32153172162
 20
518323.77357785561
 30
0.0
  0
SEQEND
  5
547
  8
2600
  0
POLYLINE
  5
95
  8
2550
 66
     1
 10
0.0
 20
0.0
 30
0.0
 70
     1
  0
VERTEX
  5
548
  8
2550
 10
578540.06635547173
 20
520932.82527727558
 30
0.0
  0
VERTEX
  5
549
  8
2550
 10
578508.527980129
 20
520912.47936645499
 30
0.0
  0
VERTEX
  5
54A
  8
2550
 10
578485.86833382957
 20
520884.57871399459
 30
0.0
  0
VERTEX
  5
54B
  8
2550
 10
578499.89649661526
 20
520851.75298021612
 30
0.0
  0
VERTEX
  5
54C
  8
2550
 10
578539.15902257245
 20
520834.1924028293
 30
0.0
  0
VERTEX
  5
54D
  8
2550
 10
578566.97725985653
 20
520834.29313248978
 30
0.0
  0
VERTEX
  5
54E
  8
2550
 10
578585.86182464636
 20
520857.12218776299
 30
0.0
  0
VERTEX
  5
54F
  8
2550
 10
578585.78398809058
 20
520878.6180983918
 30
0.0
  0
VERTEX
  5
550
  8
2550
 10
578578.08730920206
 20
520908.93779461237
 30
0.0
  0
VERTEX
  5
551
  8
2550
 10
578564.16903331794
 20
520911.41636044462
 30
0.0
  0
SEQEND
  5
552
  8
2550
  0
POLYLINE
  5
96
  8
FRAME
 66
     1
 10
0.0
 20
0.0
 30
0.0
 70
     1
  0
VERTEX
  5
553
  8
FRAME
 10
576325.62752430758
 20
524044.4203816923
 30
0.0
  0
VERTEX
  5
554
  8
FRAME
 10
576339.43946525711
 20
517058.8229938657
 30
0.0
  0
VERTEX
  5
555
  8
FRAME
 10
584322.97933705873
 20
517074.60806923651
 30
0.0
  0
VERTEX
  5
556
  8
FRAME
 10
584309.1673961092
 20
524060.20545706328
 30
0.0
  0
SEQEND
  5
557
  8
FRAME
  0
POLYLINE
  5
9A
  8
2600
 66
     1
 10
0.0
 20
0.0
 30
0.0
  0
VERTEX
  5
558
  8
2600
 10
580930.79596047464
 20
517067.90103562351
 30
0.0
  0
VERTEX
  5
559
  8
2600
 10
580941.39585722273
 20
517072.373006462
 30
0.0
  0
VERTEX
  5
55A
  8
2600
 10
580971.62145021674
 20
517116.65606331552
 30
0.0
  0
VERTEX
  5
55B
  8
2600
 10
580963.27224575775
 20
517180.4383438449
 30
0.0
  0
VERTEX
  5
55C
  8
2600
 10
580926.45924672659
 20
517261.84655490541
 30
0.0
  0
VERTEX
  5
55D
  8
2600
 10
580911.69803646649
 20
517369.8330301668
 30
0.0
  0
VERTEX
  5
55E
  8
2600
 10
580931.73240476614
 20
517453.25866169872
 30
0.0
  0
VERTEX
  5
55F
  8
2600
 10
580957.52806044463
 20
517501.32229713647
 30
0.0
  0
VERTEX
  5
560
  8
2600
 10
580975.6782580649
 20
517579.69038769038
 30
0.0
  0
VERTEX
  5
561
  8
2600
 10
580998.90367265604
 20
517647.96243197267
 30
0.0
  0
VERTEX
  5
562
  8
2600
 10
581087.27671013365
 20
517677.21019475913
 30
0.0
  0
VERTEX
  5
563
  8
2600
 10
581156.23754420737
 20
517627.45546487009
 30
0.0
  0
VERTEX
  5
564
  8
2600
 10
581175.31583736755
 20
517568.11807826522
 30
0.0
  0
VERTEX
  5
565
  8
2600
 10
581243.68985853111
 20
517497.51645833539
 30
0.0
  0
VERTEX
  5
566
  8
2600
 10
581272.9036290237
 20
517424.9354893039
 30
0.0
  0
VERTEX
  5
567
  8
2600
 10
581278.76145451691
 20
517344.72401882341
 30
0.0
  0
VERTEX
  5
568
  8
2600
 10
581359.69842646632
 20
517306.99709509709
 30
0.0
  0
VERTEX
  5
569
  8
2600
 10
581417.22914482153
 20
517285.0119312217
 30
0.0
  0
VERTEX
  5
56A
  8
2600
 10
581469.7335951092
 20
517250.38223505561
 30
0.0
  0
VERTEX
  5
56B
  8
2600
 10
581492.60606377153
 20
517189.1579583878
 30
0.0
  0
VERTEX
  5
56C
  8
2600
 10
581492.25634432107
 20
517069.01115652459
 30
0.0
  0
SEQEND
  5
56D
  8
2600
  0
POLYLINE
  5
9B
  8
2550
 66
     1
 10
0.0
 20
0.0
 30
0.0
  0
VERTEX
  5
56E
  8
2550
 10
580834.89433444676
 20
524053.33611551567
 30
0.0
  0
VERTEX
  5
56F
  8
2550
 10
580948.81644223246
 20
523986.6602967325
 30
0.0
  0
VERTEX
  5
570
  8
2550
 10
580990.30406878877
 20
523948.38482974569
 30
0.0
  0
VERTEX
  5
571
  8
2550
 10
581044.64300291217
 20
523936.5949601779
 30
0.0
  0
VERTEX
  5
572
  8
2550
 10
581074.12397090229
 20
523987.00703173131
 30
0.0
  0
VERTEX
  5
573
  8
2550
 10
581150.24793944682
 20
524011.76289743581
 30
0.0
  0
VERTEX
  5
574
  8
2550
 10
581235.07358841691
 20
524014.93792957673
 30
0.0
  0
VERTEX
  5
575
  8
2550
 10
581288.21185668372
 20
524012.01681386301
 30
0.0
  0
VERTEX
  5
576
  8
2550
 10
581346.30129809154
 20
523993.87090444018
 30
0.0
  0
VERTEX
  5
577
  8
2550
 10
581366.08742694091
 20
523930.4404518911
 30
0.0
  0
VERTEX
  5
578
  8
2550
 10
581355.30330422963
 20
523840.65434792312
 30
0.0
  0
VERTEX
  5
579
  8
2550
 10
581348.3160980884
 20
523750.84039838339
 30
0.0
  0
VERTEX
  5
57A
  8
2550
 10
581400.36508278456
 20
523771.97570280411
 30
0.0
  0
VERTEX
  5
57B
  8
2550
 10
581438.8633143428
 20
523843.83866192098
 30
0.0
  0
VERTEX
  5
57C
  8
2550
 10
581508.02461603365
 20
523954.713661024
 30
0.0
  0
VERTEX
  5
57D
  8
2550
 10
581559.16067244485
 20
524023.95252385602
 30
0.0
  0
VERTEX
  5
57E
  8
2550
 10
581582.79092829465
 20
524054.81485856598
 30
0.0
  0
SEQEND
  5
57F
  8
2550
  0
POLYLINE
  5
9C
  8
2550
 66
     1
 10
0.0
 20
0.0
 30
0.0
  0
VERTEX
  5
580
  8
2550
 10
581909.09210200945
 20
524055.4600220779
 30
0.0
  0
VERTEX
  5
581
  8
2550
 10
581906.1777656076
 20
524053.05026641389
 30
0.0
  0
VERTEX
  5
582
  8
2550
 10
581852.34335805441
 20
523961.04846787552
 30
0.0
  0
VERTEX
  5
583
  8
2550
 10
581882.36598004331
 20
523912.73142674938
 30
0.0
  0
VERTEX
  5
584
  8
2550
 10
581973.38987729652
 20
523898.14110561082
 30
0.0
  0
VERTEX
  5
585
  8
2550
 10
582015.47154271067
 20
523940.86652545258
 30
0.0
  0
VERTEX
  5
586
  8
2550
 10
582062.73642769444
 20
524000.00812300248
 30
0.0
  0
VERTEX
  5
587
  8
2550
 10
582108.42937253555
 20
524017.39292013861
 30
0.0
  0
VERTEX
  5
588
  8
2550
 10
582145.08649009373
 20
524010.79555199773
 30
0.0
  0
VERTEX
  5
589
  8
2550
 10
582171.49783265567
 20
523987.81913357723
 30
0.0
  0
VERTEX
  5
58A
  8
2550
 10
582172.33650608349
 20
523929.59046431212
 30
0.0
  0
VERTEX
  5
58B
  8
2550
 10
582160.51879094425
 20
523871.45461361861
 30
0.0
  0
VERTEX
  5
58C
  8
2550
 10
582184.20393679244
 20
523821.91834292148
 30
0.0
  0
VERTEX
  5
58D
  8
2550
 10
582190.17013864685
 20
523772.51201822469
 30
0.0
  0
VERTEX
  5
58E
  8
2550
 10
582179.75729022163
 20
523733.35146852449
 30
0.0
  0
VERTEX
  5
58F
  8
2550
 10
582201.05038621381
 20
523702.81834439212
 30
0.0
  0
VERTEX
  5
590
  8
2550
 10
582231.14726305974
 20
523664.62641411979
 30
0.0
  0
VERTEX
  5
591
  8
2550
 10
582213.03848106577
 20
523611.5995281387
 30
0.0
  0
VERTEX
  5
592
  8
2550
 10
582168.63902065286
 20
523598.00236571539
 30
0.0
  0
VERTEX
  5
593
  8
2550
 10
582095.25981253607
 20
523602.33763000031
 30
0.0
  0
VERTEX
  5
594
  8
2550
 10
582087.51746968133
 20
523582.14309943619
 30
0.0
  0
VERTEX
  5
595
  8
2550
 10
582053.38234797935
 20
523587.4562650061
 30
0.0
  0
VERTEX
  5
596
  8
2550
 10
582016.70666670683
 20
523591.52235543361
 30
0.0
  0
VERTEX
  5
597
  8
2550
 10
581991.29178914393
 20
523577.78596515302
 30
0.0
  0
VERTEX
  5
598
  8
2550
 10
581992.24184485769
 20
523534.74496216822
 30
0.0
  0
VERTEX
  5
599
  8
2550
 10
582004.51767728128
 20
523482.76095047232
 30
0.0
  0
VERTEX
  5
59A
  8
2550
 10
581972.37548557785
 20
523414.6484986397
 30
0.0
  0
VERTEX
  5
59B
  8
2550
 10
581910.23851745704
 20
523398.65000450303
 30
0.0
  0
VERTEX
  5
59C
  8
2550
 10
581851.09691990714
 20
523445.91488948697
 30
0.0
  0
VERTEX
  5
59D
  8
2550
 10
581771.00896136346
 20
523398.40536993329
 30
0.0
  0
VERTEX
  5
59E
  8
2550
 10
581757.91632551025
 20
523339.01316223998
 30
0.0
  0
VERTEX
  5
59F
  8
2550
 10
581784.12346721475
 20
523288.19268897211
 30
0.0
  0
VERTEX
  5
5A0
  8
2550
 10
581836.04250591097
 20
523291.60904939898
 30
0.0
  0
VERTEX
  5
5A1
  8
2550
 10
581877.42803203827
 20
523239.41155498871
 30
0.0
  0
VERTEX
  5
5A2
  8
2550
 10
581939.5650001592
 20
523255.41004912503
 30
0.0
  0
VERTEX
  5
5A3
  8
2550
 10
582163.91722465132
 20
523299.33015925001
 30
0.0
  0
VERTEX
  5
5A4
  8
2550
 10
582171.25116579141
 20
523263.83658011968
 30
0.0
  0
VERTEX
  5
5A5
  8
2550
 10
582204.15777606552
 20
523263.5952518339
 30
0.0
  0
VERTEX
  5
5A6
  8
2550
 10
582265.17761504417
 20
523299.85324953462
 30
0.0
  0
VERTEX
  5
5A7
  8
2550
 10
582338.64964173245
 20
523308.17437381682
 30
0.0
  0
VERTEX
  5
5A8
  8
2550
 10
582370.04928486387
 20
523275.03571711382
 30
0.0
  0
VERTEX
  5
5A9
  8
2550
 10
582397.70770256803
 20
523249.51873912272
 30
0.0
  0
VERTEX
  5
5AA
  8
2550
 10
582452.46432026324
 20
523294.68261810631
 30
0.0
  0
VERTEX
  5
5AB
  8
2550
 10
582471.86658668541
 20
523351.4971388001
 30
0.0
  0
VERTEX
  5
5AC
  8
2550
 10
582583.20567864599
 20
523345.61777994392
 30
0.0
  0
VERTEX
  5
5AD
  8
2550
 10
582641.44362976821
 20
523347.72209222813
 30
0.0
  0
VERTEX
  5
5AE
  8
2550
 10
582682.02760989696
 20
523358.81582250958
 30
0.0
  0
VERTEX
  5
5AF
  8
2550
 10
582758.34649744164
 20
523410.15010420472
 30
0.0
  0
VERTEX
  5
5B0
  8
2550
 10
582837.37301798572
 20
523485.51296046318
 30
0.0
  0
VERTEX
  5
5B1
  8
2550
 10
582843.93325869809
 20
523517.10752259463
 30
0.0
  0
VERTEX
  5
5B2
  8
2550
 10
582835.53787955875
 20
523580.45443842933
 30
0.0
  0
VERTEX
  5
5B3
  8
2550
 10
582842.10740212817
 20
523613.31463941757
 30
0.0
  0
VERTEX
  5
5B4
  8
2550
 10
582829.89654270455
 20
523674.15812311042
 30
0.0
  0
VERTEX
  5
5B5
  8
2550
 10
582856.86479669565
 20
523727.12003609148
 30
0.0
  0
VERTEX
  5
5B6
  8
2550
 10
582902.43707739364
 20
523728.05152809073
 30
0.0
  0
VERTEX
  5
5B7
  8
2550
 10
582959.25159808761
 20
523708.64926166838
 30
0.0
  0
VERTEX
  5
5B8
  8
2550
 10
582999.64994107292
 20
523694.43021481601
 30
0.0
  0
VERTEX
  5
5B9
  8
2550
 10
583044.12365634355
 20
523718.15248809272
 30
0.0
  0
VERTEX
  5
5BA
  8
2550
 10
583108.0460473214
 20
523805.01747634698
 30
0.0
  0
VERTEX
  5
5BB
  8
2550
 10
583102.1355366098
 20
523862.01763418393
 30
0.0
  0
VERTEX
  5
5BC
  8
2550
 10
583106.35941860895
 20
523920.20917602052
 30
0.0
  0
VERTEX
  5
5BD
  8
2550
 10
583148.60815745173
 20
523985.71609528252
 30
0.0
  0
VERTEX
  5
5BE
  8
2550
 10
583194.3382297213
 20
524008.16344784549
 30
0.0
  0
VERTEX
  5
5BF
  8
2550
 10
583267.97732983856
 20
524039.26607154799
 30
0.0
  0
VERTEX
  5
5C0
  8
2550
 10
583314.796685679
 20
524037.65700397658
 30
0.0
  0
VERTEX
  5
5C1
  8
2550
 10
583366.61362394597
 20
524027.15133697982
 30
0.0
  0
VERTEX
  5
5C2
  8
2550
 10
583438.93139406363
 20
524050.6694093995
 30
0.0
  0
VERTEX
  5
5C3
  8
2550
 10
583442.91502104932
 20
524058.4927006606
 30
0.0
  0
SEQEND
  5
5C4
  8
2550
  0
ENDSEC
  0
EOF
