  0
SECTION
  2
HEADER
  9
$ACADVER
  1
AC1009
  9
$INSBASE
 10
0.0
 20
0.0
 30
0.0
  9
$EXTMIN
 10
576202.26255754032
 20
517046.65805785829
 30
0.0
  9
$EXTMAX
 10
584796.87839796836
 20
524311.15574251045
 30
0.0
  9
$LIMMIN
 10
0.0
 20
0.0
  9
$LIMMAX
 10
12.0
 20
9.0
  9
$ORTHOMODE
 70
     0
  9
$REGENMODE
 70
     1
  9
$FILLMODE
 70
     1
  9
$QTEXTMODE
 70
     0
  9
$MIRRTEXT
 70
     0
  9
$DRAGMODE
 70
     2
  9
$LTSCALE
 40
1.0
  9
$OSMODE
 70
    37
  9
$ATTMODE
 70
     1
  9
$TEXTSIZE
 40
1200.0
  9
$TRACEWID
 40
0.05
  9
$TEXTSTYLE
  7
STANDARD
  9
$CLAYER
  8
SITE_NUMBERS
  9
$CELTYPE
  6
BYLAYER
  9
$CECOLOR
 62
   256
  9
$DIMSCALE
 40
1.0
  9
$DIMASZ
 40
0.18
  9
$DIMEXO
 40
0.0625
  9
$DIMDLI
 40
0.38
  9
$DIMRND
 40
0.0
  9
$DIMDLE
 40
0.0
  9
$DIMEXE
 40
0.18
  9
$DIMTP
 40
0.0
  9
$DIMTM
 40
0.0
  9
$DIMTXT
 40
0.18
  9
$DIMCEN
 40
0.09
  9
$DIMTSZ
 40
0.0
  9
$DIMTOL
 70
     0
  9
$DIMLIM
 70
     0
  9
$DIMTIH
 70
     1
  9
$DIMTOH
 70
     1
  9
$DIMSE1
 70
     0
  9
$DIMSE2
 70
     0
  9
$DIMTAD
 70
     0
  9
$DIMZIN
 70
     0
  9
$DIMBLK
  1

  9
$DIMASO
 70
     1
  9
$DIMSHO
 70
     1
  9
$DIMPOST
  1

  9
$DIMAPOST
  1

  9
$DIMALT
 70
     0
  9
$DIMALTD
 70
     2
  9
$DIMALTF
 40
25.399999999999999
  9
$DIMLFAC
 40
1.0
  9
$DIMTOFL
 70
     0
  9
$DIMTVP
 40
0.0
  9
$DIMTIX
 70
     0
  9
$DIMSOXD
 70
     0
  9
$DIMSAH
 70
     0
  9
$DIMBLK1
  1

  9
$DIMBLK2
  1

  9
$DIMSTYLE
  2
STANDARD
  9
$DIMCLRD
 70
     0
  9
$DIMCLRE
 70
     0
  9
$DIMCLRT
 70
     0
  9
$DIMTFAC
 40
1.0
  9
$DIMGAP
 40
0.09
  9
$LUNITS
 70
     2
  9
$LUPREC
 70
     4
  9
$SKETCHINC
 40
0.1
  9
$FILLETRAD
 40
0.0
  9
$AUNITS
 70
     0
  9
$AUPREC
 70
     0
  9
$MENU
  1
.
  9
$ELEVATION
 40
0.0
  9
$PELEVATION
 40
0.0
  9
$THICKNESS
 40
0.0
  9
$LIMCHECK
 70
     0
  9
$BLIPMODE
 70
     0
  9
$CHAMFERA
 40
0.0
  9
$CHAMFERB
 40
0.0
  9
$SKPOLY
 70
     0
  9
$TDCREATE
 40
2455804.6739510992
  9
$TDUPDATE
 40
2456345.726258704
  9
$TDINDWG
 40
0.5375883218000001
  9
$TDUSRTIMER
 40
0.5375827315
  9
$USRTIMER
 70
     1
  9
$ANGBASE
 50
0.0
  9
$ANGDIR
 70
     0
  9
$PDMODE
 70
     0
  9
$PDSIZE
 40
0.0
  9
$PLINEWID
 40
0.0
  9
$COORDS
 70
     1
  9
$SPLFRAME
 70
     0
  9
$SPLINETYPE
 70
     6
  9
$SPLINESEGS
 70
     8
  9
$ATTDIA
 70
     0
  9
$ATTREQ
 70
     1
  9
$HANDLING
 70
     1
  9
$HANDSEED
  5
138
  9
$SURFTAB1
 70
     6
  9
$SURFTAB2
 70
     6
  9
$SURFTYPE
 70
     6
  9
$SURFU
 70
     6
  9
$SURFV
 70
     6
  9
$UCSNAME
  2

  9
$UCSORG
 10
0.0
 20
0.0
 30
0.0
  9
$UCSXDIR
 10
1.0
 20
0.0
 30
0.0
  9
$UCSYDIR
 10
0.0
 20
1.0
 30
0.0
  9
$PUCSNAME
  2

  9
$PUCSORG
 10
0.0
 20
0.0
 30
0.0
  9
$PUCSXDIR
 10
1.0
 20
0.0
 30
0.0
  9
$PUCSYDIR
 10
0.0
 20
1.0
 30
0.0
  9
$USERI1
 70
     0
  9
$USERI2
 70
     0
  9
$USERI3
 70
     0
  9
$USERI4
 70
     0
  9
$USERI5
 70
     0
  9
$USERR1
 40
0.0
  9
$USERR2
 40
0.0
  9
$USERR3
 40
0.0
  9
$USERR4
 40
0.0
  9
$USERR5
 40
0.0
  9
$WORLDVIEW
 70
     1
  9
$SHADEDGE
 70
     3
  9
$SHADEDIF
 70
    70
  9
$TILEMODE
 70
     1
  9
$MAXACTVP
 70
    64
  9
$PLIMCHECK
 70
     0
  9
$PEXTMIN
 10
0.0
 20
0.0
 30
0.0
  9
$PEXTMAX
 10
0.0
 20
0.0
 30
0.0
  9
$PLIMMIN
 10
0.0
 20
0.0
  9
$PLIMMAX
 10
12.0
 20
9.0
  9
$UNITMODE
 70
     0
  9
$VISRETAIN
 70
     1
  9
$PLINEGEN
 70
     0
  9
$PSLTSCALE
 70
     1
  0
ENDSEC
  0
SECTION
  2
TABLES
  0
TABLE
  2
VPORT
 70
     1
  0
VPORT
  2
*ACTIVE
 70
     0
 10
0.0
 20
0.0
 11
1.0
 21
1.0
 12
581312.68974800571
 22
519126.51722455182
 13
0.0
 23
0.0
 14
0.5
 24
0.5
 15
0.5
 25
0.5
 16
0.0
 26
0.0
 36
1.0
 17
0.0
 27
0.0
 37
0.0
 40
8783.7049614651023
 41
2.2329700272479558
 42
50.0
 43
0.0
 44
0.0
 50
0.0
 51
0.0
 71
     0
 72
  1000
 73
     1
 74
     3
 75
     0
 76
     0
 77
     0
 78
     0
  0
ENDTAB
  0
TABLE
  2
LTYPE
 70
     1
  0
LTYPE
  2
CONTINUOUS
 70
     0
  3
Solid line
 72
    65
 73
     0
 40
0.0
  0
ENDTAB
  0
TABLE
  2
LAYER
 70
     3
  0
LAYER
  2
0
 70
     4
 62
    -7
  6
CONTINUOUS
  0
LAYER
  2
SITES
 70
     0
 62
     2
  6
CONTINUOUS
  0
LAYER
  2
SITE_NUMBERS
 70
     0
 62
   220
  6
CONTINUOUS
  0
ENDTAB
  0
TABLE
  2
STYLE
 70
     2
  0
STYLE
  2
STANDARD
 70
     0
 40
0.0
 41
1.0
 50
0.0
 71
     0
 42
1200.0
  3
txt
  4

  0
STYLE
  2
ROMANS
 70
     0
 40
0.0
 41
1.0
 50
0.0
 71
     0
 42
0.05
  3
txt
  4

  0
ENDTAB
  0
TABLE
  2
VIEW
 70
     0
  0
ENDTAB
  0
TABLE
  2
UCS
 70
     0
  0
ENDTAB
  0
TABLE
  2
APPID
 70
     2
  0
APPID
  2
ACAD
 70
     0
  0
APPID
  2
ADE
 70
     0
  0
ENDTAB
  0
TABLE
  2
DIMSTYLE
 70
     1
  0
DIMSTYLE
  2
STANDARD
 70
     0
  3

  4

  5

  6

  7

 40
1.0
 41
0.18
 42
0.0625
 43
0.38
 44
0.18
 45
0.0
 46
0.0
 47
0.0
 48
0.0
140
0.18
141
0.09
142
0.0
143
25.399999999999999
144
1.0
145
0.0
146
1.0
147
0.09
 71
     0
 72
     0
 73
     1
 74
     1
 75
     0
 76
     0
 77
     0
 78
     0
170
     0
171
     2
172
     0
173
     0
174
     0
175
     0
176
     0
177
     0
178
     0
  0
ENDTAB
  0
ENDSEC
  0
SECTION
  2
BLOCKS
  0
BLOCK
  8
0
  2
$MODEL_SPACE
 70
     0
 10
0.0
 20
0.0
 30
0.0
  3
$MODEL_SPACE
  1

  0
ENDBLK
  5
17
  8
0
  0
BLOCK
 67
     1
  8
0
  2
$PAPER_SPACE
 70
     0
 10
0.0
 20
0.0
 30
0.0
  3
$PAPER_SPACE
  1

  0
ENDBLK
  5
1E
 67
     1
  8
0
  0
ENDSEC
  0
SECTION
  2
ENTITIES
  0
POLYLINE
  5
73
  8
SITES
 66
     1
 10
0.0
 20
0.0
 30
0.0
 70
     1
  0
VERTEX
  5
AE
  8
SITES
 10
581923.04341839754
 20
518211.35660399077
 30
0.0
  0
VERTEX
  5
AF
  8
SITES
 10
581879.47143101168
 20
518181.61832313827
 30
0.0
  0
VERTEX
  5
B0
  8
SITES
 10
581876.04686703987
 20
518148.4709132291
 30
0.0
  0
VERTEX
  5
B1
  8
SITES
 10
581900.53501930647
 20
518120.61126211111
 30
0.0
  0
VERTEX
  5
B2
  8
SITES
 10
581937.1463466119
 20
518139.87044766499
 30
0.0
  0
VERTEX
  5
B3
  8
SITES
 10
581965.00427420717
 20
518173.06616728281
 30
0.0
  0
VERTEX
  5
B4
  8
SITES
 10
581956.21983592119
 20
518202.70092887711
 30
0.0
  0
VERTEX
  5
B5
  8
SITES
 10
581935.25970916264
 20
518211.38075807202
 30
0.0
  0
SEQEND
  5
B6
  8
SITES
  0
POLYLINE
  5
77
  8
SITES
 66
     1
 10
0.0
 20
0.0
 30
0.0
 70
     1
  0
VERTEX
  5
B7
  8
SITES
 10
582082.45801135676
 20
517908.1732862913
 30
0.0
  0
VERTEX
  5
B8
  8
SITES
 10
582044.08725782356
 20
517895.88763928442
 30
0.0
  0
VERTEX
  5
B9
  8
SITES
 10
582030.19470102969
 20
517860.97527771117
 30
0.0
  0
VERTEX
  5
BA
  8
SITES
 10
582033.76450196898
 20
517820.8646797894
 30
0.0
  0
VERTEX
  5
BB
  8
SITES
 10
582059.95995845785
 20
517812.19520190149
 30
0.0
  0
VERTEX
  5
BC
  8
SITES
 10
582096.56783703284
 20
517833.19863495859
 30
0.0
  0
VERTEX
  5
BD
  8
SITES
 10
582108.71899334493
 20
517866.36329910852
 30
0.0
  0
VERTEX
  5
BE
  8
SITES
 10
582103.4108496079
 20
517902.98195132992
 30
0.0
  0
SEQEND
  5
BF
  8
SITES
  0
POLYLINE
  5
78
  8
SITES
 66
     1
 10
0.0
 20
0.0
 30
0.0
 70
     1
  0
VERTEX
  5
C0
  8
SITES
 10
582160.02512516105
 20
517583.41507435398
 30
0.0
  0
VERTEX
  5
C1
  8
SITES
 10
582133.12515577045
 20
517544.14351300529
 30
0.0
  0
VERTEX
  5
C2
  8
SITES
 10
582133.22208401584
 20
517495.120591374
 30
0.0
  0
VERTEX
  5
C3
  8
SITES
 10
582165.29350118816
 20
517399.58900947782
 30
0.0
  0
VERTEX
  5
C4
  8
SITES
 10
582177.6532547255
 20
517350.5903339361
 30
0.0
  0
VERTEX
  5
C5
  8
SITES
 10
582221.86633688246
 20
517316.36165016802
 30
0.0
  0
VERTEX
  5
C6
  8
SITES
 10
582273.34002993244
 20
517331.17024210672
 30
0.0
  0
VERTEX
  5
C7
  8
SITES
 10
582295.30117864255
 20
517387.59028266941
 30
0.0
  0
VERTEX
  5
C8
  8
SITES
 10
582270.5529843705
 20
517500.29439505399
 30
0.0
  0
VERTEX
  5
C9
  8
SITES
 10
582233.61505165568
 20
517576.20726416761
 30
0.0
  0
VERTEX
  5
CA
  8
SITES
 10
582194.34078979678
 20
517593.28766199062
 30
0.0
  0
SEQEND
  5
CB
  8
SITES
  0
POLYLINE
  5
79
  8
SITES
 66
     1
 10
0.0
 20
0.0
 30
0.0
 70
     1
  0
VERTEX
  5
CC
  8
SITES
 10
581642.82885966368
 20
518360.55389925413
 30
0.0
  0
VERTEX
  5
CD
  8
SITES
 10
581623.2880109289
 20
518319.11236686981
 30
0.0
  0
VERTEX
  5
CE
  8
SITES
 10
581634.26715663192
 20
518279.9102886669
 30
0.0
  0
VERTEX
  5
CF
  8
SITES
 10
581660.46066899528
 20
518264.7085020229
 30
0.0
  0
VERTEX
  5
D0
  8
SITES
 10
581712.75368941273
 20
518282.24458241009
 30
0.0
  0
VERTEX
  5
D1
  8
SITES
 10
581730.10583719856
 20
518328.0400072296
 30
0.0
  0
VERTEX
  5
D2
  8
SITES
 10
581708.23802443396
 20
518360.68322642101
 30
0.0
  0
VERTEX
  5
D3
  8
SITES
 10
581666.81212883524
 20
518360.60131903487
 30
0.0
  0
SEQEND
  5
D4
  8
SITES
  0
POLYLINE
  5
7A
  8
SITES
 66
     1
 10
0.0
 20
0.0
 30
0.0
 70
     1
  0
VERTEX
  5
D5
  8
SITES
 10
577394.0322746305
 20
518554.67085472302
 30
0.0
  0
VERTEX
  5
D6
  8
SITES
 10
577320.81925588823
 20
518529.27683266823
 30
0.0
  0
VERTEX
  5
D7
  8
SITES
 10
577295.63596776058
 20
518488.82837068249
 30
0.0
  0
VERTEX
  5
D8
  8
SITES
 10
577326.05129659269
 20
518438.39036431158
 30
0.0
  0
VERTEX
  5
D9
  8
SITES
 10
577394.2169878775
 20
518461.24934498023
 30
0.0
  0
VERTEX
  5
DA
  8
SITES
 10
577432.03224913566
 20
518501.7227829356
 30
0.0
  0
VERTEX
  5
DB
  8
SITES
 10
577416.80422466318
 20
518537.04141324619
 30
0.0
  0
SEQEND
  5
DC
  8
SITES
  0
POLYLINE
  5
7B
  8
SITES
 66
     1
 10
0.0
 20
0.0
 30
0.0
 70
     1
  0
VERTEX
  5
DD
  8
SITES
 10
579541.81696042826
 20
518191.02474997501
 30
0.0
  0
VERTEX
  5
DE
  8
SITES
 10
579481.32639436703
 20
518181.60116969422
 30
0.0
  0
VERTEX
  5
DF
  8
SITES
 10
579431.70249273616
 20
518169.0978777961
 30
0.0
  0
VERTEX
  5
E0
  8
SITES
 10
579424.05222115526
 20
518114.81006099691
 30
0.0
  0
VERTEX
  5
E1
  8
SITES
 10
579459.80154843465
 20
518082.3172075678
 30
0.0
  0
VERTEX
  5
E2
  8
SITES
 10
579529.65309609962
 20
518065.39815374278
 30
0.0
  0
VERTEX
  5
E3
  8
SITES
 10
579614.9987317255
 20
518059.36431165441
 30
0.0
  0
VERTEX
  5
E4
  8
SITES
 10
579686.32530348073
 20
518081.21429903718
 30
0.0
  0
VERTEX
  5
E5
  8
SITES
 10
579695.5483175175
 20
518124.6508419498
 30
0.0
  0
VERTEX
  5
E6
  8
SITES
 10
579641.15367597668
 20
518171.06260381598
 30
0.0
  0
VERTEX
  5
E7
  8
SITES
 10
579586.80769790406
 20
518192.66430438258
 30
0.0
  0
SEQEND
  5
E8
  8
SITES
  0
POLYLINE
  5
7C
  8
SITES
 66
     1
 10
0.0
 20
0.0
 30
0.0
 70
     1
  0
VERTEX
  5
E9
  8
SITES
 10
579818.54675353318
 20
517907.80307885038
 30
0.0
  0
VERTEX
  5
EA
  8
SITES
 10
579742.5659470571
 20
517885.94388910272
 30
0.0
  0
VERTEX
  5
EB
  8
SITES
 10
579700.76400952926
 20
517840.89233245282
 30
0.0
  0
VERTEX
  5
EC
  8
SITES
 10
579728.80748761329
 20
517782.02310033661
 30
0.0
  0
VERTEX
  5
ED
  8
SITES
 10
579787.79582734697
 20
517766.6333596253
 30
0.0
  0
VERTEX
  5
EE
  8
SITES
 10
579865.38042682747
 20
517762.13477100292
 30
0.0
  0
VERTEX
  5
EF
  8
SITES
 10
579939.76702885248
 20
517805.69996225857
 30
0.0
  0
VERTEX
  5
F0
  8
SITES
 10
579945.85682131979
 20
517864.63668276422
 30
0.0
  0
VERTEX
  5
F1
  8
SITES
 10
579919.38915190939
 20
517911.10385518032
 30
0.0
  0
VERTEX
  5
F2
  8
SITES
 10
579841.80416138272
 20
517915.60244302929
 30
0.0
  0
SEQEND
  5
F3
  8
SITES
  0
POLYLINE
  5
7D
  8
SITES
 66
     1
 10
0.0
 20
0.0
 30
0.0
 70
     1
  0
VERTEX
  5
F4
  8
SITES
 10
580370.57493897737
 20
518065.51003467682
 30
0.0
  0
VERTEX
  5
F5
  8
SITES
 10
580320.9636921176
 20
518046.80418010312
 30
0.0
  0
VERTEX
  5
F6
  8
SITES
 10
580311.81386899785
 20
517966.15244899329
 30
0.0
  0
VERTEX
  5
F7
  8
SITES
 10
580347.63945379411
 20
517894.89342828502
 30
0.0
  0
VERTEX
  5
F8
  8
SITES
 10
580372.53438036656
 20
517859.27772302419
 30
0.0
  0
VERTEX
  5
F9
  8
SITES
 10
580402.00382726185
 20
517863.98797917942
 30
0.0
  0
VERTEX
  5
FA
  8
SITES
 10
580415.89066533721
 20
517902.78156105772
 30
0.0
  0
VERTEX
  5
FB
  8
SITES
 10
580428.14957362425
 20
517980.33824224479
 30
0.0
  0
VERTEX
  5
FC
  8
SITES
 10
580429.58474032406
 20
518039.26575961278
 30
0.0
  0
VERTEX
  5
FD
  8
SITES
 10
580389.18998478388
 20
518067.0976322685
 30
0.0
  0
SEQEND
  5
FE
  8
SITES
  0
POLYLINE
  5
7E
  8
SITES
 66
     1
 10
0.0
 20
0.0
 30
0.0
 70
     1
  0
VERTEX
  5
FF
  8
SITES
 10
581107.91053486848
 20
517880.89007232687
 30
0.0
  0
VERTEX
  5
100
  8
SITES
 10
581035.0322908418
 20
517859.03701697371
 30
0.0
  0
VERTEX
  5
101
  8
SITES
 10
580991.68826997816
 20
517809.33042222302
 30
0.0
  0
VERTEX
  5
102
  8
SITES
 10
580985.60193439247
 20
517748.84310994513
 30
0.0
  0
VERTEX
  5
103
  8
SITES
 10
580996.56057694647
 20
517699.24407582812
 30
0.0
  0
VERTEX
  5
104
  8
SITES
 10
581066.46731117938
 20
517654.41358311789
 30
0.0
  0
VERTEX
  5
105
  8
SITES
 10
581170.43066816474
 20
517648.41635876609
 30
0.0
  0
VERTEX
  5
106
  8
SITES
 10
581226.19035094208
 20
517696.59690318839
 30
0.0
  0
VERTEX
  5
107
  8
SITES
 10
581240.02506828483
 20
517761.75133140688
 30
0.0
  0
VERTEX
  5
108
  8
SITES
 10
581222.7865449643
 20
517848.55366837658
 30
0.0
  0
VERTEX
  5
109
  8
SITES
 10
581166.86475821829
 20
517882.55742864351
 30
0.0
  0
VERTEX
  5
10A
  8
SITES
 10
581128.08031916351
 20
517880.9299520757
 30
0.0
  0
SEQEND
  5
10B
  8
SITES
  0
POLYLINE
  5
7F
  8
SITES
 66
     1
 10
0.0
 20
0.0
 30
0.0
 70
     1
  0
VERTEX
  5
10C
  8
SITES
 10
581490.59510980232
 20
518164.13416457642
 30
0.0
  0
VERTEX
  5
10D
  8
SITES
 10
581405.59731185832
 20
518146.53322695079
 30
0.0
  0
VERTEX
  5
10E
  8
SITES
 10
581349.00405156275
 20
518098.48129780218
 30
0.0
  0
VERTEX
  5
10F
  8
SITES
 10
581316.40737744211
 20
518043.93929158477
 30
0.0
  0
VERTEX
  5
110
  8
SITES
 10
581312.1584484349
 20
517987.27441790001
 30
0.0
  0
VERTEX
  5
111
  8
SITES
 10
581353.6360459507
 20
517961.20730113599
 30
0.0
  0
VERTEX
  5
112
  8
SITES
 10
581438.72001439356
 20
517935.22620973038
 30
0.0
  0
VERTEX
  5
113
  8
SITES
 10
581523.69157014135
 20
517965.90175529249
 30
0.0
  0
VERTEX
  5
114
  8
SITES
 10
581543.17210029101
 20
518037.8503214615
 30
0.0
  0
VERTEX
  5
115
  8
SITES
 10
581540.84121878305
 20
518114.11417526158
 30
0.0
  0
VERTEX
  5
116
  8
SITES
 10
581512.43668075278
 20
518144.56536005269
 30
0.0
  0
SEQEND
  5
117
  8
SITES
  0
POLYLINE
  5
80
  8
SITES
 66
     1
 10
0.0
 20
0.0
 30
0.0
 70
     1
  0
VERTEX
  5
118
  8
SITES
 10
581810.87624914164
 20
518278.08037064422
 30
0.0
  0
VERTEX
  5
119
  8
SITES
 10
581793.45555600361
 20
518267.15056982252
 30
0.0
  0
VERTEX
  5
11A
  8
SITES
 10
581791.36555969936
 20
518221.38532136782
 30
0.0
  0
VERTEX
  5
11B
  8
SITES
 10
581815.39191373822
 20
518199.6419199013
 30
0.0
  0
VERTEX
  5
11C
  8
SITES
 10
581854.62049172004
 20
518208.43572935811
 30
0.0
  0
VERTEX
  5
11D
  8
SITES
 10
581882.87814962026
 20
518252.07360660977
 30
0.0
  0
VERTEX
  5
11E
  8
SITES
 10
581850.10913526628
 20
518284.69527191768
 30
0.0
  0
SEQEND
  5
11F
  8
SITES
  0
POLYLINE
  5
81
  8
SITES
 66
     1
 10
0.0
 20
0.0
 30
0.0
 70
     1
  0
VERTEX
  5
120
  8
SITES
 10
581891.40273627546
 20
519710.62259008782
 30
0.0
  0
VERTEX
  5
121
  8
SITES
 10
581811.1355192773
 20
519673.40432758781
 30
0.0
  0
VERTEX
  5
122
  8
SITES
 10
581792.70552729932
 20
519617.77864746418
 30
0.0
  0
VERTEX
  5
123
  8
SITES
 10
581811.33702258812
 20
519571.49098994437
 30
0.0
  0
VERTEX
  5
124
  8
SITES
 10
581848.43553769332
 20
519562.29940341751
 30
0.0
  0
VERTEX
  5
125
  8
SITES
 10
581907.10904873733
 20
519580.9452884444
 30
0.0
  0
VERTEX
  5
126
  8
SITES
 10
581941.02592232614
 20
519618.0719069271
 30
0.0
  0
VERTEX
  5
127
  8
SITES
 10
581959.45630535064
 20
519673.6975878239
 30
0.0
  0
VERTEX
  5
128
  8
SITES
 10
581937.7587947069
 20
519707.6259972257
 30
0.0
  0
SEQEND
  5
129
  8
SITES
  0
POLYLINE
  5
82
  8
SITES
 66
     1
 10
0.0
 20
0.0
 30
0.0
 70
     1
  0
VERTEX
  5
12A
  8
SITES
 10
581768.92548500991
 20
519142.13387246052
 30
0.0
  0
VERTEX
  5
12B
  8
SITES
 10
581768.99875897577
 20
519105.07445938379
 30
0.0
  0
VERTEX
  5
12C
  8
SITES
 10
581830.90886729746
 20
519049.60743464209
 30
0.0
  0
VERTEX
  5
12D
  8
SITES
 10
581914.44931798312
 20
518994.18337073759
 30
0.0
  0
VERTEX
  5
12E
  8
SITES
 10
582025.83034940169
 20
518923.37272586761
 30
0.0
  0
VERTEX
  5
12F
  8
SITES
 10
582081.5176165537
 20
518889.5115210989
 30
0.0
  0
VERTEX
  5
130
  8
SITES
 10
582118.5978130718
 20
518889.58483615803
 30
0.0
  0
VERTEX
  5
131
  8
SITES
 10
582140.1548818521
 20
518926.68701680331
 30
0.0
  0
VERTEX
  5
132
  8
SITES
 10
582096.81520737207
 20
518966.74913162098
 30
0.0
  0
VERTEX
  5
133
  8
SITES
 10
581991.65091067296
 20
519019.04238589271
 30
0.0
  0
VERTEX
  5
134
  8
SITES
 10
581908.09214140021
 20
519083.7313513835
 30
0.0
  0
VERTEX
  5
135
  8
SITES
 10
581839.99582908291
 20
519142.27439292578
 30
0.0
  0
VERTEX
  5
136
  8
SITES
 10
581787.44135413715
 20
519154.52366806858
 30
0.0
  0
SEQEND
  5
137
  8
SITES
  0
TEXT
  5
83
  8
SITE_NUMBERS
 10
577357.24887890858
 20
518496.86358266242
 30
0.0
 40
49.897221730825223
  1
BOJ5
 50
0.113285213579163
  7
ROMANS
  0
TEXT
  5
85
  8
SITE_NUMBERS
 10
579540.79976839502
 20
518116.71103536029
 30
0.0
 40
49.897221730825223
  1
MSQ5
 50
0.113285213579163
  7
ROMANS
  0
TEXT
  5
86
  8
SITE_NUMBERS
 10
579841.22765242471
 20
517832.95721118309
 30
0.0
 40
49.897221730825223
  1
MSQ8
 50
0.113285213579163
  7
ROMANS
  0
TEXT
  5
87
  8
SITE_NUMBERS
 10
580363.20268133713
 20
517985.17885049328
 30
0.0
 40
49.897221730825223
  1
MSQ6
 50
0.113285213579163
  7
ROMANS
  0
TEXT
  5
88
  8
SITE_NUMBERS
 10
581116.41031329089
 20
517777.88250123139
 30
0.0
 40
49.897221730825223
  1
MSQ13
 50
0.113285213579163
  7
ROMANS
  0
TEXT
  5
89
  8
SITE_NUMBERS
 10
581443.62698876043
 20
518059.31005148479
 30
0.0
 40
49.897221730825223
  1
MSQ12
 50
0.113285213579163
  7
ROMANS
  0
TEXT
  5
8A
  8
SITE_NUMBERS
 10
581677.23732602748
 20
518318.95401034033
 30
0.0
 40
49.897221730825223
  1
MSQ4
 50
0.113285213579163
  7
ROMANS
  0
TEXT
  5
8B
  8
SITE_NUMBERS
 10
581832.25383559568
 20
518250.865292962
 30
0.0
 40
49.897221730825223
  1
MSQ3
 50
0.113285213579163
  7
ROMANS
  0
TEXT
  5
8C
  8
SITE_NUMBERS
 10
581922.47195143695
 20
518164.64962162008
 30
0.0
 40
49.897221730825223
  1
MSQ7
 50
0.113285213579163
  7
ROMANS
  0
TEXT
  5
8D
  8
SITE_NUMBERS
 10
582063.52914292959
 20
517869.74896470743
 30
0.0
 40
49.897221730825223
  1
MSQ9
 50
0.113285213579163
  7
ROMANS
  0
TEXT
  5
8E
  8
SITE_NUMBERS
 10
582204.81427566556
 20
517459.65666117711
 30
0.0
 40
49.897221730825223
  1
MSQ10
 50
0.113285213579163
  7
ROMANS
  0
TEXT
  5
8F
  8
SITE_NUMBERS
 10
581858.62198454293
 20
519618.0046157703
 30
0.0
 40
49.897221730825223
  1
MAD2
 50
0.113285213579163
  7
ROMANS
  0
TEXT
  5
90
  8
SITE_NUMBERS
 10
581945.37424115906
 20
519006.55690265109
 30
0.0
 40
49.897221730825223
  1
MAD1
 50
0.113285213579163
  7
ROMANS
  0
ENDSEC
  0
EOF
