  0
SECTION
  2
HEADER
  9
$ACADVER
  1
AC1009
  9
$INSBASE
 10
0.0
 20
0.0
 30
0.0
  9
$EXTMIN
 10
500000.0
 20
386825.40200000012
 30
0.0
  9
$EXTMAX
 10
833372.25899999996
 20
719460.31599999988
 30
5200.0
  9
$LIMMIN
 10
0.0
 20
0.0
  9
$LIMMAX
 10
12.0
 20
9.0
  9
$ORTHOMODE
 70
     0
  9
$REGENMODE
 70
     1
  9
$FILLMODE
 70
     1
  9
$QTEXTMODE
 70
     0
  9
$MIRRTEXT
 70
     0
  9
$DRAGMODE
 70
     2
  9
$LTSCALE
 40
1.0
  9
$OSMODE
 70
    37
  9
$ATTMODE
 70
     1
  9
$TEXTSIZE
 40
1200.0
  9
$TRACEWID
 40
0.05
  9
$TEXTSTYLE
  7
STANDARD
  9
$CLAYER
  8
TENA_LOTS
  9
$CELTYPE
  6
BYLAYER
  9
$CECOLOR
 62
   256
  9
$DIMSCALE
 40
1.0
  9
$DIMASZ
 40
0.18
  9
$DIMEXO
 40
0.0625
  9
$DIMDLI
 40
0.38
  9
$DIMRND
 40
0.0
  9
$DIMDLE
 40
0.0
  9
$DIMEXE
 40
0.18
  9
$DIMTP
 40
0.0
  9
$DIMTM
 40
0.0
  9
$DIMTXT
 40
0.18
  9
$DIMCEN
 40
0.09
  9
$DIMTSZ
 40
0.0
  9
$DIMTOL
 70
     0
  9
$DIMLIM
 70
     0
  9
$DIMTIH
 70
     1
  9
$DIMTOH
 70
     1
  9
$DIMSE1
 70
     0
  9
$DIMSE2
 70
     0
  9
$DIMTAD
 70
     0
  9
$DIMZIN
 70
     0
  9
$DIMBLK
  1

  9
$DIMASO
 70
     1
  9
$DIMSHO
 70
     1
  9
$DIMPOST
  1

  9
$DIMAPOST
  1

  9
$DIMALT
 70
     0
  9
$DIMALTD
 70
     2
  9
$DIMALTF
 40
25.399999999999999
  9
$DIMLFAC
 40
1.0
  9
$DIMTOFL
 70
     0
  9
$DIMTVP
 40
0.0
  9
$DIMTIX
 70
     0
  9
$DIMSOXD
 70
     0
  9
$DIMSAH
 70
     0
  9
$DIMBLK1
  1

  9
$DIMBLK2
  1

  9
$DIMSTYLE
  2
STANDARD
  9
$DIMCLRD
 70
     0
  9
$DIMCLRE
 70
     0
  9
$DIMCLRT
 70
     0
  9
$DIMTFAC
 40
1.0
  9
$DIMGAP
 40
0.09
  9
$LUNITS
 70
     2
  9
$LUPREC
 70
     4
  9
$SKETCHINC
 40
0.1
  9
$FILLETRAD
 40
0.0
  9
$AUNITS
 70
     0
  9
$AUPREC
 70
     0
  9
$MENU
  1
.
  9
$ELEVATION
 40
0.0
  9
$PELEVATION
 40
0.0
  9
$THICKNESS
 40
0.0
  9
$LIMCHECK
 70
     0
  9
$BLIPMODE
 70
     0
  9
$CHAMFERA
 40
0.0
  9
$CHAMFERB
 40
0.0
  9
$SKPOLY
 70
     0
  9
$TDCREATE
 40
2455804.6739510992
  9
$TDUPDATE
 40
2457511.592198553
  9
$TDINDWG
 40
0.5671615741
  9
$TDUSRTIMER
 40
0.5671559838
  9
$USRTIMER
 70
     1
  9
$ANGBASE
 50
0.0
  9
$ANGDIR
 70
     0
  9
$PDMODE
 70
     0
  9
$PDSIZE
 40
0.0
  9
$PLINEWID
 40
0.0
  9
$COORDS
 70
     1
  9
$SPLFRAME
 70
     0
  9
$SPLINETYPE
 70
     6
  9
$SPLINESEGS
 70
     8
  9
$ATTDIA
 70
     1
  9
$ATTREQ
 70
     1
  9
$HANDLING
 70
     1
  9
$HANDSEED
  5
AF6
  9
$SURFTAB1
 70
     6
  9
$SURFTAB2
 70
     6
  9
$SURFTYPE
 70
     6
  9
$SURFU
 70
     6
  9
$SURFV
 70
     6
  9
$UCSNAME
  2

  9
$UCSORG
 10
0.0
 20
0.0
 30
0.0
  9
$UCSXDIR
 10
1.0
 20
0.0
 30
0.0
  9
$UCSYDIR
 10
0.0
 20
1.0
 30
0.0
  9
$PUCSNAME
  2

  9
$PUCSORG
 10
0.0
 20
0.0
 30
0.0
  9
$PUCSXDIR
 10
1.0
 20
0.0
 30
0.0
  9
$PUCSYDIR
 10
0.0
 20
1.0
 30
0.0
  9
$USERI1
 70
     0
  9
$USERI2
 70
     0
  9
$USERI3
 70
     0
  9
$USERI4
 70
     0
  9
$USERI5
 70
     0
  9
$USERR1
 40
0.0
  9
$USERR2
 40
0.0
  9
$USERR3
 40
0.0
  9
$USERR4
 40
0.0
  9
$USERR5
 40
0.0
  9
$WORLDVIEW
 70
     1
  9
$SHADEDGE
 70
     3
  9
$SHADEDIF
 70
    70
  9
$TILEMODE
 70
     1
  9
$MAXACTVP
 70
    64
  9
$PLIMCHECK
 70
     0
  9
$PEXTMIN
 10
1.049999952316284
 20
0.7999999523162842
 30
0.0
  9
$PEXTMAX
 10
9.4499995708465594
 20
7.1999995708465576
 30
0.0
  9
$PLIMMIN
 10
-0.2500002402958907
 20
-0.2499999962453767
  9
$PLIMMAX
 10
10.74999951940822
 20
8.2499997634587334
  9
$UNITMODE
 70
     0
  9
$VISRETAIN
 70
     1
  9
$PLINEGEN
 70
     0
  9
$PSLTSCALE
 70
     1
  0
ENDSEC
  0
SECTION
  2
TABLES
  0
TABLE
  2
VPORT
 70
     1
  0
VPORT
  2
*ACTIVE
 70
     0
 10
0.0
 20
0.0
 11
1.0
 21
1.0
 12
572873.22700817708
 22
514705.49095489399
 13
0.0
 23
0.0
 14
0.5
 24
0.5
 15
0.5
 25
0.5
 16
0.0
 26
0.0
 36
1.0
 17
0.0
 27
0.0
 37
0.0
 40
63691.986028026273
 41
1.205432937181663
 42
50.0
 43
0.0
 44
0.0
 50
0.0
 51
0.0
 71
     0
 72
  1000
 73
     1
 74
     3
 75
     0
 76
     0
 77
     0
 78
     0
  0
ENDTAB
  0
TABLE
  2
LTYPE
 70
     1
  0
LTYPE
  2
CONTINUOUS
 70
     0
  3
Solid line
 72
    65
 73
     0
 40
0.0
  0
ENDTAB
  0
TABLE
  2
LAYER
 70
     4
  0
LAYER
  2
0
 70
     4
 62
     7
  6
CONTINUOUS
  0
LAYER
  2
TENA_LIMITS
 70
     0
 62
     5
  6
CONTINUOUS
  0
LAYER
  2
TENA_LOT-SITE_LABEL
 70
     0
 62
     7
  6
CONTINUOUS
  0
LAYER
  2
TENA_LOTS
 70
     0
 62
     6
  6
CONTINUOUS
  0
ENDTAB
  0
TABLE
  2
STYLE
 70
     1
  0
STYLE
  2
STANDARD
 70
     0
 40
0.0
 41
1.0
 50
0.0
 71
     0
 42
1200.0
  3
txt
  4

  0
ENDTAB
  0
TABLE
  2
VIEW
 70
     0
  0
ENDTAB
  0
TABLE
  2
UCS
 70
     0
  0
ENDTAB
  0
TABLE
  2
APPID
 70
     5
  0
APPID
  2
ACAD
 70
     0
  0
APPID
  2
ADE
 70
     0
  0
APPID
  2
ACAD_NAV_VCDISPLAY
 70
     0
  0
APPID
  2
ACAD_PSEXT
 70
     0
  0
APPID
  2
ADE_PROJECTION
 70
     0
  0
ENDTAB
  0
TABLE
  2
DIMSTYLE
 70
     1
  0
DIMSTYLE
  2
STANDARD
 70
     0
  3

  4

  5

  6

  7

 40
1.0
 41
0.18
 42
0.0625
 43
0.38
 44
0.18
 45
0.0
 46
0.0
 47
0.0
 48
0.0
140
0.18
141
0.09
142
0.0
143
25.399999999999999
144
1.0
145
0.0
146
1.0
147
0.09
 71
     0
 72
     0
 73
     1
 74
     1
 75
     0
 76
     0
 77
     0
 78
     0
170
     0
171
     2
172
     0
173
     0
174
     0
175
     0
176
     0
177
     0
178
     0
  0
ENDTAB
  0
ENDSEC
  0
SECTION
  2
BLOCKS
  0
BLOCK
  8
0
  2
$MODEL_SPACE
 70
     0
 10
0.0
 20
0.0
 30
0.0
  3
$MODEL_SPACE
  1

  0
ENDBLK
  5
16
  8
0
  0
BLOCK
 67
     1
  8
0
  2
$PAPER_SPACE
 70
     0
 10
0.0
 20
0.0
 30
0.0
  3
$PAPER_SPACE
  1

  0
ENDBLK
  5
1C
 67
     1
  8
0
  0
ENDSEC
  0
SECTION
  2
ENTITIES
  0
TEXT
  5
65
  8
TENA_LOT-SITE_LABEL
 10
568579.00304101617
 20
511635.74682574021
 30
0.0
 40
5.0608183140548038
  1
57/43
 50
1.635614663726825
 72
     4
 11
568587.77333633124
 21
511638.52697195928
 31
0.0
  0
POLYLINE
  5
68
  8
TENA_LOTS
 66
     1
 10
0.0
 20
0.0
 30
0.0
  0
VERTEX
  5
180
  8
TENA_LOTS
 10
569999.77304913837
 20
512793.20873192471
 30
0.0
  0
VERTEX
  5
181
  8
TENA_LOTS
 10
569992.07754212036
 20
512792.98898965988
 30
0.0
  0
VERTEX
  5
182
  8
TENA_LOTS
 10
569987.9997879829
 20
512788.67707958532
 30
0.0
  0
VERTEX
  5
183
  8
TENA_LOTS
 10
569985.36091480777
 20
512783.0078424582
 30
0.0
  0
VERTEX
  5
184
  8
TENA_LOTS
 10
569984.8408907858
 20
512776.69984385709
 30
0.0
  0
VERTEX
  5
185
  8
TENA_LOTS
 10
569989.8976961521
 20
512771.25029636268
 30
0.0
  0
VERTEX
  5
186
  8
TENA_LOTS
 10
570000.45135882369
 20
512769.45391649101
 30
0.0
  0
VERTEX
  5
187
  8
TENA_LOTS
 10
570007.32758725632
 20
512773.84573592979
 30
0.0
  0
VERTEX
  5
188
  8
TENA_LOTS
 10
570009.28683364741
 20
512778.7963596998
 30
0.0
  0
VERTEX
  5
189
  8
TENA_LOTS
 10
570009.8467579498
 20
512783.70702636061
 30
0.0
  0
VERTEX
  5
18A
  8
TENA_LOTS
 10
570006.14920450957
 20
512790.59385805199
 30
0.0
  0
VERTEX
  5
18B
  8
TENA_LOTS
 10
570003.31099981698
 20
512791.9112854781
 30
0.0
  0
VERTEX
  5
18C
  8
TENA_LOTS
 10
569999.77304913837
 20
512793.20873192471
 30
0.0
  0
SEQEND
  5
18D
  8
TENA_LOTS
  0
TEXT
  5
69
  8
TENA_LOT-SITE_LABEL
 10
569987.58789085806
 20
512778.9809721905
 30
0.0
 40
5.0608183140548038
  1
58/44
 50
1.635614663726825
 72
     4
 11
569996.35813690629
 21
512781.76284376992
 31
0.0
  0
POLYLINE
  5
6A
  8
TENA_LOTS
 66
     1
 10
0.0
 20
0.0
 30
0.0
  0
VERTEX
  5
18E
  8
TENA_LOTS
 10
569534.40470183711
 20
512879.48062195198
 30
0.0
  0
VERTEX
  5
18F
  8
TENA_LOTS
 10
569533.36221987929
 20
512874.74594487599
 30
0.0
  0
VERTEX
  5
190
  8
TENA_LOTS
 10
569536.05915191583
 20
512867.37353083328
 30
0.0
  0
VERTEX
  5
191
  8
TENA_LOTS
 10
569540.93052097328
 20
512861.76222870569
 30
0.0
  0
VERTEX
  5
192
  8
TENA_LOTS
 10
569545.94031742658
 20
512860.46768097847
 30
0.0
  0
VERTEX
  5
193
  8
TENA_LOTS
 10
569554.19297707675
 20
512860.18053817871
 30
0.0
  0
VERTEX
  5
194
  8
TENA_LOTS
 10
569561.04498821625
 20
512864.85381684487
 30
0.0
  0
VERTEX
  5
195
  8
TENA_LOTS
 10
569562.77704673773
 20
512869.56369546033
 30
0.0
  0
VERTEX
  5
196
  8
TENA_LOTS
 10
569563.11494304915
 20
512875.89078986901
 30
0.0
  0
VERTEX
  5
197
  8
TENA_LOTS
 10
569562.05241611181
 20
512880.41731805191
 30
0.0
  0
VERTEX
  5
198
  8
TENA_LOTS
 10
569560.19632049941
 20
512883.67841701361
 30
0.0
  0
VERTEX
  5
199
  8
TENA_LOTS
 10
569554.85945297254
 20
512887.25270232541
 30
0.0
  0
VERTEX
  5
19A
  8
TENA_LOTS
 10
569547.25682911428
 20
512887.68909324991
 30
0.0
  0
VERTEX
  5
19B
  8
TENA_LOTS
 10
569540.86089691543
 20
512887.1144000449
 30
0.0
  0
VERTEX
  5
19C
  8
TENA_LOTS
 10
569536.25054403674
 20
512883.58475772809
 30
0.0
  0
VERTEX
  5
19D
  8
TENA_LOTS
 10
569534.40470183711
 20
512879.48062195198
 30
0.0
  0
SEQEND
  5
19E
  8
TENA_LOTS
  0
TEXT
  5
6B
  8
TENA_LOT-SITE_LABEL
 10
569541.26940649131
 20
512872.3684277705
 30
0.0
 40
5.0608183140548038
  1
59/41
 50
1.635614663726825
 72
     4
 11
569550.03965253965
 21
512875.15029934992
 31
0.0
  0
POLYLINE
  5
6C
  8
TENA_LOTS
 66
     1
 10
0.0
 20
0.0
 30
0.0
  0
VERTEX
  5
19F
  8
TENA_LOTS
 10
568600.19502575265
 20
511629.41770324379
 30
0.0
  0
VERTEX
  5
1A0
  8
TENA_LOTS
 10
568604.20381506695
 20
511635.14264957543
 30
0.0
  0
VERTEX
  5
1A1
  8
TENA_LOTS
 10
568602.54718594556
 20
511646.86937980889
 30
0.0
  0
VERTEX
  5
1A2
  8
TENA_LOTS
 10
568595.57722977072
 20
511650.51517524879
 30
0.0
  0
VERTEX
  5
1A3
  8
TENA_LOTS
 10
568588.63394996291
 20
511651.50966802827
 30
0.0
  0
VERTEX
  5
1A4
  8
TENA_LOTS
 10
568579.0280595565
 20
511650.12842975883
 30
0.0
  0
VERTEX
  5
1A5
  8
TENA_LOTS
 10
568572.75809365942
 20
511645.6016994284
 30
0.0
  0
VERTEX
  5
1A6
  8
TENA_LOTS
 10
568570.43717948638
 20
511637.18041757832
 30
0.0
  0
VERTEX
  5
1A7
  8
TENA_LOTS
 10
568572.53852570406
 20
511629.31160009443
 30
0.0
  0
VERTEX
  5
1A8
  8
TENA_LOTS
 10
568578.87549276801
 20
511625.57104433258
 30
0.0
  0
VERTEX
  5
1A9
  8
TENA_LOTS
 10
568586.40876364184
 20
511624.9337771858
 30
0.0
  0
VERTEX
  5
1AA
  8
TENA_LOTS
 10
568593.70875558478
 20
511626.2491714051
 30
0.0
  0
VERTEX
  5
1AB
  8
TENA_LOTS
 10
568593.70875558478
 20
511626.2491714051
 30
0.0
  0
VERTEX
  5
1AC
  8
TENA_LOTS
 10
568600.19502575265
 20
511629.41770324379
 30
0.0
  0
SEQEND
  5
1AD
  8
TENA_LOTS
  0
POLYLINE
  5
6D
  8
TENA_LOTS
 66
     1
 10
0.0
 20
0.0
 30
0.0
  0
VERTEX
  5
1AE
  8
TENA_LOTS
 10
566970.47334155056
 20
514931.29959889711
 30
0.0
  0
VERTEX
  5
1AF
  8
TENA_LOTS
 10
566978.80774199287
 20
514947.5569192007
 30
0.0
  0
VERTEX
  5
1B0
  8
TENA_LOTS
 10
566983.28924628068
 20
514959.9407251532
 30
0.0
  0
VERTEX
  5
1B1
  8
TENA_LOTS
 10
566986.92281322205
 20
514966.9303415739
 30
0.0
  0
VERTEX
  5
1B2
  8
TENA_LOTS
 10
566989.52702948253
 20
514983.07649055612
 30
0.0
  0
VERTEX
  5
1B3
  8
TENA_LOTS
 10
566988.87040744501
 20
514992.6258160196
 30
0.0
  0
VERTEX
  5
1B4
  8
TENA_LOTS
 10
566983.06026018586
 20
515006.79701845639
 30
0.0
  0
VERTEX
  5
1B5
  8
TENA_LOTS
 10
566973.85412621195
 20
515015.36162081821
 30
0.0
  0
VERTEX
  5
1B6
  8
TENA_LOTS
 10
566958.60673415405
 20
515020.9714479894
 30
0.0
  0
VERTEX
  5
1B7
  8
TENA_LOTS
 10
566943.18458652333
 20
515022.69816001621
 30
0.0
  0
VERTEX
  5
1B8
  8
TENA_LOTS
 10
566921.57074420771
 20
515018.3828676322
 30
0.0
  0
VERTEX
  5
1B9
  8
TENA_LOTS
 10
566910.09698937263
 20
515011.27898992872
 30
0.0
  0
VERTEX
  5
1BA
  8
TENA_LOTS
 10
566900.56633871456
 20
514998.90571411472
 30
0.0
  0
VERTEX
  5
1BB
  8
TENA_LOTS
 10
566894.0510874571
 20
514985.7074736777
 30
0.0
  0
VERTEX
  5
1BC
  8
TENA_LOTS
 10
566894.0510874571
 20
514985.7074736777
 30
0.0
  0
VERTEX
  5
1BD
  8
TENA_LOTS
 10
566892.81128838134
 20
514975.34208551422
 30
0.0
  0
VERTEX
  5
1BE
  8
TENA_LOTS
 10
566900.24994791416
 20
514967.9156933332
 30
0.0
  0
VERTEX
  5
1BF
  8
TENA_LOTS
 10
566919.12983096915
 20
514963.44383018051
 30
0.0
  0
VERTEX
  5
1C0
  8
TENA_LOTS
 10
566928.32620389946
 20
514956.06722230511
 30
0.0
  0
VERTEX
  5
1C1
  8
TENA_LOTS
 10
566932.12744632643
 20
514940.88101627212
 30
0.0
  0
VERTEX
  5
1C2
  8
TENA_LOTS
 10
566931.04669505951
 20
514928.17296669423
 30
0.0
  0
VERTEX
  5
1C3
  8
TENA_LOTS
 10
566937.21851331845
 20
514923.03749493143
 30
0.0
  0
VERTEX
  5
1C4
  8
TENA_LOTS
 10
566937.21851331845
 20
514923.03749493143
 30
0.0
  0
VERTEX
  5
1C5
  8
TENA_LOTS
 10
566948.01150920603
 20
514920.66585949302
 30
0.0
  0
VERTEX
  5
1C6
  8
TENA_LOTS
 10
566957.85790250765
 20
514924.77329414181
 30
0.0
  0
VERTEX
  5
1C7
  8
TENA_LOTS
 10
566957.85790250765
 20
514924.77329414181
 30
0.0
  0
VERTEX
  5
1C8
  8
TENA_LOTS
 10
566970.47334155056
 20
514931.29959889711
 30
0.0
  0
SEQEND
  5
1C9
  8
TENA_LOTS
  0
TEXT
  5
6E
  8
TENA_LOT-SITE_LABEL
 10
566936.2429516674
 20
514977.47600838332
 30
0.0
 40
5.5907323633928607
  1
01/11
 50
0.5740304724056192
 72
     4
 11
566945.98679654242
 21
514980.36913899978
 31
0.0
  0
POLYLINE
  5
6F
  8
TENA_LOTS
 66
     1
 10
0.0
 20
0.0
 30
0.0
  0
VERTEX
  5
1CA
  8
TENA_LOTS
 10
565324.97443771968
 20
514094.20240975759
 30
0.0
  0
VERTEX
  5
1CB
  8
TENA_LOTS
 10
565319.94425248576
 20
514107.92539867602
 30
0.0
  0
VERTEX
  5
1CC
  8
TENA_LOTS
 10
565314.08162552421
 20
514114.69726800779
 30
0.0
  0
VERTEX
  5
1CD
  8
TENA_LOTS
 10
565301.29036067356
 20
514122.13919545937
 30
0.0
  0
VERTEX
  5
1CE
  8
TENA_LOTS
 10
565286.67808001884
 20
514116.91828463768
 30
0.0
  0
VERTEX
  5
1CF
  8
TENA_LOTS
 10
565271.05923706538
 20
514104.39169431909
 30
0.0
  0
VERTEX
  5
1D0
  8
TENA_LOTS
 10
565259.20770584408
 20
514095.25901343522
 30
0.0
  0
VERTEX
  5
1D1
  8
TENA_LOTS
 10
565246.07317631086
 20
514081.23505287443
 30
0.0
  0
VERTEX
  5
1D2
  8
TENA_LOTS
 10
565247.13903973519
 20
514064.20015382039
 30
0.0
  0
VERTEX
  5
1D3
  8
TENA_LOTS
 10
565258.62173992745
 20
514050.92344582343
 30
0.0
  0
VERTEX
  5
1D4
  8
TENA_LOTS
 10
565283.08725872077
 20
514048.88666148909
 30
0.0
  0
VERTEX
  5
1D5
  8
TENA_LOTS
 10
565300.82676257729
 20
514055.95702368172
 30
0.0
  0
VERTEX
  5
1D6
  8
TENA_LOTS
 10
565319.51959284709
 20
514069.82017373759
 30
0.0
  0
VERTEX
  5
1D7
  8
TENA_LOTS
 10
565325.93433786673
 20
514080.43980084069
 30
0.0
  0
VERTEX
  5
1D8
  8
TENA_LOTS
 10
565324.97443771968
 20
514094.20240975759
 30
0.0
  0
SEQEND
  5
1D9
  8
TENA_LOTS
  0
TEXT
  5
70
  8
TENA_LOT-SITE_LABEL
 10
565276.69296928996
 20
514081.23416467733
 30
0.0
 40
5.860477101144288
  1
02/12
 50
359.48124339058643
 72
     4
 11
565286.96292160812
 21
514084.0715365347
 31
0.0
  0
POLYLINE
  5
71
  8
TENA_LOTS
 66
     1
 10
0.0
 20
0.0
 30
0.0
  0
VERTEX
  5
1DA
  8
TENA_LOTS
 10
566537.81318717299
 20
514826.6446056721
 30
0.0
  0
VERTEX
  5
1DB
  8
TENA_LOTS
 10
566535.17145474826
 20
514821.7540837737
 30
0.0
  0
VERTEX
  5
1DC
  8
TENA_LOTS
 10
566534.15007628431
 20
514817.10244188958
 30
0.0
  0
VERTEX
  5
1DD
  8
TENA_LOTS
 10
566539.62673311925
 20
514812.87253779487
 30
0.0
  0
VERTEX
  5
1DE
  8
TENA_LOTS
 10
566547.8052120076
 20
514808.86647893518
 30
0.0
  0
VERTEX
  5
1DF
  8
TENA_LOTS
 10
566552.42872556054
 20
514807.67704614101
 30
0.0
  0
VERTEX
  5
1E0
  8
TENA_LOTS
 10
566556.71943039715
 20
514811.72061661183
 30
0.0
  0
VERTEX
  5
1E1
  8
TENA_LOTS
 10
566558.03194590483
 20
514815.26795755152
 30
0.0
  0
VERTEX
  5
1E2
  8
TENA_LOTS
 10
566556.35428957338
 20
514819.1447323084
 30
0.0
  0
VERTEX
  5
1E3
  8
TENA_LOTS
 10
566547.61083849322
 20
514823.70524239109
 30
0.0
  0
VERTEX
  5
1E4
  8
TENA_LOTS
 10
566537.81318717299
 20
514826.6446056721
 30
0.0
  0
SEQEND
  5
1E5
  8
TENA_LOTS
  0
TEXT
  5
72
  8
TENA_LOT-SITE_LABEL
 10
566544.9710621197
 20
514817.28053591453
 30
0.0
 40
5.6015993899292722
  1
03/01
 50
1.062809348396607
  0
POLYLINE
  5
73
  8
TENA_LOTS
 66
     1
 10
0.0
 20
0.0
 30
0.0
  0
VERTEX
  5
1E6
  8
TENA_LOTS
 10
565875.72002898902
 20
514879.40393161221
 30
0.0
  0
VERTEX
  5
1E7
  8
TENA_LOTS
 10
565860.77999393851
 20
514896.21085699159
 30
0.0
  0
VERTEX
  5
1E8
  8
TENA_LOTS
 10
565834.64116667234
 20
514917.74252305052
 30
0.0
  0
VERTEX
  5
1E9
  8
TENA_LOTS
 10
565817.82191538916
 20
514925.43853313132
 30
0.0
  0
VERTEX
  5
1EA
  8
TENA_LOTS
 10
565796.76375419495
 20
514907.80617421051
 30
0.0
  0
VERTEX
  5
1EB
  8
TENA_LOTS
 10
565821.0842311593
 20
514870.83495516243
 30
0.0
  0
VERTEX
  5
1EC
  8
TENA_LOTS
 10
565854.32149807445
 20
514854.65753713169
 30
0.0
  0
VERTEX
  5
1ED
  8
TENA_LOTS
 10
565866.95036847622
 20
514860.19365916401
 30
0.0
  0
VERTEX
  5
1EE
  8
TENA_LOTS
 10
565870.31194349262
 20
514864.83786506462
 30
0.0
  0
VERTEX
  5
1EF
  8
TENA_LOTS
 10
565876.05762650084
 20
514871.89705306222
 30
0.0
  0
VERTEX
  5
1F0
  8
TENA_LOTS
 10
565875.72002898902
 20
514879.40393161221
 30
0.0
  0
SEQEND
  5
1F1
  8
TENA_LOTS
  0
TEXT
  5
74
  8
TENA_LOT-SITE_LABEL
 10
565834.90504547616
 20
514888.56857112638
 30
0.0
 40
5.7251967789058469
  1
04/02
 50
359.6789772329239
  0
POLYLINE
  5
75
  8
TENA_LOTS
 66
     1
 10
0.0
 20
0.0
 30
0.0
  0
VERTEX
  5
1F2
  8
TENA_LOTS
 10
570161.31366436544
 20
512413.7709388588
 30
0.0
  0
VERTEX
  5
1F3
  8
TENA_LOTS
 10
570156.21971704112
 20
512430.15107258002
 30
0.0
  0
VERTEX
  5
1F4
  8
TENA_LOTS
 10
570157.35229922505
 20
512444.57873556332
 30
0.0
  0
VERTEX
  5
1F5
  8
TENA_LOTS
 10
570165.81607423443
 20
512452.05238186748
 30
0.0
  0
VERTEX
  5
1F6
  8
TENA_LOTS
 10
570177.67205980083
 20
512454.33511200262
 30
0.0
  0
VERTEX
  5
1F7
  8
TENA_LOTS
 10
570190.75246402004
 20
512447.9039634745
 30
0.0
  0
VERTEX
  5
1F8
  8
TENA_LOTS
 10
570192.8034511084
 20
512435.81255413842
 30
0.0
  0
VERTEX
  5
1F9
  8
TENA_LOTS
 10
570192.877166491
 20
512424.63438962458
 30
0.0
  0
VERTEX
  5
1FA
  8
TENA_LOTS
 10
570192.13053434005
 20
512416.83632185572
 30
0.0
  0
VERTEX
  5
1FB
  8
TENA_LOTS
 10
570186.13223089615
 20
512413.74876210192
 30
0.0
  0
VERTEX
  5
1FC
  8
TENA_LOTS
 10
570177.97241231299
 20
512409.8710080944
 30
0.0
  0
VERTEX
  5
1FD
  8
TENA_LOTS
 10
570169.44254680187
 20
512410.3559140545
 30
0.0
  0
VERTEX
  5
1FE
  8
TENA_LOTS
 10
570161.31366436544
 20
512413.7709388588
 30
0.0
  0
VERTEX
  5
1FF
  8
TENA_LOTS
 10
570161.31366436544
 20
512413.7709388588
 30
0.0
  0
SEQEND
  5
200
  8
TENA_LOTS
  0
TEXT
  5
76
  8
TENA_LOT-SITE_LABEL
 10
570164.50426124129
 20
512429.2209718615
 30
0.0
 40
5.0608183140548038
  1
62/33
 50
1.635614663726825
 72
     4
 11
570173.27455655648
 21
512432.00111808057
 31
0.0
  0
POLYLINE
  5
77
  8
TENA_LOTS
 66
     1
 10
0.0
 20
0.0
 30
0.0
 70
     1
  0
VERTEX
  5
201
  8
TENA_LOTS
 10
569974.08030482533
 20
512216.40735371452
 30
0.0
  0
VERTEX
  5
202
  8
TENA_LOTS
 10
569969.98606563988
 20
512223.4214896714
 30
0.0
  0
VERTEX
  5
203
  8
TENA_LOTS
 10
569971.4722051631
 20
512228.326002224
 30
0.0
  0
VERTEX
  5
204
  8
TENA_LOTS
 10
569983.61327012198
 20
512235.15783760842
 30
0.0
  0
VERTEX
  5
205
  8
TENA_LOTS
 10
569990.92315917916
 20
512240.55278353108
 30
0.0
  0
VERTEX
  5
206
  8
TENA_LOTS
 10
570000.18154419342
 20
512246.00575138372
 30
0.0
  0
VERTEX
  5
207
  8
TENA_LOTS
 10
570007.9353614687
 20
512247.19957395637
 30
0.0
  0
VERTEX
  5
208
  8
TENA_LOTS
 10
570013.01637229766
 20
512239.88709308859
 30
0.0
  0
VERTEX
  5
209
  8
TENA_LOTS
 10
570013.83024386433
 20
512234.07584119501
 30
0.0
  0
VERTEX
  5
20A
  8
TENA_LOTS
 10
570013.83024386433
 20
512234.07584119501
 30
0.0
  0
VERTEX
  5
20B
  8
TENA_LOTS
 10
570013.83024386433
 20
512234.07584119501
 30
0.0
  0
VERTEX
  5
20C
  8
TENA_LOTS
 10
570020.03240486083
 20
512227.0980624326
 30
0.0
  0
VERTEX
  5
20D
  8
TENA_LOTS
 10
570023.9955593124
 20
512223.56228811981
 30
0.0
  0
VERTEX
  5
20E
  8
TENA_LOTS
 10
570028.83138521679
 20
512213.26835934888
 30
0.0
  0
VERTEX
  5
20F
  8
TENA_LOTS
 10
570026.70201004879
 20
512207.75440349377
 30
0.0
  0
VERTEX
  5
210
  8
TENA_LOTS
 10
570022.68691372627
 20
512205.9904613673
 30
0.0
  0
VERTEX
  5
211
  8
TENA_LOTS
 10
570016.45232596842
 20
512206.31770970061
 30
0.0
  0
VERTEX
  5
212
  8
TENA_LOTS
 10
570012.82457046176
 20
512209.45312142657
 30
0.0
  0
VERTEX
  5
213
  8
TENA_LOTS
 10
570008.07788577385
 20
512211.95358974778
 30
0.0
  0
VERTEX
  5
214
  8
TENA_LOTS
 10
570004.69565296022
 20
512216.72385452769
 30
0.0
  0
VERTEX
  5
215
  8
TENA_LOTS
 10
570001.55286437506
 20
512221.11723384942
 30
0.0
  0
VERTEX
  5
216
  8
TENA_LOTS
 10
570001.55286437506
 20
512221.11723384942
 30
0.0
  0
VERTEX
  5
217
  8
TENA_LOTS
 10
570001.55286437506
 20
512221.11723384942
 30
0.0
  0
VERTEX
  5
218
  8
TENA_LOTS
 10
570001.55286437506
 20
512221.11723384942
 30
0.0
  0
VERTEX
  5
219
  8
TENA_LOTS
 10
570001.55286437506
 20
512221.11723384942
 30
0.0
  0
VERTEX
  5
21A
  8
TENA_LOTS
 10
570001.55286437506
 20
512221.11723384942
 30
0.0
  0
VERTEX
  5
21B
  8
TENA_LOTS
 10
569992.47696643311
 20
512220.17404763278
 30
0.0
  0
VERTEX
  5
21C
  8
TENA_LOTS
 10
569984.787885917
 20
512216.71310460451
 30
0.0
  0
VERTEX
  5
21D
  8
TENA_LOTS
 10
569980.31733725686
 20
512213.99234237772
 30
0.0
  0
SEQEND
  5
21E
  8
TENA_LOTS
  0
TEXT
  5
78
  8
TENA_LOT-SITE_LABEL
 10
569991.28881936765
 20
512225.97570900631
 30
0.0
 40
5.0608183140548038
  1
63/34
 50
1.635614663726825
 72
     4
 11
570000.05911468284
 21
512228.75585522538
 31
0.0
  0
POLYLINE
  5
79
  8
TENA_LOTS
 66
     1
 10
0.0
 20
0.0
 30
0.0
  0
VERTEX
  5
21F
  8
TENA_LOTS
 10
569192.31994071859
 20
511588.06717841642
 30
0.0
  0
VERTEX
  5
220
  8
TENA_LOTS
 10
569203.12186413014
 20
511593.49711819069
 30
0.0
  0
VERTEX
  5
221
  8
TENA_LOTS
 10
569207.01131517254
 20
511604.80324140983
 30
0.0
  0
VERTEX
  5
222
  8
TENA_LOTS
 10
569205.57742710179
 20
511614.0860438011
 30
0.0
  0
VERTEX
  5
223
  8
TENA_LOTS
 10
569200.61302690138
 20
511624.43350208172
 30
0.0
  0
VERTEX
  5
224
  8
TENA_LOTS
 10
569194.47044466762
 20
511635.33124366688
 30
0.0
  0
VERTEX
  5
225
  8
TENA_LOTS
 10
569182.76095191145
 20
511636.7438943584
 30
0.0
  0
VERTEX
  5
226
  8
TENA_LOTS
 10
569172.36258274654
 20
511632.95056795212
 30
0.0
  0
VERTEX
  5
227
  8
TENA_LOTS
 10
569162.68115761667
 20
511624.51584035158
 30
0.0
  0
VERTEX
  5
228
  8
TENA_LOTS
 10
569163.89228469459
 20
511615.24812744209
 30
0.0
  0
VERTEX
  5
229
  8
TENA_LOTS
 10
569171.52217096614
 20
511600.76059817721
 30
0.0
  0
VERTEX
  5
22A
  8
TENA_LOTS
 10
569178.79213975475
 20
511591.7588446397
 30
0.0
  0
VERTEX
  5
22B
  8
TENA_LOTS
 10
569184.75179984386
 20
511587.26714719931
 30
0.0
  0
VERTEX
  5
22C
  8
TENA_LOTS
 10
569192.89752808062
 20
511588.083671203
 30
0.0
  0
SEQEND
  5
22D
  8
TENA_LOTS
  0
TEXT
  5
7A
  8
TENA_LOT-SITE_LABEL
 10
569176.81877820636
 20
511610.7804218228
 30
0.0
 40
5.0608183140548038
  1
65/35
 50
1.635614663726825
 72
     4
 11
569185.58907352155
 21
511613.56056804192
 31
0.0
  0
POLYLINE
  5
7B
  8
TENA_LOTS
 66
     1
 10
0.0
 20
0.0
 30
0.0
  0
VERTEX
  5
22E
  8
TENA_LOTS
 10
569362.80368731671
 20
511982.90002146608
 30
0.0
  0
VERTEX
  5
22F
  8
TENA_LOTS
 10
569355.19118520617
 20
511977.4072776867
 30
0.0
  0
VERTEX
  5
230
  8
TENA_LOTS
 10
569355.31335190998
 20
511964.53231860802
 30
0.0
  0
VERTEX
  5
231
  8
TENA_LOTS
 10
569367.7266477365
 20
511955.89431357838
 30
0.0
  0
VERTEX
  5
232
  8
TENA_LOTS
 10
569383.69743482443
 20
511950.51779232698
 30
0.0
  0
VERTEX
  5
233
  8
TENA_LOTS
 10
569395.21479028161
 20
511947.68676504149
 30
0.0
  0
VERTEX
  5
234
  8
TENA_LOTS
 10
569406.59347001754
 20
511949.71224540751
 30
0.0
  0
VERTEX
  5
235
  8
TENA_LOTS
 10
569413.97517148603
 20
511955.27073552291
 30
0.0
  0
VERTEX
  5
236
  8
TENA_LOTS
 10
569414.98726717976
 20
511962.58914253651
 30
0.0
  0
VERTEX
  5
237
  8
TENA_LOTS
 10
569409.08559860208
 20
511972.91963950178
 30
0.0
  0
VERTEX
  5
238
  8
TENA_LOTS
 10
569400.90050573135
 20
511978.15336988412
 30
0.0
  0
VERTEX
  5
239
  8
TENA_LOTS
 10
569395.7454055734
 20
511979.82944661961
 30
0.0
  0
VERTEX
  5
23A
  8
TENA_LOTS
 10
569385.46007050981
 20
511982.08834291663
 30
0.0
  0
VERTEX
  5
23B
  8
TENA_LOTS
 10
569373.66465677146
 20
511986.44239003671
 30
0.0
  0
VERTEX
  5
23C
  8
TENA_LOTS
 10
569362.80368731671
 20
511982.90002146608
 30
0.0
  0
SEQEND
  5
23D
  8
TENA_LOTS
  0
TEXT
  5
7C
  8
TENA_LOT-SITE_LABEL
 10
569375.43805700564
 20
511963.79058363772
 30
0.0
 40
5.0608183140548038
  1
66/36
 50
1.635614663726825
 72
     4
 11
569384.20835232083
 21
511966.57072985673
 31
0.0
  0
POLYLINE
  5
7D
  8
TENA_LOTS
 66
     1
 10
0.0
 20
0.0
 30
0.0
  0
VERTEX
  5
23E
  8
TENA_LOTS
 10
570289.83107016305
 20
512230.0639191891
 30
0.0
  0
VERTEX
  5
23F
  8
TENA_LOTS
 10
570283.66802259884
 20
512229.88793571881
 30
0.0
  0
VERTEX
  5
240
  8
TENA_LOTS
 10
570275.8957091081
 20
512229.34186184662
 30
0.0
  0
VERTEX
  5
241
  8
TENA_LOTS
 10
570273.09626213927
 20
512225.04812515649
 30
0.0
  0
VERTEX
  5
242
  8
TENA_LOTS
 10
570270.6852547361
 20
512218.49651122122
 30
0.0
  0
VERTEX
  5
243
  8
TENA_LOTS
 10
570273.87319026038
 20
512209.185143749
 30
0.0
  0
VERTEX
  5
244
  8
TENA_LOTS
 10
570277.14326291811
 20
512192.32560301892
 30
0.0
  0
VERTEX
  5
245
  8
TENA_LOTS
 10
570285.79796123924
 20
512192.8921063111
 30
0.0
  0
VERTEX
  5
246
  8
TENA_LOTS
 10
570292.69931525888
 20
512193.08843005321
 30
0.0
  0
VERTEX
  5
247
  8
TENA_LOTS
 10
570297.18185052113
 20
512193.53892397962
 30
0.0
  0
VERTEX
  5
248
  8
TENA_LOTS
 10
570299.09873326262
 20
512212.50094028458
 30
0.0
  0
VERTEX
  5
249
  8
TENA_LOTS
 10
570298.17678538954
 20
512221.8746287988
 30
0.0
  0
VERTEX
  5
24A
  8
TENA_LOTS
 10
570295.08774606441
 20
512227.94505257253
 30
0.0
  0
VERTEX
  5
24B
  8
TENA_LOTS
 10
570289.83107016305
 20
512230.0639191891
 30
0.0
  0
SEQEND
  5
24C
  8
TENA_LOTS
  0
POLYLINE
  5
7E
  8
TENA_LOTS
 66
     1
 10
0.0
 20
0.0
 30
0.0
  0
VERTEX
  5
24D
  8
TENA_LOTS
 10
570297.18181906384
 20
512193.05162414612
 30
0.0
  0
VERTEX
  5
24E
  8
TENA_LOTS
 10
570287.02160929039
 20
512192.21932823869
 30
0.0
  0
VERTEX
  5
24F
  8
TENA_LOTS
 10
570277.26248717925
 20
512191.66837851552
 30
0.0
  0
VERTEX
  5
250
  8
TENA_LOTS
 10
570274.18711974565
 20
512180.17180181528
 30
0.0
  0
VERTEX
  5
251
  8
TENA_LOTS
 10
570258.47651109891
 20
512135.72855003102
 30
0.0
  0
VERTEX
  5
252
  8
TENA_LOTS
 10
570259.06679091416
 20
512095.97679369868
 30
0.0
  0
VERTEX
  5
253
  8
TENA_LOTS
 10
570274.34580683184
 20
512095.42904448742
 30
0.0
  0
VERTEX
  5
254
  8
TENA_LOTS
 10
570282.87862701039
 20
512089.77087028412
 30
0.0
  0
VERTEX
  5
255
  8
TENA_LOTS
 10
570297.23205751774
 20
512104.44446745812
 30
0.0
  0
VERTEX
  5
256
  8
TENA_LOTS
 10
570304.9808713313
 20
512142.4285820357
 30
0.0
  0
VERTEX
  5
257
  8
TENA_LOTS
 10
570300.40689926886
 20
512187.37704907003
 30
0.0
  0
VERTEX
  5
258
  8
TENA_LOTS
 10
570297.18181906384
 20
512193.05162414612
 30
0.0
  0
VERTEX
  5
259
  8
TENA_LOTS
 10
570297.18181906384
 20
512193.05162414612
 30
0.0
  0
SEQEND
  5
25A
  8
TENA_LOTS
  0
TEXT
  5
7F
  8
TENA_LOT-SITE_LABEL
 10
570277.29533987457
 20
512207.87809915119
 30
0.0
 40
5.0608183140548038
  1
67/37
 50
1.635614663726825
 72
     4
 11
570286.06563518976
 21
512210.65824537032
 31
0.0
  0
TEXT
  5
80
  8
TENA_LOT-SITE_LABEL
 10
570284.12652894366
 20
512145.98015941988
 30
0.0
 40
5.0608183140548038
  1
68/37
 50
1.635614663726825
  0
POLYLINE
  5
81
  8
TENA_LOTS
 66
     1
 10
0.0
 20
0.0
 30
0.0
  0
VERTEX
  5
25B
  8
TENA_LOTS
 10
570153.61823522276
 20
511979.67028359481
 30
0.0
  0
VERTEX
  5
25C
  8
TENA_LOTS
 10
570162.4180753479
 20
511982.51540128439
 30
0.0
  0
VERTEX
  5
25D
  8
TENA_LOTS
 10
570166.60299329075
 20
511987.61001243518
 30
0.0
  0
VERTEX
  5
25E
  8
TENA_LOTS
 10
570167.99094428832
 20
512007.33513526048
 30
0.0
  0
VERTEX
  5
25F
  8
TENA_LOTS
 10
570165.51274874446
 20
512018.29655772349
 30
0.0
  0
VERTEX
  5
260
  8
TENA_LOTS
 10
570154.39526344545
 20
512020.79029147542
 30
0.0
  0
VERTEX
  5
261
  8
TENA_LOTS
 10
570154.39526344545
 20
512020.79029147542
 30
0.0
  0
VERTEX
  5
262
  8
TENA_LOTS
 10
570142.36267728824
 20
512017.41816858522
 30
0.0
  0
VERTEX
  5
263
  8
TENA_LOTS
 10
570142.36267728824
 20
512017.41816858522
 30
0.0
  0
VERTEX
  5
264
  8
TENA_LOTS
 10
570142.36267728824
 20
512017.41816858522
 30
0.0
  0
VERTEX
  5
265
  8
TENA_LOTS
 10
570138.92230269313
 20
511993.7436771646
 30
0.0
  0
VERTEX
  5
266
  8
TENA_LOTS
 10
570143.14852180821
 20
511982.1825142267
 30
0.0
  0
VERTEX
  5
267
  8
TENA_LOTS
 10
570143.14852180821
 20
511982.1825142267
 30
0.0
  0
VERTEX
  5
268
  8
TENA_LOTS
 10
570153.61823522276
 20
511979.67028359481
 30
0.0
  0
VERTEX
  5
269
  8
TENA_LOTS
 10
570153.61823522276
 20
511979.67028359481
 30
0.0
  0
SEQEND
  5
26A
  8
TENA_LOTS
  0
TEXT
  5
82
  8
TENA_LOT-SITE_LABEL
 10
570151.35803144006
 20
511998.20688475959
 30
0.0
 40
5.0608183140548038
  1
69/38
 50
1.635614663726825
  0
POLYLINE
  5
83
  8
TENA_LOTS
 66
     1
 10
0.0
 20
0.0
 30
0.0
  0
VERTEX
  5
26B
  8
TENA_LOTS
 10
569691.52174675476
 20
511277.44483393151
 30
0.0
  0
VERTEX
  5
26C
  8
TENA_LOTS
 10
569691.52174675476
 20
511277.44483393151
 30
0.0
  0
VERTEX
  5
26D
  8
TENA_LOTS
 10
569691.52174675476
 20
511277.44483393151
 30
0.0
  0
VERTEX
  5
26E
  8
TENA_LOTS
 10
569684.83669390646
 20
511290.68965635588
 30
0.0
  0
VERTEX
  5
26F
  8
TENA_LOTS
 10
569675.81064785342
 20
511297.56956807279
 30
0.0
  0
VERTEX
  5
270
  8
TENA_LOTS
 10
569664.37824192992
 20
511300.6014499829
 30
0.0
  0
VERTEX
  5
271
  8
TENA_LOTS
 10
569650.8289223311
 20
511303.99387145421
 30
0.0
  0
VERTEX
  5
272
  8
TENA_LOTS
 10
569640.32390046632
 20
511303.69390456559
 30
0.0
  0
VERTEX
  5
273
  8
TENA_LOTS
 10
569632.28550989029
 20
511298.95232709928
 30
0.0
  0
VERTEX
  5
274
  8
TENA_LOTS
 10
569629.66717369796
 20
511289.25216398778
 30
0.0
  0
VERTEX
  5
275
  8
TENA_LOTS
 10
569629.66717369796
 20
511289.25216398778
 30
0.0
  0
VERTEX
  5
276
  8
TENA_LOTS
 10
569625.73225979193
 20
511273.63885367219
 30
0.0
  0
VERTEX
  5
277
  8
TENA_LOTS
 10
569625.73225979193
 20
511273.63885367219
 30
0.0
  0
VERTEX
  5
278
  8
TENA_LOTS
 10
569625.73225979193
 20
511273.63885367219
 30
0.0
  0
VERTEX
  5
279
  8
TENA_LOTS
 10
569633.57979973918
 20
511259.79743693059
 30
0.0
  0
VERTEX
  5
27A
  8
TENA_LOTS
 10
569648.26113968925
 20
511256.81552396738
 30
0.0
  0
VERTEX
  5
27B
  8
TENA_LOTS
 10
569663.45648518088
 20
511261.62264777272
 30
0.0
  0
VERTEX
  5
27C
  8
TENA_LOTS
 10
569681.00047285587
 20
511260.6666636162
 30
0.0
  0
VERTEX
  5
27D
  8
TENA_LOTS
 10
569681.00047285587
 20
511260.6666636162
 30
0.0
  0
VERTEX
  5
27E
  8
TENA_LOTS
 10
569691.52174675476
 20
511277.44483393151
 30
0.0
  0
VERTEX
  5
27F
  8
TENA_LOTS
 10
569691.52174675476
 20
511277.44483393151
 30
0.0
  0
SEQEND
  5
280
  8
TENA_LOTS
  0
TEXT
  5
84
  8
TENA_LOT-SITE_LABEL
 10
569647.92292287038
 20
511278.5767631784
 30
0.0
 40
5.0608183140548038
  1
75/40
 50
1.635614663726825
 72
     4
 11
569656.6931689186
 21
511281.35863475769
 31
0.0
  0
POLYLINE
  5
85
  8
TENA_LOTS
 66
     1
 10
0.0
 20
0.0
 30
0.0
  0
VERTEX
  5
281
  8
TENA_LOTS
 10
570255.21358963894
 20
512072.03950234648
 30
0.0
  0
VERTEX
  5
282
  8
TENA_LOTS
 10
570253.72973155417
 20
512077.32644687698
 30
0.0
  0
VERTEX
  5
283
  8
TENA_LOTS
 10
570253.32237803855
 20
512079.97947281989
 30
0.0
  0
VERTEX
  5
284
  8
TENA_LOTS
 10
570254.15169477626
 20
512086.00222157611
 30
0.0
  0
VERTEX
  5
285
  8
TENA_LOTS
 10
570255.03813360492
 20
512090.02452014881
 30
0.0
  0
VERTEX
  5
286
  8
TENA_LOTS
 10
570259.1810250585
 20
512095.28263226768
 30
0.0
  0
VERTEX
  5
287
  8
TENA_LOTS
 10
570268.95137146884
 20
512095.22007441521
 30
0.0
  0
VERTEX
  5
288
  8
TENA_LOTS
 10
570274.27397875313
 20
512094.85854567098
 30
0.0
  0
VERTEX
  5
289
  8
TENA_LOTS
 10
570281.9743277285
 20
512089.25780739682
 30
0.0
  0
VERTEX
  5
28A
  8
TENA_LOTS
 10
570275.98905786872
 20
512080.62671120837
 30
0.0
  0
VERTEX
  5
28B
  8
TENA_LOTS
 10
570274.48096736043
 20
512074.92184849881
 30
0.0
  0
VERTEX
  5
28C
  8
TENA_LOTS
 10
570268.54164818046
 20
512072.75256419647
 30
0.0
  0
VERTEX
  5
28D
  8
TENA_LOTS
 10
570261.88866818754
 20
512071.89523046452
 30
0.0
  0
VERTEX
  5
28E
  8
TENA_LOTS
 10
570256.90225966135
 20
512071.42036124569
 30
0.0
  0
VERTEX
  5
28F
  8
TENA_LOTS
 10
570255.21358963894
 20
512072.03950234648
 30
0.0
  0
SEQEND
  5
290
  8
TENA_LOTS
  0
TEXT
  5
86
  8
TENA_LOT-SITE_LABEL
 10
570255.48887953896
 20
512079.6835340159
 30
0.0
 40
5.0608183140548038
  1
73/37
 50
1.635614663726825
 72
     4
 11
570264.25917485415
 21
512082.46368023503
 31
0.0
  0
POLYLINE
  5
87
  8
TENA_LOTS
 66
     1
 10
0.0
 20
0.0
 30
0.0
  0
VERTEX
  5
291
  8
TENA_LOTS
 10
570028.75235386018
 20
511939.73607998108
 30
0.0
  0
VERTEX
  5
292
  8
TENA_LOTS
 10
570027.05505622958
 20
511941.340467542
 30
0.0
  0
VERTEX
  5
293
  8
TENA_LOTS
 10
570021.8645228768
 20
511940.95544853108
 30
0.0
  0
VERTEX
  5
294
  8
TENA_LOTS
 10
570017.68978567806
 20
511938.24094994989
 30
0.0
  0
VERTEX
  5
295
  8
TENA_LOTS
 10
570017.54346754937
 20
511935.16787071183
 30
0.0
  0
VERTEX
  5
296
  8
TENA_LOTS
 10
570016.74981286027
 20
511929.7178217856
 30
0.0
  0
VERTEX
  5
297
  8
TENA_LOTS
 10
570020.59144378733
 20
511927.70344618958
 30
0.0
  0
VERTEX
  5
298
  8
TENA_LOTS
 10
570027.89968118665
 20
511928.38334877201
 30
0.0
  0
VERTEX
  5
299
  8
TENA_LOTS
 10
570031.39993304794
 20
511929.89934506069
 30
0.0
  0
VERTEX
  5
29A
  8
TENA_LOTS
 10
570033.43676531711
 20
511933.02640720829
 30
0.0
  0
VERTEX
  5
29B
  8
TENA_LOTS
 10
570032.37355125637
 20
511937.24419133668
 30
0.0
  0
VERTEX
  5
29C
  8
TENA_LOTS
 10
570028.75235386018
 20
511939.73607998108
 30
0.0
  0
SEQEND
  5
29D
  8
TENA_LOTS
  0
TEXT
  5
88
  8
TENA_LOT-SITE_LABEL
 10
570015.9217263204
 20
511931.82880938379
 30
0.0
 40
5.0608183140548038
  1
74/39
 50
1.635614663726825
 72
     4
 11
570024.69202163559
 21
511934.6089556028
 31
0.0
  0
POLYLINE
  5
89
  8
TENA_LOTS
 66
     1
 10
0.0
 20
0.0
 30
0.0
  0
VERTEX
  5
29E
  8
TENA_LOTS
 10
564931.07947782427
 20
510815.942189291
 30
0.0
  0
VERTEX
  5
29F
  8
TENA_LOTS
 10
564923.66629139206
 20
510819.8625030524
 30
0.0
  0
VERTEX
  5
2A0
  8
TENA_LOTS
 10
564913.13098789065
 20
510823.49710584182
 30
0.0
  0
VERTEX
  5
2A1
  8
TENA_LOTS
 10
564906.11535289476
 20
510821.06190921389
 30
0.0
  0
VERTEX
  5
2A2
  8
TENA_LOTS
 10
564900.69146235997
 20
510814.83085062809
 30
0.0
  0
VERTEX
  5
2A3
  8
TENA_LOTS
 10
564899.9309285644
 20
510807.51962686941
 30
0.0
  0
VERTEX
  5
2A4
  8
TENA_LOTS
 10
564903.06476017251
 20
510797.15510655107
 30
0.0
  0
VERTEX
  5
2A5
  8
TENA_LOTS
 10
564918.57769348088
 20
510788.70098559768
 30
0.0
  0
VERTEX
  5
2A6
  8
TENA_LOTS
 10
564929.60480734555
 20
510781.39217082743
 30
0.0
  0
VERTEX
  5
2A7
  8
TENA_LOTS
 10
564944.59849775187
 20
510776.95723891351
 30
0.0
  0
VERTEX
  5
2A8
  8
TENA_LOTS
 10
564951.78973488428
 20
510780.80972388299
 30
0.0
  0
VERTEX
  5
2A9
  8
TENA_LOTS
 10
564951.78973488428
 20
510780.80972388299
 30
0.0
  0
VERTEX
  5
2AA
  8
TENA_LOTS
 10
564958.44458236836
 20
510794.8502915118
 30
0.0
  0
VERTEX
  5
2AB
  8
TENA_LOTS
 10
564958.44458236836
 20
510794.8502915118
 30
0.0
  0
VERTEX
  5
2AC
  8
TENA_LOTS
 10
564956.36277484172
 20
510802.49004822812
 30
0.0
  0
VERTEX
  5
2AD
  8
TENA_LOTS
 10
564949.91851432016
 20
510805.4823735244
 30
0.0
  0
VERTEX
  5
2AE
  8
TENA_LOTS
 10
564938.71086373797
 20
510812.7565791455
 30
0.0
  0
VERTEX
  5
2AF
  8
TENA_LOTS
 10
564931.07947782427
 20
510815.942189291
 30
0.0
  0
SEQEND
  5
2B0
  8
TENA_LOTS
  0
TEXT
  5
8A
  8
TENA_LOT-SITE_LABEL
 10
564920.83041348169
 20
510796.83784842788
 30
0.0
 40
5.0608183140548038
  1
37/23
 50
1.635614663726825
 72
     4
 11
564929.60070879676
 21
510799.61799464712
 31
0.0
  0
POLYLINE
  5
8B
  8
TENA_LOTS
 66
     1
 10
0.0
 20
0.0
 30
0.0
  0
VERTEX
  5
2B1
  8
TENA_LOTS
 10
566161.10246449045
 20
511541.27051612159
 30
0.0
  0
VERTEX
  5
2B2
  8
TENA_LOTS
 10
566152.93359897379
 20
511544.76321761671
 30
0.0
  0
VERTEX
  5
2B3
  8
TENA_LOTS
 10
566143.24331420055
 20
511542.68324597162
 30
0.0
  0
VERTEX
  5
2B4
  8
TENA_LOTS
 10
566138.84610574204
 20
511536.42656986951
 30
0.0
  0
VERTEX
  5
2B5
  8
TENA_LOTS
 10
566138.17496329499
 20
511530.39332353009
 30
0.0
  0
VERTEX
  5
2B6
  8
TENA_LOTS
 10
566140.22347127693
 20
511521.91554723767
 30
0.0
  0
VERTEX
  5
2B7
  8
TENA_LOTS
 10
566144.65270986175
 20
511518.6743275405
 30
0.0
  0
VERTEX
  5
2B8
  8
TENA_LOTS
 10
566152.74666399579
 20
511517.58464214182
 30
0.0
  0
VERTEX
  5
2B9
  8
TENA_LOTS
 10
566160.15402454697
 20
511519.59942575637
 30
0.0
  0
VERTEX
  5
2BA
  8
TENA_LOTS
 10
566165.85476034973
 20
511526.4952094843
 30
0.0
  0
VERTEX
  5
2BB
  8
TENA_LOTS
 10
566165.7506871412
 20
511534.54843271029
 30
0.0
  0
VERTEX
  5
2BC
  8
TENA_LOTS
 10
566161.10246449045
 20
511541.27051612159
 30
0.0
  0
SEQEND
  5
2BD
  8
TENA_LOTS
  0
TEXT
  5
8C
  8
TENA_LOT-SITE_LABEL
 10
566142.64834961784
 20
511528.14804304612
 30
0.0
 40
5.0608183140548038
  1
38/24
 50
1.635614663726825
 72
     4
 11
566151.41864493315
 21
511530.92818926508
 31
0.0
  0
POLYLINE
  5
8D
  8
TENA_LOTS
 66
     1
 10
0.0
 20
0.0
 30
0.0
  0
VERTEX
  5
2BE
  8
TENA_LOTS
 10
572354.06397949415
 20
508685.99569198588
 30
0.0
  0
VERTEX
  5
2BF
  8
TENA_LOTS
 10
572367.45527867775
 20
508685.64960240741
 30
0.0
  0
VERTEX
  5
2C0
  8
TENA_LOTS
 10
572377.84525441495
 20
508688.1340916747
 30
0.0
  0
VERTEX
  5
2C1
  8
TENA_LOTS
 10
572384.07499720936
 20
508691.7131126218
 30
0.0
  0
VERTEX
  5
2C2
  8
TENA_LOTS
 10
572385.0183827437
 20
508701.21736511798
 30
0.0
  0
VERTEX
  5
2C3
  8
TENA_LOTS
 10
572383.84248355764
 20
508708.2320627243
 30
0.0
  0
VERTEX
  5
2C4
  8
TENA_LOTS
 10
572381.68622450624
 20
508713.04030490271
 30
0.0
  0
VERTEX
  5
2C5
  8
TENA_LOTS
 10
572373.90153047862
 20
508719.97513737058
 30
0.0
  0
VERTEX
  5
2C6
  8
TENA_LOTS
 10
572367.45231513912
 20
508724.42234192218
 30
0.0
  0
VERTEX
  5
2C7
  8
TENA_LOTS
 10
572361.09920705261
 20
508725.50381234637
 30
0.0
  0
VERTEX
  5
2C8
  8
TENA_LOTS
 10
572349.7103486181
 20
508725.59877241013
 30
0.0
  0
VERTEX
  5
2C9
  8
TENA_LOTS
 10
572338.88287690002
 20
508721.08079052099
 30
0.0
  0
VERTEX
  5
2CA
  8
TENA_LOTS
 10
572331.13149250997
 20
508712.01689839922
 30
0.0
  0
VERTEX
  5
2CB
  8
TENA_LOTS
 10
572331.13149250997
 20
508712.01689839922
 30
0.0
  0
VERTEX
  5
2CC
  8
TENA_LOTS
 10
572331.85156171187
 20
508697.0265468352
 30
0.0
  0
VERTEX
  5
2CD
  8
TENA_LOTS
 10
572336.89323974983
 20
508690.8530965175
 30
0.0
  0
VERTEX
  5
2CE
  8
TENA_LOTS
 10
572354.06397949415
 20
508685.99569198588
 30
0.0
  0
SEQEND
  5
2CF
  8
TENA_LOTS
  0
TEXT
  5
8E
  8
TENA_LOT-SITE_LABEL
 10
572347.90996587416
 20
508702.24554332608
 30
0.0
 40
5.0608183140548038
  1
41/27
 50
1.635614663726825
 72
     4
 11
572356.68021192262
 21
508705.02741490549
 31
0.0
  0
POLYLINE
  5
8F
  8
TENA_LOTS
 66
     1
 10
0.0
 20
0.0
 30
0.0
  0
VERTEX
  5
2D0
  8
TENA_LOTS
 10
571912.77439576748
 20
509989.54703077639
 30
0.0
  0
VERTEX
  5
2D1
  8
TENA_LOTS
 10
571912.77439576748
 20
509989.54703077639
 30
0.0
  0
VERTEX
  5
2D2
  8
TENA_LOTS
 10
571902.11858551577
 20
509986.45306480699
 30
0.0
  0
VERTEX
  5
2D3
  8
TENA_LOTS
 10
571896.58318664925
 20
509980.82070804248
 30
0.0
  0
VERTEX
  5
2D4
  8
TENA_LOTS
 10
571896.09197043302
 20
509971.79272367351
 30
0.0
  0
VERTEX
  5
2D5
  8
TENA_LOTS
 10
571901.66471184685
 20
509964.65517886222
 30
0.0
  0
VERTEX
  5
2D6
  8
TENA_LOTS
 10
571901.66471184685
 20
509964.65517886222
 30
0.0
  0
VERTEX
  5
2D7
  8
TENA_LOTS
 10
571915.92901812971
 20
509961.95035843138
 30
0.0
  0
VERTEX
  5
2D8
  8
TENA_LOTS
 10
571925.57038513175
 20
509966.62516329921
 30
0.0
  0
VERTEX
  5
2D9
  8
TENA_LOTS
 10
571925.57038513175
 20
509966.62516329921
 30
0.0
  0
VERTEX
  5
2DA
  8
TENA_LOTS
 10
571930.07607619697
 20
509974.37293277681
 30
0.0
  0
VERTEX
  5
2DB
  8
TENA_LOTS
 10
571928.22109763476
 20
509982.90639238589
 30
0.0
  0
VERTEX
  5
2DC
  8
TENA_LOTS
 10
571922.52945503476
 20
509986.71345051861
 30
0.0
  0
VERTEX
  5
2DD
  8
TENA_LOTS
 10
571912.77439576748
 20
509989.54703077639
 30
0.0
  0
SEQEND
  5
2DE
  8
TENA_LOTS
  0
TEXT
  5
90
  8
TENA_LOT-SITE_LABEL
 10
571903.83697097364
 20
509973.88366473652
 30
0.0
 40
5.0608183140548038
  1
39/25
 50
1.635614663726825
 72
     4
 11
571912.60726628883
 21
509976.66381095548
 31
0.0
  0
POLYLINE
  5
91
  8
TENA_LOTS
 66
     1
 10
0.0
 20
0.0
 30
0.0
  0
VERTEX
  5
2DF
  8
TENA_LOTS
 10
565549.98968669539
 20
512182.98291108583
 30
0.0
  0
VERTEX
  5
2E0
  8
TENA_LOTS
 10
565549.98968669539
 20
512182.98291108583
 30
0.0
  0
VERTEX
  5
2E1
  8
TENA_LOTS
 10
565555.61641697935
 20
512182.24755153508
 30
0.0
  0
VERTEX
  5
2E2
  8
TENA_LOTS
 10
565562.81174084661
 20
512181.55698257568
 30
0.0
  0
VERTEX
  5
2E3
  8
TENA_LOTS
 10
565566.65426483925
 20
512188.386269284
 30
0.0
  0
VERTEX
  5
2E4
  8
TENA_LOTS
 10
565568.70269715157
 20
512195.16367614968
 30
0.0
  0
VERTEX
  5
2E5
  8
TENA_LOTS
 10
565561.09182739153
 20
512202.56129401812
 30
0.0
  0
VERTEX
  5
2E6
  8
TENA_LOTS
 10
565561.09182739153
 20
512202.56129401812
 30
0.0
  0
VERTEX
  5
2E7
  8
TENA_LOTS
 10
565555.8936250105
 20
512203.9805864137
 30
0.0
  0
VERTEX
  5
2E8
  8
TENA_LOTS
 10
565549.12682904652
 20
512205.35508821928
 30
0.0
  0
VERTEX
  5
2E9
  8
TENA_LOTS
 10
565545.05590989022
 20
512206.58288770443
 30
0.0
  0
VERTEX
  5
2EA
  8
TENA_LOTS
 10
565525.77398261905
 20
512206.4803139756
 30
0.0
  0
VERTEX
  5
2EB
  8
TENA_LOTS
 10
565523.13541803474
 20
512196.7742879999
 30
0.0
  0
VERTEX
  5
2EC
  8
TENA_LOTS
 10
565539.76599826501
 20
512187.61848509777
 30
0.0
  0
VERTEX
  5
2ED
  8
TENA_LOTS
 10
565543.42117197486
 20
512185.25910342118
 30
0.0
  0
VERTEX
  5
2EE
  8
TENA_LOTS
 10
565549.98968669539
 20
512182.98291108583
 30
0.0
  0
VERTEX
  5
2EF
  8
TENA_LOTS
 10
565549.98968669539
 20
512182.98291108583
 30
0.0
  0
VERTEX
  5
2F0
  8
TENA_LOTS
 10
565549.98968669539
 20
512182.98291108583
 30
0.0
  0
VERTEX
  5
2F1
  8
TENA_LOTS
 10
565549.98968669539
 20
512182.98291108583
 30
0.0
  0
SEQEND
  5
2F2
  8
TENA_LOTS
  0
TEXT
  5
92
  8
TENA_LOT-SITE_LABEL
 10
565534.13506646617
 20
512191.98063325172
 30
0.0
 40
5.0608183140548038
  1
125/51
 50
1.635614663726825
 72
     4
 11
565544.87049788272
 21
512194.81861994893
 31
0.0
  0
POLYLINE
  5
93
  8
TENA_LOTS
 66
     1
 10
0.0
 20
0.0
 30
0.0
  0
VERTEX
  5
2F3
  8
TENA_LOTS
 10
569071.53888732486
 20
516338.01361889689
 30
0.0
  0
VERTEX
  5
2F4
  8
TENA_LOTS
 10
569068.23887578747
 20
516342.6629507991
 30
0.0
  0
VERTEX
  5
2F5
  8
TENA_LOTS
 10
569062.97286299116
 20
516346.7309385768
 30
0.0
  0
VERTEX
  5
2F6
  8
TENA_LOTS
 10
569056.79302069929
 20
516350.77283230092
 30
0.0
  0
VERTEX
  5
2F7
  8
TENA_LOTS
 10
569039.79068641213
 20
516340.66413616959
 30
0.0
  0
VERTEX
  5
2F8
  8
TENA_LOTS
 10
569033.03970215295
 20
516333.53864903387
 30
0.0
  0
VERTEX
  5
2F9
  8
TENA_LOTS
 10
569024.9425550818
 20
516324.97576570732
 30
0.0
  0
VERTEX
  5
2FA
  8
TENA_LOTS
 10
569022.47056205221
 20
516318.46902165707
 30
0.0
  0
VERTEX
  5
2FB
  8
TENA_LOTS
 10
569029.60393860412
 20
516307.68875128741
 30
0.0
  0
VERTEX
  5
2FC
  8
TENA_LOTS
 10
569045.00935313816
 20
516312.6740636992
 30
0.0
  0
VERTEX
  5
2FD
  8
TENA_LOTS
 10
569052.7262490117
 20
516321.22608909791
 30
0.0
  0
VERTEX
  5
2FE
  8
TENA_LOTS
 10
569058.28662772069
 20
516325.55069978058
 30
0.0
  0
VERTEX
  5
2FF
  8
TENA_LOTS
 10
569071.53888732486
 20
516338.01361889689
 30
0.0
  0
SEQEND
  5
300
  8
TENA_LOTS
  0
TEXT
  5
94
  8
TENA_LOT-SITE_LABEL
 10
569036.59569774661
 20
516327.49849244702
 30
0.0
 40
5.0608183140548038
  1
05/03
 50
1.635614663726825
 72
     4
 11
569045.36599306169
 21
516330.27863866609
 31
0.0
  0
POLYLINE
  5
95
  8
TENA_LOTS
 66
     1
 10
0.0
 20
0.0
 30
0.0
  0
VERTEX
  5
301
  8
TENA_LOTS
 10
569067.70819785912
 20
516343.48051607527
 30
0.0
  0
VERTEX
  5
302
  8
TENA_LOTS
 10
569091.33971144829
 20
516372.53526141949
 30
0.0
  0
VERTEX
  5
303
  8
TENA_LOTS
 10
569098.02676698577
 20
516384.04916536232
 30
0.0
  0
VERTEX
  5
304
  8
TENA_LOTS
 10
569102.67805695115
 20
516391.1910900881
 30
0.0
  0
VERTEX
  5
305
  8
TENA_LOTS
 10
569125.52066982468
 20
516432.07518039952
 30
0.0
  0
VERTEX
  5
306
  8
TENA_LOTS
 10
569117.67942840478
 20
516435.3360050288
 30
0.0
  0
VERTEX
  5
307
  8
TENA_LOTS
 10
569108.03167359484
 20
516439.48151231272
 30
0.0
  0
VERTEX
  5
308
  8
TENA_LOTS
 10
569098.00401666143
 20
516444.80800125381
 30
0.0
  0
VERTEX
  5
309
  8
TENA_LOTS
 10
569074.2930116076
 20
516402.24305308203
 30
0.0
  0
VERTEX
  5
30A
  8
TENA_LOTS
 10
569067.22011165251
 20
516385.32522378711
 30
0.0
  0
VERTEX
  5
30B
  8
TENA_LOTS
 10
569051.17636454315
 20
516362.33329244948
 30
0.0
  0
VERTEX
  5
30C
  8
TENA_LOTS
 10
569053.29246502591
 20
516353.69264414348
 30
0.0
  0
VERTEX
  5
30D
  8
TENA_LOTS
 10
569064.1140199987
 20
516346.57361321338
 30
0.0
  0
VERTEX
  5
30E
  8
TENA_LOTS
 10
569067.70819785912
 20
516343.48051607527
 30
0.0
  0
SEQEND
  5
30F
  8
TENA_LOTS
  0
TEXT
  5
96
  8
TENA_LOT-SITE_LABEL
 10
569074.64888375485
 20
516384.88643981243
 30
0.0
 40
5.0608183140548038
  1
06/03
 50
1.635614663726825
 72
     4
 11
569083.41917907004
 21
516387.66658603138
 31
0.0
  0
POLYLINE
  5
97
  8
TENA_LOTS
 66
     1
 10
0.0
 20
0.0
 30
0.0
  0
VERTEX
  5
310
  8
TENA_LOTS
 10
569108.94249523187
 20
516439.21620881709
 30
0.0
  0
VERTEX
  5
311
  8
TENA_LOTS
 10
569098.11605235457
 20
516445.1952085892
 30
0.0
  0
VERTEX
  5
312
  8
TENA_LOTS
 10
569114.39542254026
 20
516494.5949080718
 30
0.0
  0
VERTEX
  5
313
  8
TENA_LOTS
 10
569117.11887411785
 20
516506.26778486621
 30
0.0
  0
VERTEX
  5
314
  8
TENA_LOTS
 10
569126.34938022448
 20
516532.00234949891
 30
0.0
  0
VERTEX
  5
315
  8
TENA_LOTS
 10
569146.72686327901
 20
516528.14172958338
 30
0.0
  0
VERTEX
  5
316
  8
TENA_LOTS
 10
569159.70995452639
 20
516523.57555935852
 30
0.0
  0
VERTEX
  5
317
  8
TENA_LOTS
 10
569148.20347172767
 20
516493.62322306872
 30
0.0
  0
VERTEX
  5
318
  8
TENA_LOTS
 10
569140.37101888063
 20
516473.65198061441
 30
0.0
  0
VERTEX
  5
319
  8
TENA_LOTS
 10
569125.73581187683
 20
516432.25567953428
 30
0.0
  0
VERTEX
  5
31A
  8
TENA_LOTS
 10
569108.94249523187
 20
516439.21620881709
 30
0.0
  0
SEQEND
  5
31B
  8
TENA_LOTS
  0
TEXT
  5
98
  8
TENA_LOT-SITE_LABEL
 10
569112.40130854177
 20
516472.69261952711
 30
0.0
 40
5.0608183140548038
  1
07/03
 50
1.635614663726825
 72
     4
 11
569121.17160385696
 21
516475.47276574618
 31
0.0
  0
POLYLINE
  5
99
  8
TENA_LOTS
 66
     1
 10
0.0
 20
0.0
 30
0.0
  0
VERTEX
  5
31C
  8
TENA_LOTS
 10
571633.91149844904
 20
513977.70190900681
 30
0.0
  0
VERTEX
  5
31D
  8
TENA_LOTS
 10
571641.57496831776
 20
513981.24624351988
 30
0.0
  0
VERTEX
  5
31E
  8
TENA_LOTS
 10
571650.82193011057
 20
513994.68340108398
 30
0.0
  0
VERTEX
  5
31F
  8
TENA_LOTS
 10
571648.95137968019
 20
514002.58208012412
 30
0.0
  0
VERTEX
  5
320
  8
TENA_LOTS
 10
571640.65035243065
 20
514004.81351429218
 30
0.0
  0
VERTEX
  5
321
  8
TENA_LOTS
 10
571628.87032214587
 20
513998.6163217728
 30
0.0
  0
VERTEX
  5
322
  8
TENA_LOTS
 10
571620.70228128461
 20
513993.39601954853
 30
0.0
  0
VERTEX
  5
323
  8
TENA_LOTS
 10
571616.32242319849
 20
513981.90741266962
 30
0.0
  0
VERTEX
  5
324
  8
TENA_LOTS
 10
571618.48456024937
 20
513973.47036837781
 30
0.0
  0
VERTEX
  5
325
  8
TENA_LOTS
 10
571626.73082475562
 20
513973.1567586161
 30
0.0
  0
VERTEX
  5
326
  8
TENA_LOTS
 10
571633.91149844904
 20
513977.70190900681
 30
0.0
  0
SEQEND
  5
327
  8
TENA_LOTS
  0
TEXT
  5
9A
  8
TENA_LOT-SITE_LABEL
 10
571622.43606106355
 20
513986.68313262908
 30
0.0
 40
5.0608183140548038
  1
17/13
 50
1.635614663726825
 72
     4
 11
571631.20635637874
 21
513989.46327884821
 31
0.0
  0
POLYLINE
  5
9B
  8
TENA_LOTS
 66
     1
 10
0.0
 20
0.0
 30
0.0
  0
VERTEX
  5
328
  8
TENA_LOTS
 10
571681.66572637507
 20
513838.41064929811
 30
0.0
  0
VERTEX
  5
329
  8
TENA_LOTS
 10
571675.10621160222
 20
513834.89783780143
 30
0.0
  0
VERTEX
  5
32A
  8
TENA_LOTS
 10
571674.22362331918
 20
513827.1139151291
 30
0.0
  0
VERTEX
  5
32B
  8
TENA_LOTS
 10
571674.42925605958
 20
513819.91253218759
 30
0.0
  0
VERTEX
  5
32C
  8
TENA_LOTS
 10
571685.61268479668
 20
513816.90875096677
 30
0.0
  0
VERTEX
  5
32D
  8
TENA_LOTS
 10
571691.50340553059
 20
513824.28182565502
 30
0.0
  0
VERTEX
  5
32E
  8
TENA_LOTS
 10
571692.97570881515
 20
513830.97488082788
 30
0.0
  0
VERTEX
  5
32F
  8
TENA_LOTS
 10
571690.04546494805
 20
513836.43212906318
 30
0.0
  0
VERTEX
  5
330
  8
TENA_LOTS
 10
571681.66572637507
 20
513838.41064929811
 30
0.0
  0
SEQEND
  5
331
  8
TENA_LOTS
  0
TEXT
  5
9C
  8
TENA_LOT-SITE_LABEL
 10
571673.34973006265
 20
513825.09466309077
 30
0.0
 40
5.0608183140548038
  1
18/14
 50
1.635614663726825
 72
     4
 11
571682.11997611099
 21
513827.8765346703
 31
0.0
  0
POLYLINE
  5
9D
  8
TENA_LOTS
 66
     1
 10
0.0
 20
0.0
 30
0.0
  0
VERTEX
  5
332
  8
TENA_LOTS
 10
571448.89449543704
 20
513610.23291714262
 30
0.0
  0
VERTEX
  5
333
  8
TENA_LOTS
 10
571447.77953164536
 20
513619.08128523332
 30
0.0
  0
VERTEX
  5
334
  8
TENA_LOTS
 10
571448.94944903755
 20
513630.00775175489
 30
0.0
  0
VERTEX
  5
335
  8
TENA_LOTS
 10
571452.53861024301
 20
513641.02735573292
 30
0.0
  0
VERTEX
  5
336
  8
TENA_LOTS
 10
571458.570735396
 20
513648.60738855822
 30
0.0
  0
VERTEX
  5
337
  8
TENA_LOTS
 10
571467.25355755631
 20
513650.82794576179
 30
0.0
  0
VERTEX
  5
338
  8
TENA_LOTS
 10
571481.61045801942
 20
513649.2889377086
 30
0.0
  0
VERTEX
  5
339
  8
TENA_LOTS
 10
571493.64561730414
 20
513645.51732166938
 30
0.0
  0
VERTEX
  5
33A
  8
TENA_LOTS
 10
571500.21896701155
 20
513635.7404657118
 30
0.0
  0
VERTEX
  5
33B
  8
TENA_LOTS
 10
571501.92618393339
 20
513629.07532073511
 30
0.0
  0
VERTEX
  5
33C
  8
TENA_LOTS
 10
571501.92618393339
 20
513629.07532073511
 30
0.0
  0
VERTEX
  5
33D
  8
TENA_LOTS
 10
571501.92618393339
 20
513629.07532073511
 30
0.0
  0
VERTEX
  5
33E
  8
TENA_LOTS
 10
571496.37391855812
 20
513618.30256784637
 30
0.0
  0
VERTEX
  5
33F
  8
TENA_LOTS
 10
571487.47135647654
 20
513611.11950543209
 30
0.0
  0
VERTEX
  5
340
  8
TENA_LOTS
 10
571476.19151478354
 20
513603.6488245831
 30
0.0
  0
VERTEX
  5
341
  8
TENA_LOTS
 10
571466.4805623017
 20
513602.07222279877
 30
0.0
  0
VERTEX
  5
342
  8
TENA_LOTS
 10
571454.2067508297
 20
513606.48667883681
 30
0.0
  0
VERTEX
  5
343
  8
TENA_LOTS
 10
571448.89449543704
 20
513610.23291714262
 30
0.0
  0
SEQEND
  5
344
  8
TENA_LOTS
  0
TEXT
  5
9E
  8
TENA_LOT-SITE_LABEL
 10
571464.55335011985
 20
513625.47671318229
 30
0.0
 40
5.0608183140548038
  1
19/15
 50
1.635614663726825
 72
     4
 11
571473.32359616808
 21
513628.2585847617
 31
0.0
  0
POLYLINE
  5
9F
  8
TENA_LOTS
 66
     1
 10
0.0
 20
0.0
 30
0.0
  0
VERTEX
  5
345
  8
TENA_LOTS
 10
570767.58969829616
 20
514421.35451006488
 30
0.0
  0
VERTEX
  5
346
  8
TENA_LOTS
 10
570793.66612245387
 20
514426.92686678137
 30
0.0
  0
VERTEX
  5
347
  8
TENA_LOTS
 10
570828.38423368207
 20
514427.3937324197
 30
0.0
  0
VERTEX
  5
348
  8
TENA_LOTS
 10
570830.57920200785
 20
514415.56940478308
 30
0.0
  0
VERTEX
  5
349
  8
TENA_LOTS
 10
570826.4217732338
 20
514392.00568527472
 30
0.0
  0
VERTEX
  5
34A
  8
TENA_LOTS
 10
570822.77687312034
 20
514358.51690270531
 30
0.0
  0
VERTEX
  5
34B
  8
TENA_LOTS
 10
570809.87876456347
 20
514334.97838344029
 30
0.0
  0
VERTEX
  5
34C
  8
TENA_LOTS
 10
570793.84125381638
 20
514324.19248622248
 30
0.0
  0
VERTEX
  5
34D
  8
TENA_LOTS
 10
570779.25513347785
 20
514351.35736311332
 30
0.0
  0
VERTEX
  5
34E
  8
TENA_LOTS
 10
570767.7299702802
 20
514392.39914142393
 30
0.0
  0
VERTEX
  5
34F
  8
TENA_LOTS
 10
570760.83084192045
 20
514416.3361431965
 30
0.0
  0
VERTEX
  5
350
  8
TENA_LOTS
 10
570767.58969829616
 20
514421.35451006488
 30
0.0
  0
SEQEND
  5
351
  8
TENA_LOTS
  0
TEXT
  5
A0
  8
TENA_LOT-SITE_LABEL
 10
570786.1089169333
 20
514383.38093646237
 30
0.0
 40
5.0608183140548038
  1
20/16
 50
1.635614663726825
 72
     4
 11
570794.87916298152
 21
514386.1628080419
 31
0.0
  0
POLYLINE
  5
A1
  8
TENA_LOTS
 66
     1
 10
0.0
 20
0.0
 30
0.0
  0
VERTEX
  5
352
  8
TENA_LOTS
 10
570760.72573498124
 20
514418.94370538747
 30
0.0
  0
VERTEX
  5
353
  8
TENA_LOTS
 10
570752.4712035188
 20
514439.04178662121
 30
0.0
  0
VERTEX
  5
354
  8
TENA_LOTS
 10
570746.5900655908
 20
514456.52316935762
 30
0.0
  0
VERTEX
  5
355
  8
TENA_LOTS
 10
570742.88669886265
 20
514478.66800465737
 30
0.0
  0
VERTEX
  5
356
  8
TENA_LOTS
 10
570739.68339907739
 20
514496.60968831321
 30
0.0
  0
VERTEX
  5
357
  8
TENA_LOTS
 10
570741.09416912193
 20
514520.20078035683
 30
0.0
  0
VERTEX
  5
358
  8
TENA_LOTS
 10
570758.43809125363
 20
514525.58993502031
 30
0.0
  0
VERTEX
  5
359
  8
TENA_LOTS
 10
570775.13015132374
 20
514529.56085245073
 30
0.0
  0
VERTEX
  5
35A
  8
TENA_LOTS
 10
570775.13015132374
 20
514529.56085245073
 30
0.0
  0
VERTEX
  5
35B
  8
TENA_LOTS
 10
570805.1644430348
 20
514531.81809374358
 30
0.0
  0
VERTEX
  5
35C
  8
TENA_LOTS
 10
570822.33522396197
 20
514519.02391719591
 30
0.0
  0
VERTEX
  5
35D
  8
TENA_LOTS
 10
570829.93816304323
 20
514497.26769726851
 30
0.0
  0
VERTEX
  5
35E
  8
TENA_LOTS
 10
570830.71530210855
 20
514470.05181716732
 30
0.0
  0
VERTEX
  5
35F
  8
TENA_LOTS
 10
570827.29442110599
 20
514441.9460075805
 30
0.0
  0
VERTEX
  5
360
  8
TENA_LOTS
 10
570827.57902065525
 20
514431.97915923549
 30
0.0
  0
VERTEX
  5
361
  8
TENA_LOTS
 10
570827.6447288685
 20
514429.67801786331
 30
0.0
  0
VERTEX
  5
362
  8
TENA_LOTS
 10
570818.43302175205
 20
514429.4149810836
 30
0.0
  0
VERTEX
  5
363
  8
TENA_LOTS
 10
570792.71496444906
 20
514428.6806117763
 30
0.0
  0
VERTEX
  5
364
  8
TENA_LOTS
 10
570781.6409501289
 20
514426.4452161541
 30
0.0
  0
VERTEX
  5
365
  8
TENA_LOTS
 10
570769.05144440371
 20
514423.40125778248
 30
0.0
  0
VERTEX
  5
366
  8
TENA_LOTS
 10
570763.73957359511
 20
514420.94656169362
 30
0.0
  0
VERTEX
  5
367
  8
TENA_LOTS
 10
570760.72573498124
 20
514418.94370538747
 30
0.0
  0
SEQEND
  5
368
  8
TENA_LOTS
  0
TEXT
  5
A2
  8
TENA_LOT-SITE_LABEL
 10
570780.88828843925
 20
514469.60932956071
 30
0.0
 40
5.0608183140548038
  1
21/16
 50
1.635614663726825
 72
     4
 11
570789.65853448748
 21
514472.39120114001
 31
0.0
  0
POLYLINE
  5
A3
  8
TENA_LOTS
 66
     1
 10
0.0
 20
0.0
 30
0.0
  0
VERTEX
  5
369
  8
TENA_LOTS
 10
571341.89814428776
 20
514691.47990219679
 30
0.0
  0
VERTEX
  5
36A
  8
TENA_LOTS
 10
571336.17552581534
 20
514697.47388330149
 30
0.0
  0
VERTEX
  5
36B
  8
TENA_LOTS
 10
571328.90323182731
 20
514703.73411070759
 30
0.0
  0
VERTEX
  5
36C
  8
TENA_LOTS
 10
571308.27765791689
 20
514702.83704706142
 30
0.0
  0
VERTEX
  5
36D
  8
TENA_LOTS
 10
571288.66629148833
 20
514687.8031291567
 30
0.0
  0
VERTEX
  5
36E
  8
TENA_LOTS
 10
571284.04314996745
 20
514676.89449338941
 30
0.0
  0
VERTEX
  5
36F
  8
TENA_LOTS
 10
571288.16279309033
 20
514662.23248558049
 30
0.0
  0
VERTEX
  5
370
  8
TENA_LOTS
 10
571298.08736474835
 20
514649.2743881435
 30
0.0
  0
VERTEX
  5
371
  8
TENA_LOTS
 10
571323.0861905826
 20
514648.45006721577
 30
0.0
  0
VERTEX
  5
372
  8
TENA_LOTS
 10
571337.57306019042
 20
514659.33224971482
 30
0.0
  0
VERTEX
  5
373
  8
TENA_LOTS
 10
571348.36517418921
 20
514671.53960310749
 30
0.0
  0
VERTEX
  5
374
  8
TENA_LOTS
 10
571345.44860784023
 20
514685.72961585951
 30
0.0
  0
VERTEX
  5
375
  8
TENA_LOTS
 10
571341.89814428776
 20
514691.47990219679
 30
0.0
  0
SEQEND
  5
376
  8
TENA_LOTS
  0
TEXT
  5
A4
  8
TENA_LOT-SITE_LABEL
 10
571307.64109438169
 20
514671.1568388624
 30
0.0
 40
5.0608183140548038
  1
22/17
 50
1.635614663726825
 72
     4
 11
571316.41134043003
 21
514673.93871044181
 31
0.0
  0
POLYLINE
  5
A5
  8
TENA_LOTS
 66
     1
 10
0.0
 20
0.0
 30
0.0
  0
VERTEX
  5
377
  8
TENA_LOTS
 10
568982.09696736198
 20
515316.2646143345
 30
0.0
  0
VERTEX
  5
378
  8
TENA_LOTS
 10
568979.59984668659
 20
515323.42898138688
 30
0.0
  0
VERTEX
  5
379
  8
TENA_LOTS
 10
568975.84962264181
 20
515327.89455339499
 30
0.0
  0
VERTEX
  5
37A
  8
TENA_LOTS
 10
568972.55056141654
 20
515330.08429499599
 30
0.0
  0
VERTEX
  5
37B
  8
TENA_LOTS
 10
568968.73480773706
 20
515329.97533760651
 30
0.0
  0
VERTEX
  5
37C
  8
TENA_LOTS
 10
568964.9795275823
 20
515327.9632301018
 30
0.0
  0
VERTEX
  5
37D
  8
TENA_LOTS
 10
568964.02505863504
 20
515321.46082454518
 30
0.0
  0
VERTEX
  5
37E
  8
TENA_LOTS
 10
568968.56727253355
 20
515315.8782790642
 30
0.0
  0
VERTEX
  5
37F
  8
TENA_LOTS
 10
568974.27659171342
 20
515309.56615543331
 30
0.0
  0
VERTEX
  5
380
  8
TENA_LOTS
 10
568978.47677384096
 20
515309.30702190852
 30
0.0
  0
VERTEX
  5
381
  8
TENA_LOTS
 10
568981.66788878117
 20
515311.11229379202
 30
0.0
  0
VERTEX
  5
382
  8
TENA_LOTS
 10
568982.09696736198
 20
515316.2646143345
 30
0.0
  0
SEQEND
  5
383
  8
TENA_LOTS
  0
TEXT
  5
A6
  8
TENA_LOT-SITE_LABEL
 10
568964.19545916806
 20
515317.2718912696
 30
0.0
 40
5.0608183140548038
  1
23/18
 50
1.635614663726825
 72
     4
 11
568972.96575448324
 21
515320.05203748873
 31
0.0
  0
POLYLINE
  5
A7
  8
TENA_LOTS
 66
     1
 10
0.0
 20
0.0
 30
0.0
  0
VERTEX
  5
384
  8
TENA_LOTS
 10
569401.92941204691
 20
515497.91443131352
 30
0.0
  0
VERTEX
  5
385
  8
TENA_LOTS
 10
569390.95048947865
 20
515479.81057713373
 30
0.0
  0
VERTEX
  5
386
  8
TENA_LOTS
 10
569392.84604528418
 20
515462.40358120023
 30
0.0
  0
VERTEX
  5
387
  8
TENA_LOTS
 10
569405.78182389855
 20
515450.2009362395
 30
0.0
  0
VERTEX
  5
388
  8
TENA_LOTS
 10
569417.24026495125
 20
515440.7498605955
 30
0.0
  0
VERTEX
  5
389
  8
TENA_LOTS
 10
569447.06607200985
 20
515449.2844446844
 30
0.0
  0
VERTEX
  5
38A
  8
TENA_LOTS
 10
569452.33695693302
 20
515460.61009690788
 30
0.0
  0
VERTEX
  5
38B
  8
TENA_LOTS
 10
569452.09782634268
 20
515468.98459481093
 30
0.0
  0
VERTEX
  5
38C
  8
TENA_LOTS
 10
569438.44350167539
 20
515481.86519239779
 30
0.0
  0
VERTEX
  5
38D
  8
TENA_LOTS
 10
569419.15959711024
 20
515495.98185273912
 30
0.0
  0
VERTEX
  5
38E
  8
TENA_LOTS
 10
569406.4431516059
 20
515500.50790492172
 30
0.0
  0
VERTEX
  5
38F
  8
TENA_LOTS
 10
569401.92941204691
 20
515497.91443131352
 30
0.0
  0
SEQEND
  5
390
  8
TENA_LOTS
  0
TEXT
  5
A8
  8
TENA_LOT-SITE_LABEL
 10
569408.21978200169
 20
515465.26556950482
 30
0.0
 40
5.0608183140548038
  1
08/04
 50
1.635614663726825
 72
     4
 11
569416.99002804991
 21
515468.04744108411
 31
0.0
  0
POLYLINE
  5
A9
  8
TENA_LOTS
 66
     1
 10
0.0
 20
0.0
 30
0.0
  0
VERTEX
  5
391
  8
TENA_LOTS
 10
570149.18724909564
 20
516639.74948222522
 30
0.0
  0
VERTEX
  5
392
  8
TENA_LOTS
 10
570141.56743905274
 20
516646.1197964967
 30
0.0
  0
VERTEX
  5
393
  8
TENA_LOTS
 10
570130.36286636547
 20
516645.7998542015
 30
0.0
  0
VERTEX
  5
394
  8
TENA_LOTS
 10
570121.38725958939
 20
516637.54357857961
 30
0.0
  0
VERTEX
  5
395
  8
TENA_LOTS
 10
570114.50385851855
 20
516626.14699772611
 30
0.0
  0
VERTEX
  5
396
  8
TENA_LOTS
 10
570108.35245517001
 20
516617.17137728177
 30
0.0
  0
VERTEX
  5
397
  8
TENA_LOTS
 10
570111.81608891825
 20
516608.07027017669
 30
0.0
  0
VERTEX
  5
398
  8
TENA_LOTS
 10
570125.19275530311
 20
516602.45218142139
 30
0.0
  0
VERTEX
  5
399
  8
TENA_LOTS
 10
570139.34758371359
 20
516611.65642849082
 30
0.0
  0
VERTEX
  5
39A
  8
TENA_LOTS
 10
570147.7288445275
 20
516626.69577601948
 30
0.0
  0
VERTEX
  5
39B
  8
TENA_LOTS
 10
570151.93678386614
 20
516633.61588347139
 30
0.0
  0
VERTEX
  5
39C
  8
TENA_LOTS
 10
570149.18724909564
 20
516639.74948222522
 30
0.0
  0
SEQEND
  5
39D
  8
TENA_LOTS
  0
TEXT
  5
AA
  8
TENA_LOT-SITE_LABEL
 10
570118.6509748426
 20
516622.68599120178
 30
0.0
 40
5.0608183140548038
  1
128/53
 50
1.635614663726825
 72
     4
 11
570129.38645552599
 21
516625.52225253871
 31
0.0
  0
POLYLINE
  5
AB
  8
TENA_LOTS
 66
     1
 10
0.0
 20
0.0
 30
0.0
  0
VERTEX
  5
39E
  8
TENA_LOTS
 10
570556.93815536576
 20
516680.91630811739
 30
0.0
  0
VERTEX
  5
39F
  8
TENA_LOTS
 10
570573.55099010316
 20
516685.39206119452
 30
0.0
  0
VERTEX
  5
3A0
  8
TENA_LOTS
 10
570579.42392353597
 20
516698.50494323618
 30
0.0
  0
VERTEX
  5
3A1
  8
TENA_LOTS
 10
570579.8938292237
 20
516720.38493500062
 30
0.0
  0
VERTEX
  5
3A2
  8
TENA_LOTS
 10
570577.28513138101
 20
516735.07036494551
 30
0.0
  0
VERTEX
  5
3A3
  8
TENA_LOTS
 10
570564.89292317734
 20
516741.2850241533
 30
0.0
  0
VERTEX
  5
3A4
  8
TENA_LOTS
 10
570549.07405168121
 20
516741.5617953316
 30
0.0
  0
VERTEX
  5
3A5
  8
TENA_LOTS
 10
570540.62813655089
 20
516734.5703273394
 30
0.0
  0
VERTEX
  5
3A6
  8
TENA_LOTS
 10
570540.23621650436
 20
516709.9592312632
 30
0.0
  0
VERTEX
  5
3A7
  8
TENA_LOTS
 10
570544.75070010347
 20
516686.0349245547
 30
0.0
  0
VERTEX
  5
3A8
  8
TENA_LOTS
 10
570544.75070010347
 20
516686.0349245547
 30
0.0
  0
VERTEX
  5
3A9
  8
TENA_LOTS
 10
570556.93815536576
 20
516680.91630811739
 30
0.0
  0
SEQEND
  5
3AA
  8
TENA_LOTS
  0
TEXT
  5
AC
  8
TENA_LOT-SITE_LABEL
 10
570551.68299012783
 20
516707.66201077029
 30
0.0
 40
5.0608183140548038
  1
129/54
 50
1.635614663726825
 72
     4
 11
570562.41842154425
 21
516710.4999974675
 31
0.0
  0
POLYLINE
  5
AD
  8
TENA_LOTS
 66
     1
 10
0.0
 20
0.0
 30
0.0
  0
VERTEX
  5
3AB
  8
TENA_LOTS
 10
570536.60460094758
 20
516586.07764815161
 30
0.0
  0
VERTEX
  5
3AC
  8
TENA_LOTS
 10
570530.25289077486
 20
516577.39977171062
 30
0.0
  0
VERTEX
  5
3AD
  8
TENA_LOTS
 10
570535.05806461594
 20
516564.40553311532
 30
0.0
  0
VERTEX
  5
3AE
  8
TENA_LOTS
 10
570548.17893052951
 20
516559.9138893804
 30
0.0
  0
VERTEX
  5
3AF
  8
TENA_LOTS
 10
570564.82409596338
 20
516564.71479545807
 30
0.0
  0
VERTEX
  5
3B0
  8
TENA_LOTS
 10
570568.17858213419
 20
516579.9501448081
 30
0.0
  0
VERTEX
  5
3B1
  8
TENA_LOTS
 10
570558.67433994636
 20
516590.49275553977
 30
0.0
  0
VERTEX
  5
3B2
  8
TENA_LOTS
 10
570548.25810821727
 20
516595.06158187712
 30
0.0
  0
VERTEX
  5
3B3
  8
TENA_LOTS
 10
570540.22134355293
 20
516592.12861854298
 30
0.0
  0
VERTEX
  5
3B4
  8
TENA_LOTS
 10
570536.60460094758
 20
516586.07764815161
 30
0.0
  0
SEQEND
  5
3B5
  8
TENA_LOTS
  0
TEXT
  5
AE
  8
TENA_LOT-SITE_LABEL
 10
570538.33436337498
 20
516573.54776578333
 30
0.0
 40
5.0608183140548038
  1
130/55
 50
1.635614663726825
 72
     4
 11
570549.06984405837
 21
516576.38402712019
 31
0.0
  0
POLYLINE
  5
AF
  8
TENA_LOTS
 66
     1
 10
0.0
 20
0.0
 30
0.0
  0
VERTEX
  5
3B6
  8
TENA_LOTS
 10
570099.89598182379
 20
516511.72757932887
 30
0.0
  0
VERTEX
  5
3B7
  8
TENA_LOTS
 10
570090.78036352689
 20
516498.83790469129
 30
0.0
  0
VERTEX
  5
3B8
  8
TENA_LOTS
 10
570083.56010786514
 20
516488.76496882603
 30
0.0
  0
VERTEX
  5
3B9
  8
TENA_LOTS
 10
570076.97187784791
 20
516484.2355064592
 30
0.0
  0
VERTEX
  5
3BA
  8
TENA_LOTS
 10
570062.64541272609
 20
516487.77306160162
 30
0.0
  0
VERTEX
  5
3BB
  8
TENA_LOTS
 10
570046.63825323631
 20
516494.81476236449
 30
0.0
  0
VERTEX
  5
3BC
  8
TENA_LOTS
 10
570041.50609680102
 20
516508.48162170139
 30
0.0
  0
VERTEX
  5
3BD
  8
TENA_LOTS
 10
570041.83409150899
 20
516524.6724425049
 30
0.0
  0
VERTEX
  5
3BE
  8
TENA_LOTS
 10
570049.6863746359
 20
516540.28878811531
 30
0.0
  0
VERTEX
  5
3BF
  8
TENA_LOTS
 10
570058.84775390953
 20
516565.41458259581
 30
0.0
  0
VERTEX
  5
3C0
  8
TENA_LOTS
 10
570068.2456041167
 20
516582.25902194623
 30
0.0
  0
VERTEX
  5
3C1
  8
TENA_LOTS
 10
570081.44458293833
 20
516590.52932512452
 30
0.0
  0
VERTEX
  5
3C2
  8
TENA_LOTS
 10
570107.68358581176
 20
516584.96381520998
 30
0.0
  0
VERTEX
  5
3C3
  8
TENA_LOTS
 10
570119.18930217659
 20
516569.50559759908
 30
0.0
  0
VERTEX
  5
3C4
  8
TENA_LOTS
 10
570121.07268201595
 20
516558.90328419372
 30
0.0
  0
VERTEX
  5
3C5
  8
TENA_LOTS
 10
570109.11366352765
 20
516534.8816286606
 30
0.0
  0
VERTEX
  5
3C6
  8
TENA_LOTS
 10
570103.28060546843
 20
516517.74428449781
 30
0.0
  0
VERTEX
  5
3C7
  8
TENA_LOTS
 10
570099.89598182379
 20
516511.72757932887
 30
0.0
  0
SEQEND
  5
3C8
  8
TENA_LOTS
  0
TEXT
  5
B0
  8
TENA_LOT-SITE_LABEL
 10
570072.42546239356
 20
516535.43986096431
 30
0.0
 40
5.0608183140548038
  1
126/52
 50
1.635614663726825
 72
     4
 11
570083.16089380987
 21
516538.27784766152
 31
0.0
  0
POLYLINE
  5
B1
  8
TENA_LOTS
 66
     1
 10
0.0
 20
0.0
 30
0.0
  0
VERTEX
  5
3C9
  8
TENA_LOTS
 10
566324.34245484078
 20
508646.04100749269
 30
0.0
  0
VERTEX
  5
3CA
  8
TENA_LOTS
 10
566330.76259687776
 20
508640.47223057918
 30
0.0
  0
VERTEX
  5
3CB
  8
TENA_LOTS
 10
566338.50239404594
 20
508626.8321559836
 30
0.0
  0
VERTEX
  5
3CC
  8
TENA_LOTS
 10
566338.50239404594
 20
508626.8321559836
 30
0.0
  0
VERTEX
  5
3CD
  8
TENA_LOTS
 10
566331.81694488041
 20
508623.67328773963
 30
0.0
  0
VERTEX
  5
3CE
  8
TENA_LOTS
 10
566324.93843462225
 20
508619.08514428663
 30
0.0
  0
VERTEX
  5
3CF
  8
TENA_LOTS
 10
566316.6480487478
 20
508613.86334526929
 30
0.0
  0
VERTEX
  5
3D0
  8
TENA_LOTS
 10
566310.19615874777
 20
508610.94949647289
 30
0.0
  0
VERTEX
  5
3D1
  8
TENA_LOTS
 10
566303.69014403829
 20
508609.81412215071
 30
0.0
  0
VERTEX
  5
3D2
  8
TENA_LOTS
 10
566294.32552836917
 20
508614.1311580601
 30
0.0
  0
VERTEX
  5
3D3
  8
TENA_LOTS
 10
566291.67918727535
 20
508621.86156363209
 30
0.0
  0
VERTEX
  5
3D4
  8
TENA_LOTS
 10
566291.74991889508
 20
508628.86195251817
 30
0.0
  0
VERTEX
  5
3D5
  8
TENA_LOTS
 10
566298.77957834955
 20
508632.83698339429
 30
0.0
  0
VERTEX
  5
3D6
  8
TENA_LOTS
 10
566311.35388386087
 20
508640.7256238492
 30
0.0
  0
VERTEX
  5
3D7
  8
TENA_LOTS
 10
566324.34245484078
 20
508646.04100749269
 30
0.0
  0
SEQEND
  5
3D8
  8
TENA_LOTS
  0
TEXT
  5
B2
  8
TENA_LOT-SITE_LABEL
 10
566306.02637076005
 20
508625.41793869698
 30
0.0
 40
5.0608183140548038
  1
86/58
 50
1.635614663726825
 72
     4
 11
566314.79661680816
 21
508628.19981027639
 31
0.0
  0
POLYLINE
  5
B3
  8
TENA_LOTS
 66
     1
 10
0.0
 20
0.0
 30
0.0
  0
VERTEX
  5
3D9
  8
TENA_LOTS
 10
566083.61509985162
 20
508618.61627013562
 30
0.0
  0
VERTEX
  5
3DA
  8
TENA_LOTS
 10
566073.67064731778
 20
508616.02396163641
 30
0.0
  0
VERTEX
  5
3DB
  8
TENA_LOTS
 10
566067.94603498315
 20
508615.07729020738
 30
0.0
  0
VERTEX
  5
3DC
  8
TENA_LOTS
 10
566061.94489568495
 20
508613.77402646153
 30
0.0
  0
VERTEX
  5
3DD
  8
TENA_LOTS
 10
566057.29228873691
 20
508612.00568572793
 30
0.0
  0
VERTEX
  5
3DE
  8
TENA_LOTS
 10
566054.77117545216
 20
508605.31455305201
 30
0.0
  0
VERTEX
  5
3DF
  8
TENA_LOTS
 10
566056.39103878499
 20
508599.8767644217
 30
0.0
  0
VERTEX
  5
3E0
  8
TENA_LOTS
 10
566061.15565548907
 20
508596.90687652869
 30
0.0
  0
VERTEX
  5
3E1
  8
TENA_LOTS
 10
566069.69168236002
 20
508597.5162329881
 30
0.0
  0
VERTEX
  5
3E2
  8
TENA_LOTS
 10
566082.4380642965
 20
508600.79909451777
 30
0.0
  0
VERTEX
  5
3E3
  8
TENA_LOTS
 10
566089.86088772677
 20
508602.03310164373
 30
0.0
  0
VERTEX
  5
3E4
  8
TENA_LOTS
 10
566089.43943037535
 20
508611.54642891051
 30
0.0
  0
VERTEX
  5
3E5
  8
TENA_LOTS
 10
566086.98003466672
 20
508617.96722419542
 30
0.0
  0
VERTEX
  5
3E6
  8
TENA_LOTS
 10
566083.61509985162
 20
508618.61627013562
 30
0.0
  0
SEQEND
  5
3E7
  8
TENA_LOTS
  0
TEXT
  5
B4
  8
TENA_LOT-SITE_LABEL
 10
566061.86611047899
 20
508604.74078767048
 30
0.0
 40
5.0608183140548038
  1
87/75
 50
1.635614663726825
 72
     4
 11
566070.63635652722
 21
508607.52265924978
 31
0.0
  0
POLYLINE
  5
B5
  8
TENA_LOTS
 66
     1
 10
0.0
 20
0.0
 30
0.0
  0
VERTEX
  5
3E8
  8
TENA_LOTS
 10
565846.47875954525
 20
508706.92188710702
 30
0.0
  0
VERTEX
  5
3E9
  8
TENA_LOTS
 10
565833.02668859018
 20
508703.44474359462
 30
0.0
  0
VERTEX
  5
3EA
  8
TENA_LOTS
 10
565817.50091156317
 20
508695.00014999253
 30
0.0
  0
VERTEX
  5
3EB
  8
TENA_LOTS
 10
565811.59959712799
 20
508687.19342153327
 30
0.0
  0
VERTEX
  5
3EC
  8
TENA_LOTS
 10
565809.37783424358
 20
508680.79823581647
 30
0.0
  0
VERTEX
  5
3ED
  8
TENA_LOTS
 10
565811.15529987728
 20
508672.33421593817
 30
0.0
  0
VERTEX
  5
3EE
  8
TENA_LOTS
 10
565821.55599739111
 20
508667.83044730499
 30
0.0
  0
VERTEX
  5
3EF
  8
TENA_LOTS
 10
565836.83838267461
 20
508668.26682998211
 30
0.0
  0
VERTEX
  5
3F0
  8
TENA_LOTS
 10
565859.86490521429
 20
508671.92899616779
 30
0.0
  0
VERTEX
  5
3F1
  8
TENA_LOTS
 10
565881.9264805956
 20
508678.74500555312
 30
0.0
  0
VERTEX
  5
3F2
  8
TENA_LOTS
 10
565877.12221563666
 20
508694.8975838531
 30
0.0
  0
VERTEX
  5
3F3
  8
TENA_LOTS
 10
565876.16363122617
 20
508711.0560153714
 30
0.0
  0
VERTEX
  5
3F4
  8
TENA_LOTS
 10
565863.63046378526
 20
508709.3438922856
 30
0.0
  0
VERTEX
  5
3F5
  8
TENA_LOTS
 10
565846.47875954525
 20
508706.92188710702
 30
0.0
  0
SEQEND
  5
3F6
  8
TENA_LOTS
  0
POLYLINE
  5
B6
  8
TENA_LOTS
 66
     1
 10
0.0
 20
0.0
 30
0.0
  0
VERTEX
  5
3F7
  8
TENA_LOTS
 10
565882.88947413058
 20
508678.96596679097
 30
0.0
  0
VERTEX
  5
3F8
  8
TENA_LOTS
 10
565880.30965612875
 20
508685.76173578837
 30
0.0
  0
VERTEX
  5
3F9
  8
TENA_LOTS
 10
565878.10421188141
 20
508694.36251362611
 30
0.0
  0
VERTEX
  5
3FA
  8
TENA_LOTS
 10
565876.73670381936
 20
508711.26584256568
 30
0.0
  0
VERTEX
  5
3FB
  8
TENA_LOTS
 10
565889.85405154165
 20
508712.798794934
 30
0.0
  0
VERTEX
  5
3FC
  8
TENA_LOTS
 10
565907.02853599458
 20
508714.64344905497
 30
0.0
  0
VERTEX
  5
3FD
  8
TENA_LOTS
 10
565920.14036394597
 20
508716.36970713438
 30
0.0
  0
VERTEX
  5
3FE
  8
TENA_LOTS
 10
565926.31222731655
 20
508717.12633231079
 30
0.0
  0
VERTEX
  5
3FF
  8
TENA_LOTS
 10
565930.31120919331
 20
508700.57947795559
 30
0.0
  0
VERTEX
  5
400
  8
TENA_LOTS
 10
565931.12664738495
 20
508693.35222880507
 30
0.0
  0
VERTEX
  5
401
  8
TENA_LOTS
 10
565932.25692074408
 20
508688.9526950359
 30
0.0
  0
VERTEX
  5
402
  8
TENA_LOTS
 10
565924.46512247005
 20
508686.51668175601
 30
0.0
  0
VERTEX
  5
403
  8
TENA_LOTS
 10
565910.1893315526
 20
508685.10116301372
 30
0.0
  0
VERTEX
  5
404
  8
TENA_LOTS
 10
565895.92446601833
 20
508683.08313500648
 30
0.0
  0
VERTEX
  5
405
  8
TENA_LOTS
 10
565882.88947413058
 20
508678.96596679097
 30
0.0
  0
SEQEND
  5
406
  8
TENA_LOTS
  0
TEXT
  5
B7
  8
TENA_LOT-SITE_LABEL
 10
565836.35242834094
 20
508683.88424621412
 30
0.0
 40
5.0608183140548038
  1
88/76
 50
1.635614663726825
 72
     4
 11
565845.12267438904
 21
508686.66611779347
 31
0.0
  0
TEXT
  5
B8
  8
TENA_LOT-SITE_LABEL
 10
565898.07701103354
 20
508696.8893329181
 30
0.0
 40
5.0608183140548038
  1
89/76
 50
1.635614663726825
 72
     4
 11
565906.84725708165
 21
508699.67120449751
 31
0.0
  0
POLYLINE
  5
B9
  8
TENA_LOTS
 66
     1
 10
0.0
 20
0.0
 30
0.0
  0
VERTEX
  5
407
  8
TENA_LOTS
 10
571094.96373832482
 20
509054.19391585141
 30
0.0
  0
VERTEX
  5
408
  8
TENA_LOTS
 10
571076.48832312832
 20
509043.1100759916
 30
0.0
  0
VERTEX
  5
409
  8
TENA_LOTS
 10
571061.46936841367
 20
509034.47236282041
 30
0.0
  0
VERTEX
  5
40A
  8
TENA_LOTS
 10
571061.73710655095
 20
509025.09601132292
 30
0.0
  0
VERTEX
  5
40B
  8
TENA_LOTS
 10
571076.52805281535
 20
509006.09560389502
 30
0.0
  0
VERTEX
  5
40C
  8
TENA_LOTS
 10
571089.61891729815
 20
508995.44135395798
 30
0.0
  0
VERTEX
  5
40D
  8
TENA_LOTS
 10
571107.45427533123
 20
508981.44289690588
 30
0.0
  0
VERTEX
  5
40E
  8
TENA_LOTS
 10
571120.67027569062
 20
508986.46080691827
 30
0.0
  0
VERTEX
  5
40F
  8
TENA_LOTS
 10
571131.55832053325
 20
508991.99552620651
 30
0.0
  0
VERTEX
  5
410
  8
TENA_LOTS
 10
571132.35341553634
 20
509004.78755618888
 30
0.0
  0
VERTEX
  5
411
  8
TENA_LOTS
 10
571120.07428791688
 20
509027.65102815372
 30
0.0
  0
VERTEX
  5
412
  8
TENA_LOTS
 10
571104.43281871278
 20
509046.35552226438
 30
0.0
  0
VERTEX
  5
413
  8
TENA_LOTS
 10
571094.96373832482
 20
509054.19391585141
 30
0.0
  0
VERTEX
  5
414
  8
TENA_LOTS
 10
571094.96373832482
 20
509054.19391585141
 30
0.0
  0
SEQEND
  5
415
  8
TENA_LOTS
  0
TEXT
  5
BA
  8
TENA_LOT-SITE_LABEL
 10
571089.16565583902
 20
509014.27622537001
 30
0.0
 40
5.0608183140548038
  1
99/81
 50
1.635614663726825
 72
     4
 11
571097.93590188725
 21
509017.05809694942
 31
0.0
  0
POLYLINE
  5
BB
  8
TENA_LOTS
 66
     1
 10
0.0
 20
0.0
 30
0.0
  0
VERTEX
  5
416
  8
TENA_LOTS
 10
565967.22271967866
 20
509239.41943979822
 30
0.0
  0
VERTEX
  5
417
  8
TENA_LOTS
 10
565961.67652336182
 20
509245.64245904522
 30
0.0
  0
VERTEX
  5
418
  8
TENA_LOTS
 10
565957.47967450321
 20
509249.35336348327
 30
0.0
  0
VERTEX
  5
419
  8
TENA_LOTS
 10
565954.50120832038
 20
509255.13861900492
 30
0.0
  0
VERTEX
  5
41A
  8
TENA_LOTS
 10
565954.27539287333
 20
509263.04681253643
 30
0.0
  0
VERTEX
  5
41B
  8
TENA_LOTS
 10
565962.93369326298
 20
509273.24824923382
 30
0.0
  0
VERTEX
  5
41C
  8
TENA_LOTS
 10
565962.93369326298
 20
509273.24824923382
 30
0.0
  0
VERTEX
  5
41D
  8
TENA_LOTS
 10
565978.84738940501
 20
509278.20211100939
 30
0.0
  0
VERTEX
  5
41E
  8
TENA_LOTS
 10
565978.84738940501
 20
509278.20211100939
 30
0.0
  0
VERTEX
  5
41F
  8
TENA_LOTS
 10
565988.31150977663
 20
509268.5587532706
 30
0.0
  0
VERTEX
  5
420
  8
TENA_LOTS
 10
566000.77113566326
 20
509257.16198293731
 30
0.0
  0
VERTEX
  5
421
  8
TENA_LOTS
 10
566000.77113566326
 20
509257.16198293731
 30
0.0
  0
VERTEX
  5
422
  8
TENA_LOTS
 10
566005.09122836846
 20
509247.37173945259
 30
0.0
  0
VERTEX
  5
423
  8
TENA_LOTS
 10
566007.52902384032
 20
509239.36191930983
 30
0.0
  0
VERTEX
  5
424
  8
TENA_LOTS
 10
566003.20612137788
 20
509232.2791365938
 30
0.0
  0
VERTEX
  5
425
  8
TENA_LOTS
 10
565994.8960618641
 20
509227.95556002302
 30
0.0
  0
VERTEX
  5
426
  8
TENA_LOTS
 10
565986.68450195401
 20
509228.99879276508
 30
0.0
  0
VERTEX
  5
427
  8
TENA_LOTS
 10
565979.505333554
 20
509229.81357466732
 30
0.0
  0
VERTEX
  5
428
  8
TENA_LOTS
 10
565972.99858479924
 20
509233.96960507543
 30
0.0
  0
VERTEX
  5
429
  8
TENA_LOTS
 10
565967.22271967866
 20
509239.41943979822
 30
0.0
  0
SEQEND
  5
42A
  8
TENA_LOTS
  0
TEXT
  5
BC
  8
TENA_LOT-SITE_LABEL
 10
565973.10715570336
 20
509250.63797239639
 30
0.0
 40
5.0608183140548038
  1
90/77
 50
1.635614663726825
 72
     4
 11
565981.87740175158
 21
509253.41984397569
 31
0.0
  0
POLYLINE
  5
BD
  8
TENA_LOTS
 66
     1
 10
0.0
 20
0.0
 30
0.0
  0
VERTEX
  5
42B
  8
TENA_LOTS
 10
568937.12372484675
 20
506919.02882108121
 30
0.0
  0
VERTEX
  5
42C
  8
TENA_LOTS
 10
568912.28101272171
 20
506918.03717440797
 30
0.0
  0
VERTEX
  5
42D
  8
TENA_LOTS
 10
568905.3362317459
 20
506918.20591879502
 30
0.0
  0
VERTEX
  5
42E
  8
TENA_LOTS
 10
568897.1978044936
 20
506912.72836341051
 30
0.0
  0
VERTEX
  5
42F
  8
TENA_LOTS
 10
568893.99921946321
 20
506901.54163996549
 30
0.0
  0
VERTEX
  5
430
  8
TENA_LOTS
 10
568893.53842095775
 20
506891.36992198712
 30
0.0
  0
VERTEX
  5
431
  8
TENA_LOTS
 10
568899.84359032987
 20
506880.08707233029
 30
0.0
  0
VERTEX
  5
432
  8
TENA_LOTS
 10
568917.28368527233
 20
506880.18274833262
 30
0.0
  0
VERTEX
  5
433
  8
TENA_LOTS
 10
568935.89376821008
 20
506880.36482727772
 30
0.0
  0
VERTEX
  5
434
  8
TENA_LOTS
 10
568942.37895697181
 20
506887.74436572753
 30
0.0
  0
VERTEX
  5
435
  8
TENA_LOTS
 10
568944.35860688193
 20
506899.6472286114
 30
0.0
  0
VERTEX
  5
436
  8
TENA_LOTS
 10
568944.77899099549
 20
506910.6225002734
 30
0.0
  0
VERTEX
  5
437
  8
TENA_LOTS
 10
568937.12372484675
 20
506919.02882108121
 30
0.0
  0
VERTEX
  5
438
  8
TENA_LOTS
 10
568937.12372484675
 20
506919.02882108121
 30
0.0
  0
SEQEND
  5
439
  8
TENA_LOTS
  0
TEXT
  5
BE
  8
TENA_LOT-SITE_LABEL
 10
568910.61832277535
 20
506899.05570404697
 30
0.0
 40
4.5217765284622189
  1
113/99
 50
1.635614663726825
 72
     4
 11
568920.21033765574
 21
506901.58986732783
 31
0.0
  0
POLYLINE
  5
BF
  8
TENA_LOTS
 66
     1
 10
0.0
 20
0.0
 30
0.0
  0
VERTEX
  5
43A
  8
TENA_LOTS
 10
569678.394716718
 20
506857.12519374333
 30
0.0
  0
VERTEX
  5
43B
  8
TENA_LOTS
 10
569685.08010737307
 20
506874.93025889079
 30
0.0
  0
VERTEX
  5
43C
  8
TENA_LOTS
 10
569694.05163080373
 20
506887.96236038901
 30
0.0
  0
VERTEX
  5
43D
  8
TENA_LOTS
 10
569694.26254399295
 20
506898.34894365328
 30
0.0
  0
VERTEX
  5
43E
  8
TENA_LOTS
 10
569683.95720628195
 20
506902.15445805999
 30
0.0
  0
VERTEX
  5
43F
  8
TENA_LOTS
 10
569672.6119176331
 20
506902.14309012837
 30
0.0
  0
VERTEX
  5
440
  8
TENA_LOTS
 10
569665.48509580654
 20
506892.71572595963
 30
0.0
  0
VERTEX
  5
441
  8
TENA_LOTS
 10
569661.46399441699
 20
506882.03820612252
 30
0.0
  0
VERTEX
  5
442
  8
TENA_LOTS
 10
569653.94209403184
 20
506861.20955412259
 30
0.0
  0
VERTEX
  5
443
  8
TENA_LOTS
 10
569664.4558376841
 20
506854.97488449927
 30
0.0
  0
VERTEX
  5
444
  8
TENA_LOTS
 10
569672.1828841673
 20
506853.19268754049
 30
0.0
  0
VERTEX
  5
445
  8
TENA_LOTS
 10
569678.394716718
 20
506857.12519374333
 30
0.0
  0
SEQEND
  5
446
  8
TENA_LOTS
  0
TEXT
  5
C0
  8
TENA_LOT-SITE_LABEL
 10
569661.4922924767
 20
506874.54973199422
 30
0.0
 40
4.4491127989457171
  1
114/100
 50
1.635614663726825
 72
     4
 11
569672.65777465445
 21
506877.09402120358
 31
0.0
  0
POLYLINE
  5
C1
  8
TENA_LOTS
 66
     1
 10
0.0
 20
0.0
 30
0.0
  0
VERTEX
  5
447
  8
TENA_LOTS
 10
566771.09609578678
 20
505743.54736977001
 30
0.0
  0
VERTEX
  5
448
  8
TENA_LOTS
 10
566766.59893375495
 20
505733.88436862431
 30
0.0
  0
VERTEX
  5
449
  8
TENA_LOTS
 10
566756.68514906848
 20
505725.85448380589
 30
0.0
  0
VERTEX
  5
44A
  8
TENA_LOTS
 10
566752.10279677575
 20
505719.16862532491
 30
0.0
  0
VERTEX
  5
44B
  8
TENA_LOTS
 10
566731.25411457533
 20
505717.9774384831
 30
0.0
  0
VERTEX
  5
44C
  8
TENA_LOTS
 10
566699.97366420995
 20
505725.7800789809
 30
0.0
  0
VERTEX
  5
44D
  8
TENA_LOTS
 10
566699.28423374426
 20
505749.9243508752
 30
0.0
  0
VERTEX
  5
44E
  8
TENA_LOTS
 10
566731.30727488536
 20
505757.9048161438
 30
0.0
  0
VERTEX
  5
44F
  8
TENA_LOTS
 10
566753.43344458262
 20
505756.15297387139
 30
0.0
  0
VERTEX
  5
450
  8
TENA_LOTS
 10
566767.36618021724
 20
505748.80401733669
 30
0.0
  0
VERTEX
  5
451
  8
TENA_LOTS
 10
566771.09609578678
 20
505743.54736977001
 30
0.0
  0
SEQEND
  5
452
  8
TENA_LOTS
  0
TEXT
  5
C2
  8
TENA_LOT-SITE_LABEL
 10
566723.64173474535
 20
505736.52373525361
 30
0.0
 40
4.6178038971472626
  1
100/82
 50
2.3830721330681821
 72
     4
 11
566733.40279203875
 21
505739.24085637322
 31
0.0
  0
POLYLINE
  5
C3
  8
TENA_LOTS
 66
     1
 10
0.0
 20
0.0
 30
0.0
  0
VERTEX
  5
453
  8
TENA_LOTS
 10
565772.24131003965
 20
505222.08031321107
 30
0.0
  0
VERTEX
  5
454
  8
TENA_LOTS
 10
565770.72399317438
 20
505234.29216811381
 30
0.0
  0
VERTEX
  5
455
  8
TENA_LOTS
 10
565768.03901822737
 20
505246.47061583929
 30
0.0
  0
VERTEX
  5
456
  8
TENA_LOTS
 10
565763.28628287336
 20
505269.67804063798
 30
0.0
  0
VERTEX
  5
457
  8
TENA_LOTS
 10
565777.71544492128
 20
505275.92579532717
 30
0.0
  0
VERTEX
  5
458
  8
TENA_LOTS
 10
565799.83421093377
 20
505278.89170849492
 30
0.0
  0
VERTEX
  5
459
  8
TENA_LOTS
 10
565805.7879050296
 20
505254.55148163618
 30
0.0
  0
VERTEX
  5
45A
  8
TENA_LOTS
 10
565810.64071389998
 20
505227.8454340251
 30
0.0
  0
VERTEX
  5
45B
  8
TENA_LOTS
 10
565792.55038137524
 20
505223.89918227593
 30
0.0
  0
VERTEX
  5
45C
  8
TENA_LOTS
 10
565772.24131003965
 20
505222.08031321107
 30
0.0
  0
SEQEND
  5
45D
  8
TENA_LOTS
  0
POLYLINE
  5
C4
  8
TENA_LOTS
 66
     1
 10
0.0
 20
0.0
 30
0.0
  0
VERTEX
  5
45E
  8
TENA_LOTS
 10
565797.06843154412
 20
505163.5282675217
 30
0.0
  0
VERTEX
  5
45F
  8
TENA_LOTS
 10
565774.35737381561
 20
505169.00699099468
 30
0.0
  0
VERTEX
  5
460
  8
TENA_LOTS
 10
565769.50758862402
 20
505156.37525205989
 30
0.0
  0
VERTEX
  5
461
  8
TENA_LOTS
 10
565764.91089976323
 20
505147.28291330679
 30
0.0
  0
VERTEX
  5
462
  8
TENA_LOTS
 10
565755.89564236533
 20
505124.85466765508
 30
0.0
  0
VERTEX
  5
463
  8
TENA_LOTS
 10
565754.35691178485
 20
505106.02349916159
 30
0.0
  0
VERTEX
  5
464
  8
TENA_LOTS
 10
565774.15403756907
 20
505093.44679955632
 30
0.0
  0
VERTEX
  5
465
  8
TENA_LOTS
 10
565792.31719664694
 20
505089.84793439088
 30
0.0
  0
VERTEX
  5
466
  8
TENA_LOTS
 10
565807.62183194887
 20
505124.79355698603
 30
0.0
  0
VERTEX
  5
467
  8
TENA_LOTS
 10
565809.60181718785
 20
505132.14064213721
 30
0.0
  0
VERTEX
  5
468
  8
TENA_LOTS
 10
565816.68143782648
 20
505156.88764771918
 30
0.0
  0
VERTEX
  5
469
  8
TENA_LOTS
 10
565797.06843154412
 20
505163.5282675217
 30
0.0
  0
SEQEND
  5
46A
  8
TENA_LOTS
  0
TEXT
  5
C5
  8
TENA_LOT-SITE_LABEL
 10
565776.52396156907
 20
505245.77317780768
 30
0.0
 40
5.0608183140548038
  1
101/94
 50
1.635614663726825
 72
     4
 11
565787.25939298549
 21
505248.61116450501
 31
0.0
  0
TEXT
  5
C6
  8
TENA_LOT-SITE_LABEL
 10
565770.90742802178
 20
505128.50429807598
 30
0.0
 40
5.0608183140548038
  1
102/95
 50
1.635614663726825
 72
     4
 11
565781.6428594382
 21
505131.3422847733
 31
0.0
  0
POLYLINE
  5
C7
  8
TENA_LOTS
 66
     1
 10
0.0
 20
0.0
 30
0.0
  0
VERTEX
  5
46B
  8
TENA_LOTS
 10
566982.80753750994
 20
504486.32683864463
 30
0.0
  0
VERTEX
  5
46C
  8
TENA_LOTS
 10
566961.17728160927
 20
504485.45017347549
 30
0.0
  0
VERTEX
  5
46D
  8
TENA_LOTS
 10
566959.40913990175
 20
504479.36681685131
 30
0.0
  0
VERTEX
  5
46E
  8
TENA_LOTS
 10
566961.23199024948
 20
504469.9104474659
 30
0.0
  0
VERTEX
  5
46F
  8
TENA_LOTS
 10
566974.0664860172
 20
504470.01791012258
 30
0.0
  0
VERTEX
  5
470
  8
TENA_LOTS
 10
566983.65443734883
 20
504470.29169041238
 30
0.0
  0
VERTEX
  5
471
  8
TENA_LOTS
 10
566984.89482016244
 20
504476.8026458174
 30
0.0
  0
VERTEX
  5
472
  8
TENA_LOTS
 10
566982.80753750994
 20
504486.32683864463
 30
0.0
  0
SEQEND
  5
473
  8
TENA_LOTS
  0
TEXT
  5
C8
  8
TENA_LOT-SITE_LABEL
 10
566963.50862615253
 20
504475.34417021542
 30
0.0
 40
5.0608183140548038
  1
91/79
 50
1.635614663726825
 72
     4
 11
566972.27887220075
 21
504478.12604179472
 31
0.0
  0
POLYLINE
  5
C9
  8
TENA_LOTS
 66
     1
 10
0.0
 20
0.0
 30
0.0
  0
VERTEX
  5
474
  8
TENA_LOTS
 10
568488.71339946077
 20
506362.26161100768
 30
0.0
  0
VERTEX
  5
475
  8
TENA_LOTS
 10
568466.0616657614
 20
506362.49314042227
 30
0.0
  0
VERTEX
  5
476
  8
TENA_LOTS
 10
568463.48897781328
 20
506349.37248802191
 30
0.0
  0
VERTEX
  5
477
  8
TENA_LOTS
 10
568464.59122174187
 20
506339.75750457798
 30
0.0
  0
VERTEX
  5
478
  8
TENA_LOTS
 10
568497.22804806824
 20
506343.27378832782
 30
0.0
  0
VERTEX
  5
479
  8
TENA_LOTS
 10
568528.82518349157
 20
506343.42499355512
 30
0.0
  0
VERTEX
  5
47A
  8
TENA_LOTS
 10
568530.7279585083
 20
506361.48509113211
 30
0.0
  0
VERTEX
  5
47B
  8
TENA_LOTS
 10
568488.71339946077
 20
506362.26161100768
 30
0.0
  0
SEQEND
  5
47C
  8
TENA_LOTS
  0
TEXT
  5
CA
  8
TENA_LOT-SITE_LABEL
 10
568485.75726182235
 20
506348.25056875858
 30
0.0
 40
4.5727690615064791
  1
115/101
 50
2.0772510504262689
 72
     4
 11
568497.21257426252
 21
506350.9539496678
 31
0.0
  0
POLYLINE
  5
CB
  8
TENA_LOTS
 66
     1
 10
0.0
 20
0.0
 30
0.0
  0
VERTEX
  5
47D
  8
TENA_LOTS
 10
569708.33992157923
 20
512817.9579712954
 30
0.0
  0
VERTEX
  5
47E
  8
TENA_LOTS
 10
569703.88200700725
 20
512808.3803005321
 30
0.0
  0
VERTEX
  5
47F
  8
TENA_LOTS
 10
569708.38096367591
 20
512795.80982580618
 30
0.0
  0
VERTEX
  5
480
  8
TENA_LOTS
 10
569717.19419140113
 20
512787.49705329392
 30
0.0
  0
VERTEX
  5
481
  8
TENA_LOTS
 10
569725.67812060995
 20
512780.35613892262
 30
0.0
  0
VERTEX
  5
482
  8
TENA_LOTS
 10
569735.33607059554
 20
512771.18988297932
 30
0.0
  0
VERTEX
  5
483
  8
TENA_LOTS
 10
569747.74485254067
 20
512776.77407209348
 30
0.0
  0
VERTEX
  5
484
  8
TENA_LOTS
 10
569757.50760110025
 20
512783.32867695112
 30
0.0
  0
VERTEX
  5
485
  8
TENA_LOTS
 10
569761.00612974167
 20
512789.18147123308
 30
0.0
  0
VERTEX
  5
486
  8
TENA_LOTS
 10
569753.17511812958
 20
512801.22341563512
 30
0.0
  0
VERTEX
  5
487
  8
TENA_LOTS
 10
569743.67015392962
 20
512813.06031515863
 30
0.0
  0
VERTEX
  5
488
  8
TENA_LOTS
 10
569733.85884051386
 20
512822.92337390309
 30
0.0
  0
VERTEX
  5
489
  8
TENA_LOTS
 10
569723.79802990356
 20
512825.48722612468
 30
0.0
  0
VERTEX
  5
48A
  8
TENA_LOTS
 10
569719.64453972608
 20
512825.95925536507
 30
0.0
  0
VERTEX
  5
48B
  8
TENA_LOTS
 10
569711.52293123538
 20
512820.41147907049
 30
0.0
  0
VERTEX
  5
48C
  8
TENA_LOTS
 10
569708.33992157923
 20
512817.9579712954
 30
0.0
  0
SEQEND
  5
48D
  8
TENA_LOTS
  0
TEXT
  5
CC
  8
TENA_LOT-SITE_LABEL
 10
569726.48195646273
 20
512792.19806872768
 30
0.0
 40
5.0608183140548038
  1
60/42
 50
1.635614663726825
 72
     4
 11
569735.25220251095
 21
512794.97994030709
 31
0.0
  0
POLYLINE
  5
CD
  8
TENA_LOTS
 66
     1
 10
0.0
 20
0.0
 30
0.0
  0
VERTEX
  5
48E
  8
TENA_LOTS
 10
573271.6715548815
 20
508103.8987754042
 30
0.0
  0
VERTEX
  5
48F
  8
TENA_LOTS
 10
573281.35386410775
 20
508093.25293171877
 30
0.0
  0
VERTEX
  5
490
  8
TENA_LOTS
 10
573294.40085744276
 20
508087.77142672747
 30
0.0
  0
VERTEX
  5
491
  8
TENA_LOTS
 10
573306.07767257479
 20
508089.27518741868
 30
0.0
  0
VERTEX
  5
492
  8
TENA_LOTS
 10
573315.70464123623
 20
508094.23380504479
 30
0.0
  0
VERTEX
  5
493
  8
TENA_LOTS
 10
573323.99977782916
 20
508104.61435766018
 30
0.0
  0
VERTEX
  5
494
  8
TENA_LOTS
 10
573335.64353591413
 20
508120.94219735247
 30
0.0
  0
VERTEX
  5
495
  8
TENA_LOTS
 10
573335.64353591413
 20
508120.94219735247
 30
0.0
  0
VERTEX
  5
496
  8
TENA_LOTS
 10
573338.05646718026
 20
508132.32511953451
 30
0.0
  0
VERTEX
  5
497
  8
TENA_LOTS
 10
573335.88905035926
 20
508139.67693545879
 30
0.0
  0
VERTEX
  5
498
  8
TENA_LOTS
 10
573329.85581532971
 20
508145.74803072622
 30
0.0
  0
VERTEX
  5
499
  8
TENA_LOTS
 10
573318.34629038733
 20
508152.05206771172
 30
0.0
  0
VERTEX
  5
49A
  8
TENA_LOTS
 10
573306.1348818054
 20
508155.60369176901
 30
0.0
  0
VERTEX
  5
49B
  8
TENA_LOTS
 10
573296.39167690999
 20
508154.9361631872
 30
0.0
  0
VERTEX
  5
49C
  8
TENA_LOTS
 10
573287.51808504737
 20
508141.53701447579
 30
0.0
  0
VERTEX
  5
49D
  8
TENA_LOTS
 10
573271.2967107615
 20
508112.46204468189
 30
0.0
  0
VERTEX
  5
49E
  8
TENA_LOTS
 10
573271.6715548815
 20
508103.8987754042
 30
0.0
  0
SEQEND
  5
49F
  8
TENA_LOTS
  0
TEXT
  5
CE
  8
TENA_LOT-SITE_LABEL
 10
573295.19146596408
 20
508119.59633077512
 30
0.0
 40
5.0608183140548038
  1
40/26
 50
1.635614663726825
 72
     4
 11
573303.9617120123
 21
508122.37820235448
 31
0.0
  0
POLYLINE
  5
CF
  8
TENA_LOTS
 66
     1
 10
0.0
 20
0.0
 30
0.0
  0
VERTEX
  5
4A0
  8
TENA_LOTS
 10
574732.85528025194
 20
508233.06709904631
 30
0.0
  0
VERTEX
  5
4A1
  8
TENA_LOTS
 10
574723.43964728795
 20
508230.27772294031
 30
0.0
  0
VERTEX
  5
4A2
  8
TENA_LOTS
 10
574721.24910551636
 20
508225.89635492407
 30
0.0
  0
VERTEX
  5
4A3
  8
TENA_LOTS
 10
574724.36226156983
 20
508210.62596688222
 30
0.0
  0
VERTEX
  5
4A4
  8
TENA_LOTS
 10
574739.34659756662
 20
508206.09834128839
 30
0.0
  0
VERTEX
  5
4A5
  8
TENA_LOTS
 10
574756.81298156315
 20
508207.06878717389
 30
0.0
  0
VERTEX
  5
4A6
  8
TENA_LOTS
 10
574765.35457627859
 20
508213.82250349381
 30
0.0
  0
VERTEX
  5
4A7
  8
TENA_LOTS
 10
574767.56725447078
 20
508222.59103553329
 30
0.0
  0
VERTEX
  5
4A8
  8
TENA_LOTS
 10
574761.21315058891
 20
508231.94292366412
 30
0.0
  0
VERTEX
  5
4A9
  8
TENA_LOTS
 10
574756.71645294013
 20
508235.18755649979
 30
0.0
  0
VERTEX
  5
4AA
  8
TENA_LOTS
 10
574741.82317646942
 20
508235.54293696739
 30
0.0
  0
VERTEX
  5
4AB
  8
TENA_LOTS
 10
574741.82317646942
 20
508235.54293696739
 30
0.0
  0
VERTEX
  5
4AC
  8
TENA_LOTS
 10
574732.85528025194
 20
508233.06709904631
 30
0.0
  0
SEQEND
  5
4AD
  8
TENA_LOTS
  0
TEXT
  5
D0
  8
TENA_LOT-SITE_LABEL
 10
574736.49465732195
 20
508219.75120763422
 30
0.0
 40
4.244768398882691
  1
42/28
 50
0.1966892973296492
 72
     4
 11
574743.90698600502
 21
508221.89905004337
 31
0.0
  0
POLYLINE
  5
D1
  8
TENA_LOTS
 66
     1
 10
0.0
 20
0.0
 30
0.0
  0
VERTEX
  5
4AE
  8
TENA_LOTS
 10
574628.61864135589
 20
507835.55490741017
 30
0.0
  0
VERTEX
  5
4AF
  8
TENA_LOTS
 10
574648.33572376706
 20
507833.27794959251
 30
0.0
  0
VERTEX
  5
4B0
  8
TENA_LOTS
 10
574656.32149820891
 20
507830.49298992433
 30
0.0
  0
VERTEX
  5
4B1
  8
TENA_LOTS
 10
574664.08613399172
 20
507828.170498722
 30
0.0
  0
VERTEX
  5
4B2
  8
TENA_LOTS
 10
574673.59645598568
 20
507843.26995429979
 30
0.0
  0
VERTEX
  5
4B3
  8
TENA_LOTS
 10
574679.09734240605
 20
507848.80171989062
 30
0.0
  0
VERTEX
  5
4B4
  8
TENA_LOTS
 10
574686.04277885123
 20
507862.42253572482
 30
0.0
  0
VERTEX
  5
4B5
  8
TENA_LOTS
 10
574685.73475946859
 20
507875.12221715669
 30
0.0
  0
VERTEX
  5
4B6
  8
TENA_LOTS
 10
574668.31104910048
 20
507882.57489656651
 30
0.0
  0
VERTEX
  5
4B7
  8
TENA_LOTS
 10
574668.31104910048
 20
507882.57489656651
 30
0.0
  0
VERTEX
  5
4B8
  8
TENA_LOTS
 10
574653.20246890665
 20
507888.77082952711
 30
0.0
  0
VERTEX
  5
4B9
  8
TENA_LOTS
 10
574653.20246890665
 20
507888.77082952711
 30
0.0
  0
VERTEX
  5
4BA
  8
TENA_LOTS
 10
574639.57904272166
 20
507892.76510619448
 30
0.0
  0
VERTEX
  5
4BB
  8
TENA_LOTS
 10
574628.5267989242
 20
507896.40375450242
 30
0.0
  0
VERTEX
  5
4BC
  8
TENA_LOTS
 10
574618.08470995363
 20
507896.45151562872
 30
0.0
  0
VERTEX
  5
4BD
  8
TENA_LOTS
 10
574610.15364408924
 20
507883.29987739812
 30
0.0
  0
VERTEX
  5
4BE
  8
TENA_LOTS
 10
574603.14987338195
 20
507872.4960668484
 30
0.0
  0
VERTEX
  5
4BF
  8
TENA_LOTS
 10
574596.14449703007
 20
507862.15998035489
 30
0.0
  0
VERTEX
  5
4C0
  8
TENA_LOTS
 10
574594.2976332067
 20
507853.7165184301
 30
0.0
  0
VERTEX
  5
4C1
  8
TENA_LOTS
 10
574594.31372396415
 20
507849.02928375441
 30
0.0
  0
VERTEX
  5
4C2
  8
TENA_LOTS
 10
574597.15094892716
 20
507842.9465461669
 30
0.0
  0
VERTEX
  5
4C3
  8
TENA_LOTS
 10
574606.54327292717
 20
507840.63414459699
 30
0.0
  0
VERTEX
  5
4C4
  8
TENA_LOTS
 10
574615.9372025734
 20
507837.854018969
 30
0.0
  0
VERTEX
  5
4C5
  8
TENA_LOTS
 10
574628.61864135589
 20
507835.55490741017
 30
0.0
  0
SEQEND
  5
4C6
  8
TENA_LOTS
  0
TEXT
  5
D2
  8
TENA_LOT-SITE_LABEL
 10
574633.75629037176
 20
507861.91713729419
 30
0.0
 40
4.244768398882691
  1
43/29
 50
0.1966892973296492
 72
     4
 11
574641.16862402472
 21
507864.06353197381
 31
0.0
  0
POLYLINE
  5
D3
  8
TENA_LOTS
 66
     1
 10
0.0
 20
0.0
 30
0.0
  0
VERTEX
  5
4C7
  8
TENA_LOTS
 10
574849.37980121374
 20
507743.3058041404
 30
0.0
  0
VERTEX
  5
4C8
  8
TENA_LOTS
 10
574837.76001989993
 20
507741.6358799669
 30
0.0
  0
VERTEX
  5
4C9
  8
TENA_LOTS
 10
574827.5748423253
 20
507737.11731856532
 30
0.0
  0
VERTEX
  5
4CA
  8
TENA_LOTS
 10
574828.01754823711
 20
507726.52361244638
 30
0.0
  0
VERTEX
  5
4CB
  8
TENA_LOTS
 10
574827.43338686496
 20
507718.37143333268
 30
0.0
  0
VERTEX
  5
4CC
  8
TENA_LOTS
 10
574841.32497653633
 20
507713.12250993249
 30
0.0
  0
VERTEX
  5
4CD
  8
TENA_LOTS
 10
574849.0776880522
 20
507712.9448691649
 30
0.0
  0
VERTEX
  5
4CE
  8
TENA_LOTS
 10
574857.44044259889
 20
507713.38008501299
 30
0.0
  0
VERTEX
  5
4CF
  8
TENA_LOTS
 10
574865.58899119426
 20
507716.26162014209
 30
0.0
  0
VERTEX
  5
4D0
  8
TENA_LOTS
 10
574871.29356380599
 20
507719.33701784117
 30
0.0
  0
VERTEX
  5
4D1
  8
TENA_LOTS
 10
574872.48006901715
 20
507730.34482679889
 30
0.0
  0
VERTEX
  5
4D2
  8
TENA_LOTS
 10
574868.36522616365
 20
507740.72167190869
 30
0.0
  0
VERTEX
  5
4D3
  8
TENA_LOTS
 10
574849.37980121374
 20
507743.3058041404
 30
0.0
  0
SEQEND
  5
4D4
  8
TENA_LOTS
  0
TEXT
  5
D4
  8
TENA_LOT-SITE_LABEL
 10
574841.40709119383
 20
507726.07866305782
 30
0.0
 40
4.244768398882691
  1
44/30
 50
0.1966892973296492
 72
     4
 11
574848.81942484656
 21
507728.22505773732
 31
0.0
  0
POLYLINE
  5
D5
  8
TENA_LOTS
 66
     1
 10
0.0
 20
0.0
 30
0.0
  0
VERTEX
  5
4D5
  8
TENA_LOTS
 10
575461.43196499068
 20
507199.90541812079
 30
0.0
  0
VERTEX
  5
4D6
  8
TENA_LOTS
 10
575440.88210921118
 20
507193.96554613858
 30
0.0
  0
VERTEX
  5
4D7
  8
TENA_LOTS
 10
575426.74225656025
 20
507203.89546156238
 30
0.0
  0
VERTEX
  5
4D8
  8
TENA_LOTS
 10
575419.07285257243
 20
507212.08739209053
 30
0.0
  0
VERTEX
  5
4D9
  8
TENA_LOTS
 10
575414.91567844083
 20
507225.5719714064
 30
0.0
  0
VERTEX
  5
4DA
  8
TENA_LOTS
 10
575430.35328832141
 20
507247.31150753499
 30
0.0
  0
VERTEX
  5
4DB
  8
TENA_LOTS
 10
575446.54113469389
 20
507257.96283565892
 30
0.0
  0
VERTEX
  5
4DC
  8
TENA_LOTS
 10
575463.55659794156
 20
507265.06604178291
 30
0.0
  0
VERTEX
  5
4DD
  8
TENA_LOTS
 10
575481.21347420104
 20
507257.49512955273
 30
0.0
  0
VERTEX
  5
4DE
  8
TENA_LOTS
 10
575491.25131431257
 20
507243.44400550181
 30
0.0
  0
VERTEX
  5
4DF
  8
TENA_LOTS
 10
575493.07833518018
 20
507224.66683033638
 30
0.0
  0
VERTEX
  5
4E0
  8
TENA_LOTS
 10
575473.16384304594
 20
507205.8150189626
 30
0.0
  0
VERTEX
  5
4E1
  8
TENA_LOTS
 10
575461.43196499068
 20
507199.90541812079
 30
0.0
  0
VERTEX
  5
4E2
  8
TENA_LOTS
 10
575461.43196499068
 20
507199.90541812079
 30
0.0
  0
SEQEND
  5
4E3
  8
TENA_LOTS
  0
TEXT
  5
D6
  8
TENA_LOT-SITE_LABEL
 10
575449.2170158677
 20
507227.09117210412
 30
0.0
 40
4.244768398882691
  1
45/31
 50
0.1966892973296492
 72
     4
 11
575456.62934952055
 21
507229.23756678367
 31
0.0
  0
POLYLINE
  5
D7
  8
TENA_LOTS
 66
     1
 10
0.0
 20
0.0
 30
0.0
  0
VERTEX
  5
4E4
  8
TENA_LOTS
 10
573280.29692770226
 20
512581.98747623828
 30
0.0
  0
VERTEX
  5
4E5
  8
TENA_LOTS
 10
573274.41421407985
 20
512578.57511540601
 30
0.0
  0
VERTEX
  5
4E6
  8
TENA_LOTS
 10
573229.59554764268
 20
512550.15554648079
 30
0.0
  0
VERTEX
  5
4E7
  8
TENA_LOTS
 10
573203.790682761
 20
512538.15313724731
 30
0.0
  0
VERTEX
  5
4E8
  8
TENA_LOTS
 10
573185.42154851404
 20
512535.06822613452
 30
0.0
  0
VERTEX
  5
4E9
  8
TENA_LOTS
 10
573172.588268277
 20
512547.88172081561
 30
0.0
  0
VERTEX
  5
4EA
  8
TENA_LOTS
 10
573170.01018857281
 20
512556.63179869083
 30
0.0
  0
VERTEX
  5
4EB
  8
TENA_LOTS
 10
573169.59082085011
 20
512568.42683415208
 30
0.0
  0
VERTEX
  5
4EC
  8
TENA_LOTS
 10
573179.95008570049
 20
512574.30784243299
 30
0.0
  0
VERTEX
  5
4ED
  8
TENA_LOTS
 10
573193.87983926211
 20
512580.50111748773
 30
0.0
  0
VERTEX
  5
4EE
  8
TENA_LOTS
 10
573221.63554583048
 20
512595.5026046639
 30
0.0
  0
VERTEX
  5
4EF
  8
TENA_LOTS
 10
573257.36711573973
 20
512608.6635986137
 30
0.0
  0
VERTEX
  5
4F0
  8
TENA_LOTS
 10
573280.29692770226
 20
512581.98747623828
 30
0.0
  0
SEQEND
  5
4F1
  8
TENA_LOTS
  0
POLYLINE
  5
D8
  8
TENA_LOTS
 66
     1
 10
0.0
 20
0.0
 30
0.0
  0
VERTEX
  5
4F2
  8
TENA_LOTS
 10
573280.71192466409
 20
512579.57745210262
 30
0.0
  0
VERTEX
  5
4F3
  8
TENA_LOTS
 10
573255.89806745073
 20
512562.68422301498
 30
0.0
  0
VERTEX
  5
4F4
  8
TENA_LOTS
 10
573212.48483528395
 20
512538.91345240659
 30
0.0
  0
VERTEX
  5
4F5
  8
TENA_LOTS
 10
573189.12441306678
 20
512531.07740165881
 30
0.0
  0
VERTEX
  5
4F6
  8
TENA_LOTS
 10
573200.74527279567
 20
512519.11950443068
 30
0.0
  0
VERTEX
  5
4F7
  8
TENA_LOTS
 10
573207.75561912137
 20
512507.02995575132
 30
0.0
  0
VERTEX
  5
4F8
  8
TENA_LOTS
 10
573217.53274103336
 20
512505.7729155093
 30
0.0
  0
VERTEX
  5
4F9
  8
TENA_LOTS
 10
573227.72223229741
 20
512506.80297190457
 30
0.0
  0
VERTEX
  5
4FA
  8
TENA_LOTS
 10
573260.594417991
 20
512523.90091837279
 30
0.0
  0
VERTEX
  5
4FB
  8
TENA_LOTS
 10
573280.60352939914
 20
512541.37061266351
 30
0.0
  0
VERTEX
  5
4FC
  8
TENA_LOTS
 10
573289.43381530978
 20
512553.19066286652
 30
0.0
  0
VERTEX
  5
4FD
  8
TENA_LOTS
 10
573286.86492126225
 20
512570.41436338419
 30
0.0
  0
VERTEX
  5
4FE
  8
TENA_LOTS
 10
573280.71192466409
 20
512579.57745210262
 30
0.0
  0
SEQEND
  5
4FF
  8
TENA_LOTS
  0
TEXT
  5
D9
  8
TENA_LOT-SITE_LABEL
 10
573218.85552050453
 20
512568.0164913378
 30
0.0
 40
5.0608183140548038
  1
77/45
 50
1.635614663726825
 72
     4
 11
573227.62576655275
 21
512570.79836291721
 31
0.0
  0
TEXT
  5
DA
  8
TENA_LOT-SITE_LABEL
 10
573243.59373279114
 20
512538.62619812851
 30
0.0
 40
5.0608183140548038
  1
78/45
 50
1.635614663726825
 72
     4
 11
573252.36397883936
 21
512541.4080697078
 31
0.0
  0
POLYLINE
  5
DB
  8
TENA_LOTS
 66
     1
 10
0.0
 20
0.0
 30
0.0
  0
VERTEX
  5
500
  8
TENA_LOTS
 10
576894.07775592338
 20
506899.15352242679
 30
0.0
  0
VERTEX
  5
501
  8
TENA_LOTS
 10
576880.57765579957
 20
506899.10717807751
 30
0.0
  0
VERTEX
  5
502
  8
TENA_LOTS
 10
576865.05252419203
 20
506899.05388201872
 30
0.0
  0
VERTEX
  5
503
  8
TENA_LOTS
 10
576852.90938828955
 20
506896.98961028742
 30
0.0
  0
VERTEX
  5
504
  8
TENA_LOTS
 10
576826.58662254096
 20
506896.22510541131
 30
0.0
  0
VERTEX
  5
505
  8
TENA_LOTS
 10
576818.3596369382
 20
506895.90575396438
 30
0.0
  0
VERTEX
  5
506
  8
TENA_LOTS
 10
576824.56342599692
 20
506882.6865229113
 30
0.0
  0
VERTEX
  5
507
  8
TENA_LOTS
 10
576824.61537492205
 20
506867.55381106131
 30
0.0
  0
VERTEX
  5
508
  8
TENA_LOTS
 10
576826.57802080794
 20
506847.69975664641
 30
0.0
  0
VERTEX
  5
509
  8
TENA_LOTS
 10
576828.97461371252
 20
506838.2501778318
 30
0.0
  0
VERTEX
  5
50A
  8
TENA_LOTS
 10
576840.82405885111
 20
506834.5081337443
 30
0.0
  0
VERTEX
  5
50B
  8
TENA_LOTS
 10
576878.08590836264
 20
506838.4217489303
 30
0.0
  0
VERTEX
  5
50C
  8
TENA_LOTS
 10
576896.30413871957
 20
506840.50687578833
 30
0.0
  0
VERTEX
  5
50D
  8
TENA_LOTS
 10
576909.40726716758
 20
506855.54954412481
 30
0.0
  0
VERTEX
  5
50E
  8
TENA_LOTS
 10
576905.60374103754
 20
506884.36095528601
 30
0.0
  0
VERTEX
  5
50F
  8
TENA_LOTS
 10
576905.00054323964
 20
506897.14836246258
 30
0.0
  0
VERTEX
  5
510
  8
TENA_LOTS
 10
576894.07775592338
 20
506899.15352242679
 30
0.0
  0
SEQEND
  5
511
  8
TENA_LOTS
  0
TEXT
  5
DC
  8
TENA_LOT-SITE_LABEL
 10
576857.31394082156
 20
506867.83733508969
 30
0.0
 40
4.244768398882691
  1
70/32
 50
0.1966892973296492
 72
     4
 11
576864.72627447417
 21
506869.9837297693
 31
0.0
  0
POLYLINE
  5
DD
  8
TENA_LOTS
 66
     1
 10
0.0
 20
0.0
 30
0.0
  0
VERTEX
  5
512
  8
TENA_LOTS
 10
576884.90919449285
 20
506900.4056200122
 30
0.0
  0
VERTEX
  5
513
  8
TENA_LOTS
 10
576883.9040595718
 20
506916.52754136687
 30
0.0
  0
VERTEX
  5
514
  8
TENA_LOTS
 10
576883.38043650053
 20
506930.7539753642
 30
0.0
  0
VERTEX
  5
515
  8
TENA_LOTS
 10
576885.53366100765
 20
506940.06118573481
 30
0.0
  0
VERTEX
  5
516
  8
TENA_LOTS
 10
576905.91512049665
 20
506944.32638988743
 30
0.0
  0
VERTEX
  5
517
  8
TENA_LOTS
 10
576926.05510815198
 20
506948.9229849946
 30
0.0
  0
VERTEX
  5
518
  8
TENA_LOTS
 10
576952.17020597158
 20
506949.48686682381
 30
0.0
  0
VERTEX
  5
519
  8
TENA_LOTS
 10
576971.044165725
 20
506947.77199269878
 30
0.0
  0
VERTEX
  5
51A
  8
TENA_LOTS
 10
576971.99185930181
 20
506934.57476804568
 30
0.0
  0
VERTEX
  5
51B
  8
TENA_LOTS
 10
576970.99715491978
 20
506919.96111557091
 30
0.0
  0
VERTEX
  5
51C
  8
TENA_LOTS
 10
576970.2484812265
 20
506909.00286963338
 30
0.0
  0
VERTEX
  5
51D
  8
TENA_LOTS
 10
576962.29027520528
 20
506906.36252121622
 30
0.0
  0
VERTEX
  5
51E
  8
TENA_LOTS
 10
576937.12310882495
 20
506906.27612511948
 30
0.0
  0
VERTEX
  5
51F
  8
TENA_LOTS
 10
576903.42834728118
 20
506900.46919421438
 30
0.0
  0
VERTEX
  5
520
  8
TENA_LOTS
 10
576884.90919449285
 20
506900.4056200122
 30
0.0
  0
SEQEND
  5
521
  8
TENA_LOTS
  0
POLYLINE
  5
DE
  8
TENA_LOTS
 66
     1
 10
0.0
 20
0.0
 30
0.0
  0
VERTEX
  5
522
  8
TENA_LOTS
 10
576972.92448686599
 20
506926.72769223963
 30
0.0
  0
VERTEX
  5
523
  8
TENA_LOTS
 10
576972.92448686599
 20
506926.72769223963
 30
0.0
  0
VERTEX
  5
524
  8
TENA_LOTS
 10
576971.96862846811
 20
506947.49081132089
 30
0.0
  0
VERTEX
  5
525
  8
TENA_LOTS
 10
576971.96862846811
 20
506947.49081132089
 30
0.0
  0
VERTEX
  5
526
  8
TENA_LOTS
 10
577024.36430659506
 20
507007.7136306988
 30
0.0
  0
VERTEX
  5
527
  8
TENA_LOTS
 10
577034.20191695122
 20
507018.17041303171
 30
0.0
  0
VERTEX
  5
528
  8
TENA_LOTS
 10
577080.01984291221
 20
507002.24562586122
 30
0.0
  0
VERTEX
  5
529
  8
TENA_LOTS
 10
577072.58831249562
 20
506970.35233411507
 30
0.0
  0
VERTEX
  5
52A
  8
TENA_LOTS
 10
577059.89240731997
 20
506947.04170653707
 30
0.0
  0
VERTEX
  5
52B
  8
TENA_LOTS
 10
577059.89240731997
 20
506947.04170653707
 30
0.0
  0
VERTEX
  5
52C
  8
TENA_LOTS
 10
577059.89240731997
 20
506947.04170653707
 30
0.0
  0
VERTEX
  5
52D
  8
TENA_LOTS
 10
577033.62757840916
 20
506936.44442639413
 30
0.0
  0
VERTEX
  5
52E
  8
TENA_LOTS
 10
576972.92448686599
 20
506926.72769223963
 30
0.0
  0
SEQEND
  5
52F
  8
TENA_LOTS
  0
POLYLINE
  5
DF
  8
TENA_LOTS
 66
     1
 10
0.0
 20
0.0
 30
0.0
  0
VERTEX
  5
530
  8
TENA_LOTS
 10
576715.36894687009
 20
506975.6238496424
 30
0.0
  0
VERTEX
  5
531
  8
TENA_LOTS
 10
576732.02034593769
 20
506990.84754275141
 30
0.0
  0
VERTEX
  5
532
  8
TENA_LOTS
 10
576746.3912970979
 20
507006.82169642352
 30
0.0
  0
VERTEX
  5
533
  8
TENA_LOTS
 10
576766.89351554762
 20
507006.13378918183
 30
0.0
  0
VERTEX
  5
534
  8
TENA_LOTS
 10
576787.49205335369
 20
506977.38807195681
 30
0.0
  0
VERTEX
  5
535
  8
TENA_LOTS
 10
576800.43309701758
 20
506967.57425752282
 30
0.0
  0
VERTEX
  5
536
  8
TENA_LOTS
 10
576808.40079919773
 20
506951.50701536488
 30
0.0
  0
VERTEX
  5
537
  8
TENA_LOTS
 10
576789.17281137244
 20
506934.05330297118
 30
0.0
  0
VERTEX
  5
538
  8
TENA_LOTS
 10
576783.14864192787
 20
506907.24718676187
 30
0.0
  0
VERTEX
  5
539
  8
TENA_LOTS
 10
576758.8177251342
 20
506925.72346388269
 30
0.0
  0
VERTEX
  5
53A
  8
TENA_LOTS
 10
576744.32702605659
 20
506944.63185554277
 30
0.0
  0
VERTEX
  5
53B
  8
TENA_LOTS
 10
576726.8018768339
 20
506962.77154118271
 30
0.0
  0
VERTEX
  5
53C
  8
TENA_LOTS
 10
576715.36894687009
 20
506975.6238496424
 30
0.0
  0
SEQEND
  5
53D
  8
TENA_LOTS
  0
POLYLINE
  5
E0
  8
TENA_LOTS
 66
     1
 10
0.0
 20
0.0
 30
0.0
  0
VERTEX
  5
53E
  8
TENA_LOTS
 10
576811.23210005206
 20
506949.16580026719
 30
0.0
  0
VERTEX
  5
53F
  8
TENA_LOTS
 10
576799.50500438048
 20
506938.78863902699
 30
0.0
  0
VERTEX
  5
540
  8
TENA_LOTS
 10
576792.47537970438
 20
506931.24512075388
 30
0.0
  0
VERTEX
  5
541
  8
TENA_LOTS
 10
576787.82674807985
 20
506915.72180488828
 30
0.0
  0
VERTEX
  5
542
  8
TENA_LOTS
 10
576785.50705297256
 20
506905.84552314167
 30
0.0
  0
VERTEX
  5
543
  8
TENA_LOTS
 10
576793.22707599006
 20
506898.38627987768
 30
0.0
  0
VERTEX
  5
544
  8
TENA_LOTS
 10
576803.7632936606
 20
506893.54425681441
 30
0.0
  0
VERTEX
  5
545
  8
TENA_LOTS
 10
576825.53315050376
 20
506899.62287457561
 30
0.0
  0
VERTEX
  5
546
  8
TENA_LOTS
 10
576880.56475887122
 20
506901.00339401647
 30
0.0
  0
VERTEX
  5
547
  8
TENA_LOTS
 10
576882.77593211865
 20
506940.95484611823
 30
0.0
  0
VERTEX
  5
548
  8
TENA_LOTS
 10
576866.61081155529
 20
506942.86380524858
 30
0.0
  0
VERTEX
  5
549
  8
TENA_LOTS
 10
576858.36510349077
 20
506966.52862817253
 30
0.0
  0
VERTEX
  5
54A
  8
TENA_LOTS
 10
576858.35737446602
 20
506968.78009166819
 30
0.0
  0
VERTEX
  5
54B
  8
TENA_LOTS
 10
576846.69409034215
 20
506973.61819214269
 30
0.0
  0
VERTEX
  5
54C
  8
TENA_LOTS
 10
576825.64859662857
 20
506975.42216915108
 30
0.0
  0
VERTEX
  5
54D
  8
TENA_LOTS
 10
576820.00800110656
 20
506976.90376330051
 30
0.0
  0
VERTEX
  5
54E
  8
TENA_LOTS
 10
576823.40347240353
 20
506968.47563529352
 30
0.0
  0
VERTEX
  5
54F
  8
TENA_LOTS
 10
576811.23210005206
 20
506949.16580026719
 30
0.0
  0
SEQEND
  5
550
  8
TENA_LOTS
  0
POLYLINE
  5
E1
  8
TENA_LOTS
 66
     1
 10
0.0
 20
0.0
 30
0.0
  0
VERTEX
  5
551
  8
TENA_LOTS
 10
576892.97115854663
 20
507045.54035420693
 30
0.0
  0
VERTEX
  5
552
  8
TENA_LOTS
 10
576867.5942895558
 20
507049.44219099142
 30
0.0
  0
VERTEX
  5
553
  8
TENA_LOTS
 10
576841.93811463402
 20
507046.6557304181
 30
0.0
  0
VERTEX
  5
554
  8
TENA_LOTS
 10
576830.47245014284
 20
507041.89427521621
 30
0.0
  0
VERTEX
  5
555
  8
TENA_LOTS
 10
576826.48944481986
 20
507021.64297624351
 30
0.0
  0
VERTEX
  5
556
  8
TENA_LOTS
 10
576825.21044399019
 20
507000.72633663059
 30
0.0
  0
VERTEX
  5
557
  8
TENA_LOTS
 10
576819.8581231304
 20
506985.86705498258
 30
0.0
  0
VERTEX
  5
558
  8
TENA_LOTS
 10
576819.87664924737
 20
506980.47040054732
 30
0.0
  0
VERTEX
  5
559
  8
TENA_LOTS
 10
576831.36789690296
 20
506977.81146296457
 30
0.0
  0
VERTEX
  5
55A
  8
TENA_LOTS
 10
576848.92837890692
 20
506977.87174615578
 30
0.0
  0
VERTEX
  5
55B
  8
TENA_LOTS
 10
576859.64063272439
 20
506968.73219843413
 30
0.0
  0
VERTEX
  5
55C
  8
TENA_LOTS
 10
576859.64063272439
 20
506968.73219843413
 30
0.0
  0
VERTEX
  5
55D
  8
TENA_LOTS
 10
576876.38405274856
 20
506984.36912435829
 30
0.0
  0
VERTEX
  5
55E
  8
TENA_LOTS
 10
576882.48948415217
 20
507010.30119981151
 30
0.0
  0
VERTEX
  5
55F
  8
TENA_LOTS
 10
576896.83467039815
 20
507039.88846661471
 30
0.0
  0
VERTEX
  5
560
  8
TENA_LOTS
 10
576892.97115854663
 20
507045.54035420693
 30
0.0
  0
SEQEND
  5
561
  8
TENA_LOTS
  0
POLYLINE
  5
E2
  8
TENA_LOTS
 66
     1
 10
0.0
 20
0.0
 30
0.0
  0
VERTEX
  5
562
  8
TENA_LOTS
 10
576713.49393550842
 20
506975.08636984741
 30
0.0
  0
VERTEX
  5
563
  8
TENA_LOTS
 10
576684.69395174738
 20
506975.21474869043
 30
0.0
  0
VERTEX
  5
564
  8
TENA_LOTS
 10
576666.44920595363
 20
506977.17609305208
 30
0.0
  0
VERTEX
  5
565
  8
TENA_LOTS
 10
576633.40383773251
 20
506975.1785689505
 30
0.0
  0
VERTEX
  5
566
  8
TENA_LOTS
 10
576645.31991048832
 20
506995.07025497191
 30
0.0
  0
VERTEX
  5
567
  8
TENA_LOTS
 10
576646.73328592279
 20
507007.62877751281
 30
0.0
  0
VERTEX
  5
568
  8
TENA_LOTS
 10
576648.15094165329
 20
507020.47767720278
 30
0.0
  0
VERTEX
  5
569
  8
TENA_LOTS
 10
576685.22349396138
 20
507017.71986022388
 30
0.0
  0
VERTEX
  5
56A
  8
TENA_LOTS
 10
576709.53129379335
 20
507020.50190595392
 30
0.0
  0
VERTEX
  5
56B
  8
TENA_LOTS
 10
576750.58010904223
 20
507010.22791528091
 30
0.0
  0
VERTEX
  5
56C
  8
TENA_LOTS
 10
576746.12325129216
 20
507007.90035523608
 30
0.0
  0
VERTEX
  5
56D
  8
TENA_LOTS
 10
576713.49393550842
 20
506975.08636984741
 30
0.0
  0
SEQEND
  5
56E
  8
TENA_LOTS
  0
TEXT
  5
E3
  8
TENA_LOT-SITE_LABEL
 10
576922.54011737637
 20
506929.49632419291
 30
0.0
 40
4.244768398882691
  1
71/32
 50
0.1966892973296492
 72
     4
 11
576929.95245102909
 21
506931.64271887252
 31
0.0
  0
TEXT
  5
E4
  8
TENA_LOT-SITE_LABEL
 10
577032.00251722918
 20
506971.71488234139
 30
0.0
 40
4.244768398882691
  1
76/32
 50
0.1966892973296492
  0
TEXT
  5
E5
  8
TENA_LOT-SITE_LABEL
 10
576822.47040095646
 20
506928.22218832083
 30
0.0
 40
4.244768398882691
  1
72/32
 50
0.1966892973296492
  0
TEXT
  5
E6
  8
TENA_LOT-SITE_LABEL
 10
576757.49056393071
 20
506969.84084785491
 30
0.0
 40
4.244768398882691
  1
50/32
 50
0.1966892973296492
  0
TEXT
  5
E7
  8
TENA_LOT-SITE_LABEL
 10
576694.52707125444
 20
507000.68111952062
 30
0.0
 40
4.244768398882691
  1
51/32
 50
0.1966892973296492
  0
TEXT
  5
E8
  8
TENA_LOT-SITE_LABEL
 10
576849.79156489368
 20
507011.60919918492
 30
0.0
 40
4.244768398882691
  1
49/32
 50
0.1966892973296492
 72
     4
 11
576857.2038985464
 21
507013.75559386448
 31
0.0
  0
POLYLINE
  5
E9
  8
TENA_LOTS
 66
     1
 10
0.0
 20
0.0
 30
0.0
  0
VERTEX
  5
56F
  8
TENA_LOTS
 10
577071.67482635134
 20
507005.718110641
 30
0.0
  0
VERTEX
  5
570
  8
TENA_LOTS
 10
577054.38947234815
 20
507022.04246159323
 30
0.0
  0
VERTEX
  5
571
  8
TENA_LOTS
 10
577040.38958000613
 20
507031.1698551086
 30
0.0
  0
VERTEX
  5
572
  8
TENA_LOTS
 10
577093.5044922675
 20
507084.48837132117
 30
0.0
  0
VERTEX
  5
573
  8
TENA_LOTS
 10
577116.70696545555
 20
507080.49108424078
 30
0.0
  0
VERTEX
  5
574
  8
TENA_LOTS
 10
577116.70696545555
 20
507080.49108424078
 30
0.0
  0
VERTEX
  5
575
  8
TENA_LOTS
 10
577129.42426286452
 20
507066.82562841277
 30
0.0
  0
VERTEX
  5
576
  8
TENA_LOTS
 10
577134.74115182424
 20
507055.2433999785
 30
0.0
  0
VERTEX
  5
577
  8
TENA_LOTS
 10
577142.63704914646
 20
507047.22879795171
 30
0.0
  0
VERTEX
  5
578
  8
TENA_LOTS
 10
577102.37631515926
 20
507019.25926471222
 30
0.0
  0
VERTEX
  5
579
  8
TENA_LOTS
 10
577071.67482635134
 20
507005.718110641
 30
0.0
  0
SEQEND
  5
57A
  8
TENA_LOTS
  0
TEXT
  5
EA
  8
TENA_LOT-SITE_LABEL
 10
577088.54081195791
 20
507045.7348264727
 30
0.0
 40
4.244768398882691
  1
46/32
 50
0.1966892973296492
 72
     4
 11
577095.95314561075
 21
507047.8812211522
 31
0.0
  0
POLYLINE
  5
EB
  8
TENA_LOTS
 66
     1
 10
0.0
 20
0.0
 30
0.0
  0
VERTEX
  5
57B
  8
TENA_LOTS
 10
577172.76331810269
 20
507471.96028582769
 30
0.0
  0
VERTEX
  5
57C
  8
TENA_LOTS
 10
577168.94678570062
 20
507472.84531984531
 30
0.0
  0
VERTEX
  5
57D
  8
TENA_LOTS
 10
577164.5546094923
 20
507471.6587755215
 30
0.0
  0
VERTEX
  5
57E
  8
TENA_LOTS
 10
577162.65029242227
 20
507468.37236588291
 30
0.0
  0
VERTEX
  5
57F
  8
TENA_LOTS
 10
577162.66249003145
 20
507464.8192047078
 30
0.0
  0
VERTEX
  5
580
  8
TENA_LOTS
 10
577166.4561233233
 20
507462.04329632811
 30
0.0
  0
VERTEX
  5
581
  8
TENA_LOTS
 10
577173.15294038784
 20
507462.00220576982
 30
0.0
  0
VERTEX
  5
582
  8
TENA_LOTS
 10
577175.25152989
 20
507464.58909076988
 30
0.0
  0
VERTEX
  5
583
  8
TENA_LOTS
 10
577175.23651743785
 20
507468.96221517841
 30
0.0
  0
VERTEX
  5
584
  8
TENA_LOTS
 10
577172.76331810269
 20
507471.96028582769
 30
0.0
  0
SEQEND
  5
585
  8
TENA_LOTS
  0
TEXT
  5
EC
  8
TENA_LOT-SITE_LABEL
 10
577162.31599888019
 20
507464.56032975891
 30
0.0
 40
4.244768398882691
  1
47/59
 50
0.1966892973296492
 72
     4
 11
577169.72832756315
 21
507466.70817216812
 31
0.0
  0
POLYLINE
  5
ED
  8
TENA_LOTS
 66
     1
 10
0.0
 20
0.0
 30
0.0
  0
VERTEX
  5
586
  8
TENA_LOTS
 10
576828.86873178475
 20
507142.71988026868
 30
0.0
  0
VERTEX
  5
587
  8
TENA_LOTS
 10
576828.86873178475
 20
507142.71988026868
 30
0.0
  0
VERTEX
  5
588
  8
TENA_LOTS
 10
576823.89575363358
 20
507155.20117802988
 30
0.0
  0
VERTEX
  5
589
  8
TENA_LOTS
 10
576821.71843011619
 20
507165.88402831787
 30
0.0
  0
VERTEX
  5
58A
  8
TENA_LOTS
 10
576823.11289297196
 20
507175.39131439943
 30
0.0
  0
VERTEX
  5
58B
  8
TENA_LOTS
 10
576839.98805285944
 20
507179.01266872371
 30
0.0
  0
VERTEX
  5
58C
  8
TENA_LOTS
 10
576855.91749568621
 20
507180.96786324581
 30
0.0
  0
VERTEX
  5
58D
  8
TENA_LOTS
 10
576868.51868980774
 20
507182.43649125798
 30
0.0
  0
VERTEX
  5
58E
  8
TENA_LOTS
 10
576868.51868980774
 20
507182.43649125798
 30
0.0
  0
VERTEX
  5
58F
  8
TENA_LOTS
 10
576875.88731021388
 20
507173.64969763701
 30
0.0
  0
VERTEX
  5
590
  8
TENA_LOTS
 10
576876.666751532
 20
507164.6472635697
 30
0.0
  0
VERTEX
  5
591
  8
TENA_LOTS
 10
576876.68550839275
 20
507159.18339368381
 30
0.0
  0
VERTEX
  5
592
  8
TENA_LOTS
 10
576876.22121274855
 20
507155.85594654048
 30
0.0
  0
VERTEX
  5
593
  8
TENA_LOTS
 10
576874.56690208788
 20
507152.76193121332
 30
0.0
  0
VERTEX
  5
594
  8
TENA_LOTS
 10
576865.30048083852
 20
507149.87938160001
 30
0.0
  0
VERTEX
  5
595
  8
TENA_LOTS
 10
576848.900218294
 20
507146.4972012986
 30
0.0
  0
VERTEX
  5
596
  8
TENA_LOTS
 10
576835.35825517005
 20
507141.93703421619
 30
0.0
  0
VERTEX
  5
597
  8
TENA_LOTS
 10
576828.86873178475
 20
507142.71988026868
 30
0.0
  0
SEQEND
  5
598
  8
TENA_LOTS
  0
TEXT
  5
EE
  8
TENA_LOT-SITE_LABEL
 10
576838.99106630974
 20
507161.13363504142
 30
0.0
 40
4.244768398882691
  1
48/60
 50
0.1966892973296492
 72
     4
 11
576846.40339499258
 21
507163.28147745063
 31
0.0
  0
POLYLINE
  5
EF
  8
TENA_LOTS
 66
     1
 10
0.0
 20
0.0
 30
0.0
  0
VERTEX
  5
599
  8
TENA_LOTS
 10
576928.28754210414
 20
506822.1065306454
 30
0.0
  0
VERTEX
  5
59A
  8
TENA_LOTS
 10
576940.73351642478
 20
506819.87026397348
 30
0.0
  0
VERTEX
  5
59B
  8
TENA_LOTS
 10
576955.46138646547
 20
506810.78957219142
 30
0.0
  0
VERTEX
  5
59C
  8
TENA_LOTS
 10
576954.88631976524
 20
506799.98811720352
 30
0.0
  0
VERTEX
  5
59D
  8
TENA_LOTS
 10
576949.42798052402
 20
506789.1975074854
 30
0.0
  0
VERTEX
  5
59E
  8
TENA_LOTS
 10
576941.76627543604
 20
506782.39860086847
 30
0.0
  0
VERTEX
  5
59F
  8
TENA_LOTS
 10
576926.57282527664
 20
506786.64838963631
 30
0.0
  0
VERTEX
  5
5A0
  8
TENA_LOTS
 10
576919.5860752837
 20
506790.901102181
 30
0.0
  0
VERTEX
  5
5A1
  8
TENA_LOTS
 10
576918.64941379195
 20
506800.3795762852
 30
0.0
  0
VERTEX
  5
5A2
  8
TENA_LOTS
 10
576923.01206882519
 20
506813.9382467767
 30
0.0
  0
VERTEX
  5
5A3
  8
TENA_LOTS
 10
576928.28754210414
 20
506822.1065306454
 30
0.0
  0
SEQEND
  5
5A4
  8
TENA_LOTS
  0
TEXT
  5
F0
  8
TENA_LOT-SITE_LABEL
 10
576929.77857275202
 20
506799.94356018741
 30
0.0
 40
4.244768398882691
  1
24/19
 50
0.1966892973296492
 72
     4
 11
576937.19090143486
 21
506802.09140259668
 31
0.0
  0
POLYLINE
  5
F1
  8
TENA_LOTS
 66
     1
 10
0.0
 20
0.0
 30
0.0
  0
VERTEX
  5
5A5
  8
TENA_LOTS
 10
576258.23715240078
 20
506889.30423482473
 30
0.0
  0
VERTEX
  5
5A6
  8
TENA_LOTS
 10
576257.52346305072
 20
506879.15250732581
 30
0.0
  0
VERTEX
  5
5A7
  8
TENA_LOTS
 10
576253.42272844631
 20
506860.47677642189
 30
0.0
  0
VERTEX
  5
5A8
  8
TENA_LOTS
 10
576251.85737838584
 20
506843.16851157037
 30
0.0
  0
VERTEX
  5
5A9
  8
TENA_LOTS
 10
576248.33698876156
 20
506821.41728410602
 30
0.0
  0
VERTEX
  5
5AA
  8
TENA_LOTS
 10
576249.07402671152
 20
506814.2007004277
 30
0.0
  0
VERTEX
  5
5AB
  8
TENA_LOTS
 10
576273.06149985211
 20
506809.15925622388
 30
0.0
  0
VERTEX
  5
5AC
  8
TENA_LOTS
 10
576300.0124271008
 20
506811.57613687753
 30
0.0
  0
VERTEX
  5
5AD
  8
TENA_LOTS
 10
576315.49995482643
 20
506813.790053303
 30
0.0
  0
VERTEX
  5
5AE
  8
TENA_LOTS
 10
576317.92670352664
 20
506848.30601650121
 30
0.0
  0
VERTEX
  5
5AF
  8
TENA_LOTS
 10
576318.76904884644
 20
506866.65951246151
 30
0.0
  0
VERTEX
  5
5B0
  8
TENA_LOTS
 10
576318.98837485944
 20
506885.35466306598
 30
0.0
  0
VERTEX
  5
5B1
  8
TENA_LOTS
 10
576317.54729520658
 20
506892.47061778931
 30
0.0
  0
VERTEX
  5
5B2
  8
TENA_LOTS
 10
576301.57940793526
 20
506892.62862146081
 30
0.0
  0
VERTEX
  5
5B3
  8
TENA_LOTS
 10
576283.58041795099
 20
506892.92702186678
 30
0.0
  0
VERTEX
  5
5B4
  8
TENA_LOTS
 10
576267.08931522747
 20
506892.72317325341
 30
0.0
  0
VERTEX
  5
5B5
  8
TENA_LOTS
 10
576260.71549769794
 20
506894.10911217169
 30
0.0
  0
VERTEX
  5
5B6
  8
TENA_LOTS
 10
576258.23715240078
 20
506889.30423482473
 30
0.0
  0
SEQEND
  5
5B7
  8
TENA_LOTS
  0
TEXT
  5
F2
  8
TENA_LOT-SITE_LABEL
 10
576277.49637327506
 20
506851.4733788211
 30
0.0
 40
4.244768398882691
  1
25/20
 50
0.1966892973296492
 72
     4
 11
576284.9087019579
 21
506853.62122123042
 31
0.0
  0
POLYLINE
  5
F3
  8
TENA_LOTS
 66
     1
 10
0.0
 20
0.0
 30
0.0
  0
VERTEX
  5
5B8
  8
TENA_LOTS
 10
576095.23034135986
 20
506738.90700366622
 30
0.0
  0
VERTEX
  5
5B9
  8
TENA_LOTS
 10
576095.23034135986
 20
506738.90700366622
 30
0.0
  0
VERTEX
  5
5BA
  8
TENA_LOTS
 10
576099.79797706392
 20
506753.42879163468
 30
0.0
  0
VERTEX
  5
5BB
  8
TENA_LOTS
 10
576104.36635281029
 20
506769.27223194129
 30
0.0
  0
VERTEX
  5
5BC
  8
TENA_LOTS
 10
576119.24637857417
 20
506801.98408342618
 30
0.0
  0
VERTEX
  5
5BD
  8
TENA_LOTS
 10
576188.35607466276
 20
506780.34001521178
 30
0.0
  0
VERTEX
  5
5BE
  8
TENA_LOTS
 10
576159.22046513529
 20
506717.48365799041
 30
0.0
  0
VERTEX
  5
5BF
  8
TENA_LOTS
 10
576095.23034135986
 20
506738.90700366622
 30
0.0
  0
SEQEND
  5
5C0
  8
TENA_LOTS
  0
TEXT
  5
F4
  8
TENA_LOT-SITE_LABEL
 10
576135.84860777273
 20
506758.72236508533
 30
0.0
 40
4.244768398882691
  1
26/21
 50
0.1966892973296492
 72
     4
 11
576143.26093645557
 21
506760.87020749459
 31
0.0
  0
POLYLINE
  5
F5
  8
TENA_LOTS
 66
     1
 10
0.0
 20
0.0
 30
0.0
  0
VERTEX
  5
5C1
  8
TENA_LOTS
 10
576113.70427975035
 20
507026.74364612432
 30
0.0
  0
VERTEX
  5
5C2
  8
TENA_LOTS
 10
576098.87255768664
 20
507012.24269267492
 30
0.0
  0
VERTEX
  5
5C3
  8
TENA_LOTS
 10
576084.05642648705
 20
506993.20012344152
 30
0.0
  0
VERTEX
  5
5C4
  8
TENA_LOTS
 10
576104.37744732574
 20
506975.10320603661
 30
0.0
  0
VERTEX
  5
5C5
  8
TENA_LOTS
 10
576128.38375718519
 20
506965.68976349448
 30
0.0
  0
VERTEX
  5
5C6
  8
TENA_LOTS
 10
576134.1627724166
 20
506968.60121177149
 30
0.0
  0
VERTEX
  5
5C7
  8
TENA_LOTS
 10
576147.3318312685
 20
506984.74651722983
 30
0.0
  0
VERTEX
  5
5C8
  8
TENA_LOTS
 10
576155.95307401579
 20
507002.11776034912
 30
0.0
  0
VERTEX
  5
5C9
  8
TENA_LOTS
 10
576127.83041213639
 20
507006.97540260531
 30
0.0
  0
VERTEX
  5
5CA
  8
TENA_LOTS
 10
576113.70427975035
 20
507026.74364612432
 30
0.0
  0
SEQEND
  5
5CB
  8
TENA_LOTS
  0
TEXT
  5
F6
  8
TENA_LOT-SITE_LABEL
 10
576111.75353280723
 20
506991.1132166427
 30
0.0
 40
4.244768398882691
  1
27/22
 50
0.1966892973296492
 72
     4
 11
576119.16586148995
 21
506993.26105905202
 31
0.0
  0
POLYLINE
  5
F7
  8
TENA_LOTS
 66
     1
 10
0.0
 20
0.0
 30
0.0
  0
VERTEX
  5
5CC
  8
TENA_LOTS
 10
576064.80343719618
 20
506887.73916238151
 30
0.0
  0
VERTEX
  5
5CD
  8
TENA_LOTS
 10
576050.36341089639
 20
506885.68285084527
 30
0.0
  0
VERTEX
  5
5CE
  8
TENA_LOTS
 10
576039.40608984418
 20
506876.49903343699
 30
0.0
  0
VERTEX
  5
5CF
  8
TENA_LOTS
 10
576033.96820225543
 20
506860.01718480268
 30
0.0
  0
VERTEX
  5
5D0
  8
TENA_LOTS
 10
576038.13296107983
 20
506847.22683320142
 30
0.0
  0
VERTEX
  5
5D1
  8
TENA_LOTS
 10
576051.43148126302
 20
506841.32745629951
 30
0.0
  0
VERTEX
  5
5D2
  8
TENA_LOTS
 10
576068.82716798922
 20
506842.30176402361
 30
0.0
  0
VERTEX
  5
5D3
  8
TENA_LOTS
 10
576081.61275843135
 20
506852.40649073129
 30
0.0
  0
VERTEX
  5
5D4
  8
TENA_LOTS
 10
576086.61315834743
 20
506862.94176547241
 30
0.0
  0
VERTEX
  5
5D5
  8
TENA_LOTS
 10
576087.94594237371
 20
506874.83639927302
 30
0.0
  0
VERTEX
  5
5D6
  8
TENA_LOTS
 10
576081.96076335781
 20
506884.4193714807
 30
0.0
  0
VERTEX
  5
5D7
  8
TENA_LOTS
 10
576071.977524549
 20
506886.80884347961
 30
0.0
  0
VERTEX
  5
5D8
  8
TENA_LOTS
 10
576064.80343719618
 20
506887.73916238151
 30
0.0
  0
SEQEND
  5
5D9
  8
TENA_LOTS
  0
TEXT
  5
F8
  8
TENA_LOT-SITE_LABEL
 10
576054.69857895828
 20
506862.60296366533
 30
0.0
 40
4.244768398882691
  1
28/67
 50
0.1966892973296492
 72
     4
 11
576062.11090764112
 21
506864.75080607447
 31
0.0
  0
POLYLINE
  5
F9
  8
TENA_LOTS
 66
     1
 10
0.0
 20
0.0
 30
0.0
  0
VERTEX
  5
5DA
  8
TENA_LOTS
 10
575856.55520499684
 20
506991.30174929788
 30
0.0
  0
VERTEX
  5
5DB
  8
TENA_LOTS
 10
575883.38067678711
 20
507004.60432865273
 30
0.0
  0
VERTEX
  5
5DC
  8
TENA_LOTS
 10
575903.22913910099
 20
507004.2599512905
 30
0.0
  0
VERTEX
  5
5DD
  8
TENA_LOTS
 10
575921.02072134032
 20
506998.95432864397
 30
0.0
  0
VERTEX
  5
5DE
  8
TENA_LOTS
 10
575916.57961017045
 20
506967.5599126016
 30
0.0
  0
VERTEX
  5
5DF
  8
TENA_LOTS
 10
575896.90508535365
 20
506918.77355708962
 30
0.0
  0
VERTEX
  5
5E0
  8
TENA_LOTS
 10
575886.17554741993
 20
506912.9555071576
 30
0.0
  0
VERTEX
  5
5E1
  8
TENA_LOTS
 10
575859.71169466234
 20
506915.75426673802
 30
0.0
  0
VERTEX
  5
5E2
  8
TENA_LOTS
 10
575848.95522330469
 20
506917.78191814612
 30
0.0
  0
VERTEX
  5
5E3
  8
TENA_LOTS
 10
575856.55520499684
 20
506991.30174929788
 30
0.0
  0
SEQEND
  5
5E4
  8
TENA_LOTS
  0
TEXT
  5
FA
  8
TENA_LOT-SITE_LABEL
 10
575876.56247489317
 20
506950.55520400859
 30
0.0
 40
4.244768398882691
  1
29/68
 50
0.1966892973296492
 72
     4
 11
575883.97480357613
 21
506952.70304641791
 31
0.0
  0
POLYLINE
  5
FB
  8
TENA_LOTS
 66
     1
 10
0.0
 20
0.0
 30
0.0
  0
VERTEX
  5
5E5
  8
TENA_LOTS
 10
575853.30846056773
 20
506974.77398611052
 30
0.0
  0
VERTEX
  5
5E6
  8
TENA_LOTS
 10
575778.04780954262
 20
506981.9489034877
 30
0.0
  0
VERTEX
  5
5E7
  8
TENA_LOTS
 10
575774.61145317589
 20
506922.17643513338
 30
0.0
  0
VERTEX
  5
5E8
  8
TENA_LOTS
 10
575848.65599781985
 20
506923.07368310413
 30
0.0
  0
VERTEX
  5
5E9
  8
TENA_LOTS
 10
575853.30846056773
 20
506974.77398611052
 30
0.0
  0
SEQEND
  5
5EA
  8
TENA_LOTS
  0
TEXT
  5
FC
  8
TENA_LOT-SITE_LABEL
 10
575804.43351749447
 20
506952.19018640969
 30
0.0
 40
4.244768398882691
  1
30/68
 50
0.1966892973296492
 72
     4
 11
575811.84585114708
 21
506954.3365810893
 31
0.0
  0
POLYLINE
  5
FD
  8
TENA_LOTS
 66
     1
 10
0.0
 20
0.0
 30
0.0
  0
VERTEX
  5
5EB
  8
TENA_LOTS
 10
576491.01024581888
 20
507103.10465148301
 30
0.0
  0
VERTEX
  5
5EC
  8
TENA_LOTS
 10
576491.01024581888
 20
507103.10465148301
 30
0.0
  0
VERTEX
  5
5ED
  8
TENA_LOTS
 10
576485.41046635841
 20
507074.63227382372
 30
0.0
  0
VERTEX
  5
5EE
  8
TENA_LOTS
 10
576476.2546739903
 20
507044.72499346518
 30
0.0
  0
VERTEX
  5
5EF
  8
TENA_LOTS
 10
576474.72239466535
 20
507031.52885441331
 30
0.0
  0
VERTEX
  5
5F0
  8
TENA_LOTS
 10
576486.24763852474
 20
507022.30685821699
 30
0.0
  0
VERTEX
  5
5F1
  8
TENA_LOTS
 10
576515.57896882005
 20
507012.777528401
 30
0.0
  0
VERTEX
  5
5F2
  8
TENA_LOTS
 10
576538.59148751595
 20
507006.93113123759
 30
0.0
  0
VERTEX
  5
5F3
  8
TENA_LOTS
 10
576542.05832254526
 20
507014.68669881352
 30
0.0
  0
VERTEX
  5
5F4
  8
TENA_LOTS
 10
576552.58537648967
 20
507036.44595370098
 30
0.0
  0
VERTEX
  5
5F5
  8
TENA_LOTS
 10
576560.86977414996
 20
507084.13855975942
 30
0.0
  0
VERTEX
  5
5F6
  8
TENA_LOTS
 10
576560.55351201689
 20
507090.34455418662
 30
0.0
  0
VERTEX
  5
5F7
  8
TENA_LOTS
 10
576542.35914491815
 20
507097.68934130459
 30
0.0
  0
VERTEX
  5
5F8
  8
TENA_LOTS
 10
576542.35914491815
 20
507097.68934130459
 30
0.0
  0
VERTEX
  5
5F9
  8
TENA_LOTS
 10
576510.35714529909
 20
507098.12416189862
 30
0.0
  0
VERTEX
  5
5FA
  8
TENA_LOTS
 10
576491.01024581888
 20
507103.10465148301
 30
0.0
  0
VERTEX
  5
5FB
  8
TENA_LOTS
 10
576491.01024581888
 20
507103.10465148301
 30
0.0
  0
SEQEND
  5
5FC
  8
TENA_LOTS
  0
POLYLINE
  5
FE
  8
TENA_LOTS
 66
     1
 10
0.0
 20
0.0
 30
0.0
  0
VERTEX
  5
5FD
  8
TENA_LOTS
 10
576571.6782651759
 20
507074.80730161577
 30
0.0
  0
VERTEX
  5
5FE
  8
TENA_LOTS
 10
576560.34210046311
 20
507071.99292124191
 30
0.0
  0
VERTEX
  5
5FF
  8
TENA_LOTS
 10
576553.38294216886
 20
507036.23642668809
 30
0.0
  0
VERTEX
  5
600
  8
TENA_LOTS
 10
576532.77614903217
 20
506992.08668228891
 30
0.0
  0
VERTEX
  5
601
  8
TENA_LOTS
 10
576532.77614903217
 20
506992.08668228891
 30
0.0
  0
VERTEX
  5
602
  8
TENA_LOTS
 10
576532.77614903217
 20
506992.08668228891
 30
0.0
  0
VERTEX
  5
603
  8
TENA_LOTS
 10
576584.77757143148
 20
506988.70857786748
 30
0.0
  0
VERTEX
  5
604
  8
TENA_LOTS
 10
576631.8254031596
 20
506976.06614669861
 30
0.0
  0
VERTEX
  5
605
  8
TENA_LOTS
 10
576631.8254031596
 20
506976.06614669861
 30
0.0
  0
VERTEX
  5
606
  8
TENA_LOTS
 10
576642.19267485815
 20
506992.92084984499
 30
0.0
  0
VERTEX
  5
607
  8
TENA_LOTS
 10
576645.72900460928
 20
507014.25160141248
 30
0.0
  0
VERTEX
  5
608
  8
TENA_LOTS
 10
576647.3179300786
 20
507027.93813392462
 30
0.0
  0
VERTEX
  5
609
  8
TENA_LOTS
 10
576649.84005999321
 20
507040.33425522241
 30
0.0
  0
VERTEX
  5
60A
  8
TENA_LOTS
 10
576602.09621953312
 20
507068.4877040697
 30
0.0
  0
VERTEX
  5
60B
  8
TENA_LOTS
 10
576571.6782651759
 20
507074.80730161577
 30
0.0
  0
VERTEX
  5
60C
  8
TENA_LOTS
 10
576571.6782651759
 20
507074.80730161577
 30
0.0
  0
SEQEND
  5
60D
  8
TENA_LOTS
  0
TEXT
  5
FF
  8
TENA_LOT-SITE_LABEL
 10
576587.8545969862
 20
507023.4984142484
 30
0.0
 40
4.244768398882691
  1
52/32
 50
0.1966892973296492
 72
     4
 11
576595.26693063905
 21
507025.64480892802
 31
0.0
  0
TEXT
  5
100
  8
TENA_LOT-SITE_LABEL
 10
576509.49563755316
 20
507055.45364168251
 30
0.0
 40
4.244768398882691
  1
53/32
 50
0.1966892973296492
 72
     4
 11
576516.90797120589
 21
507057.60003636213
 31
0.0
  0
POLYLINE
  5
101
  8
TENA_LOTS
 66
     1
 10
0.0
 20
0.0
 30
0.0
  0
VERTEX
  5
60E
  8
TENA_LOTS
 10
576309.69737061835
 20
507199.3447094392
 30
0.0
  0
VERTEX
  5
60F
  8
TENA_LOTS
 10
576302.25597523537
 20
507201.44062438369
 30
0.0
  0
VERTEX
  5
610
  8
TENA_LOTS
 10
576295.18690110452
 20
507198.2341663877
 30
0.0
  0
VERTEX
  5
611
  8
TENA_LOTS
 10
576290.25385470735
 20
507191.49919461791
 30
0.0
  0
VERTEX
  5
612
  8
TENA_LOTS
 10
576292.41911294032
 20
507179.48489989678
 30
0.0
  0
VERTEX
  5
613
  8
TENA_LOTS
 10
576304.12072488095
 20
507173.86780285172
 30
0.0
  0
VERTEX
  5
614
  8
TENA_LOTS
 10
576314.75655113987
 20
507169.30777729762
 30
0.0
  0
VERTEX
  5
615
  8
TENA_LOTS
 10
576322.89859385532
 20
507169.3357280292
 30
0.0
  0
VERTEX
  5
616
  8
TENA_LOTS
 10
576325.7075510436
 20
507176.06340803532
 30
0.0
  0
VERTEX
  5
617
  8
TENA_LOTS
 10
576328.51650836761
 20
507182.7910484749
 30
0.0
  0
VERTEX
  5
618
  8
TENA_LOTS
 10
576322.11288180738
 20
507191.96213987091
 30
0.0
  0
VERTEX
  5
619
  8
TENA_LOTS
 10
576312.53788637719
 20
507196.87938387808
 30
0.0
  0
VERTEX
  5
61A
  8
TENA_LOTS
 10
576309.69737061835
 20
507199.3447094392
 30
0.0
  0
SEQEND
  5
61B
  8
TENA_LOTS
  0
TEXT
  5
102
  8
TENA_LOT-SITE_LABEL
 10
576300.55866392085
 20
507184.46205927519
 30
0.0
 40
4.244768398882691
  1
54/61
 50
0.1966892973296492
 72
     4
 11
576307.97099260357
 21
507186.60990168439
 31
0.0
  0
POLYLINE
  5
103
  8
TENA_LOTS
 66
     1
 10
0.0
 20
0.0
 30
0.0
  0
VERTEX
  5
61C
  8
TENA_LOTS
 10
576406.93306540558
 20
506985.183359624
 30
0.0
  0
VERTEX
  5
61D
  8
TENA_LOTS
 10
576406.93306540558
 20
506985.183359624
 30
0.0
  0
VERTEX
  5
61E
  8
TENA_LOTS
 10
576415.35204429203
 20
506998.49783973221
 30
0.0
  0
VERTEX
  5
61F
  8
TENA_LOTS
 10
576420.15296774986
 20
507008.98175119801
 30
0.0
  0
VERTEX
  5
620
  8
TENA_LOTS
 10
576421.73902776046
 20
507016.63645835058
 30
0.0
  0
VERTEX
  5
621
  8
TENA_LOTS
 10
576418.4812710546
 20
507026.28752286918
 30
0.0
  0
VERTEX
  5
622
  8
TENA_LOTS
 10
576406.37933067721
 20
507029.06412650569
 30
0.0
  0
VERTEX
  5
623
  8
TENA_LOTS
 10
576393.48231219745
 20
507028.61725138122
 30
0.0
  0
VERTEX
  5
624
  8
TENA_LOTS
 10
576374.17619755748
 20
507016.47318041872
 30
0.0
  0
VERTEX
  5
625
  8
TENA_LOTS
 10
576355.27450727322
 20
507003.9278967132
 30
0.0
  0
VERTEX
  5
626
  8
TENA_LOTS
 10
576354.90182001132
 20
506995.0695714567
 30
0.0
  0
VERTEX
  5
627
  8
TENA_LOTS
 10
576370.25460688665
 20
506984.65484544821
 30
0.0
  0
VERTEX
  5
628
  8
TENA_LOTS
 10
576385.59771941695
 20
506977.05825427087
 30
0.0
  0
VERTEX
  5
629
  8
TENA_LOTS
 10
576385.59771941695
 20
506977.05825427087
 30
0.0
  0
VERTEX
  5
62A
  8
TENA_LOTS
 10
576406.93306540558
 20
506985.183359624
 30
0.0
  0
SEQEND
  5
62B
  8
TENA_LOTS
  0
TEXT
  5
104
  8
TENA_LOT-SITE_LABEL
 10
576385.64533934835
 20
507002.79068744648
 30
0.0
 40
4.244768398882691
  1
55/62
 50
0.1966892973296492
 72
     4
 11
576393.05766803119
 21
507004.9385298558
 31
0.0
  0
POLYLINE
  5
105
  8
TENA_LOTS
 66
     1
 10
0.0
 20
0.0
 30
0.0
  0
VERTEX
  5
62C
  8
TENA_LOTS
 10
576218.26532762859
 20
506925.27948820777
 30
0.0
  0
VERTEX
  5
62D
  8
TENA_LOTS
 10
576222.10651576601
 20
506934.6663756473
 30
0.0
  0
VERTEX
  5
62E
  8
TENA_LOTS
 10
576227.58290014288
 20
506944.26112900372
 30
0.0
  0
VERTEX
  5
62F
  8
TENA_LOTS
 10
576233.8102322889
 20
506951.38976413081
 30
0.0
  0
VERTEX
  5
630
  8
TENA_LOTS
 10
576240.18083299987
 20
506953.96030630969
 30
0.0
  0
VERTEX
  5
631
  8
TENA_LOTS
 10
576252.31475165067
 20
506950.1789320081
 30
0.0
  0
VERTEX
  5
632
  8
TENA_LOTS
 10
576263.1727604171
 20
506946.3931776493
 30
0.0
  0
VERTEX
  5
633
  8
TENA_LOTS
 10
576270.20313928311
 20
506942.59428345982
 30
0.0
  0
VERTEX
  5
634
  8
TENA_LOTS
 10
576271.47735223814
 20
506935.24236770259
 30
0.0
  0
VERTEX
  5
635
  8
TENA_LOTS
 10
576266.43029205478
 20
506926.65201905818
 30
0.0
  0
VERTEX
  5
636
  8
TENA_LOTS
 10
576261.98871782736
 20
506919.62787248351
 30
0.0
  0
VERTEX
  5
637
  8
TENA_LOTS
 10
576257.54068141105
 20
506914.51521807548
 30
0.0
  0
VERTEX
  5
638
  8
TENA_LOTS
 10
576249.88770862645
 20
506913.8517880062
 30
0.0
  0
VERTEX
  5
639
  8
TENA_LOTS
 10
576234.57510150364
 20
506914.43637978123
 30
0.0
  0
VERTEX
  5
63A
  8
TENA_LOTS
 10
576224.81893337984
 20
506917.76457716379
 30
0.0
  0
VERTEX
  5
63B
  8
TENA_LOTS
 10
576218.26532762859
 20
506925.27948820777
 30
0.0
  0
SEQEND
  5
63C
  8
TENA_LOTS
  0
TEXT
  5
106
  8
TENA_LOT-SITE_LABEL
 10
576238.03474129213
 20
506931.0524760441
 30
0.0
 40
4.244768398882691
  1
56/63
 50
0.1966892973296492
  0
POLYLINE
  5
107
  8
TENA_LOTS
 66
     1
 10
0.0
 20
0.0
 30
0.0
  0
VERTEX
  5
63D
  8
TENA_LOTS
 10
576041.65826398064
 20
507179.52307684202
 30
0.0
  0
VERTEX
  5
63E
  8
TENA_LOTS
 10
576037.40815913107
 20
507172.96506168228
 30
0.0
  0
VERTEX
  5
63F
  8
TENA_LOTS
 10
576035.72359785356
 20
507165.84687059157
 30
0.0
  0
VERTEX
  5
640
  8
TENA_LOTS
 10
576039.73374010937
 20
507159.31723172992
 30
0.0
  0
VERTEX
  5
641
  8
TENA_LOTS
 10
576048.00575675955
 20
507155.93167034769
 30
0.0
  0
VERTEX
  5
642
  8
TENA_LOTS
 10
576057.11661088571
 20
507157.10093300178
 30
0.0
  0
VERTEX
  5
643
  8
TENA_LOTS
 10
576066.21965194331
 20
507160.54614103399
 30
0.0
  0
VERTEX
  5
644
  8
TENA_LOTS
 10
576069.30891963886
 20
507173.3590650417
 30
0.0
  0
VERTEX
  5
645
  8
TENA_LOTS
 10
576064.4344476508
 20
507182.73071189679
 30
0.0
  0
VERTEX
  5
646
  8
TENA_LOTS
 10
576057.02383081545
 20
507184.127749748
 30
0.0
  0
VERTEX
  5
647
  8
TENA_LOTS
 10
576046.48878747481
 20
507182.95361779432
 30
0.0
  0
VERTEX
  5
648
  8
TENA_LOTS
 10
576041.65826398064
 20
507179.52307684202
 30
0.0
  0
SEQEND
  5
649
  8
TENA_LOTS
  0
TEXT
  5
108
  8
TENA_LOT-SITE_LABEL
 10
576042.47952266398
 20
507168.76642836683
 30
0.0
 40
4.244768398882691
  1
153/64
 50
0.1966892973296492
 72
     4
 11
576051.54082040885
 21
507170.91848375759
 31
0.0
  0
POLYLINE
  5
109
  8
TENA_LOTS
 66
     1
 10
0.0
 20
0.0
 30
0.0
  0
VERTEX
  5
64A
  8
TENA_LOTS
 10
575844.47503343702
 20
507184.84840854321
 30
0.0
  0
VERTEX
  5
64B
  8
TENA_LOTS
 10
575855.8440534675
 20
507179.2195576962
 30
0.0
  0
VERTEX
  5
64C
  8
TENA_LOTS
 10
575866.13927556435
 20
507176.42093264032
 30
0.0
  0
VERTEX
  5
64D
  8
TENA_LOTS
 10
575882.10326859204
 20
507175.41301479138
 30
0.0
  0
VERTEX
  5
64E
  8
TENA_LOTS
 10
575888.81389564369
 20
507179.73210792372
 30
0.0
  0
VERTEX
  5
64F
  8
TENA_LOTS
 10
575895.90394463344
 20
507186.86220808618
 30
0.0
  0
VERTEX
  5
650
  8
TENA_LOTS
 10
575904.21570020844
 20
507204.07336014509
 30
0.0
  0
VERTEX
  5
651
  8
TENA_LOTS
 10
575896.17222909885
 20
507209.82297645812
 30
0.0
  0
VERTEX
  5
652
  8
TENA_LOTS
 10
575886.56318836845
 20
507219.35458470089
 30
0.0
  0
VERTEX
  5
653
  8
TENA_LOTS
 10
575874.12530428346
 20
507226.39676381182
 30
0.0
  0
VERTEX
  5
654
  8
TENA_LOTS
 10
575863.48266547697
 20
507227.0687275884
 30
0.0
  0
VERTEX
  5
655
  8
TENA_LOTS
 10
575857.11920068285
 20
507221.02472599741
 30
0.0
  0
VERTEX
  5
656
  8
TENA_LOTS
 10
575851.48705127544
 20
507208.6068567186
 30
0.0
  0
VERTEX
  5
657
  8
TENA_LOTS
 10
575844.42882288725
 20
507198.3095328075
 30
0.0
  0
VERTEX
  5
658
  8
TENA_LOTS
 10
575841.61693460704
 20
507190.86075352679
 30
0.0
  0
VERTEX
  5
659
  8
TENA_LOTS
 10
575844.47503343702
 20
507184.84840854321
 30
0.0
  0
SEQEND
  5
65A
  8
TENA_LOTS
  0
TEXT
  5
10A
  8
TENA_LOT-SITE_LABEL
 10
575866.2648651551
 20
507199.22756126139
 30
0.0
 40
4.244768398882691
  1
154/65
 50
0.1966892973296492
 72
     4
 11
575875.32615792996
 21
507201.3810643818
 31
0.0
  0
POLYLINE
  5
10B
  8
TENA_LOTS
 66
     1
 10
0.0
 20
0.0
 30
0.0
  0
VERTEX
  5
65B
  8
TENA_LOTS
 10
575770.21552196343
 20
507325.91669353237
 30
0.0
  0
VERTEX
  5
65C
  8
TENA_LOTS
 10
575764.40882232413
 20
507330.39719497581
 30
0.0
  0
VERTEX
  5
65D
  8
TENA_LOTS
 10
575753.38984445983
 20
507336.73702033598
 30
0.0
  0
VERTEX
  5
65E
  8
TENA_LOTS
 10
575741.32611827506
 20
507337.40424416418
 30
0.0
  0
VERTEX
  5
65F
  8
TENA_LOTS
 10
575731.04339528736
 20
507335.95167018432
 30
0.0
  0
VERTEX
  5
660
  8
TENA_LOTS
 10
575721.84319591371
 20
507329.1881021455
 30
0.0
  0
VERTEX
  5
661
  8
TENA_LOTS
 10
575704.86043328617
 20
507316.0201651369
 30
0.0
  0
VERTEX
  5
662
  8
TENA_LOTS
 10
575702.75512478745
 20
507309.28095307259
 30
0.0
  0
VERTEX
  5
663
  8
TENA_LOTS
 10
575703.48651446914
 20
507302.90578386368
 30
0.0
  0
VERTEX
  5
664
  8
TENA_LOTS
 10
575717.33610894927
 20
507298.7015597946
 30
0.0
  0
VERTEX
  5
665
  8
TENA_LOTS
 10
575736.49229336495
 20
507298.76732085558
 30
0.0
  0
VERTEX
  5
666
  8
TENA_LOTS
 10
575758.49862518767
 20
507295.29970753047
 30
0.0
  0
VERTEX
  5
667
  8
TENA_LOTS
 10
575764.84874697856
 20
507305.59665019508
 30
0.0
  0
VERTEX
  5
668
  8
TENA_LOTS
 10
575769.40813518432
 20
507320.84785092901
 30
0.0
  0
VERTEX
  5
669
  8
TENA_LOTS
 10
575770.21552196343
 20
507325.91669353237
 30
0.0
  0
SEQEND
  5
66A
  8
TENA_LOTS
  0
TEXT
  5
10C
  8
TENA_LOT-SITE_LABEL
 10
575729.23016975378
 20
507316.18592849758
 30
0.0
 40
4.244768398882691
  1
155/66
 50
0.1966892973296492
 72
     4
 11
575738.29146252875
 21
507318.33943161799
 31
0.0
  0
POLYLINE
  5
10D
  8
TENA_LOTS
 66
     1
 10
0.0
 20
0.0
 30
0.0
  0
VERTEX
  5
66B
  8
TENA_LOTS
 10
575211.32866538886
 20
507657.33371597389
 30
0.0
  0
VERTEX
  5
66C
  8
TENA_LOTS
 10
575195.33220146492
 20
507633.61404846981
 30
0.0
  0
VERTEX
  5
66D
  8
TENA_LOTS
 10
575190.29658163874
 20
507621.48268297937
 30
0.0
  0
VERTEX
  5
66E
  8
TENA_LOTS
 10
575197.6544233656
 20
507614.46485602279
 30
0.0
  0
VERTEX
  5
66F
  8
TENA_LOTS
 10
575209.51571001043
 20
507610.27970731218
 30
0.0
  0
VERTEX
  5
670
  8
TENA_LOTS
 10
575220.23120981525
 20
507611.16165796289
 30
0.0
  0
VERTEX
  5
671
  8
TENA_LOTS
 10
575228.40245364548
 20
507613.72524508229
 30
0.0
  0
VERTEX
  5
672
  8
TENA_LOTS
 10
575232.88742361509
 20
507621.91061446769
 30
0.0
  0
VERTEX
  5
673
  8
TENA_LOTS
 10
575241.0256860049
 20
507634.05263098731
 30
0.0
  0
VERTEX
  5
674
  8
TENA_LOTS
 10
575242.41575027944
 20
507639.97360116919
 30
0.0
  0
VERTEX
  5
675
  8
TENA_LOTS
 10
575239.56899058714
 20
507647.57035785483
 30
0.0
  0
VERTEX
  5
676
  8
TENA_LOTS
 10
575227.97819332778
 20
507655.13709722657
 30
0.0
  0
VERTEX
  5
677
  8
TENA_LOTS
 10
575217.80357240816
 20
507661.01836712437
 30
0.0
  0
VERTEX
  5
678
  8
TENA_LOTS
 10
575215.82717487763
 20
507661.57502605428
 30
0.0
  0
VERTEX
  5
679
  8
TENA_LOTS
 10
575211.32866538886
 20
507657.33371597389
 30
0.0
  0
SEQEND
  5
67A
  8
TENA_LOTS
  0
TEXT
  5
10E
  8
TENA_LOT-SITE_LABEL
 10
575206.23675821663
 20
507633.5719882414
 30
0.0
 40
4.244768398882691
  1
156/83
 50
0.1966892973296492
 72
     4
 11
575215.29805596138
 21
507635.72404363222
 31
0.0
  0
POLYLINE
  5
10F
  8
TENA_LOTS
 66
     1
 10
0.0
 20
0.0
 30
0.0
  0
VERTEX
  5
67B
  8
TENA_LOTS
 10
575103.66689417674
 20
507679.99361943069
 30
0.0
  0
VERTEX
  5
67C
  8
TENA_LOTS
 10
575113.76681056316
 20
507692.18344133691
 30
0.0
  0
VERTEX
  5
67D
  8
TENA_LOTS
 10
575132.47480353608
 20
507707.9481170121
 30
0.0
  0
VERTEX
  5
67E
  8
TENA_LOTS
 10
575132.93151553127
 20
507722.6372055948
 30
0.0
  0
VERTEX
  5
67F
  8
TENA_LOTS
 10
575117.66873061005
 20
507737.27229131671
 30
0.0
  0
VERTEX
  5
680
  8
TENA_LOTS
 10
575107.4870991233
 20
507748.88606224948
 30
0.0
  0
VERTEX
  5
681
  8
TENA_LOTS
 10
575096.28792582604
 20
507761.50927253801
 30
0.0
  0
VERTEX
  5
682
  8
TENA_LOTS
 10
575089.67320579768
 20
507768.07062595809
 30
0.0
  0
VERTEX
  5
683
  8
TENA_LOTS
 10
575069.91279882204
 20
507763.44459457602
 30
0.0
  0
VERTEX
  5
684
  8
TENA_LOTS
 10
575052.71209347434
 20
507751.7368231116
 30
0.0
  0
VERTEX
  5
685
  8
TENA_LOTS
 10
575043.11757063598
 20
507740.05516283028
 30
0.0
  0
VERTEX
  5
686
  8
TENA_LOTS
 10
575042.6695516156
 20
507722.833812495
 30
0.0
  0
VERTEX
  5
687
  8
TENA_LOTS
 10
575053.37734022725
 20
507705.65071924479
 30
0.0
  0
VERTEX
  5
688
  8
TENA_LOTS
 10
575067.11545143917
 20
507692.02329238411
 30
0.0
  0
VERTEX
  5
689
  8
TENA_LOTS
 10
575081.37276515341
 20
507674.85242382862
 30
0.0
  0
VERTEX
  5
68A
  8
TENA_LOTS
 10
575091.02466251876
 20
507669.82089539972
 30
0.0
  0
VERTEX
  5
68B
  8
TENA_LOTS
 10
575103.66689417674
 20
507679.99361943069
 30
0.0
  0
SEQEND
  5
68C
  8
TENA_LOTS
  0
POLYLINE
  5
110
  8
TENA_LOTS
 66
     1
 10
0.0
 20
0.0
 30
0.0
  0
VERTEX
  5
68D
  8
TENA_LOTS
 10
575039.56835347367
 20
507728.15582060808
 30
0.0
  0
VERTEX
  5
68E
  8
TENA_LOTS
 10
575019.63259099354
 20
507759.21024770569
 30
0.0
  0
VERTEX
  5
68F
  8
TENA_LOTS
 10
575009.32127986324
 20
507774.54408231948
 30
0.0
  0
VERTEX
  5
690
  8
TENA_LOTS
 10
574994.53278213774
 20
507786.66061233007
 30
0.0
  0
VERTEX
  5
691
  8
TENA_LOTS
 10
574973.9497299639
 20
507805.80152292072
 30
0.0
  0
VERTEX
  5
692
  8
TENA_LOTS
 10
574973.21686009609
 20
507815.0225880628
 30
0.0
  0
VERTEX
  5
693
  8
TENA_LOTS
 10
574982.0651008453
 20
507821.30621784582
 30
0.0
  0
VERTEX
  5
694
  8
TENA_LOTS
 10
575012.27272340644
 20
507837.04303306132
 30
0.0
  0
VERTEX
  5
695
  8
TENA_LOTS
 10
575023.74930077943
 20
507837.60351786861
 30
0.0
  0
VERTEX
  5
696
  8
TENA_LOTS
 10
575043.12914774218
 20
507825.2505385679
 30
0.0
  0
VERTEX
  5
697
  8
TENA_LOTS
 10
575065.02976699942
 20
507795.8680226162
 30
0.0
  0
VERTEX
  5
698
  8
TENA_LOTS
 10
575077.28215572948
 20
507775.41774772742
 30
0.0
  0
VERTEX
  5
699
  8
TENA_LOTS
 10
575083.07461138617
 20
507769.0338023217
 30
0.0
  0
VERTEX
  5
69A
  8
TENA_LOTS
 10
575068.97787234304
 20
507766.42387767101
 30
0.0
  0
VERTEX
  5
69B
  8
TENA_LOTS
 10
575057.45891130844
 20
507759.98046452028
 30
0.0
  0
VERTEX
  5
69C
  8
TENA_LOTS
 10
575049.15682632884
 20
507750.34619919967
 30
0.0
  0
VERTEX
  5
69D
  8
TENA_LOTS
 10
575042.12824191782
 20
507743.2778377721
 30
0.0
  0
VERTEX
  5
69E
  8
TENA_LOTS
 10
575039.56835347367
 20
507728.15582060808
 30
0.0
  0
SEQEND
  5
69F
  8
TENA_LOTS
  0
TEXT
  5
111
  8
TENA_LOT-SITE_LABEL
 10
575077.27852219541
 20
507719.30449503032
 30
0.0
 40
4.244768398882691
  1
157/84
 50
0.1966892973296492
 72
     4
 11
575086.33981497039
 21
507721.45799815073
 31
0.0
  0
TEXT
  5
112
  8
TENA_LOT-SITE_LABEL
 10
575021.91235558561
 20
507791.26370933419
 30
0.0
 40
4.244768398882691
  1
158/84
 50
0.1966892973296492
 72
     4
 11
575030.97364836058
 21
507793.41721245472
 31
0.0
  0
POLYLINE
  5
113
  8
TENA_LOTS
 66
     1
 10
0.0
 20
0.0
 30
0.0
  0
VERTEX
  5
6A0
  8
TENA_LOTS
 10
573227.76789023995
 20
512378.21463447681
 30
0.0
  0
VERTEX
  5
6A1
  8
TENA_LOTS
 10
573214.50557631778
 20
512369.74334352597
 30
0.0
  0
VERTEX
  5
6A2
  8
TENA_LOTS
 10
573208.00916646805
 20
512360.79085603048
 30
0.0
  0
VERTEX
  5
6A3
  8
TENA_LOTS
 10
573211.03495481575
 20
512349.41269386298
 30
0.0
  0
VERTEX
  5
6A4
  8
TENA_LOTS
 10
573223.83415855456
 20
512350.4525645909
 30
0.0
  0
VERTEX
  5
6A5
  8
TENA_LOTS
 10
573234.76402504218
 20
512357.8457090623
 30
0.0
  0
VERTEX
  5
6A6
  8
TENA_LOTS
 10
573243.31334332703
 20
512365.84522504621
 30
0.0
  0
VERTEX
  5
6A7
  8
TENA_LOTS
 10
573242.32122337655
 20
512376.94421346969
 30
0.0
  0
VERTEX
  5
6A8
  8
TENA_LOTS
 10
573235.74839230033
 20
512382.48878639052
 30
0.0
  0
VERTEX
  5
6A9
  8
TENA_LOTS
 10
573227.76789023995
 20
512378.21463447681
 30
0.0
  0
SEQEND
  5
6AA
  8
TENA_LOTS
  0
TEXT
  5
114
  8
TENA_LOT-SITE_LABEL
 10
573217.26543997868
 20
512361.62117231532
 30
0.0
 40
5.0608183140548038
  1
79/46
 50
1.635614663726825
 72
     4
 11
573226.03568602691
 21
512364.40304389468
 31
0.0
  0
POLYLINE
  5
115
  8
TENA_LOTS
 66
     1
 10
0.0
 20
0.0
 30
0.0
  0
VERTEX
  5
6AB
  8
TENA_LOTS
 10
576683.21552898362
 20
508138.79224796389
 30
0.0
  0
VERTEX
  5
6AC
  8
TENA_LOTS
 10
576665.29878650384
 20
508135.27732781169
 30
0.0
  0
VERTEX
  5
6AD
  8
TENA_LOTS
 10
576647.13461705903
 20
508129.20344886131
 30
0.0
  0
VERTEX
  5
6AE
  8
TENA_LOTS
 10
576647.1815980844
 20
508115.517885087
 30
0.0
  0
VERTEX
  5
6AF
  8
TENA_LOTS
 10
576653.05038318783
 20
508104.03114692238
 30
0.0
  0
VERTEX
  5
6B0
  8
TENA_LOTS
 10
576660.93815004081
 20
508099.83287191758
 30
0.0
  0
VERTEX
  5
6B1
  8
TENA_LOTS
 10
576681.57343534089
 20
508100.80413237133
 30
0.0
  0
VERTEX
  5
6B2
  8
TENA_LOTS
 10
576700.08597835258
 20
508111.35073928232
 30
0.0
  0
VERTEX
  5
6B3
  8
TENA_LOTS
 10
576699.52441481396
 20
508125.35862532572
 30
0.0
  0
VERTEX
  5
6B4
  8
TENA_LOTS
 10
576691.40922894748
 20
508139.45990338142
 30
0.0
  0
VERTEX
  5
6B5
  8
TENA_LOTS
 10
576683.21552898362
 20
508138.79224796389
 30
0.0
  0
SEQEND
  5
6B6
  8
TENA_LOTS
  0
TEXT
  5
116
  8
TENA_LOT-SITE_LABEL
 10
576666.43071041617
 20
508116.73990799341
 30
0.0
 40
4.244768398882691
  1
159/85
 50
0.1966892973296492
 72
     4
 11
576675.49200319115
 21
508118.89341111382
 31
0.0
  0
POLYLINE
  5
117
  8
TENA_LOTS
 66
     1
 10
0.0
 20
0.0
 30
0.0
  0
VERTEX
  5
6B7
  8
TENA_LOTS
 10
572878.23456992966
 20
511857.55378354638
 30
0.0
  0
VERTEX
  5
6B8
  8
TENA_LOTS
 10
572860.72773024545
 20
511855.99033721752
 30
0.0
  0
VERTEX
  5
6B9
  8
TENA_LOTS
 10
572849.72979477176
 20
511849.80208931712
 30
0.0
  0
VERTEX
  5
6BA
  8
TENA_LOTS
 10
572848.8729108409
 20
511838.61663548893
 30
0.0
  0
VERTEX
  5
6BB
  8
TENA_LOTS
 10
572851.07167495508
 20
511823.40650727751
 30
0.0
  0
VERTEX
  5
6BC
  8
TENA_LOTS
 10
572867.05581678485
 20
511819.7509822211
 30
0.0
  0
VERTEX
  5
6BD
  8
TENA_LOTS
 10
572879.01379378745
 20
511821.6682855158
 30
0.0
  0
VERTEX
  5
6BE
  8
TENA_LOTS
 10
572897.59932067362
 20
511821.70935873722
 30
0.0
  0
VERTEX
  5
6BF
  8
TENA_LOTS
 10
572914.62271600275
 20
511822.28407052677
 30
0.0
  0
VERTEX
  5
6C0
  8
TENA_LOTS
 10
572929.38125565462
 20
511820.35582767357
 30
0.0
  0
VERTEX
  5
6C1
  8
TENA_LOTS
 10
572949.76500741311
 20
511827.39949136542
 30
0.0
  0
VERTEX
  5
6C2
  8
TENA_LOTS
 10
572953.42609311559
 20
511843.36437161913
 30
0.0
  0
VERTEX
  5
6C3
  8
TENA_LOTS
 10
572951.1268176334
 20
511862.09616849851
 30
0.0
  0
VERTEX
  5
6C4
  8
TENA_LOTS
 10
572942.02700860729
 20
511871.82247910171
 30
0.0
  0
VERTEX
  5
6C5
  8
TENA_LOTS
 10
572928.47731052781
 20
511872.61040630518
 30
0.0
  0
VERTEX
  5
6C6
  8
TENA_LOTS
 10
572915.12873110047
 20
511866.35503666551
 30
0.0
  0
VERTEX
  5
6C7
  8
TENA_LOTS
 10
572900.83078103105
 20
511862.83974108828
 30
0.0
  0
VERTEX
  5
6C8
  8
TENA_LOTS
 10
572885.77798169397
 20
511858.99206207809
 30
0.0
  0
VERTEX
  5
6C9
  8
TENA_LOTS
 10
572878.23456992966
 20
511857.55378354638
 30
0.0
  0
SEQEND
  5
6CA
  8
TENA_LOTS
  0
TEXT
  5
118
  8
TENA_LOT-SITE_LABEL
 10
572892.98573723214
 20
511838.76966819551
 30
0.0
 40
5.0608183140548038
  1
31/69
 50
1.635614663726825
 72
     4
 11
572901.75603254721
 21
511841.54981441458
 31
0.0
  0
POLYLINE
  5
119
  8
TENA_LOTS
 66
     1
 10
0.0
 20
0.0
 30
0.0
  0
VERTEX
  5
6CB
  8
TENA_LOTS
 10
575514.21659250173
 20
512215.7358894085
 30
0.0
  0
VERTEX
  5
6CC
  8
TENA_LOTS
 10
575506.01259790035
 20
512204.80859901197
 30
0.0
  0
VERTEX
  5
6CD
  8
TENA_LOTS
 10
575488.34811145265
 20
512201.38791585562
 30
0.0
  0
VERTEX
  5
6CE
  8
TENA_LOTS
 10
575468.33472702233
 20
512198.3327553526
 30
0.0
  0
VERTEX
  5
6CF
  8
TENA_LOTS
 10
575446.45657403022
 20
512202.62314695859
 30
0.0
  0
VERTEX
  5
6D0
  8
TENA_LOTS
 10
575434.89388868003
 20
512209.50767564232
 30
0.0
  0
VERTEX
  5
6D1
  8
TENA_LOTS
 10
575431.56965557765
 20
512229.26152421988
 30
0.0
  0
VERTEX
  5
6D2
  8
TENA_LOTS
 10
575435.16089672537
 20
512240.45348161971
 30
0.0
  0
VERTEX
  5
6D3
  8
TENA_LOTS
 10
575436.77827333019
 20
512251.92355510278
 30
0.0
  0
VERTEX
  5
6D4
  8
TENA_LOTS
 10
575457.25891759852
 20
512257.56280219788
 30
0.0
  0
VERTEX
  5
6D5
  8
TENA_LOTS
 10
575476.65860324271
 20
512254.80861491122
 30
0.0
  0
VERTEX
  5
6D6
  8
TENA_LOTS
 10
575497.96472108259
 20
512243.28719231143
 30
0.0
  0
VERTEX
  5
6D7
  8
TENA_LOTS
 10
575513.32385313557
 20
512229.80694749538
 30
0.0
  0
VERTEX
  5
6D8
  8
TENA_LOTS
 10
575514.21659250173
 20
512215.7358894085
 30
0.0
  0
VERTEX
  5
6D9
  8
TENA_LOTS
 10
575514.21659250173
 20
512215.7358894085
 30
0.0
  0
SEQEND
  5
6DA
  8
TENA_LOTS
  0
TEXT
  5
11A
  8
TENA_LOT-SITE_LABEL
 10
575460.33722851018
 20
512227.12629434338
 30
0.0
 40
5.0608183140548038
  1
32/70
 50
1.635614663726825
 72
     4
 11
575469.10752382537
 21
512229.90644056239
 31
0.0
  0
POLYLINE
  5
11B
  8
TENA_LOTS
 66
     1
 10
0.0
 20
0.0
 30
0.0
  0
VERTEX
  5
6DB
  8
TENA_LOTS
 10
575414.41339653055
 20
511774.98061718408
 30
0.0
  0
VERTEX
  5
6DC
  8
TENA_LOTS
 10
575412.45944837458
 20
511783.67366440973
 30
0.0
  0
VERTEX
  5
6DD
  8
TENA_LOTS
 10
575413.49192533735
 20
511797.3184026308
 30
0.0
  0
VERTEX
  5
6DE
  8
TENA_LOTS
 10
575431.95394881326
 20
511801.3645580067
 30
0.0
  0
VERTEX
  5
6DF
  8
TENA_LOTS
 10
575449.55613524001
 20
511801.86718171957
 30
0.0
  0
VERTEX
  5
6E0
  8
TENA_LOTS
 10
575458.03283860884
 20
511798.09706315398
 30
0.0
  0
VERTEX
  5
6E1
  8
TENA_LOTS
 10
575458.09199057159
 20
511787.64934423572
 30
0.0
  0
VERTEX
  5
6E2
  8
TENA_LOTS
 10
575454.3837447851
 20
511778.28169629548
 30
0.0
  0
VERTEX
  5
6E3
  8
TENA_LOTS
 10
575454.3837447851
 20
511778.28169629548
 30
0.0
  0
VERTEX
  5
6E4
  8
TENA_LOTS
 10
575454.3837447851
 20
511778.28169629548
 30
0.0
  0
VERTEX
  5
6E5
  8
TENA_LOTS
 10
575439.30821767193
 20
511772.2879578406
 30
0.0
  0
VERTEX
  5
6E6
  8
TENA_LOTS
 10
575422.5013039523
 20
511772.78013633349
 30
0.0
  0
VERTEX
  5
6E7
  8
TENA_LOTS
 10
575414.41339653055
 20
511774.98061718408
 30
0.0
  0
SEQEND
  5
6E8
  8
TENA_LOTS
  0
TEXT
  5
11C
  8
TENA_LOT-SITE_LABEL
 10
575426.83751540957
 20
511782.18869046401
 30
0.0
 40
5.0608183140548038
  1
33/71
 50
1.635614663726825
 72
     4
 11
575435.60781072476
 21
511784.96883668308
 31
0.0
  0
POLYLINE
  5
11D
  8
TENA_LOTS
 66
     1
 10
0.0
 20
0.0
 30
0.0
  0
VERTEX
  5
6E9
  8
TENA_LOTS
 10
572855.85872016801
 20
513817.91285042488
 30
0.0
  0
VERTEX
  5
6EA
  8
TENA_LOTS
 10
572858.77455747244
 20
513828.43702140619
 30
0.0
  0
VERTEX
  5
6EB
  8
TENA_LOTS
 10
572847.54197547445
 20
513848.29631409788
 30
0.0
  0
VERTEX
  5
6EC
  8
TENA_LOTS
 10
572832.39645163924
 20
513849.61360774102
 30
0.0
  0
VERTEX
  5
6ED
  8
TENA_LOTS
 10
572823.70595913322
 20
513839.52246999432
 30
0.0
  0
VERTEX
  5
6EE
  8
TENA_LOTS
 10
572827.28603482048
 20
513821.47138903808
 30
0.0
  0
VERTEX
  5
6EF
  8
TENA_LOTS
 10
572832.18161024956
 20
513811.1125705624
 30
0.0
  0
VERTEX
  5
6F0
  8
TENA_LOTS
 10
572839.9771029501
 20
513806.52223027562
 30
0.0
  0
VERTEX
  5
6F1
  8
TENA_LOTS
 10
572848.66524882079
 20
513808.95860212762
 30
0.0
  0
VERTEX
  5
6F2
  8
TENA_LOTS
 10
572854.43092375703
 20
513814.15328522067
 30
0.0
  0
VERTEX
  5
6F3
  8
TENA_LOTS
 10
572855.85872016801
 20
513817.91285042488
 30
0.0
  0
SEQEND
  5
6F4
  8
TENA_LOTS
  0
TEXT
  5
11E
  8
TENA_LOT-SITE_LABEL
 10
572831.56177058863
 20
513825.28635474498
 30
0.0
 40
5.0608183140548038
  1
80/47
 50
1.635614663726825
 72
     4
 11
572840.33201663685
 21
513828.06822632439
 31
0.0
  0
POLYLINE
  5
11F
  8
TENA_LOTS
 66
     1
 10
0.0
 20
0.0
 30
0.0
  0
VERTEX
  5
6F5
  8
TENA_LOTS
 10
575269.64596438885
 20
508360.09320719942
 30
0.0
  0
VERTEX
  5
6F6
  8
TENA_LOTS
 10
575265.28921795241
 20
508365.53875931218
 30
0.0
  0
VERTEX
  5
6F7
  8
TENA_LOTS
 10
575260.58425252046
 20
508373.14285059058
 30
0.0
  0
VERTEX
  5
6F8
  8
TENA_LOTS
 10
575259.7298060013
 20
508384.34619800153
 30
0.0
  0
VERTEX
  5
6F9
  8
TENA_LOTS
 10
575262.84120730741
 20
508393.15887938399
 30
0.0
  0
VERTEX
  5
6FA
  8
TENA_LOTS
 10
575273.58331886434
 20
508401.6717330183
 30
0.0
  0
VERTEX
  5
6FB
  8
TENA_LOTS
 10
575286.63603887788
 20
508402.69456877571
 30
0.0
  0
VERTEX
  5
6FC
  8
TENA_LOTS
 10
575296.12798295508
 20
508395.0661541014
 30
0.0
  0
VERTEX
  5
6FD
  8
TENA_LOTS
 10
575300.24551400705
 20
508384.15927768347
 30
0.0
  0
VERTEX
  5
6FE
  8
TENA_LOTS
 10
575302.90028586797
 20
508371.45437487413
 30
0.0
  0
VERTEX
  5
6FF
  8
TENA_LOTS
 10
575302.27883929387
 20
508362.3242349716
 30
0.0
  0
VERTEX
  5
700
  8
TENA_LOTS
 10
575294.13115670485
 20
508358.71025507699
 30
0.0
  0
VERTEX
  5
701
  8
TENA_LOTS
 10
575288.48382880364
 20
508356.68870796781
 30
0.0
  0
VERTEX
  5
702
  8
TENA_LOTS
 10
575273.44759223727
 20
508356.6370902317
 30
0.0
  0
VERTEX
  5
703
  8
TENA_LOTS
 10
575269.64596438885
 20
508360.09320719942
 30
0.0
  0
SEQEND
  5
704
  8
TENA_LOTS
  0
TEXT
  5
120
  8
TENA_LOT-SITE_LABEL
 10
575272.71175168676
 20
508379.00834646408
 30
0.0
 40
4.244768398882691
  1
161/87
 50
0.1966892973296492
 72
     4
 11
575281.77304446173
 21
508381.16184958461
 31
0.0
  0
POLYLINE
  5
121
  8
TENA_LOTS
 66
     1
 10
0.0
 20
0.0
 30
0.0
  0
VERTEX
  5
705
  8
TENA_LOTS
 10
575528.75906567869
 20
508377.77166502923
 30
0.0
  0
VERTEX
  5
706
  8
TENA_LOTS
 10
575504.37142455543
 20
508371.91422136658
 30
0.0
  0
VERTEX
  5
707
  8
TENA_LOTS
 10
575488.31385144824
 20
508371.85909749521
 30
0.0
  0
VERTEX
  5
708
  8
TENA_LOTS
 10
575478.05025542004
 20
508367.97472806397
 30
0.0
  0
VERTEX
  5
709
  8
TENA_LOTS
 10
575476.17178382305
 20
508353.85475528979
 30
0.0
  0
VERTEX
  5
70A
  8
TENA_LOTS
 10
575480.71858514147
 20
508339.11531045032
 30
0.0
  0
VERTEX
  5
70B
  8
TENA_LOTS
 10
575485.2367571845
 20
508332.71556792909
 30
0.0
  0
VERTEX
  5
70C
  8
TENA_LOTS
 10
575508.99530474388
 20
508334.72171634121
 30
0.0
  0
VERTEX
  5
70D
  8
TENA_LOTS
 10
575528.89780778415
 20
508337.35611644119
 30
0.0
  0
VERTEX
  5
70E
  8
TENA_LOTS
 10
575538.52129902155
 20
508340.59675914759
 30
0.0
  0
VERTEX
  5
70F
  8
TENA_LOTS
 10
575540.41298411938
 20
508350.86764164048
 30
0.0
  0
VERTEX
  5
710
  8
TENA_LOTS
 10
575540.37334347854
 20
508362.41495273809
 30
0.0
  0
VERTEX
  5
711
  8
TENA_LOTS
 10
575535.83975566132
 20
508373.30530729622
 30
0.0
  0
VERTEX
  5
712
  8
TENA_LOTS
 10
575528.75906567869
 20
508377.77166502923
 30
0.0
  0
SEQEND
  5
713
  8
TENA_LOTS
  0
TEXT
  5
122
  8
TENA_LOT-SITE_LABEL
 10
575499.93033904163
 20
508352.30051042669
 30
0.0
 40
4.244768398882691
  1
160/86
 50
0.1966892973296492
 72
     4
 11
575508.99163181661
 21
508354.45401354722
 31
0.0
  0
POLYLINE
  5
123
  8
TENA_LOTS
 66
     1
 10
0.0
 20
0.0
 30
0.0
  0
VERTEX
  5
714
  8
TENA_LOTS
 10
573360.8796729265
 20
510178.66937515477
 30
0.0
  0
VERTEX
  5
715
  8
TENA_LOTS
 10
573339.52725305734
 20
510174.15877424128
 30
0.0
  0
VERTEX
  5
716
  8
TENA_LOTS
 10
573337.04545826826
 20
510158.48424864438
 30
0.0
  0
VERTEX
  5
717
  8
TENA_LOTS
 10
573340.41764011048
 20
510142.97688111599
 30
0.0
  0
VERTEX
  5
718
  8
TENA_LOTS
 10
573369.76988643385
 20
510140.88935526559
 30
0.0
  0
VERTEX
  5
719
  8
TENA_LOTS
 10
573388.22326575685
 20
510144.3419525043
 30
0.0
  0
VERTEX
  5
71A
  8
TENA_LOTS
 10
573396.7534394809
 20
510153.36258048459
 30
0.0
  0
VERTEX
  5
71B
  8
TENA_LOTS
 10
573396.30824595445
 20
510168.95352704718
 30
0.0
  0
VERTEX
  5
71C
  8
TENA_LOTS
 10
573386.2737426589
 20
510178.41927044181
 30
0.0
  0
VERTEX
  5
71D
  8
TENA_LOTS
 10
573360.8796729265
 20
510178.66937515477
 30
0.0
  0
SEQEND
  5
71E
  8
TENA_LOTS
  0
TEXT
  5
124
  8
TENA_LOT-SITE_LABEL
 10
573356.85462873883
 20
510155.76979635278
 30
0.0
 40
5.0608183140548038
  1
13/05
 50
1.635614663726825
 72
     4
 11
573365.62492405402
 21
510158.54994257179
 31
0.0
  0
POLYLINE
  5
125
  8
TENA_LOTS
 66
     1
 10
0.0
 20
0.0
 30
0.0
  0
VERTEX
  5
71F
  8
TENA_LOTS
 10
572416.35209506808
 20
513959.4837413184
 30
0.0
  0
VERTEX
  5
720
  8
TENA_LOTS
 10
572386.80878910131
 20
513942.72973501118
 30
0.0
  0
VERTEX
  5
721
  8
TENA_LOTS
 10
572402.79441423237
 20
513919.32060971251
 30
0.0
  0
VERTEX
  5
722
  8
TENA_LOTS
 10
572409.44115408964
 20
513908.6325813217
 30
0.0
  0
VERTEX
  5
723
  8
TENA_LOTS
 10
572429.50386459369
 20
513918.8867292038
 30
0.0
  0
VERTEX
  5
724
  8
TENA_LOTS
 10
572435.6473726962
 20
513924.38689360779
 30
0.0
  0
VERTEX
  5
725
  8
TENA_LOTS
 10
572416.35209506808
 20
513959.4837413184
 30
0.0
  0
SEQEND
  5
726
  8
TENA_LOTS
  0
TEXT
  5
126
  8
TENA_LOT-SITE_LABEL
 10
572402.84444997169
 20
513931.56820785953
 30
0.0
 40
5.0608183140548038
  1
81/48
 50
1.635614663726825
 72
     4
 11
572411.61469601991
 21
513934.35007943882
 31
0.0
  0
POLYLINE
  5
127
  8
TENA_LOTS
 66
     1
 10
0.0
 20
0.0
 30
0.0
  0
VERTEX
  5
727
  8
TENA_LOTS
 10
573901.63856463856
 20
510731.30862655572
 30
0.0
  0
VERTEX
  5
728
  8
TENA_LOTS
 10
573898.94485512329
 20
510736.13507321692
 30
0.0
  0
VERTEX
  5
729
  8
TENA_LOTS
 10
573892.21507977066
 20
510738.89528187562
 30
0.0
  0
VERTEX
  5
72A
  8
TENA_LOTS
 10
573882.26781004725
 20
510737.87315475999
 30
0.0
  0
VERTEX
  5
72B
  8
TENA_LOTS
 10
573874.66927252058
 20
510733.46913982159
 30
0.0
  0
VERTEX
  5
72C
  8
TENA_LOTS
 10
573872.83883429482
 20
510729.0197614794
 30
0.0
  0
VERTEX
  5
72D
  8
TENA_LOTS
 10
573869.15507606522
 20
510718.30830344209
 30
0.0
  0
VERTEX
  5
72E
  8
TENA_LOTS
 10
573870.23038213293
 20
510706.52950909699
 30
0.0
  0
VERTEX
  5
72F
  8
TENA_LOTS
 10
573879.91376278957
 20
510703.85365366569
 30
0.0
  0
VERTEX
  5
730
  8
TENA_LOTS
 10
573889.14368969749
 20
510704.1172107046
 30
0.0
  0
VERTEX
  5
731
  8
TENA_LOTS
 10
573896.98173897329
 20
510714.30527762632
 30
0.0
  0
VERTEX
  5
732
  8
TENA_LOTS
 10
573904.81975187676
 20
510724.4933435081
 30
0.0
  0
VERTEX
  5
733
  8
TENA_LOTS
 10
573901.63856463856
 20
510731.30862655572
 30
0.0
  0
SEQEND
  5
734
  8
TENA_LOTS
  0
TEXT
  5
128
  8
TENA_LOT-SITE_LABEL
 10
573876.42133032915
 20
510717.234841417
 30
0.0
 40
5.0608183140548038
  1
34/72
 50
1.635614663726825
 72
     4
 11
573885.19162564434
 21
510720.01498763612
 31
0.0
  0
POLYLINE
  5
129
  8
TENA_LOTS
 66
     1
 10
0.0
 20
0.0
 30
0.0
  0
VERTEX
  5
735
  8
TENA_LOTS
 10
573649.93268189335
 20
513238.44747403759
 30
0.0
  0
VERTEX
  5
736
  8
TENA_LOTS
 10
573642.39562415413
 20
513241.53872348618
 30
0.0
  0
VERTEX
  5
737
  8
TENA_LOTS
 10
573636.53608661459
 20
513243.85132786079
 30
0.0
  0
VERTEX
  5
738
  8
TENA_LOTS
 10
573628.24295940204
 20
513244.44112343539
 30
0.0
  0
VERTEX
  5
739
  8
TENA_LOTS
 10
573622.45417737472
 20
513244.2758269746
 30
0.0
  0
VERTEX
  5
73A
  8
TENA_LOTS
 10
573620.98891724867
 20
513237.62099588878
 30
0.0
  0
VERTEX
  5
73B
  8
TENA_LOTS
 10
573622.8787023694
 20
513229.40870489727
 30
0.0
  0
VERTEX
  5
73C
  8
TENA_LOTS
 10
573637.05495121516
 20
513225.68037572759
 30
0.0
  0
VERTEX
  5
73D
  8
TENA_LOTS
 10
573645.34822553478
 20
513225.09052772162
 30
0.0
  0
VERTEX
  5
73E
  8
TENA_LOTS
 10
573651.04266795586
 20
513228.55965423811
 30
0.0
  0
VERTEX
  5
73F
  8
TENA_LOTS
 10
573650.83040465054
 20
513235.99324357009
 30
0.0
  0
VERTEX
  5
740
  8
TENA_LOTS
 10
573649.93268189335
 20
513238.44747403759
 30
0.0
  0
SEQEND
  5
741
  8
TENA_LOTS
  0
TEXT
  5
12A
  8
TENA_LOT-SITE_LABEL
 10
573627.99185589259
 20
513232.31622777018
 30
0.0
 40
5.0608183140548038
  1
82/97
 50
1.635614663726825
 72
     4
 11
573636.76210194081
 21
513235.09809934947
 31
0.0
  0
POLYLINE
  5
12B
  8
TENA_LOTS
 66
     1
 10
0.0
 20
0.0
 30
0.0
  0
VERTEX
  5
742
  8
TENA_LOTS
 10
574501.49612771615
 20
509692.80009697669
 30
0.0
  0
VERTEX
  5
743
  8
TENA_LOTS
 10
574514.94393413072
 20
509679.80802920501
 30
0.0
  0
VERTEX
  5
744
  8
TENA_LOTS
 10
574518.4655034974
 20
509665.94105161168
 30
0.0
  0
VERTEX
  5
745
  8
TENA_LOTS
 10
574521.97327868419
 20
509656.12210768968
 30
0.0
  0
VERTEX
  5
746
  8
TENA_LOTS
 10
574519.10411503899
 20
509648.59441045643
 30
0.0
  0
VERTEX
  5
747
  8
TENA_LOTS
 10
574502.33110741444
 20
509643.332200434
 30
0.0
  0
VERTEX
  5
748
  8
TENA_LOTS
 10
574489.61703569687
 20
509636.34902105748
 30
0.0
  0
VERTEX
  5
749
  8
TENA_LOTS
 10
574477.46405061835
 20
509634.5723979731
 30
0.0
  0
VERTEX
  5
74A
  8
TENA_LOTS
 10
574459.51715244795
 20
509633.932513698
 30
0.0
  0
VERTEX
  5
74B
  8
TENA_LOTS
 10
574446.18442343362
 20
509638.51309949858
 30
0.0
  0
VERTEX
  5
74C
  8
TENA_LOTS
 10
574435.12592100259
 20
509655.24565598578
 30
0.0
  0
VERTEX
  5
74D
  8
TENA_LOTS
 10
574425.79257183592
 20
509675.45394119743
 30
0.0
  0
VERTEX
  5
74E
  8
TENA_LOTS
 10
574425.79257183592
 20
509675.45394119743
 30
0.0
  0
VERTEX
  5
74F
  8
TENA_LOTS
 10
574431.97698929254
 20
509686.77364279021
 30
0.0
  0
VERTEX
  5
750
  8
TENA_LOTS
 10
574452.37276871328
 20
509691.15911827801
 30
0.0
  0
VERTEX
  5
751
  8
TENA_LOTS
 10
574478.41162865516
 20
509695.87486238661
 30
0.0
  0
VERTEX
  5
752
  8
TENA_LOTS
 10
574501.49612771615
 20
509692.80009697669
 30
0.0
  0
VERTEX
  5
753
  8
TENA_LOTS
 10
574501.49612771615
 20
509692.80009697669
 30
0.0
  0
SEQEND
  5
754
  8
TENA_LOTS
  0
TEXT
  5
12C
  8
TENA_LOT-SITE_LABEL
 10
574463.60782797833
 20
509668.20541791542
 30
0.0
 40
4.244768398882691
  1
162/88
 50
0.1966892973296492
 72
     4
 11
574472.6691207533
 21
509670.35892103589
 31
0.0
  0
POLYLINE
  5
12D
  8
TENA_LOTS
 66
     1
 10
0.0
 20
0.0
 30
0.0
  0
VERTEX
  5
755
  8
TENA_LOTS
 10
574649.53030899458
 20
509674.27430799231
 30
0.0
  0
VERTEX
  5
756
  8
TENA_LOTS
 10
574642.17812573712
 20
509676.14146091708
 30
0.0
  0
VERTEX
  5
757
  8
TENA_LOTS
 10
574630.46951380291
 20
509674.34622036299
 30
0.0
  0
VERTEX
  5
758
  8
TENA_LOTS
 10
574615.25852806366
 20
509669.02876871522
 30
0.0
  0
VERTEX
  5
759
  8
TENA_LOTS
 10
574604.02888057695
 20
509663.75942539581
 30
0.0
  0
VERTEX
  5
75A
  8
TENA_LOTS
 10
574599.02019362943
 20
509659.37216973357
 30
0.0
  0
VERTEX
  5
75B
  8
TENA_LOTS
 10
574597.74492522795
 20
509653.2173288528
 30
0.0
  0
VERTEX
  5
75C
  8
TENA_LOTS
 10
574596.47899131163
 20
509644.31097488501
 30
0.0
  0
VERTEX
  5
75D
  8
TENA_LOTS
 10
574598.95314322889
 20
509631.69485594332
 30
0.0
  0
VERTEX
  5
75E
  8
TENA_LOTS
 10
574604.96631489508
 20
509626.69802216138
 30
0.0
  0
VERTEX
  5
75F
  8
TENA_LOTS
 10
574611.13554751163
 20
509623.48212575098
 30
0.0
  0
VERTEX
  5
760
  8
TENA_LOTS
 10
574624.78089235828
 20
509625.18473054591
 30
0.0
  0
VERTEX
  5
761
  8
TENA_LOTS
 10
574639.63417179079
 20
509630.21595097042
 30
0.0
  0
VERTEX
  5
762
  8
TENA_LOTS
 10
574648.37561040337
 20
509632.9975044938
 30
0.0
  0
VERTEX
  5
763
  8
TENA_LOTS
 10
574652.89866799756
 20
509637.22124985338
 30
0.0
  0
VERTEX
  5
764
  8
TENA_LOTS
 10
574658.70532846602
 20
509645.17200595367
 30
0.0
  0
VERTEX
  5
765
  8
TENA_LOTS
 10
574659.65158404585
 20
509652.782432621
 30
0.0
  0
VERTEX
  5
766
  8
TENA_LOTS
 10
574657.18021018896
 20
509664.58930296818
 30
0.0
  0
VERTEX
  5
767
  8
TENA_LOTS
 10
574649.53030899458
 20
509674.27430799231
 30
0.0
  0
SEQEND
  5
768
  8
TENA_LOTS
  0
TEXT
  5
12E
  8
TENA_LOT-SITE_LABEL
 10
574616.72734789946
 20
509649.6011187972
 30
0.0
 40
4.244768398882691
  1
163/89
 50
0.1966892973296492
 72
     4
 11
574625.78864564456
 21
509651.75317418802
 31
0.0
  0
POLYLINE
  5
12F
  8
TENA_LOTS
 66
     1
 10
0.0
 20
0.0
 30
0.0
  0
VERTEX
  5
769
  8
TENA_LOTS
 10
574316.17910936731
 20
511051.91724297841
 30
0.0
  0
VERTEX
  5
76A
  8
TENA_LOTS
 10
574303.76048556098
 20
511038.78457170929
 30
0.0
  0
VERTEX
  5
76B
  8
TENA_LOTS
 10
574288.33571885712
 20
511027.53194974718
 30
0.0
  0
VERTEX
  5
76C
  8
TENA_LOTS
 10
574290.75100820803
 20
511011.87404607219
 30
0.0
  0
VERTEX
  5
76D
  8
TENA_LOTS
 10
574302.83142008306
 20
511002.38974454592
 30
0.0
  0
VERTEX
  5
76E
  8
TENA_LOTS
 10
574317.55327754898
 20
511003.79304212768
 30
0.0
  0
VERTEX
  5
76F
  8
TENA_LOTS
 10
574330.87124221737
 20
511019.90015542129
 30
0.0
  0
VERTEX
  5
770
  8
TENA_LOTS
 10
574341.37937372737
 20
511031.01243218698
 30
0.0
  0
VERTEX
  5
771
  8
TENA_LOTS
 10
574342.98137870815
 20
511043.83623903512
 30
0.0
  0
VERTEX
  5
772
  8
TENA_LOTS
 10
574327.712172003
 20
511057.9105275037
 30
0.0
  0
VERTEX
  5
773
  8
TENA_LOTS
 10
574316.17910936731
 20
511051.91724297841
 30
0.0
  0
SEQEND
  5
774
  8
TENA_LOTS
  0
TEXT
  5
130
  8
TENA_LOT-SITE_LABEL
 10
574305.98479442054
 20
511029.10187187832
 30
0.0
 40
5.0608183140548038
  1
14/06
 50
1.635614663726825
 72
     4
 11
574314.75504046865
 21
511031.88374345761
 31
0.0
  0
TEXT
  5
131
  8
TENA_LOT-SITE_LABEL
 10
575415.58011118579
 20
510331.99040126143
 30
0.0
 40
5.0608183140548038
  1
15/07
 50
1.635614663726825
 72
     4
 11
575424.35035723401
 21
510334.77227284078
 31
0.0
  0
POLYLINE
  5
132
  8
TENA_LOTS
 66
     1
 10
0.0
 20
0.0
 30
0.0
  0
VERTEX
  5
775
  8
TENA_LOTS
 10
575396.2722052678
 20
510314.70777470758
 30
0.0
  0
VERTEX
  5
776
  8
TENA_LOTS
 10
575405.54830062471
 20
510308.36862422689
 30
0.0
  0
VERTEX
  5
777
  8
TENA_LOTS
 10
575437.88731001376
 20
510326.19171176199
 30
0.0
  0
VERTEX
  5
778
  8
TENA_LOTS
 10
575448.79287661798
 20
510326.9269703005
 30
0.0
  0
VERTEX
  5
779
  8
TENA_LOTS
 10
575451.47319595562
 20
510329.6523339111
 30
0.0
  0
VERTEX
  5
77A
  8
TENA_LOTS
 10
575453.67821551696
 20
510334.16534002242
 30
0.0
  0
VERTEX
  5
77B
  8
TENA_LOTS
 10
575453.24534909881
 20
510338.17921550159
 30
0.0
  0
VERTEX
  5
77C
  8
TENA_LOTS
 10
575442.13491699426
 20
510352.20535231271
 30
0.0
  0
VERTEX
  5
77D
  8
TENA_LOTS
 10
575440.33625630313
 20
510355.75642125233
 30
0.0
  0
VERTEX
  5
77E
  8
TENA_LOTS
 10
575438.25878058118
 20
510357.92212103697
 30
0.0
  0
VERTEX
  5
77F
  8
TENA_LOTS
 10
575434.80341880431
 20
510360.04847581033
 30
0.0
  0
VERTEX
  5
780
  8
TENA_LOTS
 10
575431.9263723091
 20
510360.49606949178
 30
0.0
  0
VERTEX
  5
781
  8
TENA_LOTS
 10
575429.27651642985
 20
510360.42040386901
 30
0.0
  0
VERTEX
  5
782
  8
TENA_LOTS
 10
575426.73257678072
 20
510360.34776264348
 30
0.0
  0
VERTEX
  5
783
  8
TENA_LOTS
 10
575422.88028051669
 20
510357.80081336008
 30
0.0
  0
VERTEX
  5
784
  8
TENA_LOTS
 10
575414.39087504323
 20
510346.75116204412
 30
0.0
  0
VERTEX
  5
785
  8
TENA_LOTS
 10
575407.73082704493
 20
510338.50851528789
 30
0.0
  0
VERTEX
  5
786
  8
TENA_LOTS
 10
575401.94592447369
 20
510329.33730452368
 30
0.0
  0
VERTEX
  5
787
  8
TENA_LOTS
 10
575390.64362878993
 20
510318.95132904127
 30
0.0
  0
VERTEX
  5
788
  8
TENA_LOTS
 10
575396.2722052678
 20
510314.70777470758
 30
0.0
  0
SEQEND
  5
789
  8
TENA_LOTS
  0
POLYLINE
  5
133
  8
TENA_LOTS
 66
     1
 10
0.0
 20
0.0
 30
0.0
  0
VERTEX
  5
78A
  8
TENA_LOTS
 10
574092.44714177749
 20
512842.05990233849
 30
0.0
  0
VERTEX
  5
78B
  8
TENA_LOTS
 10
574079.06516596035
 20
512840.35914011882
 30
0.0
  0
VERTEX
  5
78C
  8
TENA_LOTS
 10
574070.28045701527
 20
512835.55188666342
 30
0.0
  0
VERTEX
  5
78D
  8
TENA_LOTS
 10
574065.34317521111
 20
512829.92753802048
 30
0.0
  0
VERTEX
  5
78E
  8
TENA_LOTS
 10
574065.58902186877
 20
512821.31783937669
 30
0.0
  0
VERTEX
  5
78F
  8
TENA_LOTS
 10
574068.54409954045
 20
512813.9604899094
 30
0.0
  0
VERTEX
  5
790
  8
TENA_LOTS
 10
574077.62326799543
 20
512811.86968995252
 30
0.0
  0
VERTEX
  5
791
  8
TENA_LOTS
 10
574101.16653860023
 20
512811.36697093782
 30
0.0
  0
VERTEX
  5
792
  8
TENA_LOTS
 10
574120.20976587175
 20
512817.39410946763
 30
0.0
  0
VERTEX
  5
793
  8
TENA_LOTS
 10
574124.74409192975
 20
512823.3986398722
 30
0.0
  0
VERTEX
  5
794
  8
TENA_LOTS
 10
574123.66988657648
 20
512833.5513991309
 30
0.0
  0
VERTEX
  5
795
  8
TENA_LOTS
 10
574114.87084858713
 20
512839.5668504698
 30
0.0
  0
VERTEX
  5
796
  8
TENA_LOTS
 10
574100.29489828472
 20
512841.89234197442
 30
0.0
  0
VERTEX
  5
797
  8
TENA_LOTS
 10
574092.44714177749
 20
512842.05990233849
 30
0.0
  0
SEQEND
  5
798
  8
TENA_LOTS
  0
TEXT
  5
134
  8
TENA_LOT-SITE_LABEL
 10
574084.21579582104
 20
512822.79243430652
 30
0.0
 40
5.0608183140548038
  1
83/49
 50
1.635614663726825
 72
     4
 11
574092.98609113635
 21
512825.57258052571
 31
0.0
  0
POLYLINE
  5
135
  8
TENA_LOTS
 66
     1
 10
0.0
 20
0.0
 30
0.0
  0
VERTEX
  5
799
  8
TENA_LOTS
 10
574571.33943120087
 20
513066.69880316878
 30
0.0
  0
VERTEX
  5
79A
  8
TENA_LOTS
 10
574559.27443160699
 20
513060.45757240249
 30
0.0
  0
VERTEX
  5
79B
  8
TENA_LOTS
 10
574554.03943013749
 20
513048.4710078272
 30
0.0
  0
VERTEX
  5
79C
  8
TENA_LOTS
 10
574561.36287585006
 20
513036.1467264932
 30
0.0
  0
VERTEX
  5
79D
  8
TENA_LOTS
 10
574573.52263593918
 20
513025.3531336739
 30
0.0
  0
VERTEX
  5
79E
  8
TENA_LOTS
 10
574586.85710875376
 20
513022.25239721971
 30
0.0
  0
VERTEX
  5
79F
  8
TENA_LOTS
 10
574599.23663729546
 20
513028.17624755087
 30
0.0
  0
VERTEX
  5
7A0
  8
TENA_LOTS
 10
574598.89890798216
 20
513040.00373236858
 30
0.0
  0
VERTEX
  5
7A1
  8
TENA_LOTS
 10
574591.53572980757
 20
513053.7194685631
 30
0.0
  0
VERTEX
  5
7A2
  8
TENA_LOTS
 10
574581.1247196577
 20
513064.79041086778
 30
0.0
  0
VERTEX
  5
7A3
  8
TENA_LOTS
 10
574571.33943120087
 20
513066.69880316878
 30
0.0
  0
SEQEND
  5
7A4
  8
TENA_LOTS
  0
TEXT
  5
136
  8
TENA_LOT-SITE_LABEL
 10
574568.61680537171
 20
513042.12311164662
 30
0.0
 40
5.0608183140548038
  1
84/50
 50
1.635614663726825
 72
     4
 11
574577.38705142005
 21
513044.90498322598
 31
0.0
  0
POLYLINE
  5
137
  8
TENA_LOTS
 66
     1
 10
0.0
 20
0.0
 30
0.0
  0
VERTEX
  5
7A5
  8
TENA_LOTS
 10
574601.61861458188
 20
508620.68874778319
 30
0.0
  0
VERTEX
  5
7A6
  8
TENA_LOTS
 10
574592.59208226751
 20
508615.74601246062
 30
0.0
  0
VERTEX
  5
7A7
  8
TENA_LOTS
 10
574586.43830281554
 20
508608.98829623481
 30
0.0
  0
VERTEX
  5
7A8
  8
TENA_LOTS
 10
574588.09511334961
 20
508602.04463891027
 30
0.0
  0
VERTEX
  5
7A9
  8
TENA_LOTS
 10
574593.76636686595
 20
508598.08938913723
 30
0.0
  0
VERTEX
  5
7AA
  8
TENA_LOTS
 10
574604.46064028575
 20
508601.29415875912
 30
0.0
  0
VERTEX
  5
7AB
  8
TENA_LOTS
 10
574610.39017699589
 20
508606.46262533439
 30
0.0
  0
VERTEX
  5
7AC
  8
TENA_LOTS
 10
574613.94364720199
 20
508610.83088496421
 30
0.0
  0
VERTEX
  5
7AD
  8
TENA_LOTS
 10
574611.14512334648
 20
508617.55339386943
 30
0.0
  0
VERTEX
  5
7AE
  8
TENA_LOTS
 10
574606.37371240836
 20
508621.49707390589
 30
0.0
  0
VERTEX
  5
7AF
  8
TENA_LOTS
 10
574601.61861458188
 20
508620.68874778319
 30
0.0
  0
SEQEND
  5
7B0
  8
TENA_LOTS
  0
TEXT
  5
138
  8
TENA_LOT-SITE_LABEL
 10
574590.58037677768
 20
508607.58924253099
 30
0.0
 40
4.244768398882691
  1
164/90
 50
0.1966892973296492
 72
     4
 11
574599.64166955266
 21
508609.74274565151
 31
0.0
  0
POLYLINE
  5
139
  8
TENA_LOTS
 66
     1
 10
0.0
 20
0.0
 30
0.0
  0
VERTEX
  5
7B1
  8
TENA_LOTS
 10
575175.70212866506
 20
509320.2408696746
 30
0.0
  0
VERTEX
  5
7B2
  8
TENA_LOTS
 10
575164.70590631966
 20
509320.20312086039
 30
0.0
  0
VERTEX
  5
7B3
  8
TENA_LOTS
 10
575155.51816401782
 20
509314.80780009652
 30
0.0
  0
VERTEX
  5
7B4
  8
TENA_LOTS
 10
575150.9378833134
 20
509308.15124532202
 30
0.0
  0
VERTEX
  5
7B5
  8
TENA_LOTS
 10
575150.45002904825
 20
509301.25329417631
 30
0.0
  0
VERTEX
  5
7B6
  8
TENA_LOTS
 10
575157.1235445661
 20
509294.12456959038
 30
0.0
  0
VERTEX
  5
7B7
  8
TENA_LOTS
 10
575171.4599757652
 20
509289.57625277789
 30
0.0
  0
VERTEX
  5
7B8
  8
TENA_LOTS
 10
575183.45809833216
 20
509295.74746933178
 30
0.0
  0
VERTEX
  5
7B9
  8
TENA_LOTS
 10
575187.51632924157
 20
509305.46722423559
 30
0.0
  0
VERTEX
  5
7BA
  8
TENA_LOTS
 10
575183.39321459073
 20
509314.64809063479
 30
0.0
  0
VERTEX
  5
7BB
  8
TENA_LOTS
 10
575175.70212866506
 20
509320.2408696746
 30
0.0
  0
SEQEND
  5
7BC
  8
TENA_LOTS
  0
TEXT
  5
13A
  8
TENA_LOT-SITE_LABEL
 10
575160.47140349157
 20
509304.30018284498
 30
0.0
 40
4.244768398882691
  1
165/91
 50
0.1966892973296492
 72
     4
 11
575169.53269626654
 21
509306.45368596539
 31
0.0
  0
POLYLINE
  5
13B
  8
TENA_LOTS
 66
     1
 10
0.0
 20
0.0
 30
0.0
  0
VERTEX
  5
7BD
  8
TENA_LOTS
 10
574843.5384506766
 20
512740.65273475251
 30
0.0
  0
VERTEX
  5
7BE
  8
TENA_LOTS
 10
574817.34353289905
 20
512739.46073784091
 30
0.0
  0
VERTEX
  5
7BF
  8
TENA_LOTS
 10
574799.23285159841
 20
512735.39147272892
 30
0.0
  0
VERTEX
  5
7C0
  8
TENA_LOTS
 10
574779.44673503819
 20
512727.72227791778
 30
0.0
  0
VERTEX
  5
7C1
  8
TENA_LOTS
 10
574771.09489995404
 20
512708.83516477142
 30
0.0
  0
VERTEX
  5
7C2
  8
TENA_LOTS
 10
574773.49817491393
 20
512689.61543544749
 30
0.0
  0
VERTEX
  5
7C3
  8
TENA_LOTS
 10
574792.81464775186
 20
512682.3086661179
 30
0.0
  0
VERTEX
  5
7C4
  8
TENA_LOTS
 10
574818.11587440723
 20
512681.90854092781
 30
0.0
  0
VERTEX
  5
7C5
  8
TENA_LOTS
 10
574847.3159024769
 20
512682.742336581
 30
0.0
  0
VERTEX
  5
7C6
  8
TENA_LOTS
 10
574870.6762501765
 20
512691.26769298757
 30
0.0
  0
VERTEX
  5
7C7
  8
TENA_LOTS
 10
574875.26475549384
 20
512703.81743010873
 30
0.0
  0
VERTEX
  5
7C8
  8
TENA_LOTS
 10
574875.30358477356
 20
512718.02702495549
 30
0.0
  0
VERTEX
  5
7C9
  8
TENA_LOTS
 10
574863.24773135176
 20
512735.44334903761
 30
0.0
  0
VERTEX
  5
7CA
  8
TENA_LOTS
 10
574843.5384506766
 20
512740.65273475251
 30
0.0
  0
SEQEND
  5
7CB
  8
TENA_LOTS
  0
TEXT
  5
13C
  8
TENA_LOT-SITE_LABEL
 10
574818.01107859332
 20
512705.25743723579
 30
0.0
 40
5.0608183140548038
  1
36/74
 50
1.635614663726825
 72
     4
 11
574826.78137390863
 21
512708.0375834548
 31
0.0
  0
POLYLINE
  5
13D
  8
TENA_LOTS
 66
     1
 10
0.0
 20
0.0
 30
0.0
  0
VERTEX
  5
7CC
  8
TENA_LOTS
 10
575632.6032540322
 20
511731.25680403027
 30
0.0
  0
VERTEX
  5
7CD
  8
TENA_LOTS
 10
575612.09179328301
 20
511725.26129931118
 30
0.0
  0
VERTEX
  5
7CE
  8
TENA_LOTS
 10
575596.09827044816
 20
511716.44508398953
 30
0.0
  0
VERTEX
  5
7CF
  8
TENA_LOTS
 10
575580.35107325856
 20
511698.78196974448
 30
0.0
  0
VERTEX
  5
7D0
  8
TENA_LOTS
 10
575581.33274226508
 20
511681.59654188651
 30
0.0
  0
VERTEX
  5
7D1
  8
TENA_LOTS
 10
575587.89709059347
 20
511675.88215871988
 30
0.0
  0
VERTEX
  5
7D2
  8
TENA_LOTS
 10
575607.16913380683
 20
511673.48274596088
 30
0.0
  0
VERTEX
  5
7D3
  8
TENA_LOTS
 10
575642.74910958658
 20
511686.30236983852
 30
0.0
  0
VERTEX
  5
7D4
  8
TENA_LOTS
 10
575657.55104013404
 20
511702.4624388399
 30
0.0
  0
VERTEX
  5
7D5
  8
TENA_LOTS
 10
575651.52506275382
 20
511723.92960050848
 30
0.0
  0
VERTEX
  5
7D6
  8
TENA_LOTS
 10
575632.6032540322
 20
511731.25680403027
 30
0.0
  0
VERTEX
  5
7D7
  8
TENA_LOTS
 10
575632.6032540322
 20
511731.25680403027
 30
0.0
  0
SEQEND
  5
7D8
  8
TENA_LOTS
  0
POLYLINE
  5
13E
  8
TENA_LOTS
 66
     1
 10
0.0
 20
0.0
 30
0.0
  0
VERTEX
  5
7D9
  8
TENA_LOTS
 10
575552.48829140875
 20
511473.5954442058
 30
0.0
  0
VERTEX
  5
7DA
  8
TENA_LOTS
 10
575608.90088214295
 20
511437.78234478133
 30
0.0
  0
VERTEX
  5
7DB
  8
TENA_LOTS
 10
575657.36615858146
 20
511509.13275322638
 30
0.0
  0
VERTEX
  5
7DC
  8
TENA_LOTS
 10
575594.44242043281
 20
511544.75992932363
 30
0.0
  0
VERTEX
  5
7DD
  8
TENA_LOTS
 10
575552.48829140875
 20
511473.5954442058
 30
0.0
  0
SEQEND
  5
7DE
  8
TENA_LOTS
  0
TEXT
  5
13F
  8
TENA_LOT-SITE_LABEL
 10
575612.46634467249
 20
511695.06155579857
 30
0.0
 40
5.0608183140548038
  1
09/08
 50
1.635614663726825
 72
     4
 11
575621.23659072071
 21
511697.84342737793
 31
0.0
  0
TEXT
  5
140
  8
TENA_LOT-SITE_LABEL
 10
575592.47074628924
 20
511484.99113630783
 30
0.0
 40
5.0608183140548038
  1
10/09
 50
1.635614663726825
 72
     4
 11
575601.24099233735
 21
511487.77300788718
 31
0.0
  0
POLYLINE
  5
141
  8
TENA_LOTS
 66
     1
 10
0.0
 20
0.0
 30
0.0
  0
VERTEX
  5
7DF
  8
TENA_LOTS
 10
576870.41304330633
 20
506212.37571104377
 30
0.0
  0
VERTEX
  5
7E0
  8
TENA_LOTS
 10
576850.44990804396
 20
506213.9672708459
 30
0.0
  0
VERTEX
  5
7E1
  8
TENA_LOTS
 10
576849.58391521825
 20
506223.93083731399
 30
0.0
  0
VERTEX
  5
7E2
  8
TENA_LOTS
 10
576847.85762840952
 20
506242.19789877842
 30
0.0
  0
VERTEX
  5
7E3
  8
TENA_LOTS
 10
576847.80345855374
 20
506257.97756732558
 30
0.0
  0
VERTEX
  5
7E4
  8
TENA_LOTS
 10
576858.58851467213
 20
506264.65895077982
 30
0.0
  0
VERTEX
  5
7E5
  8
TENA_LOTS
 10
576881.04128869891
 20
506264.73602866853
 30
0.0
  0
VERTEX
  5
7E6
  8
TENA_LOTS
 10
576891.05399989546
 20
506255.6349062415
 30
0.0
  0
VERTEX
  5
7E7
  8
TENA_LOTS
 10
576891.92854441225
 20
506243.180233725
 30
0.0
  0
VERTEX
  5
7E8
  8
TENA_LOTS
 10
576893.65483122144
 20
506224.91317226092
 30
0.0
  0
VERTEX
  5
7E9
  8
TENA_LOTS
 10
576892.02263359074
 20
506215.7720741505
 30
0.0
  0
VERTEX
  5
7EA
  8
TENA_LOTS
 10
576881.22090850654
 20
506212.4128132491
 30
0.0
  0
VERTEX
  5
7EB
  8
TENA_LOTS
 10
576870.41304330633
 20
506212.37571104377
 30
0.0
  0
SEQEND
  5
7EC
  8
TENA_LOTS
  0
TEXT
  5
142
  8
TENA_LOT-SITE_LABEL
 10
576862.4829113459
 20
506235.31324297813
 30
0.0
 40
4.244768398882691
  1
11/10
 50
0.1966892973296492
 72
     4
 11
576869.89524002885
 21
506237.46108538739
 31
0.0
  0
POLYLINE
  5
143
  8
TENA_LOTS
 66
     1
 10
0.0
 20
0.0
 30
0.0
  0
VERTEX
  5
7ED
  8
TENA_LOTS
 10
576427.54734264466
 20
505989.49760714959
 30
0.0
  0
VERTEX
  5
7EE
  8
TENA_LOTS
 10
576423.43809545378
 20
505998.24443671841
 30
0.0
  0
VERTEX
  5
7EF
  8
TENA_LOTS
 10
576422.58447955071
 20
506008.63247726002
 30
0.0
  0
VERTEX
  5
7F0
  8
TENA_LOTS
 10
576423.1679397457
 20
506016.98890893569
 30
0.0
  0
VERTEX
  5
7F1
  8
TENA_LOTS
 10
576425.79572811327
 20
506024.73959365778
 30
0.0
  0
VERTEX
  5
7F2
  8
TENA_LOTS
 10
576448.9504834722
 20
506026.71168281289
 30
0.0
  0
VERTEX
  5
7F3
  8
TENA_LOTS
 10
576461.56350505783
 20
506022.31209086772
 30
0.0
  0
VERTEX
  5
7F4
  8
TENA_LOTS
 10
576465.32048373192
 20
506007.52001262491
 30
0.0
  0
VERTEX
  5
7F5
  8
TENA_LOTS
 10
576464.60868959199
 20
505998.63578241528
 30
0.0
  0
VERTEX
  5
7F6
  8
TENA_LOTS
 10
576453.5156383483
 20
505991.19421457913
 30
0.0
  0
VERTEX
  5
7F7
  8
TENA_LOTS
 10
576439.44346387114
 20
505988.18531079497
 30
0.0
  0
VERTEX
  5
7F8
  8
TENA_LOTS
 10
576427.54734264466
 20
505989.49760714959
 30
0.0
  0
SEQEND
  5
7F9
  8
TENA_LOTS
  0
TEXT
  5
144
  8
TENA_LOT-SITE_LABEL
 10
576437.67851151899
 20
506004.85324095527
 30
0.0
 40
4.244768398882691
  1
12/56
 50
0.1966892973296492
 72
     4
 11
576445.09084020182
 21
506007.00108336459
 31
0.0
  0
POLYLINE
  5
145
  8
TENA_LOTS
 66
     1
 10
0.0
 20
0.0
 30
0.0
  0
VERTEX
  5
7FA
  8
TENA_LOTS
 10
576130.23102094315
 20
506352.71980817529
 30
0.0
  0
VERTEX
  5
7FB
  8
TENA_LOTS
 10
576153.93457469519
 20
506350.2503920552
 30
0.0
  0
VERTEX
  5
7FC
  8
TENA_LOTS
 10
576169.00470998371
 20
506356.33105271118
 30
0.0
  0
VERTEX
  5
7FD
  8
TENA_LOTS
 10
576171.1786301086
 20
506369.36412204918
 30
0.0
  0
VERTEX
  5
7FE
  8
TENA_LOTS
 10
576165.89692197274
 20
506382.44569283439
 30
0.0
  0
VERTEX
  5
7FF
  8
TENA_LOTS
 10
576149.79308738722
 20
506384.40005233552
 30
0.0
  0
VERTEX
  5
800
  8
TENA_LOTS
 10
576128.67284268409
 20
506382.31790668977
 30
0.0
  0
VERTEX
  5
801
  8
TENA_LOTS
 10
576123.66667649255
 20
506375.26697343349
 30
0.0
  0
VERTEX
  5
802
  8
TENA_LOTS
 10
576122.65016488393
 20
506362.27003327012
 30
0.0
  0
VERTEX
  5
803
  8
TENA_LOTS
 10
576130.23102094315
 20
506352.71980817529
 30
0.0
  0
SEQEND
  5
804
  8
TENA_LOTS
  0
TEXT
  5
146
  8
TENA_LOT-SITE_LABEL
 10
576138.12907268025
 20
506365.21647131641
 30
0.0
 40
4.244768398882691
  1
97/92
 50
0.1966892973296492
 72
     4
 11
576145.54140136298
 21
506367.36431372561
 31
0.0
  0
POLYLINE
  5
147
  8
TENA_LOTS
 66
     1
 10
0.0
 20
0.0
 30
0.0
  0
VERTEX
  5
805
  8
TENA_LOTS
 10
575126.14500672335
 20
506810.3107075892
 30
0.0
  0
VERTEX
  5
806
  8
TENA_LOTS
 10
575117.9631761827
 20
506802.55263982993
 30
0.0
  0
VERTEX
  5
807
  8
TENA_LOTS
 10
575115.0000288944
 20
506796.66310219589
 30
0.0
  0
VERTEX
  5
808
  8
TENA_LOTS
 10
575117.29740481626
 20
506789.79476484028
 30
0.0
  0
VERTEX
  5
809
  8
TENA_LOTS
 10
575127.26233947044
 20
506780.6165899958
 30
0.0
  0
VERTEX
  5
80A
  8
TENA_LOTS
 10
575135.79112665344
 20
506776.39400522161
 30
0.0
  0
VERTEX
  5
80B
  8
TENA_LOTS
 10
575145.70973631425
 20
506780.6799178677
 30
0.0
  0
VERTEX
  5
80C
  8
TENA_LOTS
 10
575151.94108317746
 20
506791.89990721468
 30
0.0
  0
VERTEX
  5
80D
  8
TENA_LOTS
 10
575147.41387383232
 20
506803.29437398771
 30
0.0
  0
VERTEX
  5
80E
  8
TENA_LOTS
 10
575138.81366246007
 20
506812.63737219869
 30
0.0
  0
VERTEX
  5
80F
  8
TENA_LOTS
 10
575126.14500672335
 20
506810.3107075892
 30
0.0
  0
SEQEND
  5
810
  8
TENA_LOTS
  0
TEXT
  5
148
  8
TENA_LOT-SITE_LABEL
 10
575126.15746337175
 20
506792.95046635752
 30
0.0
 40
4.244768398882691
  1
98/93
 50
0.1966892973296492
 72
     4
 11
575133.56979702448
 21
506795.09686103708
 31
0.0
  0
POLYLINE
  5
149
  8
TENA_LOTS
 66
     1
 10
0.0
 20
0.0
 30
0.0
  0
VERTEX
  5
811
  8
TENA_LOTS
 10
573007.03344008781
 20
506366.23450553772
 30
0.0
  0
VERTEX
  5
812
  8
TENA_LOTS
 10
572999.96657163219
 20
506348.46123928903
 30
0.0
  0
VERTEX
  5
813
  8
TENA_LOTS
 10
572992.11824701901
 20
506334.76998477691
 30
0.0
  0
VERTEX
  5
814
  8
TENA_LOTS
 10
572989.30950797955
 20
506320.79459497461
 30
0.0
  0
VERTEX
  5
815
  8
TENA_LOTS
 10
572997.08578145725
 20
506315.30826547748
 30
0.0
  0
VERTEX
  5
816
  8
TENA_LOTS
 10
573031.4016403564
 20
506314.38345898723
 30
0.0
  0
VERTEX
  5
817
  8
TENA_LOTS
 10
573047.58070209308
 20
506314.48030357901
 30
0.0
  0
VERTEX
  5
818
  8
TENA_LOTS
 10
573062.92159806821
 20
506317.65332604683
 30
0.0
  0
VERTEX
  5
819
  8
TENA_LOTS
 10
573072.00291155325
 20
506335.31393048051
 30
0.0
  0
VERTEX
  5
81A
  8
TENA_LOTS
 10
573072.79725693038
 20
506349.40289317869
 30
0.0
  0
VERTEX
  5
81B
  8
TENA_LOTS
 10
573065.07769305562
 20
506355.89505653683
 30
0.0
  0
VERTEX
  5
81C
  8
TENA_LOTS
 10
573040.17067014065
 20
506362.34722943429
 30
0.0
  0
VERTEX
  5
81D
  8
TENA_LOTS
 10
573024.16178857919
 20
506365.26879750541
 30
0.0
  0
VERTEX
  5
81E
  8
TENA_LOTS
 10
573007.03344008781
 20
506366.23450553772
 30
0.0
  0
SEQEND
  5
81F
  8
TENA_LOTS
  0
TEXT
  5
14A
  8
TENA_LOT-SITE_LABEL
 10
573022.25987811573
 20
506340.28609057958
 30
0.0
 40
4.447630885556463
  1
85/57
 50
1.635614663726825
 72
     4
 11
573029.96748877806
 21
506342.7309003293
 31
0.0
  0
POLYLINE
  5
14B
  8
TENA_LOTS
 66
     1
 10
0.0
 20
0.0
 30
0.0
  0
VERTEX
  5
820
  8
TENA_LOTS
 10
574276.49344259745
 20
505995.00476637232
 30
0.0
  0
VERTEX
  5
821
  8
TENA_LOTS
 10
574282.93392111978
 20
505998.69096793362
 30
0.0
  0
VERTEX
  5
822
  8
TENA_LOTS
 10
574286.81770707224
 20
506009.31162402831
 30
0.0
  0
VERTEX
  5
823
  8
TENA_LOTS
 10
574281.76017223485
 20
506020.9646173924
 30
0.0
  0
VERTEX
  5
824
  8
TENA_LOTS
 10
574265.8505808909
 20
506032.05855502968
 30
0.0
  0
VERTEX
  5
825
  8
TENA_LOTS
 10
574253.88574885949
 20
506058.10079105652
 30
0.0
  0
VERTEX
  5
826
  8
TENA_LOTS
 10
574235.70633957547
 20
506054.76680800371
 30
0.0
  0
VERTEX
  5
827
  8
TENA_LOTS
 10
574229.35177034955
 20
506041.28970053338
 30
0.0
  0
VERTEX
  5
828
  8
TENA_LOTS
 10
574235.71080278093
 20
506028.61572632741
 30
0.0
  0
VERTEX
  5
829
  8
TENA_LOTS
 10
574250.98058400571
 20
506020.66014367249
 30
0.0
  0
VERTEX
  5
82A
  8
TENA_LOTS
 10
574259.20627907012
 20
506000.02905551827
 30
0.0
  0
VERTEX
  5
82B
  8
TENA_LOTS
 10
574265.01956228539
 20
505995.00414118229
 30
0.0
  0
VERTEX
  5
82C
  8
TENA_LOTS
 10
574276.49344259745
 20
505995.00476637232
 30
0.0
  0
SEQEND
  5
82D
  8
TENA_LOTS
  0
TEXT
  5
14C
  8
TENA_LOT-SITE_LABEL
 10
574243.28380724927
 20
506023.63552292669
 30
0.0
 40
5.0608183140548038
  1
116/102
 50
1.635614663726825
 72
     4
 11
574255.9844240339
 21
506026.52962474182
 31
0.0
  0
POLYLINE
  5
14D
  8
TENA_LIMITS
 66
     1
 10
0.0
 20
0.0
 30
0.0
 70
     1
  0
VERTEX
  5
82E
  8
TENA_LIMITS
 10
564376.66653522267
 20
506746.41124923719
 30
0.0
  0
VERTEX
  5
82F
  8
TENA_LIMITS
 10
564410.98079361604
 20
506763.11541251087
 30
0.0
  0
VERTEX
  5
830
  8
TENA_LIMITS
 10
564492.08323110582
 20
506765.43126164901
 30
0.0
  0
VERTEX
  5
831
  8
TENA_LIMITS
 10
564544.105336971
 20
506793.60508900537
 30
0.0
  0
VERTEX
  5
832
  8
TENA_LIMITS
 10
564464.48965240305
 20
506888.19083903643
 30
0.0
  0
VERTEX
  5
833
  8
TENA_LIMITS
 10
564379.33481875295
 20
506942.53877262888
 30
0.0
  0
VERTEX
  5
834
  8
TENA_LIMITS
 10
564327.30801380763
 20
507007.85251358489
 30
0.0
  0
VERTEX
  5
835
  8
TENA_LIMITS
 10
564241.39082953101
 20
507088.8984272111
 30
0.0
  0
VERTEX
  5
836
  8
TENA_LIMITS
 10
564142.67965897883
 20
507149.53921452269
 30
0.0
  0
VERTEX
  5
837
  8
TENA_LIMITS
 10
564064.11234024784
 20
507207.41520180588
 30
0.0
  0
VERTEX
  5
838
  8
TENA_LIMITS
 10
563994.52086942864
 20
507302.2871391247
 30
0.0
  0
VERTEX
  5
839
  8
TENA_LIMITS
 10
563899.05594215984
 20
507366.36057139072
 30
0.0
  0
VERTEX
  5
83A
  8
TENA_LIMITS
 10
563837.48139278695
 20
507414.70188125531
 30
0.0
  0
VERTEX
  5
83B
  8
TENA_LIMITS
 10
563791.66092529381
 20
507496.89274132019
 30
0.0
  0
VERTEX
  5
83C
  8
TENA_LIMITS
 10
563757.77054739767
 20
507512.62486372289
 30
0.0
  0
VERTEX
  5
83D
  8
TENA_LIMITS
 10
563683.59273223381
 20
507533.88654347887
 30
0.0
  0
VERTEX
  5
83E
  8
TENA_LIMITS
 10
563594.42943857878
 20
507611.49976566492
 30
0.0
  0
VERTEX
  5
83F
  8
TENA_LIMITS
 10
563559.20494600968
 20
507673.95339082729
 30
0.0
  0
VERTEX
  5
840
  8
TENA_LIMITS
 10
563474.33586263144
 20
507718.28953414038
 30
0.0
  0
VERTEX
  5
841
  8
TENA_LIMITS
 10
563442.16689286183
 20
507790.85030805023
 30
0.0
  0
VERTEX
  5
842
  8
TENA_LIMITS
 10
563407.43346346065
 20
507820.41812498198
 30
0.0
  0
VERTEX
  5
843
  8
TENA_LIMITS
 10
563356.56388024974
 20
507817.55193699431
 30
0.0
  0
VERTEX
  5
844
  8
TENA_LIMITS
 10
563339.8989529215
 20
507873.50743694272
 30
0.0
  0
VERTEX
  5
845
  8
TENA_LIMITS
 10
563304.84505906946
 20
507913.88953445799
 30
0.0
  0
VERTEX
  5
846
  8
TENA_LIMITS
 10
563273.44741268014
 20
507958.13807512121
 30
0.0
  0
VERTEX
  5
847
  8
TENA_LIMITS
 10
563205.91546397272
 20
507948.68554469809
 30
0.0
  0
VERTEX
  5
848
  8
TENA_LIMITS
 10
563153.54571697256
 20
507935.90387444949
 30
0.0
  0
VERTEX
  5
849
  8
TENA_LIMITS
 10
563074.72275261185
 20
507926.12893338548
 30
0.0
  0
VERTEX
  5
84A
  8
TENA_LIMITS
 10
562897.82889350865
 20
507921.07779677602
 30
0.0
  0
VERTEX
  5
84B
  8
TENA_LIMITS
 10
562824.92329806462
 20
507967.90318450681
 30
0.0
  0
VERTEX
  5
84C
  8
TENA_LIMITS
 10
562784.28081744863
 20
508072.08124405798
 30
0.0
  0
VERTEX
  5
84D
  8
TENA_LIMITS
 10
562741.05546768417
 20
508134.80250269541
 30
0.0
  0
VERTEX
  5
84E
  8
TENA_LIMITS
 10
562723.85385119845
 20
508209.55318152718
 30
0.0
  0
VERTEX
  5
84F
  8
TENA_LIMITS
 10
562749.3410306602
 20
508240.37768385059
 30
0.0
  0
VERTEX
  5
850
  8
TENA_LIMITS
 10
562762.46381759015
 20
508308.47008303303
 30
0.0
  0
VERTEX
  5
851
  8
TENA_LIMITS
 10
562749.13325612491
 20
508379.5691573479
 30
0.0
  0
VERTEX
  5
852
  8
TENA_LIMITS
 10
562793.63014350913
 20
508520.54139971052
 30
0.0
  0
VERTEX
  5
853
  8
TENA_LIMITS
 10
562857.48323230247
 20
508634.78261666233
 30
0.0
  0
VERTEX
  5
854
  8
TENA_LIMITS
 10
562921.33632109594
 20
508749.02383361402
 30
0.0
  0
VERTEX
  5
855
  8
TENA_LIMITS
 10
563014.63429678709
 20
508826.20624521113
 30
0.0
  0
VERTEX
  5
856
  8
TENA_LIMITS
 10
563168.78976443061
 20
508856.93132708361
 30
0.0
  0
VERTEX
  5
857
  8
TENA_LIMITS
 10
563299.60080855468
 20
508882.31611446111
 30
0.0
  0
VERTEX
  5
858
  8
TENA_LIMITS
 10
563430.41185267898
 20
508907.7009018386
 30
0.0
  0
VERTEX
  5
859
  8
TENA_LIMITS
 10
563493.0157909214
 20
508993.48018535879
 30
0.0
  0
VERTEX
  5
85A
  8
TENA_LIMITS
 10
563591.77043310716
 20
509052.92197976692
 30
0.0
  0
VERTEX
  5
85B
  8
TENA_LIMITS
 10
563712.11617221741
 20
509199.08581554738
 30
0.0
  0
VERTEX
  5
85C
  8
TENA_LIMITS
 10
563854.5106711163
 20
509325.2288919561
 30
0.0
  0
VERTEX
  5
85D
  8
TENA_LIMITS
 10
563970.00871417683
 20
509442.66831830773
 30
0.0
  0
VERTEX
  5
85E
  8
TENA_LIMITS
 10
564088.10730281752
 20
509564.74660601403
 30
0.0
  0
VERTEX
  5
85F
  8
TENA_LIMITS
 10
564132.8339666517
 20
509648.20577546832
 30
0.0
  0
VERTEX
  5
860
  8
TENA_LIMITS
 10
564164.36943029275
 20
509763.24528881838
 30
0.0
  0
VERTEX
  5
861
  8
TENA_LIMITS
 10
564231.58416873612
 20
509882.93682644289
 30
0.0
  0
VERTEX
  5
862
  8
TENA_LIMITS
 10
564298.79890717962
 20
510002.62836406869
 30
0.0
  0
VERTEX
  5
863
  8
TENA_LIMITS
 10
564419.70841837837
 20
510086.74314640742
 30
0.0
  0
VERTEX
  5
864
  8
TENA_LIMITS
 10
564446.1520784914
 20
510121.4597659664
 30
0.0
  0
VERTEX
  5
865
  8
TENA_LIMITS
 10
564451.98700004746
 20
510196.36231334659
 30
0.0
  0
VERTEX
  5
866
  8
TENA_LIMITS
 10
564496.5888914488
 20
510360.0401757689
 30
0.0
  0
VERTEX
  5
867
  8
TENA_LIMITS
 10
564566.95633746637
 20
510548.01324721932
 30
0.0
  0
VERTEX
  5
868
  8
TENA_LIMITS
 10
564620.70437412895
 20
510618.89603230701
 30
0.0
  0
VERTEX
  5
869
  8
TENA_LIMITS
 10
564703.68724933418
 20
510625.9861502428
 30
0.0
  0
VERTEX
  5
86A
  8
TENA_LIMITS
 10
564858.02840227284
 20
510670.59474865062
 30
0.0
  0
VERTEX
  5
86B
  8
TENA_LIMITS
 10
564720.66180368792
 20
510721.57120363013
 30
0.0
  0
VERTEX
  5
86C
  8
TENA_LIMITS
 10
564692.81924782589
 20
510780.45175254822
 30
0.0
  0
VERTEX
  5
86D
  8
TENA_LIMITS
 10
564601.44448197458
 20
510819.66675845621
 30
0.0
  0
VERTEX
  5
86E
  8
TENA_LIMITS
 10
564571.9864658179
 20
510864.97789268137
 30
0.0
  0
VERTEX
  5
86F
  8
TENA_LIMITS
 10
564525.42231490859
 20
510961.59052302077
 30
0.0
  0
VERTEX
  5
870
  8
TENA_LIMITS
 10
564478.85816399928
 20
511058.20315335988
 30
0.0
  0
VERTEX
  5
871
  8
TENA_LIMITS
 10
564445.51012022013
 20
511085.87945114478
 30
0.0
  0
VERTEX
  5
872
  8
TENA_LIMITS
 10
564433.44745183107
 20
511128.82641734759
 30
0.0
  0
VERTEX
  5
873
  8
TENA_LIMITS
 10
564424.3742261834
 20
511151.41557121178
 30
0.0
  0
VERTEX
  5
874
  8
TENA_LIMITS
 10
564424.27352954773
 20
511197.10916857451
 30
0.0
  0
VERTEX
  5
875
  8
TENA_LIMITS
 10
564404.82106311701
 20
511245.85777597618
 30
0.0
  0
VERTEX
  5
876
  8
TENA_LIMITS
 10
564403.58590051159
 20
511289.1139174726
 30
0.0
  0
VERTEX
  5
877
  8
TENA_LIMITS
 10
564409.65758795384
 20
511320.17019969062
 30
0.0
  0
VERTEX
  5
878
  8
TENA_LIMITS
 10
564410.94362301903
 20
511326.60272115259
 30
0.0
  0
VERTEX
  5
879
  8
TENA_LIMITS
 10
564399.53284576628
 20
511346.72006549931
 30
0.0
  0
VERTEX
  5
87A
  8
TENA_LIMITS
 10
564378.53209210397
 20
511365.36099060922
 30
0.0
  0
VERTEX
  5
87B
  8
TENA_LIMITS
 10
564377.46848009969
 20
511402.60932629829
 30
0.0
  0
VERTEX
  5
87C
  8
TENA_LIMITS
 10
564372.01181560045
 20
511459.59382526501
 30
0.0
  0
VERTEX
  5
87D
  8
TENA_LIMITS
 10
564297.40243840741
 20
511489.95646683552
 30
0.0
  0
VERTEX
  5
87E
  8
TENA_LIMITS
 10
564226.94177632243
 20
511526.93615996698
 30
0.0
  0
VERTEX
  5
87F
  8
TENA_LIMITS
 10
564165.83351810521
 20
511616.1718516429
 30
0.0
  0
VERTEX
  5
880
  8
TENA_LIMITS
 10
564127.32350440265
 20
511673.55974371219
 30
0.0
  0
VERTEX
  5
881
  8
TENA_LIMITS
 10
564060.08475066395
 20
511749.62310764223
 30
0.0
  0
VERTEX
  5
882
  8
TENA_LIMITS
 10
564001.08175224764
 20
511841.08510973607
 30
0.0
  0
VERTEX
  5
883
  8
TENA_LIMITS
 10
563947.52550006739
 20
511893.71097115421
 30
0.0
  0
VERTEX
  5
884
  8
TENA_LIMITS
 10
563899.17280704831
 20
511991.97567523748
 30
0.0
  0
VERTEX
  5
885
  8
TENA_LIMITS
 10
563838.47749020986
 20
512077.20580083242
 30
0.0
  0
VERTEX
  5
886
  8
TENA_LIMITS
 10
563815.21185216389
 20
512163.14842982119
 30
0.0
  0
VERTEX
  5
887
  8
TENA_LIMITS
 10
563798.1859144941
 20
512273.51922101859
 30
0.0
  0
VERTEX
  5
888
  8
TENA_LIMITS
 10
563767.59346017172
 20
512373.10978705349
 30
0.0
  0
VERTEX
  5
889
  8
TENA_LIMITS
 10
563723.53332930547
 20
512458.45868754812
 30
0.0
  0
VERTEX
  5
88A
  8
TENA_LIMITS
 10
563624.11988633114
 20
512538.7626823227
 30
0.0
  0
VERTEX
  5
88B
  8
TENA_LIMITS
 10
563580.25743711716
 20
512617.18865179882
 30
0.0
  0
VERTEX
  5
88C
  8
TENA_LIMITS
 10
563507.97702601226
 20
512719.05314716912
 30
0.0
  0
VERTEX
  5
88D
  8
TENA_LIMITS
 10
563458.46805241227
 20
512752.28221542877
 30
0.0
  0
VERTEX
  5
88E
  8
TENA_LIMITS
 10
563385.75509225531
 20
512749.37245902448
 30
0.0
  0
VERTEX
  5
88F
  8
TENA_LIMITS
 10
563377.49206314376
 20
512885.03507036011
 30
0.0
  0
VERTEX
  5
890
  8
TENA_LIMITS
 10
563431.12896434602
 20
513004.92993373692
 30
0.0
  0
VERTEX
  5
891
  8
TENA_LIMITS
 10
563470.85842966114
 20
513150.73061599961
 30
0.0
  0
VERTEX
  5
892
  8
TENA_LIMITS
 10
563471.49179473484
 20
513282.26345384278
 30
0.0
  0
VERTEX
  5
893
  8
TENA_LIMITS
 10
563445.81107404572
 20
513413.0448527048
 30
0.0
  0
VERTEX
  5
894
  8
TENA_LIMITS
 10
563494.18678022618
 20
513563.47628201387
 30
0.0
  0
VERTEX
  5
895
  8
TENA_LIMITS
 10
563564.61612576596
 20
513710.15353732673
 30
0.0
  0
VERTEX
  5
896
  8
TENA_LIMITS
 10
563620.12821233587
 20
513801.7928441299
 30
0.0
  0
VERTEX
  5
897
  8
TENA_LIMITS
 10
563673.12027033791
 20
513890.11629147589
 30
0.0
  0
VERTEX
  5
898
  8
TENA_LIMITS
 10
563701.04232662474
 20
513935.46241082071
 30
0.0
  0
VERTEX
  5
899
  8
TENA_LIMITS
 10
563753.95215307595
 20
514049.1457657069
 30
0.0
  0
VERTEX
  5
89A
  8
TENA_LIMITS
 10
563802.44848245895
 20
514071.56295106391
 30
0.0
  0
VERTEX
  5
89B
  8
TENA_LIMITS
 10
563915.86916791962
 20
514032.73690336832
 30
0.0
  0
VERTEX
  5
89C
  8
TENA_LIMITS
 10
564036.10354269063
 20
514001.11619826249
 30
0.0
  0
VERTEX
  5
89D
  8
TENA_LIMITS
 10
564147.32379515958
 20
514039.346001881
 30
0.0
  0
VERTEX
  5
89E
  8
TENA_LIMITS
 10
564251.53033269406
 20
514077.37548123812
 30
0.0
  0
VERTEX
  5
89F
  8
TENA_LIMITS
 10
564334.6981083717
 20
514079.76851709932
 30
0.0
  0
VERTEX
  5
8A0
  8
TENA_LIMITS
 10
564518.66533426906
 20
514076.44010991819
 30
0.0
  0
VERTEX
  5
8A1
  8
TENA_LIMITS
 10
564672.9534108052
 20
514089.42726811633
 30
0.0
  0
VERTEX
  5
8A2
  8
TENA_LIMITS
 10
564746.73683603609
 20
514093.2504097459
 30
0.0
  0
VERTEX
  5
8A3
  8
TENA_LIMITS
 10
564865.12959846447
 20
514084.5672059785
 30
0.0
  0
VERTEX
  5
8A4
  8
TENA_LIMITS
 10
564953.69848084415
 20
514034.12226839719
 30
0.0
  0
VERTEX
  5
8A5
  8
TENA_LIMITS
 10
565019.33932319551
 20
513990.59034198552
 30
0.0
  0
VERTEX
  5
8A6
  8
TENA_LIMITS
 10
565105.20924192015
 20
514034.66474403261
 30
0.0
  0
VERTEX
  5
8A7
  8
TENA_LIMITS
 10
565174.0297147166
 20
514053.96261920949
 30
0.0
  0
VERTEX
  5
8A8
  8
TENA_LIMITS
 10
565184.48192630045
 20
514109.18267216289
 30
0.0
  0
VERTEX
  5
8A9
  8
TENA_LIMITS
 10
565131.60305814177
 20
514215.79958995571
 30
0.0
  0
VERTEX
  5
8AA
  8
TENA_LIMITS
 10
565054.71155354858
 20
514368.33442644461
 30
0.0
  0
VERTEX
  5
8AB
  8
TENA_LIMITS
 10
565016.98485312471
 20
514403.9220945033
 30
0.0
  0
VERTEX
  5
8AC
  8
TENA_LIMITS
 10
564963.84388372127
 20
514443.6527440201
 30
0.0
  0
VERTEX
  5
8AD
  8
TENA_LIMITS
 10
564908.39262559137
 20
514482.92365728918
 30
0.0
  0
VERTEX
  5
8AE
  8
TENA_LIMITS
 10
564883.3437500993
 20
514521.35305565479
 30
0.0
  0
VERTEX
  5
8AF
  8
TENA_LIMITS
 10
564912.43762745603
 20
514570.0273208142
 30
0.0
  0
VERTEX
  5
8B0
  8
TENA_LIMITS
 10
564981.00296061905
 20
514608.95513945312
 30
0.0
  0
VERTEX
  5
8B1
  8
TENA_LIMITS
 10
565024.45750368736
 20
514688.48528622248
 30
0.0
  0
VERTEX
  5
8B2
  8
TENA_LIMITS
 10
565048.39341808669
 20
514765.28338828922
 30
0.0
  0
VERTEX
  5
8B3
  8
TENA_LIMITS
 10
565100.11230785446
 20
514784.15783344908
 30
0.0
  0
VERTEX
  5
8B4
  8
TENA_LIMITS
 10
565135.48073482874
 20
514765.5954356569
 30
0.0
  0
VERTEX
  5
8B5
  8
TENA_LIMITS
 10
565150.08583222609
 20
514711.64488489961
 30
0.0
  0
VERTEX
  5
8B6
  8
TENA_LIMITS
 10
565165.31126930821
 20
514635.96502027317
 30
0.0
  0
VERTEX
  5
8B7
  8
TENA_LIMITS
 10
565198.4380853459
 20
514543.3986906794
 30
0.0
  0
VERTEX
  5
8B8
  8
TENA_LIMITS
 10
565209.93666653184
 20
514521.98000084149
 30
0.0
  0
VERTEX
  5
8B9
  8
TENA_LIMITS
 10
565271.28869948594
 20
514508.50895042351
 30
0.0
  0
VERTEX
  5
8BA
  8
TENA_LIMITS
 10
565351.22865216085
 20
514530.36393497232
 30
0.0
  0
VERTEX
  5
8BB
  8
TENA_LIMITS
 10
565405.99174612947
 20
514518.87943762838
 30
0.0
  0
VERTEX
  5
8BC
  8
TENA_LIMITS
 10
565451.12156444287
 20
514539.74043208087
 30
0.0
  0
VERTEX
  5
8BD
  8
TENA_LIMITS
 10
565465.73457101465
 20
514638.01939981623
 30
0.0
  0
VERTEX
  5
8BE
  8
TENA_LIMITS
 10
565510.05777595926
 20
514687.12848230143
 30
0.0
  0
VERTEX
  5
8BF
  8
TENA_LIMITS
 10
565618.03278135974
 20
514718.48283823539
 30
0.0
  0
VERTEX
  5
8C0
  8
TENA_LIMITS
 10
565698.78323790932
 20
514788.20441670337
 30
0.0
  0
VERTEX
  5
8C1
  8
TENA_LIMITS
 10
565735.09054938005
 20
514889.27750443667
 30
0.0
  0
VERTEX
  5
8C2
  8
TENA_LIMITS
 10
565757.16102434404
 20
514955.1488510308
 30
0.0
  0
VERTEX
  5
8C3
  8
TENA_LIMITS
 10
565879.99320593523
 20
514999.97563423251
 30
0.0
  0
VERTEX
  5
8C4
  8
TENA_LIMITS
 10
565979.01745634153
 20
515039.7731956247
 30
0.0
  0
VERTEX
  5
8C5
  8
TENA_LIMITS
 10
566038.37995571631
 20
515019.72124169662
 30
0.0
  0
VERTEX
  5
8C6
  8
TENA_LIMITS
 10
566067.5898855729
 20
514911.82013261801
 30
0.0
  0
VERTEX
  5
8C7
  8
TENA_LIMITS
 10
566101.4032423757
 20
514871.46630295849
 30
0.0
  0
VERTEX
  5
8C8
  8
TENA_LIMITS
 10
566207.45076270436
 20
514894.06677913311
 30
0.0
  0
VERTEX
  5
8C9
  8
TENA_LIMITS
 10
566211.99214257882
 20
514963.78698453418
 30
0.0
  0
VERTEX
  5
8CA
  8
TENA_LIMITS
 10
566293.11501546379
 20
515020.47096062527
 30
0.0
  0
VERTEX
  5
8CB
  8
TENA_LIMITS
 10
566297.59434826649
 20
515092.36409200809
 30
0.0
  0
VERTEX
  5
8CC
  8
TENA_LIMITS
 10
566227.79195843125
 20
515173.00967603299
 30
0.0
  0
VERTEX
  5
8CD
  8
TENA_LIMITS
 10
566174.08769052918
 20
515223.66901688313
 30
0.0
  0
VERTEX
  5
8CE
  8
TENA_LIMITS
 10
566163.70298730105
 20
515284.32177607692
 30
0.0
  0
VERTEX
  5
8CF
  8
TENA_LIMITS
 10
566208.43827944004
 20
515363.84542982921
 30
0.0
  0
VERTEX
  5
8D0
  8
TENA_LIMITS
 10
566111.48878125346
 20
515466.70956789469
 30
0.0
  0
VERTEX
  5
8D1
  8
TENA_LIMITS
 10
565997.76006079349
 20
515471.28671315953
 30
0.0
  0
VERTEX
  5
8D2
  8
TENA_LIMITS
 10
565918.14092734805
 20
515515.96097194147
 30
0.0
  0
VERTEX
  5
8D3
  8
TENA_LIMITS
 10
565872.74300450005
 20
515596.8232188804
 30
0.0
  0
VERTEX
  5
8D4
  8
TENA_LIMITS
 10
565898.13159807073
 20
515667.96980958508
 30
0.0
  0
VERTEX
  5
8D5
  8
TENA_LIMITS
 10
565914.79932923126
 20
515770.16593152791
 30
0.0
  0
VERTEX
  5
8D6
  8
TENA_LIMITS
 10
566002.70007257489
 20
515847.00984553091
 30
0.0
  0
VERTEX
  5
8D7
  8
TENA_LIMITS
 10
566023.28173989453
 20
515949.31772842718
 30
0.0
  0
VERTEX
  5
8D8
  8
TENA_LIMITS
 10
565958.53725094791
 20
516021.80291610112
 30
0.0
  0
VERTEX
  5
8D9
  8
TENA_LIMITS
 10
565968.68788524054
 20
516086.79508914251
 30
0.0
  0
VERTEX
  5
8DA
  8
TENA_LIMITS
 10
565984.68672081875
 20
516137.33542889502
 30
0.0
  0
VERTEX
  5
8DB
  8
TENA_LIMITS
 10
565962.78173117724
 20
516217.27910222689
 30
0.0
  0
VERTEX
  5
8DC
  8
TENA_LIMITS
 10
565975.359412789
 20
516311.27260571509
 30
0.0
  0
VERTEX
  5
8DD
  8
TENA_LIMITS
 10
565992.54278388305
 20
516396.6875125824
 30
0.0
  0
VERTEX
  5
8DE
  8
TENA_LIMITS
 10
565957.75330854743
 20
516469.73057840648
 30
0.0
  0
VERTEX
  5
8DF
  8
TENA_LIMITS
 10
565858.97642507625
 20
516493.0405744235
 30
0.0
  0
VERTEX
  5
8E0
  8
TENA_LIMITS
 10
565806.48510329693
 20
516497.62353340752
 30
0.0
  0
VERTEX
  5
8E1
  8
TENA_LIMITS
 10
565792.10631912656
 20
516523.1173972612
 30
0.0
  0
VERTEX
  5
8E2
  8
TENA_LIMITS
 10
565828.00240317255
 20
516604.58241554239
 30
0.0
  0
VERTEX
  5
8E3
  8
TENA_LIMITS
 10
565945.69802363345
 20
516689.746606651
 30
0.0
  0
VERTEX
  5
8E4
  8
TENA_LIMITS
 10
566012.06337869493
 20
516660.28367722081
 30
0.0
  0
VERTEX
  5
8E5
  8
TENA_LIMITS
 10
566074.33190978109
 20
516535.26639552228
 30
0.0
  0
VERTEX
  5
8E6
  8
TENA_LIMITS
 10
566188.16141059808
 20
516468.98387928947
 30
0.0
  0
VERTEX
  5
8E7
  8
TENA_LIMITS
 10
566304.56338656181
 20
516408.22834136267
 30
0.0
  0
VERTEX
  5
8E8
  8
TENA_LIMITS
 10
566316.55934297654
 20
516274.95860493142
 30
0.0
  0
VERTEX
  5
8E9
  8
TENA_LIMITS
 10
566288.84707609576
 20
516193.72727242572
 30
0.0
  0
VERTEX
  5
8EA
  8
TENA_LIMITS
 10
566274.90949136275
 20
516105.61376560607
 30
0.0
  0
VERTEX
  5
8EB
  8
TENA_LIMITS
 10
566366.46355358954
 20
516055.46340156812
 30
0.0
  0
VERTEX
  5
8EC
  8
TENA_LIMITS
 10
566535.4686698647
 20
516013.73227370781
 30
0.0
  0
VERTEX
  5
8ED
  8
TENA_LIMITS
 10
566636.07819768484
 20
516081.78494656482
 30
0.0
  0
VERTEX
  5
8EE
  8
TENA_LIMITS
 10
566641.40856243868
 20
516221.60821669659
 30
0.0
  0
VERTEX
  5
8EF
  8
TENA_LIMITS
 10
566672.90829085233
 20
516315.6217385839
 30
0.0
  0
VERTEX
  5
8F0
  8
TENA_LIMITS
 10
566771.06210299011
 20
516360.84310402197
 30
0.0
  0
VERTEX
  5
8F1
  8
TENA_LIMITS
 10
566869.21591512696
 20
516406.064469459
 30
0.0
  0
VERTEX
  5
8F2
  8
TENA_LIMITS
 10
566967.36972726462
 20
516451.2858348958
 30
0.0
  0
VERTEX
  5
8F3
  8
TENA_LIMITS
 10
567103.1097656471
 20
516486.19984282041
 30
0.0
  0
VERTEX
  5
8F4
  8
TENA_LIMITS
 10
567180.91504363948
 20
516482.2139422379
 30
0.0
  0
VERTEX
  5
8F5
  8
TENA_LIMITS
 10
567217.10822172766
 20
516411.8600178262
 30
0.0
  0
VERTEX
  5
8F6
  8
TENA_LIMITS
 10
567267.49859278079
 20
516388.46849326952
 30
0.0
  0
VERTEX
  5
8F7
  8
TENA_LIMITS
 10
567378.66326879244
 20
516413.36936021881
 30
0.0
  0
VERTEX
  5
8F8
  8
TENA_LIMITS
 10
567445.04530722729
 20
516444.02888947801
 30
0.0
  0
VERTEX
  5
8F9
  8
TENA_LIMITS
 10
567464.54413741559
 20
516453.06725917791
 30
0.0
  0
VERTEX
  5
8FA
  8
TENA_LIMITS
 10
567646.67827956902
 20
516386.88062327588
 30
0.0
  0
VERTEX
  5
8FB
  8
TENA_LIMITS
 10
567710.28623356239
 20
516335.93226878671
 30
0.0
  0
VERTEX
  5
8FC
  8
TENA_LIMITS
 10
567796.95847223513
 20
516239.08550171001
 30
0.0
  0
VERTEX
  5
8FD
  8
TENA_LIMITS
 10
567870.41312796762
 20
516169.79556456662
 30
0.0
  0
VERTEX
  5
8FE
  8
TENA_LIMITS
 10
567926.30547690275
 20
516171.39154925122
 30
0.0
  0
VERTEX
  5
8FF
  8
TENA_LIMITS
 10
567993.28993982309
 20
516219.8612694465
 30
0.0
  0
VERTEX
  5
900
  8
TENA_LIMITS
 10
568039.51256436924
 20
516233.59634002368
 30
0.0
  0
VERTEX
  5
901
  8
TENA_LIMITS
 10
568091.14284667152
 20
516166.7870165247
 30
0.0
  0
VERTEX
  5
902
  8
TENA_LIMITS
 10
568147.74350959063
 20
516143.57277417253
 30
0.0
  0
VERTEX
  5
903
  8
TENA_LIMITS
 10
568222.08948609384
 20
516151.90329573769
 30
0.0
  0
VERTEX
  5
904
  8
TENA_LIMITS
 10
568283.21787965624
 20
516187.79064723518
 30
0.0
  0
VERTEX
  5
905
  8
TENA_LIMITS
 10
568332.81138253433
 20
516192.31057107088
 30
0.0
  0
VERTEX
  5
906
  8
TENA_LIMITS
 10
568367.86432057479
 20
516265.9274415797
 30
0.0
  0
VERTEX
  5
907
  8
TENA_LIMITS
 10
568381.86504815845
 20
516320.7405514298
 30
0.0
  0
VERTEX
  5
908
  8
TENA_LIMITS
 10
568428.75037985505
 20
516382.3227017782
 30
0.0
  0
VERTEX
  5
909
  8
TENA_LIMITS
 10
568445.02803452557
 20
516425.54081235483
 30
0.0
  0
VERTEX
  5
90A
  8
TENA_LIMITS
 10
568436.0351288782
 20
516536.05399983173
 30
0.0
  0
VERTEX
  5
90B
  8
TENA_LIMITS
 10
568439.31710301514
 20
516625.54108794121
 30
0.0
  0
VERTEX
  5
90C
  8
TENA_LIMITS
 10
568507.97625957301
 20
516674.14158755518
 30
0.0
  0
VERTEX
  5
90D
  8
TENA_LIMITS
 10
568608.06671026896
 20
516679.70463916729
 30
0.0
  0
VERTEX
  5
90E
  8
TENA_LIMITS
 10
568649.78920240211
 20
516682.07765724388
 30
0.0
  0
VERTEX
  5
90F
  8
TENA_LIMITS
 10
568763.10518758011
 20
516665.88002538087
 30
0.0
  0
VERTEX
  5
910
  8
TENA_LIMITS
 10
568851.31330640067
 20
516643.13546510611
 30
0.0
  0
VERTEX
  5
911
  8
TENA_LIMITS
 10
568896.25438850035
 20
516704.66204784042
 30
0.0
  0
VERTEX
  5
912
  8
TENA_LIMITS
 10
568900.92251118773
 20
516745.60537534847
 30
0.0
  0
VERTEX
  5
913
  8
TENA_LIMITS
 10
568986.13290791574
 20
516759.69849144231
 30
0.0
  0
VERTEX
  5
914
  8
TENA_LIMITS
 10
569030.90414039092
 20
516759.03358926682
 30
0.0
  0
VERTEX
  5
915
  8
TENA_LIMITS
 10
569058.64773420047
 20
516862.2060797665
 30
0.0
  0
VERTEX
  5
916
  8
TENA_LIMITS
 10
569082.77953845903
 20
516926.89748338709
 30
0.0
  0
VERTEX
  5
917
  8
TENA_LIMITS
 10
569205.60421200306
 20
517053.22000252741
 30
0.0
  0
VERTEX
  5
918
  8
TENA_LIMITS
 10
569272.74956525129
 20
517067.24583130179
 30
0.0
  0
VERTEX
  5
919
  8
TENA_LIMITS
 10
569324.02064719924
 20
517030.65443346603
 30
0.0
  0
VERTEX
  5
91A
  8
TENA_LIMITS
 10
569383.64515595394
 20
516944.13757138117
 30
0.0
  0
VERTEX
  5
91B
  8
TENA_LIMITS
 10
569490.88873281516
 20
516948.92968792858
 30
0.0
  0
VERTEX
  5
91C
  8
TENA_LIMITS
 10
569593.63165546325
 20
516929.37615170021
 30
0.0
  0
VERTEX
  5
91D
  8
TENA_LIMITS
 10
569686.4850397188
 20
516892.24230347673
 30
0.0
  0
VERTEX
  5
91E
  8
TENA_LIMITS
 10
569776.324525884
 20
516899.99703685858
 30
0.0
  0
VERTEX
  5
91F
  8
TENA_LIMITS
 10
569856.03078697075
 20
516959.35617987579
 30
0.0
  0
VERTEX
  5
920
  8
TENA_LIMITS
 10
569977.46419939934
 20
516952.4448622943
 30
0.0
  0
VERTEX
  5
921
  8
TENA_LIMITS
 10
570083.56943782174
 20
516936.44697001838
 30
0.0
  0
VERTEX
  5
922
  8
TENA_LIMITS
 10
570186.1545013116
 20
516941.7410116308
 30
0.0
  0
VERTEX
  5
923
  8
TENA_LIMITS
 10
570352.59445608733
 20
517046.02755350358
 30
0.0
  0
VERTEX
  5
924
  8
TENA_LIMITS
 10
570469.38836883462
 20
517143.91977597732
 30
0.0
  0
VERTEX
  5
925
  8
TENA_LIMITS
 10
570612.70920501358
 20
517185.337464927
 30
0.0
  0
VERTEX
  5
926
  8
TENA_LIMITS
 10
570756.03004119254
 20
517226.75515387591
 30
0.0
  0
VERTEX
  5
927
  8
TENA_LIMITS
 10
570879.22272899805
 20
517275.06313467189
 30
0.0
  0
VERTEX
  5
928
  8
TENA_LIMITS
 10
570981.08007117815
 20
517372.52889938431
 30
0.0
  0
VERTEX
  5
929
  8
TENA_LIMITS
 10
571066.71848082007
 20
517427.22957554372
 30
0.0
  0
VERTEX
  5
92A
  8
TENA_LIMITS
 10
571152.35689046269
 20
517481.9302517029
 30
0.0
  0
VERTEX
  5
92B
  8
TENA_LIMITS
 10
571222.48333769676
 20
517538.76776628871
 30
0.0
  0
VERTEX
  5
92C
  8
TENA_LIMITS
 10
571295.52993495215
 20
517598.2698721792
 30
0.0
  0
VERTEX
  5
92D
  8
TENA_LIMITS
 10
571339.62375616143
 20
517577.37690653122
 30
0.0
  0
VERTEX
  5
92E
  8
TENA_LIMITS
 10
571407.30749457236
 20
517545.00997753913
 30
0.0
  0
VERTEX
  5
92F
  8
TENA_LIMITS
 10
571519.08505419234
 20
517491.75008289889
 30
0.0
  0
VERTEX
  5
930
  8
TENA_LIMITS
 10
571571.4145517837
 20
517353.71106387698
 30
0.0
  0
VERTEX
  5
931
  8
TENA_LIMITS
 10
571623.74404937495
 20
517215.6720448549
 30
0.0
  0
VERTEX
  5
932
  8
TENA_LIMITS
 10
571718.15115600487
 20
517120.2583340783
 30
0.0
  0
VERTEX
  5
933
  8
TENA_LIMITS
 10
571817.60880843655
 20
517077.31389690237
 30
0.0
  0
VERTEX
  5
934
  8
TENA_LIMITS
 10
571924.54297583934
 20
517001.87982574297
 30
0.0
  0
VERTEX
  5
935
  8
TENA_LIMITS
 10
571993.14963813836
 20
516892.64815398538
 30
0.0
  0
VERTEX
  5
936
  8
TENA_LIMITS
 10
572113.35718909907
 20
516811.05240418948
 30
0.0
  0
VERTEX
  5
937
  8
TENA_LIMITS
 10
572253.75479678903
 20
516710.41134019452
 30
0.0
  0
VERTEX
  5
938
  8
TENA_LIMITS
 10
572335.0751347515
 20
516614.62394173519
 30
0.0
  0
VERTEX
  5
939
  8
TENA_LIMITS
 10
572444.24426449148
 20
516530.3180947862
 30
0.0
  0
VERTEX
  5
93A
  8
TENA_LIMITS
 10
572458.14629366098
 20
516493.85647997243
 30
0.0
  0
VERTEX
  5
93B
  8
TENA_LIMITS
 10
572476.18765534717
 20
516449.28159736958
 30
0.0
  0
VERTEX
  5
93C
  8
TENA_LIMITS
 10
572527.58354213519
 20
516325.54984725942
 30
0.0
  0
VERTEX
  5
93D
  8
TENA_LIMITS
 10
572533.89201574877
 20
516290.32840888062
 30
0.0
  0
VERTEX
  5
93E
  8
TENA_LIMITS
 10
572544.1600206811
 20
516227.22344914009
 30
0.0
  0
VERTEX
  5
93F
  8
TENA_LIMITS
 10
572552.36597512697
 20
516176.01832231472
 30
0.0
  0
VERTEX
  5
940
  8
TENA_LIMITS
 10
572562.37703325867
 20
516127.47975766519
 30
0.0
  0
VERTEX
  5
941
  8
TENA_LIMITS
 10
572591.98903472174
 20
515982.45103509817
 30
0.0
  0
VERTEX
  5
942
  8
TENA_LIMITS
 10
572718.99944841408
 20
516004.28854181751
 30
0.0
  0
VERTEX
  5
943
  8
TENA_LIMITS
 10
572794.66656089213
 20
515908.56610718218
 30
0.0
  0
VERTEX
  5
944
  8
TENA_LIMITS
 10
572819.51394185412
 20
515756.76006504148
 30
0.0
  0
VERTEX
  5
945
  8
TENA_LIMITS
 10
572814.56132734881
 20
515610.93216038047
 30
0.0
  0
VERTEX
  5
946
  8
TENA_LIMITS
 10
572812.99421683163
 20
515506.17526702047
 30
0.0
  0
VERTEX
  5
947
  8
TENA_LIMITS
 10
572888.53143623995
 20
515415.00176624092
 30
0.0
  0
VERTEX
  5
948
  8
TENA_LIMITS
 10
573039.41927083
 20
515398.82316613989
 30
0.0
  0
VERTEX
  5
949
  8
TENA_LIMITS
 10
573140.85964051157
 20
515438.14140348189
 30
0.0
  0
VERTEX
  5
94A
  8
TENA_LIMITS
 10
573281.50500903965
 20
515379.95625381707
 30
0.0
  0
VERTEX
  5
94B
  8
TENA_LIMITS
 10
573163.51123962889
 20
515225.2170687443
 30
0.0
  0
VERTEX
  5
94C
  8
TENA_LIMITS
 10
573108.5893115151
 20
515107.21032590722
 30
0.0
  0
VERTEX
  5
94D
  8
TENA_LIMITS
 10
573102.92568525777
 20
514999.34306043072
 30
0.0
  0
VERTEX
  5
94E
  8
TENA_LIMITS
 10
573097.26205899986
 20
514891.47579495551
 30
0.0
  0
VERTEX
  5
94F
  8
TENA_LIMITS
 10
573103.33030091913
 20
514781.03258691612
 30
0.0
  0
VERTEX
  5
950
  8
TENA_LIMITS
 10
573109.39854283805
 20
514670.58937887661
 30
0.0
  0
VERTEX
  5
951
  8
TENA_LIMITS
 10
573187.93966508156
 20
514573.85942289472
 30
0.0
  0
VERTEX
  5
952
  8
TENA_LIMITS
 10
573248.59229631501
 20
514491.17347639968
 30
0.0
  0
VERTEX
  5
953
  8
TENA_LIMITS
 10
573309.24492754915
 20
514408.4875299061
 30
0.0
  0
VERTEX
  5
954
  8
TENA_LIMITS
 10
573458.84155841405
 20
514273.03310317721
 30
0.0
  0
VERTEX
  5
955
  8
TENA_LIMITS
 10
573521.35260524123
 20
514193.31118138012
 30
0.0
  0
VERTEX
  5
956
  8
TENA_LIMITS
 10
573583.86365206866
 20
514113.58925958298
 30
0.0
  0
VERTEX
  5
957
  8
TENA_LIMITS
 10
573646.37469889526
 20
514033.86733778619
 30
0.0
  0
VERTEX
  5
958
  8
TENA_LIMITS
 10
573649.69684469572
 20
513917.52378255111
 30
0.0
  0
VERTEX
  5
959
  8
TENA_LIMITS
 10
573681.14438514831
 20
513836.91483742022
 30
0.0
  0
VERTEX
  5
95A
  8
TENA_LIMITS
 10
573802.37354343524
 20
513778.19289012812
 30
0.0
  0
VERTEX
  5
95B
  8
TENA_LIMITS
 10
573923.60270172206
 20
513719.47094283602
 30
0.0
  0
VERTEX
  5
95C
  8
TENA_LIMITS
 10
574044.83186000935
 20
513660.74899554497
 30
0.0
  0
VERTEX
  5
95D
  8
TENA_LIMITS
 10
574145.23328076245
 20
513617.54859587841
 30
0.0
  0
VERTEX
  5
95E
  8
TENA_LIMITS
 10
574245.63470151601
 20
513574.34819621319
 30
0.0
  0
VERTEX
  5
95F
  8
TENA_LIMITS
 10
574375.66822602961
 20
513624.12857776158
 30
0.0
  0
VERTEX
  5
960
  8
TENA_LIMITS
 10
574505.70175054297
 20
513673.90895931137
 30
0.0
  0
VERTEX
  5
961
  8
TENA_LIMITS
 10
574626.91224190209
 20
513709.61720283079
 30
0.0
  0
VERTEX
  5
962
  8
TENA_LIMITS
 10
574748.12273326097
 20
513745.32544635033
 30
0.0
  0
VERTEX
  5
963
  8
TENA_LIMITS
 10
574876.37770046829
 20
513776.62811734388
 30
0.0
  0
VERTEX
  5
964
  8
TENA_LIMITS
 10
574979.8762742813
 20
513786.49359202472
 30
0.0
  0
VERTEX
  5
965
  8
TENA_LIMITS
 10
575083.374848095
 20
513796.35906670452
 30
0.0
  0
VERTEX
  5
966
  8
TENA_LIMITS
 10
575231.64180196088
 20
513772.95237359247
 30
0.0
  0
VERTEX
  5
967
  8
TENA_LIMITS
 10
575379.908755827
 20
513749.54568048031
 30
0.0
  0
VERTEX
  5
968
  8
TENA_LIMITS
 10
575485.24327084026
 20
513614.35152078688
 30
0.0
  0
VERTEX
  5
969
  8
TENA_LIMITS
 10
575514.60410200828
 20
513555.30238452269
 30
0.0
  0
VERTEX
  5
96A
  8
TENA_LIMITS
 10
575670.77410184196
 20
513578.18865861889
 30
0.0
  0
VERTEX
  5
96B
  8
TENA_LIMITS
 10
575812.85514854384
 20
513609.8861280338
 30
0.0
  0
VERTEX
  5
96C
  8
TENA_LIMITS
 10
575921.22103376745
 20
513530.05927639548
 30
0.0
  0
VERTEX
  5
96D
  8
TENA_LIMITS
 10
575896.98621769785
 20
513409.59226360673
 30
0.0
  0
VERTEX
  5
96E
  8
TENA_LIMITS
 10
575840.5518429993
 20
513325.05960346613
 30
0.0
  0
VERTEX
  5
96F
  8
TENA_LIMITS
 10
575873.01780828252
 20
513290.38032816473
 30
0.0
  0
VERTEX
  5
970
  8
TENA_LIMITS
 10
575991.37060926366
 20
513239.86607084807
 30
0.0
  0
VERTEX
  5
971
  8
TENA_LIMITS
 10
576131.75016250345
 20
513103.03801563481
 30
0.0
  0
VERTEX
  5
972
  8
TENA_LIMITS
 10
576121.77668240806
 20
512924.71800672158
 30
0.0
  0
VERTEX
  5
973
  8
TENA_LIMITS
 10
576310.34974167275
 20
512934.59373654018
 30
0.0
  0
VERTEX
  5
974
  8
TENA_LIMITS
 10
576331.16876782058
 20
512835.38761879609
 30
0.0
  0
VERTEX
  5
975
  8
TENA_LIMITS
 10
576351.98779396829
 20
512736.18150105089
 30
0.0
  0
VERTEX
  5
976
  8
TENA_LIMITS
 10
576386.48492412618
 20
512630.37419136311
 30
0.0
  0
VERTEX
  5
977
  8
TENA_LIMITS
 10
576420.98205428454
 20
512524.56688167428
 30
0.0
  0
VERTEX
  5
978
  8
TENA_LIMITS
 10
576509.42245206935
 20
512419.30461089761
 30
0.0
  0
VERTEX
  5
979
  8
TENA_LIMITS
 10
576605.98812598747
 20
512334.46946888079
 30
0.0
  0
VERTEX
  5
97A
  8
TENA_LIMITS
 10
576702.55379990546
 20
512249.63432686409
 30
0.0
  0
VERTEX
  5
97B
  8
TENA_LIMITS
 10
576823.8529389404
 20
512176.55356480839
 30
0.0
  0
VERTEX
  5
97C
  8
TENA_LIMITS
 10
576945.15207797533
 20
512103.47280275339
 30
0.0
  0
VERTEX
  5
97D
  8
TENA_LIMITS
 10
577079.49432583281
 20
511971.21656909387
 30
0.0
  0
VERTEX
  5
97E
  8
TENA_LIMITS
 10
577101.9218325204
 20
511850.54635585938
 30
0.0
  0
VERTEX
  5
97F
  8
TENA_LIMITS
 10
577124.3493392081
 20
511729.87614262511
 30
0.0
  0
VERTEX
  5
980
  8
TENA_LIMITS
 10
577146.7768458958
 20
511609.2059293912
 30
0.0
  0
VERTEX
  5
981
  8
TENA_LIMITS
 10
577171.78956616984
 20
511495.32862306148
 30
0.0
  0
VERTEX
  5
982
  8
TENA_LIMITS
 10
577196.80228644435
 20
511381.4513167321
 30
0.0
  0
VERTEX
  5
983
  8
TENA_LIMITS
 10
577221.81500671792
 20
511267.57401040371
 30
0.0
  0
VERTEX
  5
984
  8
TENA_LIMITS
 10
577246.82772699185
 20
511153.69670407398
 30
0.0
  0
VERTEX
  5
985
  8
TENA_LIMITS
 10
577271.84044726612
 20
511039.8193977456
 30
0.0
  0
VERTEX
  5
986
  8
TENA_LIMITS
 10
577296.85316754016
 20
510925.9420914161
 30
0.0
  0
VERTEX
  5
987
  8
TENA_LIMITS
 10
577331.77607229294
 20
510829.47615253652
 30
0.0
  0
VERTEX
  5
988
  8
TENA_LIMITS
 10
577366.69897704467
 20
510733.01021365687
 30
0.0
  0
VERTEX
  5
989
  8
TENA_LIMITS
 10
577401.62188179733
 20
510636.54427477717
 30
0.0
  0
VERTEX
  5
98A
  8
TENA_LIMITS
 10
577436.54478654952
 20
510540.07833589782
 30
0.0
  0
VERTEX
  5
98B
  8
TENA_LIMITS
 10
577471.46769130195
 20
510443.61239701923
 30
0.0
  0
VERTEX
  5
98C
  8
TENA_LIMITS
 10
577506.39059605391
 20
510347.14645813958
 30
0.0
  0
VERTEX
  5
98D
  8
TENA_LIMITS
 10
577588.17276139895
 20
510273.70370994828
 30
0.0
  0
VERTEX
  5
98E
  8
TENA_LIMITS
 10
577669.9549267441
 20
510200.26096175791
 30
0.0
  0
VERTEX
  5
98F
  8
TENA_LIMITS
 10
577751.73709208902
 20
510126.8182135665
 30
0.0
  0
VERTEX
  5
990
  8
TENA_LIMITS
 10
577856.4224219874
 20
510105.41627302492
 30
0.0
  0
VERTEX
  5
991
  8
TENA_LIMITS
 10
577961.10775188578
 20
510084.01433248352
 30
0.0
  0
VERTEX
  5
992
  8
TENA_LIMITS
 10
578065.79308178485
 20
510062.61239194218
 30
0.0
  0
VERTEX
  5
993
  8
TENA_LIMITS
 10
578153.6633751326
 20
509960.50503130897
 30
0.0
  0
VERTEX
  5
994
  8
TENA_LIMITS
 10
578241.53366848105
 20
509858.39767067583
 30
0.0
  0
VERTEX
  5
995
  8
TENA_LIMITS
 10
578329.40396182926
 20
509756.29031004373
 30
0.0
  0
VERTEX
  5
996
  8
TENA_LIMITS
 10
578347.76310911169
 20
509638.49940890027
 30
0.0
  0
VERTEX
  5
997
  8
TENA_LIMITS
 10
578366.12225639366
 20
509520.70850775682
 30
0.0
  0
VERTEX
  5
998
  8
TENA_LIMITS
 10
578384.48140367586
 20
509402.91760661348
 30
0.0
  0
VERTEX
  5
999
  8
TENA_LIMITS
 10
578304.26794768055
 20
509309.02832506498
 30
0.0
  0
VERTEX
  5
99A
  8
TENA_LIMITS
 10
578224.05449168524
 20
509215.13904351683
 30
0.0
  0
VERTEX
  5
99B
  8
TENA_LIMITS
 10
578143.84103568969
 20
509121.24976196821
 30
0.0
  0
VERTEX
  5
99C
  8
TENA_LIMITS
 10
578063.6275796952
 20
509027.36048041901
 30
0.0
  0
VERTEX
  5
99D
  8
TENA_LIMITS
 10
578150.73412612174
 20
508957.78508022422
 30
0.0
  0
VERTEX
  5
99E
  8
TENA_LIMITS
 10
578237.84067254863
 20
508888.20968002838
 30
0.0
  0
VERTEX
  5
99F
  8
TENA_LIMITS
 10
578324.94721897552
 20
508818.63427983352
 30
0.0
  0
VERTEX
  5
9A0
  8
TENA_LIMITS
 10
578412.05376540276
 20
508749.0588796385
 30
0.0
  0
VERTEX
  5
9A1
  8
TENA_LIMITS
 10
578499.16031182976
 20
508679.48347944277
 30
0.0
  0
VERTEX
  5
9A2
  8
TENA_LIMITS
 10
578586.26685825631
 20
508609.90807924792
 30
0.0
  0
VERTEX
  5
9A3
  8
TENA_LIMITS
 10
578673.37340468366
 20
508540.33267905202
 30
0.0
  0
VERTEX
  5
9A4
  8
TENA_LIMITS
 10
578760.47995111113
 20
508470.75727885769
 30
0.0
  0
VERTEX
  5
9A5
  8
TENA_LIMITS
 10
578847.58649753744
 20
508401.18187866232
 30
0.0
  0
VERTEX
  5
9A6
  8
TENA_LIMITS
 10
578931.56245738873
 20
508334.09154979588
 30
0.0
  0
VERTEX
  5
9A7
  8
TENA_LIMITS
 10
579015.53841723967
 20
508267.00122093002
 30
0.0
  0
VERTEX
  5
9A8
  8
TENA_LIMITS
 10
579099.51437709096
 20
508199.91089206422
 30
0.0
  0
VERTEX
  5
9A9
  8
TENA_LIMITS
 10
579205.84602521919
 20
508172.82388233382
 30
0.0
  0
VERTEX
  5
9AA
  8
TENA_LIMITS
 10
579312.17767334764
 20
508145.736872604
 30
0.0
  0
VERTEX
  5
9AB
  8
TENA_LIMITS
 10
579418.50932147575
 20
508118.64986287378
 30
0.0
  0
VERTEX
  5
9AC
  8
TENA_LIMITS
 10
579524.84096960432
 20
508091.56285314361
 30
0.0
  0
VERTEX
  5
9AD
  8
TENA_LIMITS
 10
579631.17261773266
 20
508064.47584341379
 30
0.0
  0
VERTEX
  5
9AE
  8
TENA_LIMITS
 10
579737.50426586112
 20
508037.3888336838
 30
0.0
  0
VERTEX
  5
9AF
  8
TENA_LIMITS
 10
579779.61543335975
 20
507937.59034129092
 30
0.0
  0
VERTEX
  5
9B0
  8
TENA_LIMITS
 10
579821.72660085827
 20
507837.79184889782
 30
0.0
  0
VERTEX
  5
9B1
  8
TENA_LIMITS
 10
579863.83776835701
 20
507737.99335650459
 30
0.0
  0
VERTEX
  5
9B2
  8
TENA_LIMITS
 10
579905.94893585599
 20
507638.19486411201
 30
0.0
  0
VERTEX
  5
9B3
  8
TENA_LIMITS
 10
579948.06010335404
 20
507538.39637171902
 30
0.0
  0
VERTEX
  5
9B4
  8
TENA_LIMITS
 10
579990.17127085361
 20
507438.59787932609
 30
0.0
  0
VERTEX
  5
9B5
  8
TENA_LIMITS
 10
580032.28243835189
 20
507338.79938693321
 30
0.0
  0
VERTEX
  5
9B6
  8
TENA_LIMITS
 10
580074.39360585087
 20
507239.0008945404
 30
0.0
  0
VERTEX
  5
9B7
  8
TENA_LIMITS
 10
580116.50477334973
 20
507139.20240214729
 30
0.0
  0
VERTEX
  5
9B8
  8
TENA_LIMITS
 10
580158.6159408486
 20
507039.40390975442
 30
0.0
  0
VERTEX
  5
9B9
  8
TENA_LIMITS
 10
580200.72710834688
 20
506939.6054173616
 30
0.0
  0
VERTEX
  5
9BA
  8
TENA_LIMITS
 10
580109.17549678055
 20
506851.44671503583
 30
0.0
  0
VERTEX
  5
9BB
  8
TENA_LIMITS
 10
580017.62388521433
 20
506763.28801271023
 30
0.0
  0
VERTEX
  5
9BC
  8
TENA_LIMITS
 10
579914.27695469605
 20
506690.43779427803
 30
0.0
  0
VERTEX
  5
9BD
  8
TENA_LIMITS
 10
579810.93002417719
 20
506617.58757584571
 30
0.0
  0
VERTEX
  5
9BE
  8
TENA_LIMITS
 10
579707.58309365844
 20
506544.73735741299
 30
0.0
  0
VERTEX
  5
9BF
  8
TENA_LIMITS
 10
579623.60535764205
 20
506452.49845066812
 30
0.0
  0
VERTEX
  5
9C0
  8
TENA_LIMITS
 10
579639.19784327457
 20
506373.08479062608
 30
0.0
  0
VERTEX
  5
9C1
  8
TENA_LIMITS
 10
579704.13313939492
 20
506293.48578660848
 30
0.0
  0
VERTEX
  5
9C2
  8
TENA_LIMITS
 10
579722.96639321151
 20
506108.77641986229
 30
0.0
  0
VERTEX
  5
9C3
  8
TENA_LIMITS
 10
579622.56199839141
 20
506090.73360728309
 30
0.0
  0
VERTEX
  5
9C4
  8
TENA_LIMITS
 10
579522.15760357131
 20
506072.69079470373
 30
0.0
  0
VERTEX
  5
9C5
  8
TENA_LIMITS
 10
579421.75320875109
 20
506054.64798212401
 30
0.0
  0
VERTEX
  5
9C6
  8
TENA_LIMITS
 10
579321.34881393099
 20
506036.60516954417
 30
0.0
  0
VERTEX
  5
9C7
  8
TENA_LIMITS
 10
579305.94212454651
 20
505936.54425902228
 30
0.0
  0
VERTEX
  5
9C8
  8
TENA_LIMITS
 10
579290.53543516167
 20
505836.4833485001
 30
0.0
  0
VERTEX
  5
9C9
  8
TENA_LIMITS
 10
579275.12874577718
 20
505736.4224379778
 30
0.0
  0
VERTEX
  5
9CA
  8
TENA_LIMITS
 10
579271.55127736949
 20
505713.28219483391
 30
0.0
  0
VERTEX
  5
9CB
  8
TENA_LIMITS
 10
579273.69341027585
 20
505676.89380280889
 30
0.0
  0
VERTEX
  5
9CC
  8
TENA_LIMITS
 10
579231.20965746418
 20
505577.6126499743
 30
0.0
  0
VERTEX
  5
9CD
  8
TENA_LIMITS
 10
579188.7259046525
 20
505478.33149714
 30
0.0
  0
VERTEX
  5
9CE
  8
TENA_LIMITS
 10
579146.24215184059
 20
505379.05034430511
 30
0.0
  0
VERTEX
  5
9CF
  8
TENA_LIMITS
 10
579103.75839902915
 20
505279.7691914704
 30
0.0
  0
VERTEX
  5
9D0
  8
TENA_LIMITS
 10
579091.74968551402
 20
505171.29976328148
 30
0.0
  0
VERTEX
  5
9D1
  8
TENA_LIMITS
 10
579079.74097199924
 20
505062.83033509261
 30
0.0
  0
VERTEX
  5
9D2
  8
TENA_LIMITS
 10
579067.73225848412
 20
504954.36090690328
 30
0.0
  0
VERTEX
  5
9D3
  8
TENA_LIMITS
 10
579055.72354496946
 20
504845.89147871413
 30
0.0
  0
VERTEX
  5
9D4
  8
TENA_LIMITS
 10
579043.71483145398
 20
504737.42205052468
 30
0.0
  0
VERTEX
  5
9D5
  8
TENA_LIMITS
 10
579031.70611793897
 20
504628.95262233581
 30
0.0
  0
VERTEX
  5
9D6
  8
TENA_LIMITS
 10
578952.35765452031
 20
504542.33826600888
 30
0.0
  0
VERTEX
  5
9D7
  8
TENA_LIMITS
 10
578873.0091911006
 20
504455.72390968213
 30
0.0
  0
VERTEX
  5
9D8
  8
TENA_LIMITS
 10
578793.66072768148
 20
504369.10955335601
 30
0.0
  0
VERTEX
  5
9D9
  8
TENA_LIMITS
 10
578714.31226426223
 20
504282.49519702903
 30
0.0
  0
VERTEX
  5
9DA
  8
TENA_LIMITS
 10
578653.16434907669
 20
504354.52321349957
 30
0.0
  0
VERTEX
  5
9DB
  8
TENA_LIMITS
 10
578513.61674380116
 20
504438.0714952742
 30
0.0
  0
VERTEX
  5
9DC
  8
TENA_LIMITS
 10
578406.02314243803
 20
504485.74255391269
 30
0.0
  0
VERTEX
  5
9DD
  8
TENA_LIMITS
 10
578304.09527927602
 20
504496.6714031829
 30
0.0
  0
VERTEX
  5
9DE
  8
TENA_LIMITS
 10
578193.07084873365
 20
504502.7273832818
 30
0.0
  0
VERTEX
  5
9DF
  8
TENA_LIMITS
 10
578024.42393262824
 20
504504.83189969428
 30
0.0
  0
VERTEX
  5
9E0
  8
TENA_LIMITS
 10
577922.72896020825
 20
504507.69419655169
 30
0.0
  0
VERTEX
  5
9E1
  8
TENA_LIMITS
 10
577821.03398778732
 20
504510.5564934088
 30
0.0
  0
VERTEX
  5
9E2
  8
TENA_LIMITS
 10
577687.79233483085
 20
504526.35734733491
 30
0.0
  0
VERTEX
  5
9E3
  8
TENA_LIMITS
 10
577554.55068187427
 20
504542.15820126078
 30
0.0
  0
VERTEX
  5
9E4
  8
TENA_LIMITS
 10
577400.93753634603
 20
504583.90303816262
 30
0.0
  0
VERTEX
  5
9E5
  8
TENA_LIMITS
 10
577261.76024278521
 20
504605.30056010559
 30
0.0
  0
VERTEX
  5
9E6
  8
TENA_LIMITS
 10
577168.47339851363
 20
504637.23470663169
 30
0.0
  0
VERTEX
  5
9E7
  8
TENA_LIMITS
 10
577102.14664993586
 20
504614.58221538871
 30
0.0
  0
VERTEX
  5
9E8
  8
TENA_LIMITS
 10
577060.01548857219
 20
504553.40958298999
 30
0.0
  0
VERTEX
  5
9E9
  8
TENA_LIMITS
 10
577032.78085798514
 20
504455.75638510223
 30
0.0
  0
VERTEX
  5
9EA
  8
TENA_LIMITS
 10
577013.1286212242
 20
504335.2550677025
 30
0.0
  0
VERTEX
  5
9EB
  8
TENA_LIMITS
 10
577024.79426054237
 20
504250.24690598442
 30
0.0
  0
VERTEX
  5
9EC
  8
TENA_LIMITS
 10
576999.12876172026
 20
504150.63589139847
 30
0.0
  0
VERTEX
  5
9ED
  8
TENA_LIMITS
 10
576973.46326289885
 20
504051.02487681288
 30
0.0
  0
VERTEX
  5
9EE
  8
TENA_LIMITS
 10
576915.01420810982
 20
503957.79349571781
 30
0.0
  0
VERTEX
  5
9EF
  8
TENA_LIMITS
 10
576856.56515332113
 20
503864.56211462262
 30
0.0
  0
VERTEX
  5
9F0
  8
TENA_LIMITS
 10
576743.11974640994
 20
504009.78193494462
 30
0.0
  0
VERTEX
  5
9F1
  8
TENA_LIMITS
 10
576637.3810451047
 20
504036.71668839292
 30
0.0
  0
VERTEX
  5
9F2
  8
TENA_LIMITS
 10
576531.64234380005
 20
504063.65144183999
 30
0.0
  0
VERTEX
  5
9F3
  8
TENA_LIMITS
 10
576416.48902614845
 20
504157.71406601981
 30
0.0
  0
VERTEX
  5
9F4
  8
TENA_LIMITS
 10
576301.33570849604
 20
504251.77669019968
 30
0.0
  0
VERTEX
  5
9F5
  8
TENA_LIMITS
 10
576334.58774222923
 20
504312.63435271318
 30
0.0
  0
VERTEX
  5
9F6
  8
TENA_LIMITS
 10
576290.30198362726
 20
504425.17508726509
 30
0.0
  0
VERTEX
  5
9F7
  8
TENA_LIMITS
 10
576246.01622502552
 20
504537.71582181688
 30
0.0
  0
VERTEX
  5
9F8
  8
TENA_LIMITS
 10
576201.73046642402
 20
504650.25655636849
 30
0.0
  0
VERTEX
  5
9F9
  8
TENA_LIMITS
 10
576158.38562319311
 20
504799.32215418672
 30
0.0
  0
VERTEX
  5
9FA
  8
TENA_LIMITS
 10
576122.42560213804
 20
504871.20649038278
 30
0.0
  0
VERTEX
  5
9FB
  8
TENA_LIMITS
 10
576081.67574264365
 20
504953.29102492239
 30
0.0
  0
VERTEX
  5
9FC
  8
TENA_LIMITS
 10
576044.0779181273
 20
505106.42471014749
 30
0.0
  0
VERTEX
  5
9FD
  8
TENA_LIMITS
 10
575983.57100469666
 20
505189.74872034538
 30
0.0
  0
VERTEX
  5
9FE
  8
TENA_LIMITS
 10
575923.06409126625
 20
505273.07273054338
 30
0.0
  0
VERTEX
  5
9FF
  8
TENA_LIMITS
 10
575862.55717783561
 20
505356.39674074127
 30
0.0
  0
VERTEX
  5
A00
  8
TENA_LIMITS
 10
575786.56771546649
 20
505416.69062636822
 30
0.0
  0
VERTEX
  5
A01
  8
TENA_LIMITS
 10
575640.77417505858
 20
505389.10364659288
 30
0.0
  0
VERTEX
  5
A02
  8
TENA_LIMITS
 10
575597.31435615045
 20
505473.75025746768
 30
0.0
  0
VERTEX
  5
A03
  8
TENA_LIMITS
 10
575518.81512112077
 20
505553.49239490461
 30
0.0
  0
VERTEX
  5
A04
  8
TENA_LIMITS
 10
575454.43120773137
 20
505618.02160883992
 30
0.0
  0
VERTEX
  5
A05
  8
TENA_LIMITS
 10
575372.86168196006
 20
505668.39617558487
 30
0.0
  0
VERTEX
  5
A06
  8
TENA_LIMITS
 10
575250.9476767095
 20
505625.87513289112
 30
0.0
  0
VERTEX
  5
A07
  8
TENA_LIMITS
 10
575195.43317533145
 20
505653.56983721122
 30
0.0
  0
VERTEX
  5
A08
  8
TENA_LIMITS
 10
575112.63840559474
 20
505746.85318869108
 30
0.0
  0
VERTEX
  5
A09
  8
TENA_LIMITS
 10
575080.18817271525
 20
505860.30386673368
 30
0.0
  0
VERTEX
  5
A0A
  8
TENA_LIMITS
 10
575046.8822945127
 20
505931.57650091819
 30
0.0
  0
VERTEX
  5
A0B
  8
TENA_LIMITS
 10
575077.37602245784
 20
506054.50972363679
 30
0.0
  0
VERTEX
  5
A0C
  8
TENA_LIMITS
 10
575088.94918802276
 20
506099.53197960899
 30
0.0
  0
VERTEX
  5
A0D
  8
TENA_LIMITS
 10
575107.86975040287
 20
506177.44294635567
 30
0.0
  0
VERTEX
  5
A0E
  8
TENA_LIMITS
 10
574980.78449941054
 20
506147.83223243442
 30
0.0
  0
VERTEX
  5
A0F
  8
TENA_LIMITS
 10
574957.83910855604
 20
506208.95838970167
 30
0.0
  0
VERTEX
  5
A10
  8
TENA_LIMITS
 10
574931.75882113678
 20
506255.87158013647
 30
0.0
  0
VERTEX
  5
A11
  8
TENA_LIMITS
 10
574845.70594276441
 20
506299.30895542941
 30
0.0
  0
VERTEX
  5
A12
  8
TENA_LIMITS
 10
574808.93673109391
 20
506349.44839352858
 30
0.0
  0
VERTEX
  5
A13
  8
TENA_LIMITS
 10
574757.53479771246
 20
506355.04115037317
 30
0.0
  0
VERTEX
  5
A14
  8
TENA_LIMITS
 10
574704.87076114188
 20
506342.94536367309
 30
0.0
  0
VERTEX
  5
A15
  8
TENA_LIMITS
 10
574695.02652222861
 20
506285.13630617713
 30
0.0
  0
VERTEX
  5
A16
  8
TENA_LIMITS
 10
574692.75919847994
 20
506271.9943283507
 30
0.0
  0
VERTEX
  5
A17
  8
TENA_LIMITS
 10
574642.76738838805
 20
506228.2037147354
 30
0.0
  0
VERTEX
  5
A18
  8
TENA_LIMITS
 10
574665.71913087217
 20
506167.077738836
 30
0.0
  0
VERTEX
  5
A19
  8
TENA_LIMITS
 10
574565.94007303158
 20
506134.22077531659
 30
0.0
  0
VERTEX
  5
A1A
  8
TENA_LIMITS
 10
574514.89950595121
 20
506113.85172813613
 30
0.0
  0
VERTEX
  5
A1B
  8
TENA_LIMITS
 10
574466.41380344215
 20
506082.32437861431
 30
0.0
  0
VERTEX
  5
A1C
  8
TENA_LIMITS
 10
574370.24671008182
 20
506009.14928917121
 30
0.0
  0
VERTEX
  5
A1D
  8
TENA_LIMITS
 10
574411.14228486223
 20
505959.92022449127
 30
0.0
  0
VERTEX
  5
A1E
  8
TENA_LIMITS
 10
574465.0655622409
 20
505915.44555887009
 30
0.0
  0
VERTEX
  5
A1F
  8
TENA_LIMITS
 10
574395.72704200225
 20
505808.28968212107
 30
0.0
  0
VERTEX
  5
A20
  8
TENA_LIMITS
 10
574246.16016222385
 20
505744.85744003288
 30
0.0
  0
VERTEX
  5
A21
  8
TENA_LIMITS
 10
574059.14402624429
 20
505763.62005212298
 30
0.0
  0
VERTEX
  5
A22
  8
TENA_LIMITS
 10
573971.20991984813
 20
505769.87377233279
 30
0.0
  0
VERTEX
  5
A23
  8
TENA_LIMITS
 10
573896.11583425954
 20
505787.44997847272
 30
0.0
  0
VERTEX
  5
A24
  8
TENA_LIMITS
 10
573788.77342223993
 20
505935.57522287499
 30
0.0
  0
VERTEX
  5
A25
  8
TENA_LIMITS
 10
573764.1618100052
 20
505925.29476241581
 30
0.0
  0
VERTEX
  5
A26
  8
TENA_LIMITS
 10
573697.64314973506
 20
505947.63703646621
 30
0.0
  0
VERTEX
  5
A27
  8
TENA_LIMITS
 10
573532.47979751974
 20
505903.0952208903
 30
0.0
  0
VERTEX
  5
A28
  8
TENA_LIMITS
 10
573394.04173515306
 20
505833.34331911092
 30
0.0
  0
VERTEX
  5
A29
  8
TENA_LIMITS
 10
573280.82124563074
 20
505738.22981311189
 30
0.0
  0
VERTEX
  5
A2A
  8
TENA_LIMITS
 10
573131.65595706378
 20
505784.71293288539
 30
0.0
  0
VERTEX
  5
A2B
  8
TENA_LIMITS
 10
573093.46535854344
 20
505796.60903945687
 30
0.0
  0
VERTEX
  5
A2C
  8
TENA_LIMITS
 10
572899.01619594998
 20
505782.59543538571
 30
0.0
  0
VERTEX
  5
A2D
  8
TENA_LIMITS
 10
572797.45640956145
 20
505760.54619178618
 30
0.0
  0
VERTEX
  5
A2E
  8
TENA_LIMITS
 10
572776.94043342734
 20
505755.84129390819
 30
0.0
  0
VERTEX
  5
A2F
  8
TENA_LIMITS
 10
572678.50494084531
 20
505717.0704427571
 30
0.0
  0
VERTEX
  5
A30
  8
TENA_LIMITS
 10
572547.7441911652
 20
505695.39047081763
 30
0.0
  0
VERTEX
  5
A31
  8
TENA_LIMITS
 10
572416.98344148556
 20
505673.71049887763
 30
0.0
  0
VERTEX
  5
A32
  8
TENA_LIMITS
 10
572228.04587650858
 20
505668.315458845
 30
0.0
  0
VERTEX
  5
A33
  8
TENA_LIMITS
 10
572086.99941283977
 20
505688.56953994208
 30
0.0
  0
VERTEX
  5
A34
  8
TENA_LIMITS
 10
571945.95294917049
 20
505708.8236210391
 30
0.0
  0
VERTEX
  5
A35
  8
TENA_LIMITS
 10
571782.92871911475
 20
505741.93995732372
 30
0.0
  0
VERTEX
  5
A36
  8
TENA_LIMITS
 10
571630.54704560491
 20
505780.75605614338
 30
0.0
  0
VERTEX
  5
A37
  8
TENA_LIMITS
 10
571490.03941626451
 20
505782.13983313728
 30
0.0
  0
VERTEX
  5
A38
  8
TENA_LIMITS
 10
571382.84489562176
 20
505752.09934100357
 30
0.0
  0
VERTEX
  5
A39
  8
TENA_LIMITS
 10
571260.99514027708
 20
505667.68123750138
 30
0.0
  0
VERTEX
  5
A3A
  8
TENA_LIMITS
 10
571193.28161133407
 20
505579.41310487862
 30
0.0
  0
VERTEX
  5
A3B
  8
TENA_LIMITS
 10
571094.70443050144
 20
505524.13997111341
 30
0.0
  0
VERTEX
  5
A3C
  8
TENA_LIMITS
 10
570996.12724966905
 20
505468.86683734792
 30
0.0
  0
VERTEX
  5
A3D
  8
TENA_LIMITS
 10
570898.98193359468
 20
505472.41398713918
 30
0.0
  0
VERTEX
  5
A3E
  8
TENA_LIMITS
 10
570761.72588354326
 20
505476.9228226376
 30
0.0
  0
VERTEX
  5
A3F
  8
TENA_LIMITS
 10
570669.15723242715
 20
505467.95846294478
 30
0.0
  0
VERTEX
  5
A40
  8
TENA_LIMITS
 10
570566.40963011852
 20
505446.0612527816
 30
0.0
  0
VERTEX
  5
A41
  8
TENA_LIMITS
 10
570498.95589581097
 20
505444.13513715198
 30
0.0
  0
VERTEX
  5
A42
  8
TENA_LIMITS
 10
570470.41056570469
 20
505483.35365176509
 30
0.0
  0
VERTEX
  5
A43
  8
TENA_LIMITS
 10
570439.93760205223
 20
505516.19602633629
 30
0.0
  0
VERTEX
  5
A44
  8
TENA_LIMITS
 10
570424.28037103871
 20
505547.3544260955
 30
0.0
  0
VERTEX
  5
A45
  8
TENA_LIMITS
 10
570351.88927284034
 20
505570.57171473512
 30
0.0
  0
VERTEX
  5
A46
  8
TENA_LIMITS
 10
570309.67055585154
 20
505571.47320779122
 30
0.0
  0
VERTEX
  5
A47
  8
TENA_LIMITS
 10
570268.27586131112
 20
505567.31188588543
 30
0.0
  0
VERTEX
  5
A48
  8
TENA_LIMITS
 10
570259.47048861382
 20
505566.30856292392
 30
0.0
  0
VERTEX
  5
A49
  8
TENA_LIMITS
 10
570178.0661065625
 20
505584.18251438468
 30
0.0
  0
VERTEX
  5
A4A
  8
TENA_LIMITS
 10
570086.44680482626
 20
505562.17277758429
 30
0.0
  0
VERTEX
  5
A4B
  8
TENA_LIMITS
 10
570049.12158314604
 20
505582.08467567118
 30
0.0
  0
VERTEX
  5
A4C
  8
TENA_LIMITS
 10
570044.85235723015
 20
505639.65149752528
 30
0.0
  0
VERTEX
  5
A4D
  8
TENA_LIMITS
 10
570035.33642356994
 20
505697.06845133367
 30
0.0
  0
VERTEX
  5
A4E
  8
TENA_LIMITS
 10
570010.23012435087
 20
505748.79583955189
 30
0.0
  0
VERTEX
  5
A4F
  8
TENA_LIMITS
 10
569998.46497755288
 20
505793.03754599491
 30
0.0
  0
VERTEX
  5
A50
  8
TENA_LIMITS
 10
569980.40557390265
 20
505873.8105447655
 30
0.0
  0
VERTEX
  5
A51
  8
TENA_LIMITS
 10
569994.4997653187
 20
505931.90167668113
 30
0.0
  0
VERTEX
  5
A52
  8
TENA_LIMITS
 10
569974.93930327147
 20
505973.29859654669
 30
0.0
  0
VERTEX
  5
A53
  8
TENA_LIMITS
 10
569932.21787393151
 20
505998.30084694648
 30
0.0
  0
VERTEX
  5
A54
  8
TENA_LIMITS
 10
569869.48220831691
 20
505988.6427703689
 30
0.0
  0
VERTEX
  5
A55
  8
TENA_LIMITS
 10
569854.49036655133
 20
505961.99253954767
 30
0.0
  0
VERTEX
  5
A56
  8
TENA_LIMITS
 10
569833.50379476871
 20
505961.3932760029
 30
0.0
  0
VERTEX
  5
A57
  8
TENA_LIMITS
 10
569793.25589036662
 20
505991.71059592522
 30
0.0
  0
VERTEX
  5
A58
  8
TENA_LIMITS
 10
569744.68922948872
 20
506037.523643511
 30
0.0
  0
VERTEX
  5
A59
  8
TENA_LIMITS
 10
569703.99256471137
 20
506083.5614661398
 30
0.0
  0
VERTEX
  5
A5A
  8
TENA_LIMITS
 10
569701.96780014876
 20
506062.5258939105
 30
0.0
  0
VERTEX
  5
A5B
  8
TENA_LIMITS
 10
569733.44303850655
 20
505971.64715156209
 30
0.0
  0
VERTEX
  5
A5C
  8
TENA_LIMITS
 10
569753.60188900668
 20
505909.28966321831
 30
0.0
  0
VERTEX
  5
A5D
  8
TENA_LIMITS
 10
569754.64930420904
 20
505872.60854933079
 30
0.0
  0
VERTEX
  5
A5E
  8
TENA_LIMITS
 10
569729.38862225704
 20
505837.79846240889
 30
0.0
  0
VERTEX
  5
A5F
  8
TENA_LIMITS
 10
569696.4822560047
 20
505794.90342260158
 30
0.0
  0
VERTEX
  5
A60
  8
TENA_LIMITS
 10
569687.33564577659
 20
505747.44239459379
 30
0.0
  0
VERTEX
  5
A61
  8
TENA_LIMITS
 10
569686.18551567011
 20
505702.4809935966
 30
0.0
  0
VERTEX
  5
A62
  8
TENA_LIMITS
 10
569657.40561420843
 20
505664.0339608863
 30
0.0
  0
VERTEX
  5
A63
  8
TENA_LIMITS
 10
569615.46076054301
 20
505631.69812417479
 30
0.0
  0
VERTEX
  5
A64
  8
TENA_LIMITS
 10
569596.24788402789
 20
505576.65775201051
 30
0.0
  0
VERTEX
  5
A65
  8
TENA_LIMITS
 10
569577.66663018265
 20
505544.9890539716
 30
0.0
  0
VERTEX
  5
A66
  8
TENA_LIMITS
 10
569516.86262376176
 20
505518.14076670178
 30
0.0
  0
VERTEX
  5
A67
  8
TENA_LIMITS
 10
569514.80610856635
 20
505517.24563104619
 30
0.0
  0
VERTEX
  5
A68
  8
TENA_LIMITS
 10
569471.30420116533
 20
505493.94727579202
 30
0.0
  0
VERTEX
  5
A69
  8
TENA_LIMITS
 10
569424.3930039882
 20
505469.35120203492
 30
0.0
  0
VERTEX
  5
A6A
  8
TENA_LIMITS
 10
569383.86301338044
 20
505415.68112436758
 30
0.0
  0
VERTEX
  5
A6B
  8
TENA_LIMITS
 10
569311.96192579414
 20
505355.86397604679
 30
0.0
  0
VERTEX
  5
A6C
  8
TENA_LIMITS
 10
569231.05668155826
 20
505335.17424918379
 30
0.0
  0
VERTEX
  5
A6D
  8
TENA_LIMITS
 10
569143.99901381775
 20
505345.81657826598
 30
0.0
  0
VERTEX
  5
A6E
  8
TENA_LIMITS
 10
569033.45044820162
 20
505350.53680246271
 30
0.0
  0
VERTEX
  5
A6F
  8
TENA_LIMITS
 10
568977.3846697472
 20
505288.54615971551
 30
0.0
  0
VERTEX
  5
A70
  8
TENA_LIMITS
 10
568928.37517826864
 20
505255.63902665669
 30
0.0
  0
VERTEX
  5
A71
  8
TENA_LIMITS
 10
568874.33696020115
 20
505214.71140394959
 30
0.0
  0
VERTEX
  5
A72
  8
TENA_LIMITS
 10
568845.06316308375
 20
505135.10633780633
 30
0.0
  0
VERTEX
  5
A73
  8
TENA_LIMITS
 10
568832.72456633684
 20
505079.81466084463
 30
0.0
  0
VERTEX
  5
A74
  8
TENA_LIMITS
 10
568811.81625282671
 20
505037.64587562298
 30
0.0
  0
VERTEX
  5
A75
  8
TENA_LIMITS
 10
568775.98147900018
 20
505017.13587285479
 30
0.0
  0
VERTEX
  5
A76
  8
TENA_LIMITS
 10
568693.09897690266
 20
505004.37630588218
 30
0.0
  0
VERTEX
  5
A77
  8
TENA_LIMITS
 10
568661.86991056427
 20
505004.78364518081
 30
0.0
  0
VERTEX
  5
A78
  8
TENA_LIMITS
 10
568639.47897389834
 20
505014.53721961111
 30
0.0
  0
VERTEX
  5
A79
  8
TENA_LIMITS
 10
568603.60700184398
 20
504995.32527833531
 30
0.0
  0
VERTEX
  5
A7A
  8
TENA_LIMITS
 10
568604.75603461056
 20
504955.08545588888
 30
0.0
  0
VERTEX
  5
A7B
  8
TENA_LIMITS
 10
568570.29504657665
 20
504932.0164840119
 30
0.0
  0
VERTEX
  5
A7C
  8
TENA_LIMITS
 10
568451.53265417693
 20
504870.47284522769
 30
0.0
  0
VERTEX
  5
A7D
  8
TENA_LIMITS
 10
568403.66344065056
 20
504799.33180302498
 30
0.0
  0
VERTEX
  5
A7E
  8
TENA_LIMITS
 10
568330.24499265128
 20
504690.91288835899
 30
0.0
  0
VERTEX
  5
A7F
  8
TENA_LIMITS
 10
568286.26861539704
 20
504599.94754610199
 30
0.0
  0
VERTEX
  5
A80
  8
TENA_LIMITS
 10
568217.21699265786
 20
504455.10495032708
 30
0.0
  0
VERTEX
  5
A81
  8
TENA_LIMITS
 10
568228.516179536
 20
504408.91149090341
 30
0.0
  0
VERTEX
  5
A82
  8
TENA_LIMITS
 10
568232.49768187164
 20
504269.47687100951
 30
0.0
  0
VERTEX
  5
A83
  8
TENA_LIMITS
 10
568156.03970852611
 20
504151.00343460351
 30
0.0
  0
VERTEX
  5
A84
  8
TENA_LIMITS
 10
568060.49700822879
 20
504118.37206151208
 30
0.0
  0
VERTEX
  5
A85
  8
TENA_LIMITS
 10
568003.41415707732
 20
504020.38728252199
 30
0.0
  0
VERTEX
  5
A86
  8
TENA_LIMITS
 10
568006.63727617019
 20
503907.51170247648
 30
0.0
  0
VERTEX
  5
A87
  8
TENA_LIMITS
 10
568033.5245026151
 20
503753.19056847377
 30
0.0
  0
VERTEX
  5
A88
  8
TENA_LIMITS
 10
568041.79385711334
 20
503658.78316271922
 30
0.0
  0
VERTEX
  5
A89
  8
TENA_LIMITS
 10
567946.32516354183
 20
503683.89344771311
 30
0.0
  0
VERTEX
  5
A8A
  8
TENA_LIMITS
 10
567871.42605574662
 20
503680.54845524329
 30
0.0
  0
VERTEX
  5
A8B
  8
TENA_LIMITS
 10
567816.22877291217
 20
503678.97231790621
 30
0.0
  0
VERTEX
  5
A8C
  8
TENA_LIMITS
 10
567718.81436563504
 20
503667.702438101
 30
0.0
  0
VERTEX
  5
A8D
  8
TENA_LIMITS
 10
567637.53607352835
 20
503686.60216384148
 30
0.0
  0
VERTEX
  5
A8E
  8
TENA_LIMITS
 10
567606.36139124958
 20
503736.6415245863
 30
0.0
  0
VERTEX
  5
A8F
  8
TENA_LIMITS
 10
567541.70357534196
 20
503768.74823973019
 30
0.0
  0
VERTEX
  5
A90
  8
TENA_LIMITS
 10
567508.11461188516
 20
503831.5759763543
 30
0.0
  0
VERTEX
  5
A91
  8
TENA_LIMITS
 10
567435.54783144675
 20
503903.28933514142
 30
0.0
  0
VERTEX
  5
A92
  8
TENA_LIMITS
 10
567371.50967219169
 20
503911.52240570268
 30
0.0
  0
VERTEX
  5
A93
  8
TENA_LIMITS
 10
567280.5333150503
 20
503922.3401515588
 30
0.0
  0
VERTEX
  5
A94
  8
TENA_LIMITS
 10
567170.24158257665
 20
503962.79132149532
 30
0.0
  0
VERTEX
  5
A95
  8
TENA_LIMITS
 10
567059.94985010335
 20
504003.24249143113
 30
0.0
  0
VERTEX
  5
A96
  8
TENA_LIMITS
 10
566988.14846431254
 20
504048.14662377158
 30
0.0
  0
VERTEX
  5
A97
  8
TENA_LIMITS
 10
566912.22623802989
 20
504119.7641690842
 30
0.0
  0
VERTEX
  5
A98
  8
TENA_LIMITS
 10
566853.94192909612
 20
504161.70039114379
 30
0.0
  0
VERTEX
  5
A99
  8
TENA_LIMITS
 10
566838.89393047313
 20
504218.28675053577
 30
0.0
  0
VERTEX
  5
A9A
  8
TENA_LIMITS
 10
566827.30960032658
 20
504266.17338916368
 30
0.0
  0
VERTEX
  5
A9B
  8
TENA_LIMITS
 10
566812.24893749156
 20
504328.2041261805
 30
0.0
  0
VERTEX
  5
A9C
  8
TENA_LIMITS
 10
566763.93474532256
 20
504373.77892636741
 30
0.0
  0
VERTEX
  5
A9D
  8
TENA_LIMITS
 10
566686.09270148014
 20
504395.03337327437
 30
0.0
  0
VERTEX
  5
A9E
  8
TENA_LIMITS
 10
566557.53806099121
 20
504428.25528234552
 30
0.0
  0
VERTEX
  5
A9F
  8
TENA_LIMITS
 10
566426.58488355507
 20
504427.86984961061
 30
0.0
  0
VERTEX
  5
AA0
  8
TENA_LIMITS
 10
566315.26793955872
 20
504438.8798728257
 30
0.0
  0
VERTEX
  5
AA1
  8
TENA_LIMITS
 10
566174.10107461095
 20
504499.1289405335
 30
0.0
  0
VERTEX
  5
AA2
  8
TENA_LIMITS
 10
566050.23373878363
 20
504517.01861716062
 30
0.0
  0
VERTEX
  5
AA3
  8
TENA_LIMITS
 10
565848.40856636898
 20
504529.30628565932
 30
0.0
  0
VERTEX
  5
AA4
  8
TENA_LIMITS
 10
565787.03353301284
 20
504530.92974719242
 30
0.0
  0
VERTEX
  5
AA5
  8
TENA_LIMITS
 10
565633.77321773104
 20
504639.04349111841
 30
0.0
  0
VERTEX
  5
AA6
  8
TENA_LIMITS
 10
565576.97408710315
 20
504749.91169765248
 30
0.0
  0
VERTEX
  5
AA7
  8
TENA_LIMITS
 10
565519.86942382762
 20
504871.4844852197
 30
0.0
  0
VERTEX
  5
AA8
  8
TENA_LIMITS
 10
565326.02992095985
 20
504898.08948904218
 30
0.0
  0
VERTEX
  5
AA9
  8
TENA_LIMITS
 10
565205.55641083547
 20
504894.72816923377
 30
0.0
  0
VERTEX
  5
AAA
  8
TENA_LIMITS
 10
565063.44104829256
 20
504890.59136403829
 30
0.0
  0
VERTEX
  5
AAB
  8
TENA_LIMITS
 10
564890.73178631649
 20
504928.51308953163
 30
0.0
  0
VERTEX
  5
AAC
  8
TENA_LIMITS
 10
564701.33432832418
 20
504987.3849510689
 30
0.0
  0
VERTEX
  5
AAD
  8
TENA_LIMITS
 10
564620.33867347939
 20
505006.49886248802
 30
0.0
  0
VERTEX
  5
AAE
  8
TENA_LIMITS
 10
564466.91577033943
 20
504932.48121857032
 30
0.0
  0
VERTEX
  5
AAF
  8
TENA_LIMITS
 10
564333.24747900967
 20
504917.95101583569
 30
0.0
  0
VERTEX
  5
AB0
  8
TENA_LIMITS
 10
564268.67570124962
 20
504953.52616098168
 30
0.0
  0
VERTEX
  5
AB1
  8
TENA_LIMITS
 10
564140.66341957392
 20
504983.73532039631
 30
0.0
  0
VERTEX
  5
AB2
  8
TENA_LIMITS
 10
564036.73180240742
 20
505061.19578949059
 30
0.0
  0
VERTEX
  5
AB3
  8
TENA_LIMITS
 10
563881.61934791214
 20
505149.89400357119
 30
0.0
  0
VERTEX
  5
AB4
  8
TENA_LIMITS
 10
563797.78417102131
 20
505265.56643150467
 30
0.0
  0
VERTEX
  5
AB5
  8
TENA_LIMITS
 10
563776.87463290908
 20
505267.94306941301
 30
0.0
  0
VERTEX
  5
AB6
  8
TENA_LIMITS
 10
563761.06665294454
 20
505300.20214667742
 30
0.0
  0
VERTEX
  5
AB7
  8
TENA_LIMITS
 10
563730.4686768183
 20
505329.06524977169
 30
0.0
  0
VERTEX
  5
AB8
  8
TENA_LIMITS
 10
563631.27720809693
 20
505361.91704513581
 30
0.0
  0
VERTEX
  5
AB9
  8
TENA_LIMITS
 10
563516.10526401096
 20
505380.93096670992
 30
0.0
  0
VERTEX
  5
ABA
  8
TENA_LIMITS
 10
563400.93331992475
 20
505399.9448882835
 30
0.0
  0
VERTEX
  5
ABB
  8
TENA_LIMITS
 10
563275.30667301745
 20
505420.1471307028
 30
0.0
  0
VERTEX
  5
ABC
  8
TENA_LIMITS
 10
563235.78384679905
 20
505448.75538811
 30
0.0
  0
VERTEX
  5
ABD
  8
TENA_LIMITS
 10
563196.6852364121
 20
505462.50735052832
 30
0.0
  0
VERTEX
  5
ABE
  8
TENA_LIMITS
 10
563062.47311293893
 20
505470.56968110858
 30
0.0
  0
VERTEX
  5
ABF
  8
TENA_LIMITS
 10
562993.77181422245
 20
505475.86650987872
 30
0.0
  0
VERTEX
  5
AC0
  8
TENA_LIMITS
 10
562889.41690742935
 20
505483.47023732791
 30
0.0
  0
VERTEX
  5
AC1
  8
TENA_LIMITS
 10
562725.28555201169
 20
505496.62563923409
 30
0.0
  0
VERTEX
  5
AC2
  8
TENA_LIMITS
 10
562713.21602168703
 20
505502.22835166601
 30
0.0
  0
VERTEX
  5
AC3
  8
TENA_LIMITS
 10
562642.67113597994
 20
505574.55601093918
 30
0.0
  0
VERTEX
  5
AC4
  8
TENA_LIMITS
 10
562563.79517102416
 20
505625.82996754372
 30
0.0
  0
VERTEX
  5
AC5
  8
TENA_LIMITS
 10
562464.34917251661
 20
505667.59554995492
 30
0.0
  0
VERTEX
  5
AC6
  8
TENA_LIMITS
 10
562352.9184859891
 20
505711.9926159606
 30
0.0
  0
VERTEX
  5
AC7
  8
TENA_LIMITS
 10
562321.39273682225
 20
505801.95666067582
 30
0.0
  0
VERTEX
  5
AC8
  8
TENA_LIMITS
 10
562319.09792385472
 20
505882.32239874551
 30
0.0
  0
VERTEX
  5
AC9
  8
TENA_LIMITS
 10
562344.39002232882
 20
505936.66546544892
 30
0.0
  0
VERTEX
  5
ACA
  8
TENA_LIMITS
 10
562367.99912424735
 20
506049.94344651978
 30
0.0
  0
VERTEX
  5
ACB
  8
TENA_LIMITS
 10
562338.65298847505
 20
506137.57986089127
 30
0.0
  0
VERTEX
  5
ACC
  8
TENA_LIMITS
 10
562389.47279273113
 20
506132.5738185416
 30
0.0
  0
VERTEX
  5
ACD
  8
TENA_LIMITS
 10
562460.75752598513
 20
506147.87459555152
 30
0.0
  0
VERTEX
  5
ACE
  8
TENA_LIMITS
 10
562530.93542498141
 20
506187.43284720229
 30
0.0
  0
VERTEX
  5
ACF
  8
TENA_LIMITS
 10
562607.82788847026
 20
506246.90729415527
 30
0.0
  0
VERTEX
  5
AD0
  8
TENA_LIMITS
 10
562697.32947236532
 20
506236.73435282003
 30
0.0
  0
VERTEX
  5
AD1
  8
TENA_LIMITS
 10
562810.84666771605
 20
506278.16166767012
 30
0.0
  0
VERTEX
  5
AD2
  8
TENA_LIMITS
 10
562861.78677077556
 20
506353.86662181438
 30
0.0
  0
VERTEX
  5
AD3
  8
TENA_LIMITS
 10
562908.54665012332
 20
506501.58106888662
 30
0.0
  0
VERTEX
  5
AD4
  8
TENA_LIMITS
 10
562946.09230129456
 20
506602.93034507532
 30
0.0
  0
VERTEX
  5
AD5
  8
TENA_LIMITS
 10
562977.4284605704
 20
506561.65691991028
 30
0.0
  0
VERTEX
  5
AD6
  8
TENA_LIMITS
 10
563012.12151229614
 20
506508.43130183499
 30
0.0
  0
VERTEX
  5
AD7
  8
TENA_LIMITS
 10
563046.9006325549
 20
506452.19615464588
 30
0.0
  0
VERTEX
  5
AD8
  8
TENA_LIMITS
 10
563104.84080235788
 20
506429.7545186904
 30
0.0
  0
VERTEX
  5
AD9
  8
TENA_LIMITS
 10
563153.22551808564
 20
506425.11210192891
 30
0.0
  0
VERTEX
  5
ADA
  8
TENA_LIMITS
 10
563192.48433188826
 20
506423.22108529101
 30
0.0
  0
VERTEX
  5
ADB
  8
TENA_LIMITS
 10
563219.86190806318
 20
506414.96678060282
 30
0.0
  0
VERTEX
  5
ADC
  8
TENA_LIMITS
 10
563240.95498511451
 20
506415.56908536493
 30
0.0
  0
VERTEX
  5
ADD
  8
TENA_LIMITS
 10
563289.25376334356
 20
506413.93625176873
 30
0.0
  0
VERTEX
  5
ADE
  8
TENA_LIMITS
 10
563327.91101896565
 20
506433.11216648109
 30
0.0
  0
VERTEX
  5
ADF
  8
TENA_LIMITS
 10
563367.0838952706
 20
506434.23073300801
 30
0.0
  0
VERTEX
  5
AE0
  8
TENA_LIMITS
 10
563402.81380915758
 20
506450.31107182661
 30
0.0
  0
VERTEX
  5
AE1
  8
TENA_LIMITS
 10
563441.55700084253
 20
506466.477453642
 30
0.0
  0
VERTEX
  5
AE2
  8
TENA_LIMITS
 10
563467.39797094988
 20
506455.13684817287
 30
0.0
  0
VERTEX
  5
AE3
  8
TENA_LIMITS
 10
563544.17293218942
 20
506419.49747733428
 30
0.0
  0
VERTEX
  5
AE4
  8
TENA_LIMITS
 10
563603.03125090385
 20
506442.79624017858
 30
0.0
  0
VERTEX
  5
AE5
  8
TENA_LIMITS
 10
563650.92164231557
 20
506471.1863395531
 30
0.0
  0
VERTEX
  5
AE6
  8
TENA_LIMITS
 10
563673.62835605175
 20
506434.0030705501
 30
0.0
  0
VERTEX
  5
AE7
  8
TENA_LIMITS
 10
563636.85995635763
 20
506395.12156269967
 30
0.0
  0
VERTEX
  5
AE8
  8
TENA_LIMITS
 10
563540.92484274437
 20
506343.7414786013
 30
0.0
  0
VERTEX
  5
AE9
  8
TENA_LIMITS
 10
563520.3769040542
 20
506305.32313982188
 30
0.0
  0
VERTEX
  5
AEA
  8
TENA_LIMITS
 10
563585.87567382026
 20
506285.57534616021
 30
0.0
  0
VERTEX
  5
AEB
  8
TENA_LIMITS
 10
563649.52393127652
 20
506330.62896990159
 30
0.0
  0
VERTEX
  5
AEC
  8
TENA_LIMITS
 10
563729.392783641
 20
506376.1457162291
 30
0.0
  0
VERTEX
  5
AED
  8
TENA_LIMITS
 10
563852.0535595665
 20
506439.0979341148
 30
0.0
  0
VERTEX
  5
AEE
  8
TENA_LIMITS
 10
563964.05480483011
 20
506496.34125166573
 30
0.0
  0
VERTEX
  5
AEF
  8
TENA_LIMITS
 10
564061.22350500419
 20
506504.52038830699
 30
0.0
  0
VERTEX
  5
AF0
  8
TENA_LIMITS
 10
564168.89740505104
 20
506523.8085399323
 30
0.0
  0
VERTEX
  5
AF1
  8
TENA_LIMITS
 10
564189.4453423057
 20
506562.22692897997
 30
0.0
  0
VERTEX
  5
AF2
  8
TENA_LIMITS
 10
564295.11466706195
 20
506651.71651968721
 30
0.0
  0
VERTEX
  5
AF3
  8
TENA_LIMITS
 10
564342.54246351402
 20
506696.30697435729
 30
0.0
  0
VERTEX
  5
AF4
  8
TENA_LIMITS
 10
564362.93620388396
 20
506740.12543156918
 30
0.0
  0
SEQEND
  5
AF5
  8
TENA_LIMITS
  0
ENDSEC
  0
EOF
