  0
SECTION
  2
HEADER
  9
$ACADVER
  1
AC1009
  9
$INSBASE
 10
0.0
 20
0.0
 30
0.0
  9
$EXTMIN
 10
500000.0
 20
386825.40200000012
 30
0.0
  9
$EXTMAX
 10
833372.25899999996
 20
719460.31599999988
 30
5200.0
  9
$LIMMIN
 10
0.0
 20
0.0
  9
$LIMMAX
 10
12.0
 20
9.0
  9
$ORTHOMODE
 70
     0
  9
$REGENMODE
 70
     1
  9
$FILLMODE
 70
     1
  9
$QTEXTMODE
 70
     0
  9
$MIRRTEXT
 70
     0
  9
$DRAGMODE
 70
     2
  9
$LTSCALE
 40
1.0
  9
$OSMODE
 70
    37
  9
$ATTMODE
 70
     1
  9
$TEXTSIZE
 40
1200.0
  9
$TRACEWID
 40
0.05
  9
$TEXTSTYLE
  7
STANDARD
  9
$CLAYER
  8
TENA_LIMITS
  9
$CELTYPE
  6
BYLAYER
  9
$CECOLOR
 62
   256
  9
$DIMSCALE
 40
1.0
  9
$DIMASZ
 40
0.18
  9
$DIMEXO
 40
0.0625
  9
$DIMDLI
 40
0.38
  9
$DIMRND
 40
0.0
  9
$DIMDLE
 40
0.0
  9
$DIMEXE
 40
0.18
  9
$DIMTP
 40
0.0
  9
$DIMTM
 40
0.0
  9
$DIMTXT
 40
0.18
  9
$DIMCEN
 40
0.09
  9
$DIMTSZ
 40
0.0
  9
$DIMTOL
 70
     0
  9
$DIMLIM
 70
     0
  9
$DIMTIH
 70
     1
  9
$DIMTOH
 70
     1
  9
$DIMSE1
 70
     0
  9
$DIMSE2
 70
     0
  9
$DIMTAD
 70
     0
  9
$DIMZIN
 70
     0
  9
$DIMBLK
  1

  9
$DIMASO
 70
     1
  9
$DIMSHO
 70
     1
  9
$DIMPOST
  1

  9
$DIMAPOST
  1

  9
$DIMALT
 70
     0
  9
$DIMALTD
 70
     2
  9
$DIMALTF
 40
25.399999999999999
  9
$DIMLFAC
 40
1.0
  9
$DIMTOFL
 70
     0
  9
$DIMTVP
 40
0.0
  9
$DIMTIX
 70
     0
  9
$DIMSOXD
 70
     0
  9
$DIMSAH
 70
     0
  9
$DIMBLK1
  1

  9
$DIMBLK2
  1

  9
$DIMSTYLE
  2
STANDARD
  9
$DIMCLRD
 70
     0
  9
$DIMCLRE
 70
     0
  9
$DIMCLRT
 70
     0
  9
$DIMTFAC
 40
1.0
  9
$DIMGAP
 40
0.09
  9
$LUNITS
 70
     2
  9
$LUPREC
 70
     4
  9
$SKETCHINC
 40
0.1
  9
$FILLETRAD
 40
0.0
  9
$AUNITS
 70
     0
  9
$AUPREC
 70
     0
  9
$MENU
  1
.
  9
$ELEVATION
 40
0.0
  9
$PELEVATION
 40
0.0
  9
$THICKNESS
 40
0.0
  9
$LIMCHECK
 70
     0
  9
$BLIPMODE
 70
     0
  9
$CHAMFERA
 40
0.0
  9
$CHAMFERB
 40
0.0
  9
$SKPOLY
 70
     0
  9
$TDCREATE
 40
2455804.6739510992
  9
$TDUPDATE
 40
2457511.592198553
  9
$TDINDWG
 40
0.5698033681
  9
$TDUSRTIMER
 40
0.5697977778
  9
$USRTIMER
 70
     1
  9
$ANGBASE
 50
0.0
  9
$ANGDIR
 70
     0
  9
$PDMODE
 70
     0
  9
$PDSIZE
 40
0.0
  9
$PLINEWID
 40
0.0
  9
$COORDS
 70
     1
  9
$SPLFRAME
 70
     0
  9
$SPLINETYPE
 70
     6
  9
$SPLINESEGS
 70
     8
  9
$ATTDIA
 70
     1
  9
$ATTREQ
 70
     1
  9
$HANDLING
 70
     1
  9
$HANDSEED
  5
718
  9
$SURFTAB1
 70
     6
  9
$SURFTAB2
 70
     6
  9
$SURFTYPE
 70
     6
  9
$SURFU
 70
     6
  9
$SURFV
 70
     6
  9
$UCSNAME
  2

  9
$UCSORG
 10
0.0
 20
0.0
 30
0.0
  9
$UCSXDIR
 10
1.0
 20
0.0
 30
0.0
  9
$UCSYDIR
 10
0.0
 20
1.0
 30
0.0
  9
$PUCSNAME
  2

  9
$PUCSORG
 10
0.0
 20
0.0
 30
0.0
  9
$PUCSXDIR
 10
1.0
 20
0.0
 30
0.0
  9
$PUCSYDIR
 10
0.0
 20
1.0
 30
0.0
  9
$USERI1
 70
     0
  9
$USERI2
 70
     0
  9
$USERI3
 70
     0
  9
$USERI4
 70
     0
  9
$USERI5
 70
     0
  9
$USERR1
 40
0.0
  9
$USERR2
 40
0.0
  9
$USERR3
 40
0.0
  9
$USERR4
 40
0.0
  9
$USERR5
 40
0.0
  9
$WORLDVIEW
 70
     1
  9
$SHADEDGE
 70
     3
  9
$SHADEDIF
 70
    70
  9
$TILEMODE
 70
     1
  9
$MAXACTVP
 70
    64
  9
$PLIMCHECK
 70
     0
  9
$PEXTMIN
 10
1.049999952316284
 20
0.7999999523162842
 30
0.0
  9
$PEXTMAX
 10
9.4499995708465594
 20
7.1999995708465576
 30
0.0
  9
$PLIMMIN
 10
-0.2500002402958907
 20
-0.2499999962453767
  9
$PLIMMAX
 10
10.74999951940822
 20
8.2499997634587334
  9
$UNITMODE
 70
     0
  9
$VISRETAIN
 70
     1
  9
$PLINEGEN
 70
     0
  9
$PSLTSCALE
 70
     1
  0
ENDSEC
  0
SECTION
  2
TABLES
  0
TABLE
  2
VPORT
 70
     1
  0
VPORT
  2
*ACTIVE
 70
     0
 10
0.0
 20
0.0
 11
1.0
 21
1.0
 12
564591.41887023707
 22
514754.23407774098
 13
0.0
 23
0.0
 14
0.5
 24
0.5
 15
0.5
 25
0.5
 16
0.0
 26
0.0
 36
1.0
 17
0.0
 27
0.0
 37
0.0
 40
46345.038822072253
 41
1.205432937181663
 42
50.0
 43
0.0
 44
0.0
 50
0.0
 51
0.0
 71
     0
 72
  1000
 73
     1
 74
     3
 75
     0
 76
     0
 77
     0
 78
     0
  0
ENDTAB
  0
TABLE
  2
LTYPE
 70
     1
  0
LTYPE
  2
CONTINUOUS
 70
     0
  3
Solid line
 72
    65
 73
     0
 40
0.0
  0
ENDTAB
  0
TABLE
  2
LAYER
 70
     3
  0
LAYER
  2
0
 70
     4
 62
     7
  6
CONTINUOUS
  0
LAYER
  2
TENA_LIMITS
 70
     0
 62
     5
  6
CONTINUOUS
  0
LAYER
  2
TENA_LATE
 70
     0
 62
     2
  6
CONTINUOUS
  0
ENDTAB
  0
TABLE
  2
STYLE
 70
     1
  0
STYLE
  2
STANDARD
 70
     0
 40
0.0
 41
1.0
 50
0.0
 71
     0
 42
1200.0
  3
txt
  4

  0
ENDTAB
  0
TABLE
  2
VIEW
 70
     0
  0
ENDTAB
  0
TABLE
  2
UCS
 70
     0
  0
ENDTAB
  0
TABLE
  2
APPID
 70
     5
  0
APPID
  2
ACAD
 70
     0
  0
APPID
  2
ADE
 70
     0
  0
APPID
  2
ACAD_NAV_VCDISPLAY
 70
     0
  0
APPID
  2
ACAD_PSEXT
 70
     0
  0
APPID
  2
ADE_PROJECTION
 70
     0
  0
ENDTAB
  0
TABLE
  2
DIMSTYLE
 70
     1
  0
DIMSTYLE
  2
STANDARD
 70
     0
  3

  4

  5

  6

  7

 40
1.0
 41
0.18
 42
0.0625
 43
0.38
 44
0.18
 45
0.0
 46
0.0
 47
0.0
 48
0.0
140
0.18
141
0.09
142
0.0
143
25.399999999999999
144
1.0
145
0.0
146
1.0
147
0.09
 71
     0
 72
     0
 73
     1
 74
     1
 75
     0
 76
     0
 77
     0
 78
     0
170
     0
171
     2
172
     0
173
     0
174
     0
175
     0
176
     0
177
     0
178
     0
  0
ENDTAB
  0
ENDSEC
  0
SECTION
  2
BLOCKS
  0
BLOCK
  8
0
  2
$MODEL_SPACE
 70
     0
 10
0.0
 20
0.0
 30
0.0
  3
$MODEL_SPACE
  1

  0
ENDBLK
  5
16
  8
0
  0
BLOCK
 67
     1
  8
0
  2
$PAPER_SPACE
 70
     0
 10
0.0
 20
0.0
 30
0.0
  3
$PAPER_SPACE
  1

  0
ENDBLK
  5
1C
 67
     1
  8
0
  0
ENDSEC
  0
SECTION
  2
ENTITIES
  0
POLYLINE
  5
65
  8
TENA_LATE
 66
     1
 10
0.0
 20
0.0
 30
0.0
 70
     1
  0
VERTEX
  5
DA
  8
TENA_LATE
 10
569145.75527924264
 20
511575.4740303682
 30
0.0
  0
VERTEX
  5
DB
  8
TENA_LATE
 10
569130.78847410181
 20
511592.72508092091
 30
0.0
  0
VERTEX
  5
DC
  8
TENA_LATE
 10
569137.40013143211
 20
511608.82445403509
 30
0.0
  0
VERTEX
  5
DD
  8
TENA_LATE
 10
569144.26398342755
 20
511616.09181749198
 30
0.0
  0
VERTEX
  5
DE
  8
TENA_LATE
 10
569151.27915222058
 20
511618.05997515452
 30
0.0
  0
VERTEX
  5
DF
  8
TENA_LATE
 10
569158.44563781237
 20
511614.72892702301
 30
0.0
  0
VERTEX
  5
E0
  8
TENA_LATE
 10
569162.2306363387
 20
511605.99779523112
 30
0.0
  0
VERTEX
  5
E1
  8
TENA_LATE
 10
569171.61747425655
 20
511586.81956864859
 30
0.0
  0
VERTEX
  5
E2
  8
TENA_LATE
 10
569168.4377429228
 20
511574.3538772621
 30
0.0
  0
VERTEX
  5
E3
  8
TENA_LATE
 10
569159.60573326563
 20
511574.10168259841
 30
0.0
  0
SEQEND
  5
E4
  8
TENA_LATE
  0
POLYLINE
  5
68
  8
TENA_LATE
 66
     1
 10
0.0
 20
0.0
 30
0.0
 70
     1
  0
VERTEX
  5
E5
  8
TENA_LATE
 10
574571.33939209301
 20
513066.69878304191
 30
0.0
  0
VERTEX
  5
E6
  8
TENA_LATE
 10
574581.12474193017
 20
513064.79042778793
 30
0.0
  0
VERTEX
  5
E7
  8
TENA_LATE
 10
574591.5357461992
 20
513053.71951681061
 30
0.0
  0
VERTEX
  5
E8
  8
TENA_LATE
 10
574598.89888195344
 20
513040.00370631868
 30
0.0
  0
VERTEX
  5
E9
  8
TENA_LATE
 10
574599.2366109452
 20
513028.17623276328
 30
0.0
  0
VERTEX
  5
EA
  8
TENA_LATE
 10
574586.85711038043
 20
513022.25235654431
 30
0.0
  0
VERTEX
  5
EB
  8
TENA_LATE
 10
574573.52265420242
 20
513025.3531370589
 30
0.0
  0
VERTEX
  5
EC
  8
TENA_LATE
 10
574561.36285138293
 20
513036.14668714319
 30
0.0
  0
VERTEX
  5
ED
  8
TENA_LATE
 10
574554.03944828059
 20
513048.47103610903
 30
0.0
  0
VERTEX
  5
EE
  8
TENA_LATE
 10
574559.2744481893
 20
513060.45753555349
 30
0.0
  0
SEQEND
  5
EF
  8
TENA_LATE
  0
POLYLINE
  5
69
  8
TENA_LATE
 66
     1
 10
0.0
 20
0.0
 30
0.0
 70
     1
  0
VERTEX
  5
F0
  8
TENA_LATE
 10
569534.40468946646
 20
512879.48062576167
 30
0.0
  0
VERTEX
  5
F1
  8
TENA_LATE
 10
569536.25057919475
 20
512883.58475315513
 30
0.0
  0
VERTEX
  5
F2
  8
TENA_LATE
 10
569540.86090353085
 20
512887.11440248659
 30
0.0
  0
VERTEX
  5
F3
  8
TENA_LATE
 10
569547.25683454284
 20
512887.68910536752
 30
0.0
  0
VERTEX
  5
F4
  8
TENA_LATE
 10
569554.85946662549
 20
512887.25267893099
 30
0.0
  0
VERTEX
  5
F5
  8
TENA_LATE
 10
569560.19634574314
 20
512883.67838595371
 30
0.0
  0
VERTEX
  5
F6
  8
TENA_LATE
 10
569562.05246052635
 20
512880.41732588969
 30
0.0
  0
VERTEX
  5
F7
  8
TENA_LATE
 10
569563.1149049378
 20
512875.89076681918
 30
0.0
  0
VERTEX
  5
F8
  8
TENA_LATE
 10
569562.77703288966
 20
512869.56365597039
 30
0.0
  0
VERTEX
  5
F9
  8
TENA_LATE
 10
569561.04503878136
 20
512864.85381748388
 30
0.0
  0
VERTEX
  5
FA
  8
TENA_LATE
 10
569554.19302261272
 20
512860.18054872891
 30
0.0
  0
VERTEX
  5
FB
  8
TENA_LATE
 10
569545.94032657717
 20
512860.46768924821
 30
0.0
  0
VERTEX
  5
FC
  8
TENA_LATE
 10
569540.93049952434
 20
512861.76219001011
 30
0.0
  0
VERTEX
  5
FD
  8
TENA_LATE
 10
569536.05915826932
 20
512867.37351107819
 30
0.0
  0
VERTEX
  5
FE
  8
TENA_LATE
 10
569533.36226091697
 20
512874.74592420133
 30
0.0
  0
SEQEND
  5
FF
  8
TENA_LATE
  0
POLYLINE
  5
6A
  8
TENA_LATE
 66
     1
 10
0.0
 20
0.0
 30
0.0
 70
     1
  0
VERTEX
  5
100
  8
TENA_LATE
 10
569708.3399056833
 20
512817.95798077987
 30
0.0
  0
VERTEX
  5
101
  8
TENA_LATE
 10
569711.52294956113
 20
512820.41151547828
 30
0.0
  0
VERTEX
  5
102
  8
TENA_LATE
 10
569719.64457444905
 20
512825.95924802119
 30
0.0
  0
VERTEX
  5
103
  8
TENA_LATE
 10
569723.79807234055
 20
512825.48721385701
 30
0.0
  0
VERTEX
  5
104
  8
TENA_LATE
 10
569733.85882707697
 20
512822.92338400381
 30
0.0
  0
VERTEX
  5
105
  8
TENA_LATE
 10
569743.67012045567
 20
512813.06036322057
 30
0.0
  0
VERTEX
  5
106
  8
TENA_LATE
 10
569753.17507457337
 20
512801.22338710859
 30
0.0
  0
VERTEX
  5
107
  8
TENA_LATE
 10
569761.00611825904
 20
512789.18146129372
 30
0.0
  0
VERTEX
  5
108
  8
TENA_LATE
 10
569757.50761409535
 20
512783.32871230238
 30
0.0
  0
VERTEX
  5
109
  8
TENA_LATE
 10
569747.74490095512
 20
512776.77409559838
 30
0.0
  0
VERTEX
  5
10A
  8
TENA_LATE
 10
569735.33605665085
 20
512771.18991086318
 30
0.0
  0
VERTEX
  5
10B
  8
TENA_LATE
 10
569725.67811853252
 20
512780.35610161338
 30
0.0
  0
VERTEX
  5
10C
  8
TENA_LATE
 10
569717.19417333894
 20
512787.49704531243
 30
0.0
  0
VERTEX
  5
10D
  8
TENA_LATE
 10
569708.38099232526
 20
512795.80985922622
 30
0.0
  0
VERTEX
  5
10E
  8
TENA_LATE
 10
569703.88202865433
 20
512808.3803139361
 30
0.0
  0
SEQEND
  5
10F
  8
TENA_LATE
  0
POLYLINE
  5
6B
  8
TENA_LATE
 66
     1
 10
0.0
 20
0.0
 30
0.0
 70
     1
  0
VERTEX
  5
110
  8
TENA_LATE
 10
569999.77304112923
 20
512793.20869955188
 30
0.0
  0
VERTEX
  5
111
  8
TENA_LATE
 10
570003.3109701958
 20
512791.91125474818
 30
0.0
  0
VERTEX
  5
112
  8
TENA_LATE
 10
570006.14917208231
 20
512790.5938295009
 30
0.0
  0
VERTEX
  5
113
  8
TENA_LATE
 10
570009.84680318658
 20
512783.70706885308
 30
0.0
  0
VERTEX
  5
114
  8
TENA_LATE
 10
570009.2868293802
 20
512778.79638681997
 30
0.0
  0
VERTEX
  5
115
  8
TENA_LATE
 10
570007.3276035639
 20
512773.84574968141
 30
0.0
  0
VERTEX
  5
116
  8
TENA_LATE
 10
570000.45135057264
 20
512769.45389258937
 30
0.0
  0
VERTEX
  5
117
  8
TENA_LATE
 10
569989.89771577669
 20
512771.2502917336
 30
0.0
  0
VERTEX
  5
118
  8
TENA_LATE
 10
569984.84093233943
 20
512776.69987454492
 30
0.0
  0
VERTEX
  5
119
  8
TENA_LATE
 10
569985.36090475472
 20
512783.00788337208
 30
0.0
  0
VERTEX
  5
11A
  8
TENA_LATE
 10
569987.99980791274
 20
512788.67711231689
 30
0.0
  0
VERTEX
  5
11B
  8
TENA_LATE
 10
569992.07755977206
 20
512792.98895801988
 30
0.0
  0
SEQEND
  5
11C
  8
TENA_LATE
  0
POLYLINE
  5
6C
  8
TENA_LATE
 66
     1
 10
0.0
 20
0.0
 30
0.0
 70
     1
  0
VERTEX
  5
11D
  8
TENA_LATE
 10
574843.53850129899
 20
512740.65268928552
 30
0.0
  0
VERTEX
  5
11E
  8
TENA_LATE
 10
574863.24769204692
 20
512735.44338821241
 30
0.0
  0
VERTEX
  5
11F
  8
TENA_LATE
 10
574875.30356643291
 20
512718.02705219039
 30
0.0
  0
VERTEX
  5
120
  8
TENA_LATE
 10
574875.26479450753
 20
512703.81747554318
 30
0.0
  0
VERTEX
  5
121
  8
TENA_LATE
 10
574870.67620717024
 20
512691.26770912542
 30
0.0
  0
VERTEX
  5
122
  8
TENA_LATE
 10
574847.31588589889
 20
512682.74236379343
 30
0.0
  0
VERTEX
  5
123
  8
TENA_LATE
 10
574818.11583358538
 20
512681.90856744797
 30
0.0
  0
VERTEX
  5
124
  8
TENA_LATE
 10
574792.81460967427
 20
512682.30864265672
 30
0.0
  0
VERTEX
  5
125
  8
TENA_LATE
 10
574773.49814643594
 20
512689.61546995898
 30
0.0
  0
VERTEX
  5
126
  8
TENA_LATE
 10
574771.09490205965
 20
512708.83520814643
 30
0.0
  0
VERTEX
  5
127
  8
TENA_LATE
 10
574779.44671617704
 20
512727.72230726859
 30
0.0
  0
VERTEX
  5
128
  8
TENA_LATE
 10
574799.23289199779
 20
512735.39142747212
 30
0.0
  0
VERTEX
  5
129
  8
TENA_LATE
 10
574817.34357406572
 20
512739.46068846562
 30
0.0
  0
SEQEND
  5
12A
  8
TENA_LATE
  0
POLYLINE
  5
6D
  8
TENA_LATE
 66
     1
 10
0.0
 20
0.0
 30
0.0
 70
     1
  0
VERTEX
  5
12B
  8
TENA_LATE
 10
573280.29695755057
 20
512581.9875005288
 30
0.0
  0
VERTEX
  5
12C
  8
TENA_LATE
 10
573274.41422270506
 20
512578.5751258122
 30
0.0
  0
VERTEX
  5
12D
  8
TENA_LATE
 10
573229.59550381126
 20
512550.15556773357
 30
0.0
  0
VERTEX
  5
12E
  8
TENA_LATE
 10
573203.79067641916
 20
512538.15310148022
 30
0.0
  0
VERTEX
  5
12F
  8
TENA_LATE
 10
573185.42152590305
 20
512535.06817716977
 30
0.0
  0
VERTEX
  5
130
  8
TENA_LATE
 10
573172.58829521795
 20
512547.88172502862
 30
0.0
  0
VERTEX
  5
131
  8
TENA_LATE
 10
573170.01022367436
 20
512556.63179962512
 30
0.0
  0
VERTEX
  5
132
  8
TENA_LATE
 10
573169.59079381661
 20
512568.42686673033
 30
0.0
  0
VERTEX
  5
133
  8
TENA_LATE
 10
573179.95011351898
 20
512574.30784106872
 30
0.0
  0
VERTEX
  5
134
  8
TENA_LATE
 10
573193.87987230741
 20
512580.50108001108
 30
0.0
  0
VERTEX
  5
135
  8
TENA_LATE
 10
573221.63555591006
 20
512595.50260877731
 30
0.0
  0
VERTEX
  5
136
  8
TENA_LATE
 10
573257.36710311158
 20
512608.66359709483
 30
0.0
  0
SEQEND
  5
137
  8
TENA_LATE
  0
POLYLINE
  5
6E
  8
TENA_LATE
 66
     1
 10
0.0
 20
0.0
 30
0.0
 70
     1
  0
VERTEX
  5
138
  8
TENA_LATE
 10
573280.71187364694
 20
512579.57746849448
 30
0.0
  0
VERTEX
  5
139
  8
TENA_LATE
 10
573286.86489317485
 20
512570.4143776492
 30
0.0
  0
VERTEX
  5
13A
  8
TENA_LATE
 10
573289.43380624615
 20
512553.19070246402
 30
0.0
  0
VERTEX
  5
13B
  8
TENA_LATE
 10
573280.60356137995
 20
512541.37058367429
 30
0.0
  0
VERTEX
  5
13C
  8
TENA_LATE
 10
573260.59439005866
 20
512523.90095242299
 30
0.0
  0
VERTEX
  5
13D
  8
TENA_LATE
 10
573227.7222793079
 20
512506.80300297419
 30
0.0
  0
VERTEX
  5
13E
  8
TENA_LATE
 10
573217.53277239739
 20
512505.77296611108
 30
0.0
  0
VERTEX
  5
13F
  8
TENA_LATE
 10
573207.75559234736
 20
512507.02996185218
 30
0.0
  0
VERTEX
  5
140
  8
TENA_LATE
 10
573200.745299045
 20
512519.11952445249
 30
0.0
  0
VERTEX
  5
141
  8
TENA_LATE
 10
573189.12445519259
 20
512531.07743454201
 30
0.0
  0
VERTEX
  5
142
  8
TENA_LATE
 10
573212.48481691675
 20
512538.91341913759
 30
0.0
  0
VERTEX
  5
143
  8
TENA_LATE
 10
573255.89807517745
 20
512562.68420541321
 30
0.0
  0
SEQEND
  5
144
  8
TENA_LATE
  0
POLYLINE
  5
6F
  8
TENA_LATE
 66
     1
 10
0.0
 20
0.0
 30
0.0
 70
     1
  0
VERTEX
  5
145
  8
TENA_LATE
 10
570161.31371394976
 20
512413.7709152326
 30
0.0
  0
VERTEX
  5
146
  8
TENA_LATE
 10
570156.2197255817
 20
512430.15110729402
 30
0.0
  0
VERTEX
  5
147
  8
TENA_LATE
 10
570157.35233385256
 20
512444.5787383322
 30
0.0
  0
VERTEX
  5
148
  8
TENA_LATE
 10
570165.81609871855
 20
512452.0523385327
 30
0.0
  0
VERTEX
  5
149
  8
TENA_LATE
 10
570177.67207561224
 20
512454.33512902772
 30
0.0
  0
VERTEX
  5
14A
  8
TENA_LATE
 10
570190.75249460514
 20
512447.90392067941
 30
0.0
  0
VERTEX
  5
14B
  8
TENA_LATE
 10
570192.80344278936
 20
512435.81258264999
 30
0.0
  0
VERTEX
  5
14C
  8
TENA_LATE
 10
570192.8771822186
 20
512424.63442916633
 30
0.0
  0
VERTEX
  5
14D
  8
TENA_LATE
 10
570192.13051501859
 20
512416.83632047882
 30
0.0
  0
VERTEX
  5
14E
  8
TENA_LATE
 10
570186.13218587462
 20
512413.74871970777
 30
0.0
  0
VERTEX
  5
14F
  8
TENA_LATE
 10
570177.97239110968
 20
512409.87105303339
 30
0.0
  0
VERTEX
  5
150
  8
TENA_LATE
 10
570169.44257696543
 20
512410.3559347805
 30
0.0
  0
SEQEND
  5
151
  8
TENA_LATE
  0
POLYLINE
  5
70
  8
TENA_LATE
 66
     1
 10
0.0
 20
0.0
 30
0.0
 70
     1
  0
VERTEX
  5
152
  8
TENA_LATE
 10
573227.76793479454
 20
512378.21461967757
 30
0.0
  0
VERTEX
  5
153
  8
TENA_LATE
 10
573235.74842218147
 20
512382.48875402508
 30
0.0
  0
VERTEX
  5
154
  8
TENA_LATE
 10
573242.32121140463
 20
512376.9442435262
 30
0.0
  0
VERTEX
  5
155
  8
TENA_LATE
 10
573243.31332413503
 20
512365.84527157887
 30
0.0
  0
VERTEX
  5
156
  8
TENA_LATE
 10
573234.76402858645
 20
512357.845727176
 30
0.0
  0
VERTEX
  5
157
  8
TENA_LATE
 10
573223.83416588756
 20
512350.45258235128
 30
0.0
  0
VERTEX
  5
158
  8
TENA_LATE
 10
573211.034922814
 20
512349.41272908798
 30
0.0
  0
VERTEX
  5
159
  8
TENA_LATE
 10
573208.00918123545
 20
512360.79081942159
 30
0.0
  0
VERTEX
  5
15A
  8
TENA_LATE
 10
573214.50560708134
 20
512369.74330855941
 30
0.0
  0
SEQEND
  5
15B
  8
TENA_LATE
  0
POLYLINE
  5
71
  8
TENA_LATE
 66
     1
 10
0.0
 20
0.0
 30
0.0
 70
     1
  0
VERTEX
  5
15C
  8
TENA_LATE
 10
569974.08031632006
 20
512216.40737938072
 30
0.0
  0
VERTEX
  5
15D
  8
TENA_LATE
 10
569969.98606659344
 20
512223.42153767659
 30
0.0
  0
VERTEX
  5
15E
  8
TENA_LATE
 10
569971.47222009115
 20
512228.32596020488
 30
0.0
  0
VERTEX
  5
15F
  8
TENA_LATE
 10
569983.61325468321
 20
512235.15778847592
 30
0.0
  0
VERTEX
  5
160
  8
TENA_LATE
 10
569990.92320427345
 20
512240.55283543962
 30
0.0
  0
VERTEX
  5
161
  8
TENA_LATE
 10
570000.18152090593
 20
512246.00574495009
 30
0.0
  0
VERTEX
  5
162
  8
TENA_LATE
 10
570007.93535906496
 20
512247.19952978211
 30
0.0
  0
VERTEX
  5
163
  8
TENA_LATE
 10
570013.01637588767
 20
512239.88709366921
 30
0.0
  0
VERTEX
  5
164
  8
TENA_LATE
 10
570013.83026069449
 20
512234.075869655
 30
0.0
  0
VERTEX
  5
165
  8
TENA_LATE
 10
570020.0323637164
 20
512227.09810476302
 30
0.0
  0
VERTEX
  5
166
  8
TENA_LATE
 10
570023.99559810723
 20
512223.56225248118
 30
0.0
  0
VERTEX
  5
167
  8
TENA_LATE
 10
570028.83134536794
 20
512213.26837014098
 30
0.0
  0
VERTEX
  5
168
  8
TENA_LATE
 10
570026.70199142175
 20
512207.75443927298
 30
0.0
  0
VERTEX
  5
169
  8
TENA_LATE
 10
570022.68686637178
 20
512205.99050476169
 30
0.0
  0
VERTEX
  5
16A
  8
TENA_LATE
 10
570016.45230452518
 20
512206.31775476271
 30
0.0
  0
VERTEX
  5
16B
  8
TENA_LATE
 10
570012.82453106134
 20
512209.4530926338
 30
0.0
  0
VERTEX
  5
16C
  8
TENA_LATE
 10
570008.0778633008
 20
512211.95359302359
 30
0.0
  0
VERTEX
  5
16D
  8
TENA_LATE
 10
570004.69563452562
 20
512216.72386111971
 30
0.0
  0
VERTEX
  5
16E
  8
TENA_LATE
 10
570001.55290973792
 20
512221.1172017731
 30
0.0
  0
VERTEX
  5
16F
  8
TENA_LATE
 10
569992.47698345524
 20
512220.17404692608
 30
0.0
  0
VERTEX
  5
170
  8
TENA_LATE
 10
569984.78788239206
 20
512216.71312984178
 30
0.0
  0
VERTEX
  5
171
  8
TENA_LATE
 10
569980.31738403905
 20
512213.99237002328
 30
0.0
  0
SEQEND
  5
172
  8
TENA_LATE
  0
POLYLINE
  5
72
  8
TENA_LATE
 66
     1
 10
0.0
 20
0.0
 30
0.0
 70
     1
  0
VERTEX
  5
173
  8
TENA_LATE
 10
570255.21356843738
 20
512072.03947562148
 30
0.0
  0
VERTEX
  5
174
  8
TENA_LATE
 10
570253.72974548722
 20
512077.326496789
 30
0.0
  0
VERTEX
  5
175
  8
TENA_LATE
 10
570253.32237245946
 20
512079.97945873142
 30
0.0
  0
VERTEX
  5
176
  8
TENA_LATE
 10
570254.15173058421
 20
512086.00224981352
 30
0.0
  0
VERTEX
  5
177
  8
TENA_LATE
 10
570255.03811206983
 20
512090.0245022148
 30
0.0
  0
VERTEX
  5
178
  8
TENA_LATE
 10
570259.18098743202
 20
512095.28263733652
 30
0.0
  0
VERTEX
  5
179
  8
TENA_LATE
 10
570268.95140014286
 20
512095.22008578078
 30
0.0
  0
VERTEX
  5
17A
  8
TENA_LATE
 10
570274.27400105156
 20
512094.85859321681
 30
0.0
  0
VERTEX
  5
17B
  8
TENA_LATE
 10
570281.97428151662
 20
512089.25777863851
 30
0.0
  0
VERTEX
  5
17C
  8
TENA_LATE
 10
570275.98904092785
 20
512080.62669679552
 30
0.0
  0
VERTEX
  5
17D
  8
TENA_LATE
 10
570274.48098837072
 20
512074.92181499209
 30
0.0
  0
VERTEX
  5
17E
  8
TENA_LATE
 10
570268.54169441108
 20
512072.75258519989
 30
0.0
  0
VERTEX
  5
17F
  8
TENA_LATE
 10
570261.88864097896
 20
512071.89522081328
 30
0.0
  0
VERTEX
  5
180
  8
TENA_LATE
 10
570256.90230018599
 20
512071.42040898139
 30
0.0
  0
SEQEND
  5
181
  8
TENA_LATE
  0
POLYLINE
  5
73
  8
TENA_LATE
 66
     1
 10
0.0
 20
0.0
 30
0.0
 70
     1
  0
VERTEX
  5
182
  8
TENA_LATE
 10
570153.61826124426
 20
511979.67026327539
 30
0.0
  0
VERTEX
  5
183
  8
TENA_LATE
 10
570143.14848081453
 20
511982.1825180531
 30
0.0
  0
VERTEX
  5
184
  8
TENA_LATE
 10
570138.92226820241
 20
511993.74362825259
 30
0.0
  0
VERTEX
  5
185
  8
TENA_LATE
 10
570142.36267634842
 20
512017.41818623
 30
0.0
  0
VERTEX
  5
186
  8
TENA_LATE
 10
570154.39522783284
 20
512020.79028536112
 30
0.0
  0
VERTEX
  5
187
  8
TENA_LATE
 10
570165.51273142686
 20
512018.29652607098
 30
0.0
  0
VERTEX
  5
188
  8
TENA_LATE
 10
570167.99092047964
 20
512007.33517062938
 30
0.0
  0
VERTEX
  5
189
  8
TENA_LATE
 10
570166.6030307723
 20
511987.61004566192
 30
0.0
  0
VERTEX
  5
18A
  8
TENA_LATE
 10
570162.41812424606
 20
511982.51535524969
 30
0.0
  0
SEQEND
  5
18B
  8
TENA_LATE
  0
POLYLINE
  5
74
  8
TENA_LATE
 66
     1
 10
0.0
 20
0.0
 30
0.0
 70
     1
  0
VERTEX
  5
18C
  8
TENA_LATE
 10
569362.80364559451
 20
511982.90002926619
 30
0.0
  0
VERTEX
  5
18D
  8
TENA_LATE
 10
569373.66464455961
 20
511986.44240549929
 30
0.0
  0
VERTEX
  5
18E
  8
TENA_LATE
 10
569385.46002751437
 20
511982.08835755597
 30
0.0
  0
VERTEX
  5
18F
  8
TENA_LATE
 10
569395.74537292123
 20
511979.8294482723
 30
0.0
  0
VERTEX
  5
190
  8
TENA_LATE
 10
569400.90046363452
 20
511978.1534051763
 30
0.0
  0
VERTEX
  5
191
  8
TENA_LATE
 10
569409.08561593015
 20
511972.91962251329
 30
0.0
  0
VERTEX
  5
192
  8
TENA_LATE
 10
569414.9872333589
 20
511962.58914314321
 30
0.0
  0
VERTEX
  5
193
  8
TENA_LATE
 10
569413.97514284274
 20
511955.27070707281
 30
0.0
  0
VERTEX
  5
194
  8
TENA_LATE
 10
569406.59351229959
 20
511949.7122086364
 30
0.0
  0
VERTEX
  5
195
  8
TENA_LATE
 10
569395.21480570105
 20
511947.68677350861
 30
0.0
  0
VERTEX
  5
196
  8
TENA_LATE
 10
569383.69742627989
 20
511950.51774449099
 30
0.0
  0
VERTEX
  5
197
  8
TENA_LATE
 10
569367.72664883081
 20
511955.89434658422
 30
0.0
  0
VERTEX
  5
198
  8
TENA_LATE
 10
569355.31338646635
 20
511964.53227626038
 30
0.0
  0
VERTEX
  5
199
  8
TENA_LATE
 10
569355.19119533105
 20
511977.40723780397
 30
0.0
  0
SEQEND
  5
19A
  8
TENA_LATE
  0
POLYLINE
  5
75
  8
TENA_LATE
 66
     1
 10
0.0
 20
0.0
 30
0.0
 70
     1
  0
VERTEX
  5
19B
  8
TENA_LATE
 10
572878.23454167985
 20
511857.55376860523
 30
0.0
  0
VERTEX
  5
19C
  8
TENA_LATE
 10
572885.77797157958
 20
511858.99205666879
 30
0.0
  0
VERTEX
  5
19D
  8
TENA_LATE
 10
572900.83082395676
 20
511862.83973489603
 30
0.0
  0
VERTEX
  5
19E
  8
TENA_LATE
 10
572915.12877458148
 20
511866.35499629378
 30
0.0
  0
VERTEX
  5
19F
  8
TENA_LATE
 10
572928.47726046061
 20
511872.61041564023
 30
0.0
  0
VERTEX
  5
1A0
  8
TENA_LATE
 10
572942.0269693319
 20
511871.8224302149
 30
0.0
  0
VERTEX
  5
1A1
  8
TENA_LATE
 10
572951.12677005609
 20
511862.09614360472
 30
0.0
  0
VERTEX
  5
1A2
  8
TENA_LATE
 10
572953.4260637894
 20
511843.36433409719
 30
0.0
  0
VERTEX
  5
1A3
  8
TENA_LATE
 10
572949.76500088454
 20
511827.39950872399
 30
0.0
  0
VERTEX
  5
1A4
  8
TENA_LATE
 10
572929.38126664609
 20
511820.35580507992
 30
0.0
  0
VERTEX
  5
1A5
  8
TENA_LATE
 10
572914.62268794386
 20
511822.28406262019
 30
0.0
  0
VERTEX
  5
1A6
  8
TENA_LATE
 10
572897.59936423716
 20
511821.70936769177
 30
0.0
  0
VERTEX
  5
1A7
  8
TENA_LATE
 10
572879.01379064831
 20
511821.66824433778
 30
0.0
  0
VERTEX
  5
1A8
  8
TENA_LATE
 10
572867.05583830632
 20
511819.75101845822
 30
0.0
  0
VERTEX
  5
1A9
  8
TENA_LATE
 10
572851.07163058547
 20
511823.40646502678
 30
0.0
  0
VERTEX
  5
1AA
  8
TENA_LATE
 10
572848.87289487128
 20
511838.6166718785
 30
0.0
  0
VERTEX
  5
1AB
  8
TENA_LATE
 10
572849.72981018969
 20
511849.80205964763
 30
0.0
  0
VERTEX
  5
1AC
  8
TENA_LATE
 10
572860.72769433726
 20
511855.99035845872
 30
0.0
  0
SEQEND
  5
1AD
  8
TENA_LATE
  0
POLYLINE
  5
76
  8
TENA_LATE
 66
     1
 10
0.0
 20
0.0
 30
0.0
 70
     1
  0
VERTEX
  5
1AE
  8
TENA_LATE
 10
568600.19501820579
 20
511629.41773092991
 30
0.0
  0
VERTEX
  5
1AF
  8
TENA_LATE
 10
568593.70871162473
 20
511626.2491636026
 30
0.0
  0
VERTEX
  5
1B0
  8
TENA_LATE
 10
568586.40873993572
 20
511624.93376737239
 30
0.0
  0
VERTEX
  5
1B1
  8
TENA_LATE
 10
568578.87550576753
 20
511625.5710454096
 30
0.0
  0
VERTEX
  5
1B2
  8
TENA_LATE
 10
568572.53851667955
 20
511629.31160029338
 30
0.0
  0
VERTEX
  5
1B3
  8
TENA_LATE
 10
568570.43721933686
 20
511637.18037413253
 30
0.0
  0
VERTEX
  5
1B4
  8
TENA_LATE
 10
568572.75806271133
 20
511645.6017150993
 30
0.0
  0
VERTEX
  5
1B5
  8
TENA_LATE
 10
568579.02808267728
 20
511650.12845164433
 30
0.0
  0
VERTEX
  5
1B6
  8
TENA_LATE
 10
568588.63393669249
 20
511651.5096914632
 30
0.0
  0
VERTEX
  5
1B7
  8
TENA_LATE
 10
568595.57721875748
 20
511650.5151394424
 30
0.0
  0
VERTEX
  5
1B8
  8
TENA_LATE
 10
568602.5471954192
 20
511646.86941255472
 30
0.0
  0
VERTEX
  5
1B9
  8
TENA_LATE
 10
568604.20386466477
 20
511635.14268433279
 30
0.0
  0
SEQEND
  5
1BA
  8
TENA_LATE
  0
POLYLINE
  5
77
  8
TENA_LATE
 66
     1
 10
0.0
 20
0.0
 30
0.0
 70
     1
  0
VERTEX
  5
1BB
  8
TENA_LATE
 10
575414.41340508766
 20
511774.9805733065
 30
0.0
  0
VERTEX
  5
1BC
  8
TENA_LATE
 10
575412.45949321019
 20
511783.67364116141
 30
0.0
  0
VERTEX
  5
1BD
  8
TENA_LATE
 10
575413.4919336763
 20
511797.31842448312
 30
0.0
  0
VERTEX
  5
1BE
  8
TENA_LATE
 10
575431.95392991847
 20
511801.36460587732
 30
0.0
  0
VERTEX
  5
1BF
  8
TENA_LATE
 10
575449.55617621506
 20
511801.86723129993
 30
0.0
  0
VERTEX
  5
1C0
  8
TENA_LATE
 10
575458.03287607594
 20
511798.09704821208
 30
0.0
  0
VERTEX
  5
1C1
  8
TENA_LATE
 10
575458.09203543724
 20
511787.64935591607
 30
0.0
  0
VERTEX
  5
1C2
  8
TENA_LATE
 10
575454.38374496915
 20
511778.28173617902
 30
0.0
  0
VERTEX
  5
1C3
  8
TENA_LATE
 10
575439.30823090638
 20
511772.28796435858
 30
0.0
  0
VERTEX
  5
1C4
  8
TENA_LATE
 10
575422.50130970578
 20
511772.78012231248
 30
0.0
  0
SEQEND
  5
1C5
  8
TENA_LATE
  0
POLYLINE
  5
78
  8
TENA_LATE
 66
     1
 10
0.0
 20
0.0
 30
0.0
 70
     1
  0
VERTEX
  5
1C6
  8
TENA_LATE
 10
569691.52174799645
 20
511277.44479886699
 30
0.0
  0
VERTEX
  5
1C7
  8
TENA_LATE
 10
569681.00051833922
 20
511260.66661507299
 30
0.0
  0
VERTEX
  5
1C8
  8
TENA_LATE
 10
569663.45646065054
 20
511261.62264712801
 30
0.0
  0
VERTEX
  5
1C9
  8
TENA_LATE
 10
569648.26109428634
 20
511256.8155338029
 30
0.0
  0
VERTEX
  5
1CA
  8
TENA_LATE
 10
569633.5797616659
 20
511259.79745622422
 30
0.0
  0
VERTEX
  5
1CB
  8
TENA_LATE
 10
569625.73226823017
 20
511273.63886781147
 30
0.0
  0
VERTEX
  5
1CC
  8
TENA_LATE
 10
569629.66714546375
 20
511289.25214854669
 30
0.0
  0
VERTEX
  5
1CD
  8
TENA_LATE
 10
569632.28551997431
 20
511298.95236352819
 30
0.0
  0
VERTEX
  5
1CE
  8
TENA_LATE
 10
569640.3239451719
 20
511303.69393733161
 30
0.0
  0
VERTEX
  5
1CF
  8
TENA_LATE
 10
569650.82895863825
 20
511303.99390398042
 30
0.0
  0
VERTEX
  5
1D0
  8
TENA_LATE
 10
569664.37820750021
 20
511300.60145812202
 30
0.0
  0
VERTEX
  5
1D1
  8
TENA_LATE
 10
569675.81059648073
 20
511297.5695953297
 30
0.0
  0
VERTEX
  5
1D2
  8
TENA_LATE
 10
569684.83671439858
 20
511290.68968290172
 30
0.0
  0
SEQEND
  5
1D3
  8
TENA_LATE
  0
POLYLINE
  5
79
  8
TENA_LATE
 66
     1
 10
0.0
 20
0.0
 30
0.0
 70
     1
  0
VERTEX
  5
1D4
  8
TENA_LATE
 10
564931.0795010163
 20
510815.9422010298
 30
0.0
  0
VERTEX
  5
1D5
  8
TENA_LATE
 10
564938.71081775345
 20
510812.7565379148
 30
0.0
  0
VERTEX
  5
1D6
  8
TENA_LATE
 10
564949.91854992765
 20
510805.48235003091
 30
0.0
  0
VERTEX
  5
1D7
  8
TENA_LATE
 10
564956.36277115007
 20
510802.49001196062
 30
0.0
  0
VERTEX
  5
1D8
  8
TENA_LATE
 10
564958.44456578558
 20
510794.85033351713
 30
0.0
  0
VERTEX
  5
1D9
  8
TENA_LATE
 10
564951.7897588379
 20
510780.80968295102
 30
0.0
  0
VERTEX
  5
1DA
  8
TENA_LATE
 10
564944.59848172823
 20
510776.95724174689
 30
0.0
  0
VERTEX
  5
1DB
  8
TENA_LATE
 10
564929.60479401262
 20
510781.39220253407
 30
0.0
  0
VERTEX
  5
1DC
  8
TENA_LATE
 10
564918.57772931305
 20
510788.70101527788
 30
0.0
  0
VERTEX
  5
1DD
  8
TENA_LATE
 10
564903.06475140969
 20
510797.1551503379
 30
0.0
  0
VERTEX
  5
1DE
  8
TENA_LATE
 10
564899.93095227436
 20
510807.5196040619
 30
0.0
  0
VERTEX
  5
1DF
  8
TENA_LATE
 10
564900.69142024952
 20
510814.83085514692
 30
0.0
  0
VERTEX
  5
1E0
  8
TENA_LATE
 10
564906.11537056626
 20
510821.06190010509
 30
0.0
  0
VERTEX
  5
1E1
  8
TENA_LATE
 10
564913.13103307632
 20
510823.49708664638
 30
0.0
  0
VERTEX
  5
1E2
  8
TENA_LATE
 10
564923.66627516551
 20
510819.86253898102
 30
0.0
  0
SEQEND
  5
1E3
  8
TENA_LATE
  0
POLYLINE
  5
7A
  8
TENA_LATE
 66
     1
 10
0.0
 20
0.0
 30
0.0
 70
     1
  0
VERTEX
  5
1E4
  8
TENA_LATE
 10
575396.27223940706
 20
510314.70777002029
 30
0.0
  0
VERTEX
  5
1E5
  8
TENA_LATE
 10
575390.64366354409
 20
510318.95134971512
 30
0.0
  0
VERTEX
  5
1E6
  8
TENA_LATE
 10
575401.9459557248
 20
510329.33726735029
 30
0.0
  0
VERTEX
  5
1E7
  8
TENA_LATE
 10
575407.73087583971
 20
510338.50850895949
 30
0.0
  0
VERTEX
  5
1E8
  8
TENA_LATE
 10
575414.39084939566
 20
510346.75119435717
 30
0.0
  0
VERTEX
  5
1E9
  8
TENA_LATE
 10
575422.88028896705
 20
510357.80083306669
 30
0.0
  0
VERTEX
  5
1EA
  8
TENA_LATE
 10
575426.73261045024
 20
510360.34780182689
 30
0.0
  0
VERTEX
  5
1EB
  8
TENA_LATE
 10
575429.27655785123
 20
510360.42044327367
 30
0.0
  0
VERTEX
  5
1EC
  8
TENA_LATE
 10
575431.926334435
 20
510360.4961066324
 30
0.0
  0
VERTEX
  5
1ED
  8
TENA_LATE
 10
575434.80339059862
 20
510360.04847999348
 30
0.0
  0
VERTEX
  5
1EE
  8
TENA_LATE
 10
575438.25877000345
 20
510357.92211204482
 30
0.0
  0
VERTEX
  5
1EF
  8
TENA_LATE
 10
575440.33624534996
 20
510355.7563985727
 30
0.0
  0
VERTEX
  5
1F0
  8
TENA_LATE
 10
575442.13492539607
 20
510352.20531677408
 30
0.0
  0
VERTEX
  5
1F1
  8
TENA_LATE
 10
575453.24535248964
 20
510338.17922609538
 30
0.0
  0
VERTEX
  5
1F2
  8
TENA_LATE
 10
575453.67821901373
 20
510334.16538086481
 30
0.0
  0
VERTEX
  5
1F3
  8
TENA_LATE
 10
575451.47320003016
 20
510329.65234741569
 30
0.0
  0
VERTEX
  5
1F4
  8
TENA_LATE
 10
575448.79286453663
 20
510326.92701332201
 30
0.0
  0
VERTEX
  5
1F5
  8
TENA_LATE
 10
575437.88735232607
 20
510326.19174617861
 30
0.0
  0
VERTEX
  5
1F6
  8
TENA_LATE
 10
575405.54831221292
 20
510308.36862262571
 30
0.0
  0
SEQEND
  5
1F7
  8
TENA_LATE
  0
POLYLINE
  5
7B
  8
TENA_LATE
 66
     1
 10
0.0
 20
0.0
 30
0.0
 70
     1
  0
VERTEX
  5
1F8
  8
TENA_LATE
 10
573360.87969444506
 20
510178.6693627538
 30
0.0
  0
VERTEX
  5
1F9
  8
TENA_LATE
 10
573386.27374178416
 20
510178.41926792078
 30
0.0
  0
VERTEX
  5
1FA
  8
TENA_LATE
 10
573396.30820226285
 20
510168.95357526903
 30
0.0
  0
VERTEX
  5
1FB
  8
TENA_LATE
 10
573396.75339691376
 20
510153.36258932803
 30
0.0
  0
VERTEX
  5
1FC
  8
TENA_LATE
 10
573388.22323521052
 20
510144.34190187813
 30
0.0
  0
VERTEX
  5
1FD
  8
TENA_LATE
 10
573369.76990663493
 20
510140.8893376523
 30
0.0
  0
VERTEX
  5
1FE
  8
TENA_LATE
 10
573340.41768403805
 20
510142.97683261632
 30
0.0
  0
VERTEX
  5
1FF
  8
TENA_LATE
 10
573337.04549295467
 20
510158.48423929169
 30
0.0
  0
VERTEX
  5
200
  8
TENA_LATE
 10
573339.52729473601
 20
510174.15880449943
 30
0.0
  0
SEQEND
  5
201
  8
TENA_LATE
  0
POLYLINE
  5
7C
  8
TENA_LATE
 66
     1
 10
0.0
 20
0.0
 30
0.0
 70
     1
  0
VERTEX
  5
202
  8
TENA_LATE
 10
571912.77443647804
 20
509989.54703532002
 30
0.0
  0
VERTEX
  5
203
  8
TENA_LATE
 10
571922.52950208122
 20
509986.71343447821
 30
0.0
  0
VERTEX
  5
204
  8
TENA_LATE
 10
571928.22105086327
 20
509982.90635192371
 30
0.0
  0
VERTEX
  5
205
  8
TENA_LATE
 10
571930.07603064924
 20
509974.3729775839
 30
0.0
  0
VERTEX
  5
206
  8
TENA_LATE
 10
571925.57035745145
 20
509966.62519003171
 30
0.0
  0
VERTEX
  5
207
  8
TENA_LATE
 10
571915.92904261802
 20
509961.95034354692
 30
0.0
  0
VERTEX
  5
208
  8
TENA_LATE
 10
571901.66470276634
 20
509964.6551837821
 30
0.0
  0
VERTEX
  5
209
  8
TENA_LATE
 10
571896.09201259224
 20
509971.79268198868
 30
0.0
  0
VERTEX
  5
20A
  8
TENA_LATE
 10
571896.58322470379
 20
509980.8206618813
 30
0.0
  0
VERTEX
  5
20B
  8
TENA_LATE
 10
571902.11853849236
 20
509986.45311273198
 30
0.0
  0
SEQEND
  5
20C
  8
TENA_LATE
  0
POLYLINE
  5
7D
  8
TENA_LATE
 66
     1
 10
0.0
 20
0.0
 30
0.0
 70
     1
  0
VERTEX
  5
20D
  8
TENA_LATE
 10
574649.53029157314
 20
509674.27427081222
 30
0.0
  0
VERTEX
  5
20E
  8
TENA_LATE
 10
574657.18021942407
 20
509664.58931111178
 30
0.0
  0
VERTEX
  5
20F
  8
TENA_LATE
 10
574659.65156640299
 20
509652.78246166918
 30
0.0
  0
VERTEX
  5
210
  8
TENA_LATE
 10
574658.70532728627
 20
509645.17205634119
 30
0.0
  0
VERTEX
  5
211
  8
TENA_LATE
 10
574652.89862010523
 20
509637.22125827638
 30
0.0
  0
VERTEX
  5
212
  8
TENA_LATE
 10
574648.37565312756
 20
509632.99755221623
 30
0.0
  0
VERTEX
  5
213
  8
TENA_LATE
 10
574639.63412296225
 20
509630.21599431988
 30
0.0
  0
VERTEX
  5
214
  8
TENA_LATE
 10
574624.78092694923
 20
509625.18474643282
 30
0.0
  0
VERTEX
  5
215
  8
TENA_LATE
 10
574611.13556579466
 20
509623.48210076941
 30
0.0
  0
VERTEX
  5
216
  8
TENA_LATE
 10
574604.96635375533
 20
509626.69807161461
 30
0.0
  0
VERTEX
  5
217
  8
TENA_LATE
 10
574598.95316047373
 20
509631.69485997868
 30
0.0
  0
VERTEX
  5
218
  8
TENA_LATE
 10
574596.4789566067
 20
509644.31098001829
 30
0.0
  0
VERTEX
  5
219
  8
TENA_LATE
 10
574597.74492206716
 20
509653.21729687211
 30
0.0
  0
VERTEX
  5
21A
  8
TENA_LATE
 10
574599.02019278111
 20
509659.37220355368
 30
0.0
  0
VERTEX
  5
21B
  8
TENA_LATE
 10
574604.02888093225
 20
509663.75943796081
 30
0.0
  0
VERTEX
  5
21C
  8
TENA_LATE
 10
574615.25855909334
 20
509669.02875963942
 30
0.0
  0
VERTEX
  5
21D
  8
TENA_LATE
 10
574630.46952655527
 20
509674.34625183238
 30
0.0
  0
VERTEX
  5
21E
  8
TENA_LATE
 10
574642.1781236392
 20
509676.14143006539
 30
0.0
  0
SEQEND
  5
21F
  8
TENA_LATE
  0
POLYLINE
  5
7E
  8
TENA_LATE
 66
     1
 10
0.0
 20
0.0
 30
0.0
 70
     1
  0
VERTEX
  5
220
  8
TENA_LATE
 10
565967.22271717305
 20
509239.41945778468
 30
0.0
  0
VERTEX
  5
221
  8
TENA_LATE
 10
565961.67654552555
 20
509245.64244557178
 30
0.0
  0
VERTEX
  5
222
  8
TENA_LATE
 10
565957.47967191157
 20
509249.35338380659
 30
0.0
  0
VERTEX
  5
223
  8
TENA_LATE
 10
565954.50123547076
 20
509255.13864507328
 30
0.0
  0
VERTEX
  5
224
  8
TENA_LATE
 10
565954.27542122465
 20
509263.04679654812
 30
0.0
  0
VERTEX
  5
225
  8
TENA_LATE
 10
565962.93367595738
 20
509273.24826150201
 30
0.0
  0
VERTEX
  5
226
  8
TENA_LATE
 10
565978.84742542577
 20
509278.20215623692
 30
0.0
  0
VERTEX
  5
227
  8
TENA_LATE
 10
565988.31151274987
 20
509268.55877214792
 30
0.0
  0
VERTEX
  5
228
  8
TENA_LATE
 10
566000.77115079155
 20
509257.16198519227
 30
0.0
  0
VERTEX
  5
229
  8
TENA_LATE
 10
566005.09119111812
 20
509247.37171480502
 30
0.0
  0
VERTEX
  5
22A
  8
TENA_LATE
 10
566007.52904643607
 20
509239.3618799097
 30
0.0
  0
VERTEX
  5
22B
  8
TENA_LATE
 10
566003.20608925587
 20
509232.27910441038
 30
0.0
  0
VERTEX
  5
22C
  8
TENA_LATE
 10
565994.89610271528
 20
509227.95556457847
 30
0.0
  0
VERTEX
  5
22D
  8
TENA_LATE
 10
565986.6844964613
 20
509228.99875397119
 30
0.0
  0
VERTEX
  5
22E
  8
TENA_LATE
 10
565979.50535203505
 20
509229.81362301268
 30
0.0
  0
VERTEX
  5
22F
  8
TENA_LATE
 10
565972.99853743857
 20
509233.9696489831
 30
0.0
  0
SEQEND
  5
230
  8
TENA_LATE
  0
POLYLINE
  5
7F
  8
TENA_LATE
 66
     1
 10
0.0
 20
0.0
 30
0.0
 70
     1
  0
VERTEX
  5
231
  8
TENA_LATE
 10
565846.47879086086
 20
508706.92184982088
 30
0.0
  0
VERTEX
  5
232
  8
TENA_LATE
 10
565863.63051364606
 20
508709.34390991851
 30
0.0
  0
VERTEX
  5
233
  8
TENA_LATE
 10
565876.16359372321
 20
508711.05600667401
 30
0.0
  0
VERTEX
  5
234
  8
TENA_LATE
 10
565877.1221672087
 20
508694.89754999918
 30
0.0
  0
VERTEX
  5
235
  8
TENA_LATE
 10
565881.92643733555
 20
508678.74501540442
 30
0.0
  0
VERTEX
  5
236
  8
TENA_LATE
 10
565859.86494371598
 20
508671.92902722931
 30
0.0
  0
VERTEX
  5
237
  8
TENA_LATE
 10
565836.83842868183
 20
508668.26679520641
 30
0.0
  0
VERTEX
  5
238
  8
TENA_LATE
 10
565821.55602687865
 20
508667.83041205752
 30
0.0
  0
VERTEX
  5
239
  8
TENA_LATE
 10
565811.15534200985
 20
508672.33425085002
 30
0.0
  0
VERTEX
  5
23A
  8
TENA_LATE
 10
565809.37788140401
 20
508680.7982495813
 30
0.0
  0
VERTEX
  5
23B
  8
TENA_LATE
 10
565811.59963167144
 20
508687.19343117799
 30
0.0
  0
VERTEX
  5
23C
  8
TENA_LATE
 10
565817.50087731564
 20
508695.00010520167
 30
0.0
  0
VERTEX
  5
23D
  8
TENA_LATE
 10
565833.02667031705
 20
508703.44471433171
 30
0.0
  0
SEQEND
  5
23E
  8
TENA_LATE
  0
POLYLINE
  5
80
  8
TENA_LATE
 66
     1
 10
0.0
 20
0.0
 30
0.0
 70
     1
  0
VERTEX
  5
23F
  8
TENA_LATE
 10
566324.34240505705
 20
508646.04104799981
 30
0.0
  0
VERTEX
  5
240
  8
TENA_LATE
 10
566330.76258427405
 20
508640.47223203001
 30
0.0
  0
VERTEX
  5
241
  8
TENA_LATE
 10
566338.50236143102
 20
508626.83218378213
 30
0.0
  0
VERTEX
  5
242
  8
TENA_LATE
 10
566331.81690776895
 20
508623.67332104541
 30
0.0
  0
VERTEX
  5
243
  8
TENA_LATE
 10
566324.93846320838
 20
508619.08516410168
 30
0.0
  0
VERTEX
  5
244
  8
TENA_LATE
 10
566316.64805196517
 20
508613.86331932392
 30
0.0
  0
VERTEX
  5
245
  8
TENA_LATE
 10
566310.19618965918
 20
508610.94948714069
 30
0.0
  0
VERTEX
  5
246
  8
TENA_LATE
 10
566303.69010136684
 20
508609.81411429372
 30
0.0
  0
VERTEX
  5
247
  8
TENA_LATE
 10
566294.32555312454
 20
508614.13115203328
 30
0.0
  0
VERTEX
  5
248
  8
TENA_LATE
 10
566291.67918861879
 20
508621.86153619242
 30
0.0
  0
VERTEX
  5
249
  8
TENA_LATE
 10
566291.74995531514
 20
508628.86197745701
 30
0.0
  0
VERTEX
  5
24A
  8
TENA_LATE
 10
566298.77956827031
 20
508632.83698197763
 30
0.0
  0
VERTEX
  5
24B
  8
TENA_LATE
 10
566311.35388120834
 20
508640.7256547166
 30
0.0
  0
SEQEND
  5
24C
  8
TENA_LATE
  0
POLYLINE
  5
81
  8
TENA_LATE
 66
     1
 10
0.0
 20
0.0
 30
0.0
 70
     1
  0
VERTEX
  5
24D
  8
TENA_LATE
 10
566083.61514579505
 20
508618.61622981721
 30
0.0
  0
VERTEX
  5
24E
  8
TENA_LATE
 10
566086.98003878945
 20
508617.9672594688
 30
0.0
  0
VERTEX
  5
24F
  8
TENA_LATE
 10
566089.43945085513
 20
508611.54646843602
 30
0.0
  0
VERTEX
  5
250
  8
TENA_LATE
 10
566089.86086159886
 20
508602.0330958924
 30
0.0
  0
VERTEX
  5
251
  8
TENA_LATE
 10
566082.43807051203
 20
508600.7990464886
 30
0.0
  0
VERTEX
  5
252
  8
TENA_LATE
 10
566069.69163495314
 20
508597.51622467389
 30
0.0
  0
VERTEX
  5
253
  8
TENA_LATE
 10
566061.15570301609
 20
508596.90684312303
 30
0.0
  0
VERTEX
  5
254
  8
TENA_LATE
 10
566056.39107444638
 20
508599.87676727283
 30
0.0
  0
VERTEX
  5
255
  8
TENA_LATE
 10
566054.7712111267
 20
508605.3145242483
 30
0.0
  0
VERTEX
  5
256
  8
TENA_LATE
 10
566057.2923318611
 20
508612.00572464347
 30
0.0
  0
VERTEX
  5
257
  8
TENA_LATE
 10
566061.94485130766
 20
508613.77398741391
 30
0.0
  0
VERTEX
  5
258
  8
TENA_LATE
 10
566067.9460325262
 20
508615.07730780978
 30
0.0
  0
VERTEX
  5
259
  8
TENA_LATE
 10
566073.67063555948
 20
508616.02399937058
 30
0.0
  0
SEQEND
  5
25A
  8
TENA_LATE
  0
POLYLINE
  5
82
  8
TENA_LATE
 66
     1
 10
0.0
 20
0.0
 30
0.0
 70
     1
  0
VERTEX
  5
25B
  8
TENA_LATE
 10
572354.0639719601
 20
508685.99564735021
 30
0.0
  0
VERTEX
  5
25C
  8
TENA_LATE
 10
572336.89323201159
 20
508690.85306222161
 30
0.0
  0
VERTEX
  5
25D
  8
TENA_LATE
 10
572331.85152136604
 20
508697.02656113909
 30
0.0
  0
VERTEX
  5
25E
  8
TENA_LATE
 10
572331.13144995435
 20
508712.01693595957
 30
0.0
  0
VERTEX
  5
25F
  8
TENA_LATE
 10
572338.88292272598
 20
508721.08080066909
 30
0.0
  0
VERTEX
  5
260
  8
TENA_LATE
 10
572349.71039420215
 20
508725.5987480451
 30
0.0
  0
VERTEX
  5
261
  8
TENA_LATE
 10
572361.09922027332
 20
508725.50383375009
 30
0.0
  0
VERTEX
  5
262
  8
TENA_LATE
 10
572367.45232351823
 20
508724.42235912522
 30
0.0
  0
VERTEX
  5
263
  8
TENA_LATE
 10
572373.90153569542
 20
508719.97509154159
 30
0.0
  0
VERTEX
  5
264
  8
TENA_LATE
 10
572381.68618244166
 20
508713.04028791358
 30
0.0
  0
VERTEX
  5
265
  8
TENA_LATE
 10
572383.84245480574
 20
508708.23207662831
 30
0.0
  0
VERTEX
  5
266
  8
TENA_LATE
 10
572385.01837297273
 20
508701.21741522272
 30
0.0
  0
VERTEX
  5
267
  8
TENA_LATE
 10
572384.07497830701
 20
508691.71306729468
 30
0.0
  0
VERTEX
  5
268
  8
TENA_LATE
 10
572377.84523037926
 20
508688.13413821079
 30
0.0
  0
VERTEX
  5
269
  8
TENA_LATE
 10
572367.45525097172
 20
508685.64958287659
 30
0.0
  0
SEQEND
  5
26A
  8
TENA_LATE
  0
POLYLINE
  5
83
  8
TENA_LATE
 66
     1
 10
0.0
 20
0.0
 30
0.0
 70
     1
  0
VERTEX
  5
26B
  8
TENA_LATE
 10
574601.61860779172
 20
508620.68870500347
 30
0.0
  0
VERTEX
  5
26C
  8
TENA_LATE
 10
574606.37367084611
 20
508621.49703714048
 30
0.0
  0
VERTEX
  5
26D
  8
TENA_LATE
 10
574611.14514273126
 20
508617.55341258872
 30
0.0
  0
VERTEX
  5
26E
  8
TENA_LATE
 10
574613.94367702899
 20
508610.83083661698
 30
0.0
  0
VERTEX
  5
26F
  8
TENA_LATE
 10
574610.39022504503
 20
508606.46267672972
 30
0.0
  0
VERTEX
  5
270
  8
TENA_LATE
 10
574604.46063109487
 20
508601.29416937882
 30
0.0
  0
VERTEX
  5
271
  8
TENA_LATE
 10
574593.76638300263
 20
508598.08938845701
 30
0.0
  0
VERTEX
  5
272
  8
TENA_LATE
 10
574588.09510641405
 20
508602.04468349047
 30
0.0
  0
VERTEX
  5
273
  8
TENA_LATE
 10
574586.43831924861
 20
508608.98830205249
 30
0.0
  0
VERTEX
  5
274
  8
TENA_LATE
 10
574592.59208316088
 20
508615.74596838059
 30
0.0
  0
SEQEND
  5
275
  8
TENA_LATE
  0
POLYLINE
  5
84
  8
TENA_LATE
 66
     1
 10
0.0
 20
0.0
 30
0.0
 70
     1
  0
VERTEX
  5
276
  8
TENA_LATE
 10
575269.64600764087
 20
508360.09325539612
 30
0.0
  0
VERTEX
  5
277
  8
TENA_LATE
 10
575265.28923426906
 20
508365.53872741357
 30
0.0
  0
VERTEX
  5
278
  8
TENA_LATE
 10
575260.58426120691
 20
508373.14289121382
 30
0.0
  0
VERTEX
  5
279
  8
TENA_LATE
 10
575259.72981482325
 20
508384.34624173137
 30
0.0
  0
VERTEX
  5
27A
  8
TENA_LATE
 10
575262.84124394425
 20
508393.15883657511
 30
0.0
  0
VERTEX
  5
27B
  8
TENA_LATE
 10
575273.58329825255
 20
508401.67169204209
 30
0.0
  0
VERTEX
  5
27C
  8
TENA_LATE
 10
575286.63606844435
 20
508402.69458410371
 30
0.0
  0
VERTEX
  5
27D
  8
TENA_LATE
 10
575296.12798096077
 20
508395.06610991288
 30
0.0
  0
VERTEX
  5
27E
  8
TENA_LATE
 10
575300.24549338559
 20
508384.15926030389
 30
0.0
  0
VERTEX
  5
27F
  8
TENA_LATE
 10
575302.90024413494
 20
508371.45432864007
 30
0.0
  0
VERTEX
  5
280
  8
TENA_LATE
 10
575302.27879485523
 20
508362.32420746761
 30
0.0
  0
VERTEX
  5
281
  8
TENA_LATE
 10
575294.13111373177
 20
508358.71025776968
 30
0.0
  0
VERTEX
  5
282
  8
TENA_LATE
 10
575288.48378173239
 20
508356.6886953279
 30
0.0
  0
VERTEX
  5
283
  8
TENA_LATE
 10
575273.44758583012
 20
508356.63713468262
 30
0.0
  0
SEQEND
  5
284
  8
TENA_LATE
  0
POLYLINE
  5
85
  8
TENA_LATE
 66
     1
 10
0.0
 20
0.0
 30
0.0
 70
     1
  0
VERTEX
  5
285
  8
TENA_LATE
 10
575528.75906633679
 20
508377.77170239488
 30
0.0
  0
VERTEX
  5
286
  8
TENA_LATE
 10
575535.83976100176
 20
508373.30530500418
 30
0.0
  0
VERTEX
  5
287
  8
TENA_LATE
 10
575540.37337500555
 20
508362.41499486828
 30
0.0
  0
VERTEX
  5
288
  8
TENA_LATE
 10
575540.41300355876
 20
508350.86759339151
 30
0.0
  0
VERTEX
  5
289
  8
TENA_LATE
 10
575538.52134560223
 20
508340.59678501042
 30
0.0
  0
VERTEX
  5
28A
  8
TENA_LATE
 10
575528.89780674898
 20
508337.35615278222
 30
0.0
  0
VERTEX
  5
28B
  8
TENA_LATE
 10
575508.99530922866
 20
508334.7216827856
 30
0.0
  0
VERTEX
  5
28C
  8
TENA_LATE
 10
575485.2368000818
 20
508332.71557768708
 30
0.0
  0
VERTEX
  5
28D
  8
TENA_LATE
 10
575480.71861067368
 20
508339.11535021232
 30
0.0
  0
VERTEX
  5
28E
  8
TENA_LATE
 10
575476.17178715195
 20
508353.8547941742
 30
0.0
  0
VERTEX
  5
28F
  8
TENA_LATE
 10
575478.05023559148
 20
508367.97473638022
 30
0.0
  0
VERTEX
  5
290
  8
TENA_LATE
 10
575488.31387083849
 20
508371.85911464831
 30
0.0
  0
VERTEX
  5
291
  8
TENA_LATE
 10
575504.37145234598
 20
508371.91422239132
 30
0.0
  0
SEQEND
  5
292
  8
TENA_LATE
  0
POLYLINE
  5
86
  8
TENA_LATE
 66
     1
 10
0.0
 20
0.0
 30
0.0
 70
     1
  0
VERTEX
  5
293
  8
TENA_LATE
 10
575039.56835463177
 20
507728.15579436882
 30
0.0
  0
VERTEX
  5
294
  8
TENA_LATE
 10
575019.63261893252
 20
507759.21020374022
 30
0.0
  0
VERTEX
  5
295
  8
TENA_LATE
 10
575009.32123676303
 20
507774.5440700656
 30
0.0
  0
VERTEX
  5
296
  8
TENA_LATE
 10
574994.53277730162
 20
507786.66062385129
 30
0.0
  0
VERTEX
  5
297
  8
TENA_LATE
 10
574973.94976327079
 20
507805.801513799
 30
0.0
  0
VERTEX
  5
298
  8
TENA_LATE
 10
574973.21682665858
 20
507815.02257075597
 30
0.0
  0
VERTEX
  5
299
  8
TENA_LATE
 10
574982.06512355863
 20
507821.30623572413
 30
0.0
  0
VERTEX
  5
29A
  8
TENA_LATE
 10
575012.27272527711
 20
507837.04304065311
 30
0.0
  0
VERTEX
  5
29B
  8
TENA_LATE
 10
575023.74925802439
 20
507837.60353993718
 30
0.0
  0
VERTEX
  5
29C
  8
TENA_LATE
 10
575043.12911085703
 20
507825.25052646821
 30
0.0
  0
VERTEX
  5
29D
  8
TENA_LATE
 10
575065.02980451402
 20
507795.86799359648
 30
0.0
  0
VERTEX
  5
29E
  8
TENA_LATE
 10
575077.28217642964
 20
507775.41771718703
 30
0.0
  0
VERTEX
  5
29F
  8
TENA_LATE
 10
575083.07464598573
 20
507769.03377594758
 30
0.0
  0
VERTEX
  5
2A0
  8
TENA_LATE
 10
575068.97786396835
 20
507766.42383155791
 30
0.0
  0
VERTEX
  5
2A1
  8
TENA_LATE
 10
575057.4589007555
 20
507759.98047045222
 30
0.0
  0
VERTEX
  5
2A2
  8
TENA_LATE
 10
575049.15687565831
 20
507750.3461956784
 30
0.0
  0
VERTEX
  5
2A3
  8
TENA_LATE
 10
575042.12820804166
 20
507743.27779779863
 30
0.0
  0
SEQEND
  5
2A4
  8
TENA_LATE
  0
POLYLINE
  5
87
  8
TENA_LATE
 66
     1
 10
0.0
 20
0.0
 30
0.0
 70
     1
  0
VERTEX
  5
2A5
  8
TENA_LATE
 10
575103.66693299066
 20
507679.99359666038
 30
0.0
  0
VERTEX
  5
2A6
  8
TENA_LATE
 10
575091.02468453918
 20
507669.82094101858
 30
0.0
  0
VERTEX
  5
2A7
  8
TENA_LATE
 10
575081.37271857052
 20
507674.85244730389
 30
0.0
  0
VERTEX
  5
2A8
  8
TENA_LATE
 10
575067.11542644538
 20
507692.02325393219
 30
0.0
  0
VERTEX
  5
2A9
  8
TENA_LATE
 10
575053.37730530743
 20
507705.65069245052
 30
0.0
  0
VERTEX
  5
2AA
  8
TENA_LATE
 10
575042.6695502412
 20
507722.83384930511
 30
0.0
  0
VERTEX
  5
2AB
  8
TENA_LATE
 10
575043.11757391435
 20
507740.05517280661
 30
0.0
  0
VERTEX
  5
2AC
  8
TENA_LATE
 10
575052.71211612551
 20
507751.73682499951
 30
0.0
  0
VERTEX
  5
2AD
  8
TENA_LATE
 10
575069.91279017425
 20
507763.44459425
 30
0.0
  0
VERTEX
  5
2AE
  8
TENA_LATE
 10
575089.67316148768
 20
507768.07059110282
 30
0.0
  0
VERTEX
  5
2AF
  8
TENA_LATE
 10
575096.28794730594
 20
507761.50923566788
 30
0.0
  0
VERTEX
  5
2B0
  8
TENA_LATE
 10
575107.4871140545
 20
507748.88607182988
 30
0.0
  0
VERTEX
  5
2B1
  8
TENA_LATE
 10
575117.66877998947
 20
507737.27225055872
 30
0.0
  0
VERTEX
  5
2B2
  8
TENA_LATE
 10
575132.9315521695
 20
507722.63719249412
 30
0.0
  0
VERTEX
  5
2B3
  8
TENA_LATE
 10
575132.47481215792
 20
507707.9480732287
 30
0.0
  0
VERTEX
  5
2B4
  8
TENA_LATE
 10
575113.76682145789
 20
507692.18341098778
 30
0.0
  0
SEQEND
  5
2B5
  8
TENA_LATE
  0
POLYLINE
  5
88
  8
TENA_LATE
 66
     1
 10
0.0
 20
0.0
 30
0.0
 70
     1
  0
VERTEX
  5
2B6
  8
TENA_LATE
 10
574849.37977697141
 20
507743.30584634893
 30
0.0
  0
VERTEX
  5
2B7
  8
TENA_LATE
 10
574868.36525154987
 20
507740.72164024552
 30
0.0
  0
VERTEX
  5
2B8
  8
TENA_LATE
 10
574872.48008451087
 20
507730.34479777771
 30
0.0
  0
VERTEX
  5
2B9
  8
TENA_LATE
 10
574871.29356689472
 20
507719.33702117048
 30
0.0
  0
VERTEX
  5
2BA
  8
TENA_LATE
 10
574865.58894053788
 20
507716.2616547583
 30
0.0
  0
VERTEX
  5
2BB
  8
TENA_LATE
 10
574857.44039582834
 20
507713.3800767819
 30
0.0
  0
VERTEX
  5
2BC
  8
TENA_LATE
 10
574849.07770456793
 20
507712.9448435391
 30
0.0
  0
VERTEX
  5
2BD
  8
TENA_LATE
 10
574841.32500526169
 20
507713.1225244588
 30
0.0
  0
VERTEX
  5
2BE
  8
TENA_LATE
 10
574827.43335041113
 20
507718.37147227739
 30
0.0
  0
VERTEX
  5
2BF
  8
TENA_LATE
 10
574828.01751614583
 20
507726.52359529509
 30
0.0
  0
VERTEX
  5
2C0
  8
TENA_LATE
 10
574827.57487678097
 20
507737.11728677881
 30
0.0
  0
VERTEX
  5
2C1
  8
TENA_LATE
 10
574837.76005129016
 20
507741.63593004277
 30
0.0
  0
SEQEND
  5
2C2
  8
TENA_LATE
  0
POLYLINE
  5
89
  8
TENA_LATE
 66
     1
 10
0.0
 20
0.0
 30
0.0
 70
     1
  0
VERTEX
  5
2C3
  8
TENA_LATE
 10
575770.21554002736
 20
507325.91670338571
 30
0.0
  0
VERTEX
  5
2C4
  8
TENA_LATE
 10
575769.40815291833
 20
507320.84788018931
 30
0.0
  0
VERTEX
  5
2C5
  8
TENA_LATE
 10
575764.84870777023
 20
507305.596683754
 30
0.0
  0
VERTEX
  5
2C6
  8
TENA_LATE
 10
575758.49861342902
 20
507295.29972278897
 30
0.0
  0
VERTEX
  5
2C7
  8
TENA_LATE
 10
575736.49230865622
 20
507298.76731322892
 30
0.0
  0
VERTEX
  5
2C8
  8
TENA_LATE
 10
575717.33614189876
 20
507298.7015936785
 30
0.0
  0
VERTEX
  5
2C9
  8
TENA_LATE
 10
575703.48647161049
 20
507302.90574911388
 30
0.0
  0
VERTEX
  5
2CA
  8
TENA_LATE
 10
575702.75510888884
 20
507309.28090428672
 30
0.0
  0
VERTEX
  5
2CB
  8
TENA_LATE
 10
575704.8604095293
 20
507316.02017561003
 30
0.0
  0
VERTEX
  5
2CC
  8
TENA_LATE
 10
575721.84320011118
 20
507329.18813616439
 30
0.0
  0
VERTEX
  5
2CD
  8
TENA_LATE
 10
575731.04343535565
 20
507335.95168596419
 30
0.0
  0
VERTEX
  5
2CE
  8
TENA_LATE
 10
575741.32608535863
 20
507337.40419659409
 30
0.0
  0
VERTEX
  5
2CF
  8
TENA_LATE
 10
575753.38983209559
 20
507336.73700737348
 30
0.0
  0
VERTEX
  5
2D0
  8
TENA_LATE
 10
575764.40887109831
 20
507330.39720341779
 30
0.0
  0
SEQEND
  5
2D1
  8
TENA_LATE
  0
POLYLINE
  5
8A
  8
TENA_LATE
 66
     1
 10
0.0
 20
0.0
 30
0.0
 70
     1
  0
VERTEX
  5
2D2
  8
TENA_LATE
 10
576041.65826110821
 20
507179.52306730638
 30
0.0
  0
VERTEX
  5
2D3
  8
TENA_LATE
 10
576046.4888159082
 20
507182.95359605137
 30
0.0
  0
VERTEX
  5
2D4
  8
TENA_LATE
 10
576057.02384969674
 20
507184.12776690943
 30
0.0
  0
VERTEX
  5
2D5
  8
TENA_LATE
 10
576064.43448737834
 20
507182.73069499771
 30
0.0
  0
VERTEX
  5
2D6
  8
TENA_LATE
 10
576069.30890768149
 20
507173.3590575392
 30
0.0
  0
VERTEX
  5
2D7
  8
TENA_LATE
 10
576066.21966410393
 20
507160.5461037748
 30
0.0
  0
VERTEX
  5
2D8
  8
TENA_LATE
 10
576057.11665892368
 20
507157.10090991983
 30
0.0
  0
VERTEX
  5
2D9
  8
TENA_LATE
 10
576048.00577429845
 20
507155.9316611567
 30
0.0
  0
VERTEX
  5
2DA
  8
TENA_LATE
 10
576039.73376250651
 20
507159.3172396447
 30
0.0
  0
VERTEX
  5
2DB
  8
TENA_LATE
 10
576035.72362160124
 20
507165.84685173217
 30
0.0
  0
VERTEX
  5
2DC
  8
TENA_LATE
 10
576037.40810965619
 20
507172.96506259189
 30
0.0
  0
SEQEND
  5
2DD
  8
TENA_LATE
  0
POLYLINE
  5
8B
  8
TENA_LATE
 66
     1
 10
0.0
 20
0.0
 30
0.0
 70
     1
  0
VERTEX
  5
2DE
  8
TENA_LATE
 10
576828.86868200602
 20
507142.71988044708
 30
0.0
  0
VERTEX
  5
2DF
  8
TENA_LATE
 10
576823.89574628207
 20
507155.2011616223
 30
0.0
  0
VERTEX
  5
2E0
  8
TENA_LATE
 10
576821.71844723611
 20
507165.8840435039
 30
0.0
  0
VERTEX
  5
2E1
  8
TENA_LATE
 10
576823.11286021816
 20
507175.39134684048
 30
0.0
  0
VERTEX
  5
2E2
  8
TENA_LATE
 10
576839.98802806076
 20
507179.01270338782
 30
0.0
  0
VERTEX
  5
2E3
  8
TENA_LATE
 10
576855.91753648967
 20
507180.96789860539
 30
0.0
  0
VERTEX
  5
2E4
  8
TENA_LATE
 10
576868.51872932131
 20
507182.43649181753
 30
0.0
  0
VERTEX
  5
2E5
  8
TENA_LATE
 10
576875.88733616145
 20
507173.64965356339
 30
0.0
  0
VERTEX
  5
2E6
  8
TENA_LATE
 10
576876.66678518406
 20
507164.647223607
 30
0.0
  0
VERTEX
  5
2E7
  8
TENA_LATE
 10
576876.68549752107
 20
507159.18339035561
 30
0.0
  0
VERTEX
  5
2E8
  8
TENA_LATE
 10
576876.22116364853
 20
507155.85596950818
 30
0.0
  0
VERTEX
  5
2E9
  8
TENA_LATE
 10
576874.56687023316
 20
507152.7618899431
 30
0.0
  0
VERTEX
  5
2EA
  8
TENA_LATE
 10
576865.30046807951
 20
507149.87937680638
 30
0.0
  0
VERTEX
  5
2EB
  8
TENA_LATE
 10
576848.9002547618
 20
507146.49718438601
 30
0.0
  0
VERTEX
  5
2EC
  8
TENA_LATE
 10
576835.35825810395
 20
507141.93706369022
 30
0.0
  0
SEQEND
  5
2ED
  8
TENA_LATE
  0
POLYLINE
  5
8C
  8
TENA_LATE
 66
     1
 10
0.0
 20
0.0
 30
0.0
 70
     1
  0
VERTEX
  5
2EE
  8
TENA_LATE
 10
576491.01021985267
 20
507103.10466025391
 30
0.0
  0
VERTEX
  5
2EF
  8
TENA_LATE
 10
576510.35715852003
 20
507098.12418571539
 30
0.0
  0
VERTEX
  5
2F0
  8
TENA_LATE
 10
576542.35918707994
 20
507097.68934115442
 30
0.0
  0
VERTEX
  5
2F1
  8
TENA_LATE
 10
576560.55348219315
 20
507090.34459782869
 30
0.0
  0
VERTEX
  5
2F2
  8
TENA_LATE
 10
576560.86982180108
 20
507084.13853919978
 30
0.0
  0
VERTEX
  5
2F3
  8
TENA_LATE
 10
576552.58535740245
 20
507036.44597477402
 30
0.0
  0
VERTEX
  5
2F4
  8
TENA_LATE
 10
576542.0583233505
 20
507014.68666155008
 30
0.0
  0
VERTEX
  5
2F5
  8
TENA_LATE
 10
576538.59146948019
 20
507006.93117302598
 30
0.0
  0
VERTEX
  5
2F6
  8
TENA_LATE
 10
576515.57898670691
 20
507012.7775336596
 30
0.0
  0
VERTEX
  5
2F7
  8
TENA_LATE
 10
576486.24766468734
 20
507022.30684556358
 30
0.0
  0
VERTEX
  5
2F8
  8
TENA_LATE
 10
576474.72235931351
 20
507031.52887007128
 30
0.0
  0
VERTEX
  5
2F9
  8
TENA_LATE
 10
576476.25466072804
 20
507044.72497688461
 30
0.0
  0
VERTEX
  5
2FA
  8
TENA_LATE
 10
576485.41049016872
 20
507074.63232091721
 30
0.0
  0
SEQEND
  5
2FB
  8
TENA_LATE
  0
POLYLINE
  5
8D
  8
TENA_LATE
 66
     1
 10
0.0
 20
0.0
 30
0.0
 70
     1
  0
VERTEX
  5
2FC
  8
TENA_LATE
 10
576571.67830279842
 20
507074.80734436918
 30
0.0
  0
VERTEX
  5
2FD
  8
TENA_LATE
 10
576602.0962065733
 20
507068.48773866432
 30
0.0
  0
VERTEX
  5
2FE
  8
TENA_LATE
 10
576649.84001343022
 20
507040.33424549003
 30
0.0
  0
VERTEX
  5
2FF
  8
TENA_LATE
 10
576647.31795856485
 20
507027.93816399359
 30
0.0
  0
VERTEX
  5
300
  8
TENA_LATE
 10
576645.72898508597
 20
507014.25156713178
 30
0.0
  0
VERTEX
  5
301
  8
TENA_LATE
 10
576642.19269077096
 20
506992.92081529531
 30
0.0
  0
VERTEX
  5
302
  8
TENA_LATE
 10
576631.82543095376
 20
506976.06612321211
 30
0.0
  0
VERTEX
  5
303
  8
TENA_LATE
 10
576584.77757818776
 20
506988.70859501488
 30
0.0
  0
VERTEX
  5
304
  8
TENA_LATE
 10
576532.77615647414
 20
506992.08671282959
 30
0.0
  0
VERTEX
  5
305
  8
TENA_LATE
 10
576553.3829719529
 20
507036.2364653679
 30
0.0
  0
VERTEX
  5
306
  8
TENA_LATE
 10
576560.34207358945
 20
507071.9929076843
 30
0.0
  0
SEQEND
  5
307
  8
TENA_LATE
  0
POLYLINE
  5
8E
  8
TENA_LATE
 66
     1
 10
0.0
 20
0.0
 30
0.0
 70
     1
  0
VERTEX
  5
308
  8
TENA_LATE
 10
577071.67478442867
 20
507005.7181401744
 30
0.0
  0
VERTEX
  5
309
  8
TENA_LATE
 10
577054.38945540413
 20
507022.04244265408
 30
0.0
  0
VERTEX
  5
30A
  8
TENA_LATE
 10
577040.38958523807
 20
507031.16980885243
 30
0.0
  0
VERTEX
  5
30B
  8
TENA_LATE
 10
577093.50449199555
 20
507084.48836532579
 30
0.0
  0
VERTEX
  5
30C
  8
TENA_LATE
 10
577116.70698950032
 20
507080.49112927308
 30
0.0
  0
VERTEX
  5
30D
  8
TENA_LATE
 10
577129.42430548673
 20
507066.82563138258
 30
0.0
  0
VERTEX
  5
30E
  8
TENA_LATE
 10
577134.74115907727
 20
507055.24341508799
 30
0.0
  0
VERTEX
  5
30F
  8
TENA_LATE
 10
577142.63703691296
 20
507047.22883735329
 30
0.0
  0
VERTEX
  5
310
  8
TENA_LATE
 10
577102.37633803522
 20
507019.25930462388
 30
0.0
  0
SEQEND
  5
311
  8
TENA_LATE
  0
POLYLINE
  5
8F
  8
TENA_LATE
 66
     1
 10
0.0
 20
0.0
 30
0.0
 70
     1
  0
VERTEX
  5
312
  8
TENA_LATE
 10
576892.97119515785
 20
507045.54039785487
 30
0.0
  0
VERTEX
  5
313
  8
TENA_LATE
 10
576896.83466428483
 20
507039.88845024118
 30
0.0
  0
VERTEX
  5
314
  8
TENA_LATE
 10
576882.48945480329
 20
507010.30124194501
 30
0.0
  0
VERTEX
  5
315
  8
TENA_LATE
 10
576876.38401091099
 20
506984.36909067951
 30
0.0
  0
VERTEX
  5
316
  8
TENA_LATE
 10
576859.64061691065
 20
506968.73221714358
 30
0.0
  0
VERTEX
  5
317
  8
TENA_LATE
 10
576848.92833573965
 20
506977.87174428941
 30
0.0
  0
VERTEX
  5
318
  8
TENA_LATE
 10
576831.3679342143
 20
506977.81149318768
 30
0.0
  0
VERTEX
  5
319
  8
TENA_LATE
 10
576819.87663194747
 20
506980.47036203241
 30
0.0
  0
VERTEX
  5
31A
  8
TENA_LATE
 10
576819.85811505129
 20
506985.86706706148
 30
0.0
  0
VERTEX
  5
31B
  8
TENA_LATE
 10
576825.21045981825
 20
507000.72635573772
 30
0.0
  0
VERTEX
  5
31C
  8
TENA_LATE
 10
576826.48939530714
 20
507021.64300698548
 30
0.0
  0
VERTEX
  5
31D
  8
TENA_LATE
 10
576830.47248087323
 20
507041.89425080601
 30
0.0
  0
VERTEX
  5
31E
  8
TENA_LATE
 10
576841.93811102305
 20
507046.6557187679
 30
0.0
  0
VERTEX
  5
31F
  8
TENA_LATE
 10
576867.59428172791
 20
507049.44223053328
 30
0.0
  0
SEQEND
  5
320
  8
TENA_LATE
  0
POLYLINE
  5
90
  8
TENA_LATE
 66
     1
 10
0.0
 20
0.0
 30
0.0
 70
     1
  0
VERTEX
  5
321
  8
TENA_LATE
 10
576113.70424919587
 20
507026.7436377983
 30
0.0
  0
VERTEX
  5
322
  8
TENA_LATE
 10
576127.8304615122
 20
507006.97537424648
 30
0.0
  0
VERTEX
  5
323
  8
TENA_LATE
 10
576155.95302794105
 20
507002.11779854662
 30
0.0
  0
VERTEX
  5
324
  8
TENA_LATE
 10
576147.33182161278
 20
506984.74652921548
 30
0.0
  0
VERTEX
  5
325
  8
TENA_LATE
 10
576134.16275827191
 20
506968.60123712308
 30
0.0
  0
VERTEX
  5
326
  8
TENA_LATE
 10
576128.38378543907
 20
506965.6898102769
 30
0.0
  0
VERTEX
  5
327
  8
TENA_LATE
 10
576104.37746774894
 20
506975.1032479789
 30
0.0
  0
VERTEX
  5
328
  8
TENA_LATE
 10
576084.05644783925
 20
506993.2001599205
 30
0.0
  0
VERTEX
  5
329
  8
TENA_LATE
 10
576098.87256582559
 20
507012.24268257577
 30
0.0
  0
SEQEND
  5
32A
  8
TENA_LATE
  0
POLYLINE
  5
91
  8
TENA_LATE
 66
     1
 10
0.0
 20
0.0
 30
0.0
 70
     1
  0
VERTEX
  5
32B
  8
TENA_LATE
 10
576406.93305531587
 20
506985.18340197182
 30
0.0
  0
VERTEX
  5
32C
  8
TENA_LATE
 10
576385.59769926325
 20
506977.05823076918
 30
0.0
  0
VERTEX
  5
32D
  8
TENA_LATE
 10
576370.25461460219
 20
506984.65480589878
 30
0.0
  0
VERTEX
  5
32E
  8
TENA_LATE
 10
576354.90183556313
 20
506995.06961011939
 30
0.0
  0
VERTEX
  5
32F
  8
TENA_LATE
 10
576355.27445896063
 20
507003.92793874053
 30
0.0
  0
VERTEX
  5
330
  8
TENA_LATE
 10
576374.17624414607
 20
507016.47318070329
 30
0.0
  0
VERTEX
  5
331
  8
TENA_LATE
 10
576393.48226328427
 20
507028.6172393451
 30
0.0
  0
VERTEX
  5
332
  8
TENA_LATE
 10
576406.37934426125
 20
507029.06408648333
 30
0.0
  0
VERTEX
  5
333
  8
TENA_LATE
 10
576418.48125060485
 20
507026.28747427929
 30
0.0
  0
VERTEX
  5
334
  8
TENA_LATE
 10
576421.73907057219
 20
507016.63647911232
 30
0.0
  0
VERTEX
  5
335
  8
TENA_LATE
 10
576420.15293302725
 20
507008.98177851882
 30
0.0
  0
VERTEX
  5
336
  8
TENA_LATE
 10
576415.35205147765
 20
506998.49788358237
 30
0.0
  0
SEQEND
  5
337
  8
TENA_LATE
  0
POLYLINE
  5
92
  8
TENA_LATE
 66
     1
 10
0.0
 20
0.0
 30
0.0
 70
     1
  0
VERTEX
  5
338
  8
TENA_LATE
 10
575856.55521206988
 20
506991.30175383738
 30
0.0
  0
VERTEX
  5
339
  8
TENA_LATE
 10
575883.38065189822
 20
507004.60434896161
 30
0.0
  0
VERTEX
  5
33A
  8
TENA_LATE
 10
575903.22918173939
 20
507004.2600000698
 30
0.0
  0
VERTEX
  5
33B
  8
TENA_LATE
 10
575921.02067240875
 20
506998.95432292152
 30
0.0
  0
VERTEX
  5
33C
  8
TENA_LATE
 10
575916.579637366
 20
506967.55986596801
 30
0.0
  0
VERTEX
  5
33D
  8
TENA_LATE
 10
575896.90505212406
 20
506918.77351563837
 30
0.0
  0
VERTEX
  5
33E
  8
TENA_LATE
 10
575886.17555988242
 20
506912.95548419887
 30
0.0
  0
VERTEX
  5
33F
  8
TENA_LATE
 10
575859.71165202057
 20
506915.75426372187
 30
0.0
  0
VERTEX
  5
340
  8
TENA_LATE
 10
575848.95517663925
 20
506917.78191492357
 30
0.0
  0
SEQEND
  5
341
  8
TENA_LATE
  0
POLYLINE
  5
93
  8
TENA_LATE
 66
     1
 10
0.0
 20
0.0
 30
0.0
 70
     1
  0
VERTEX
  5
342
  8
TENA_LATE
 10
576713.49398433173
 20
506975.08640578511
 30
0.0
  0
VERTEX
  5
343
  8
TENA_LATE
 10
576684.69396842376
 20
506975.21474014019
 30
0.0
  0
VERTEX
  5
344
  8
TENA_LATE
 10
576666.44915722799
 20
506977.1760971272
 30
0.0
  0
VERTEX
  5
345
  8
TENA_LATE
 10
576633.40386290394
 20
506975.17861203389
 30
0.0
  0
VERTEX
  5
346
  8
TENA_LATE
 10
576645.31991558627
 20
506995.07029958512
 30
0.0
  0
VERTEX
  5
347
  8
TENA_LATE
 10
576646.73332268209
 20
507007.62873367209
 30
0.0
  0
VERTEX
  5
348
  8
TENA_LATE
 10
576648.15098979254
 20
507020.4776962623
 30
0.0
  0
VERTEX
  5
349
  8
TENA_LATE
 10
576685.22350137949
 20
507017.71988789988
 30
0.0
  0
VERTEX
  5
34A
  8
TENA_LATE
 10
576709.53125102934
 20
507020.50191857788
 30
0.0
  0
VERTEX
  5
34B
  8
TENA_LATE
 10
576750.58010603616
 20
507010.22789136082
 30
0.0
  0
VERTEX
  5
34C
  8
TENA_LATE
 10
576746.12328737811
 20
507007.90040173562
 30
0.0
  0
SEQEND
  5
34D
  8
TENA_LATE
  0
POLYLINE
  5
94
  8
TENA_LATE
 66
     1
 10
0.0
 20
0.0
 30
0.0
 70
     1
  0
VERTEX
  5
34E
  8
TENA_LATE
 10
576972.92453125643
 20
506926.727723221
 30
0.0
  0
VERTEX
  5
34F
  8
TENA_LATE
 10
576971.96863964957
 20
506947.49084558088
 30
0.0
  0
VERTEX
  5
350
  8
TENA_LATE
 10
577024.36431334727
 20
507007.71367088752
 30
0.0
  0
VERTEX
  5
351
  8
TENA_LATE
 10
577034.20191822748
 20
507018.17036341148
 30
0.0
  0
VERTEX
  5
352
  8
TENA_LATE
 10
577080.01985473069
 20
507002.24564239441
 30
0.0
  0
VERTEX
  5
353
  8
TENA_LATE
 10
577072.5883448174
 20
506970.35235870187
 30
0.0
  0
VERTEX
  5
354
  8
TENA_LATE
 10
577059.89242056175
 20
506947.04171528277
 30
0.0
  0
VERTEX
  5
355
  8
TENA_LATE
 10
577033.6275534539
 20
506936.44442828349
 30
0.0
  0
SEQEND
  5
356
  8
TENA_LATE
  0
POLYLINE
  5
95
  8
TENA_LATE
 66
     1
 10
0.0
 20
0.0
 30
0.0
 70
     1
  0
VERTEX
  5
357
  8
TENA_LATE
 10
575853.30846900144
 20
506974.77402094752
 30
0.0
  0
VERTEX
  5
358
  8
TENA_LATE
 10
575848.65603300126
 20
506923.07370321848
 30
0.0
  0
VERTEX
  5
359
  8
TENA_LATE
 10
575774.61150193762
 20
506922.17640526389
 30
0.0
  0
VERTEX
  5
35A
  8
TENA_LATE
 10
575778.04779875884
 20
506981.94888434099
 30
0.0
  0
SEQEND
  5
35B
  8
TENA_LATE
  0
POLYLINE
  5
96
  8
TENA_LATE
 66
     1
 10
0.0
 20
0.0
 30
0.0
 70
     1
  0
VERTEX
  5
35C
  8
TENA_LATE
 10
576715.36891499534
 20
506975.62385388988
 30
0.0
  0
VERTEX
  5
35D
  8
TENA_LATE
 10
576732.02031945519
 20
506990.84750104247
 30
0.0
  0
VERTEX
  5
35E
  8
TENA_LATE
 10
576746.39133696619
 20
507006.82166276203
 30
0.0
  0
VERTEX
  5
35F
  8
TENA_LATE
 10
576766.89347228163
 20
507006.13377881108
 30
0.0
  0
VERTEX
  5
360
  8
TENA_LATE
 10
576787.49203602632
 20
506977.38803484879
 30
0.0
  0
VERTEX
  5
361
  8
TENA_LATE
 10
576800.43311191781
 20
506967.574285793
 30
0.0
  0
VERTEX
  5
362
  8
TENA_LATE
 10
576808.40076685045
 20
506951.50701756292
 30
0.0
  0
VERTEX
  5
363
  8
TENA_LATE
 10
576789.17284951976
 20
506934.05331549171
 30
0.0
  0
VERTEX
  5
364
  8
TENA_LATE
 10
576783.14866055246
 20
506907.24720096809
 30
0.0
  0
VERTEX
  5
365
  8
TENA_LATE
 10
576758.81774042861
 20
506925.72344516381
 30
0.0
  0
VERTEX
  5
366
  8
TENA_LATE
 10
576744.32704923872
 20
506944.63185096899
 30
0.0
  0
VERTEX
  5
367
  8
TENA_LATE
 10
576726.80184725055
 20
506962.77153613488
 30
0.0
  0
SEQEND
  5
368
  8
TENA_LATE
  0
POLYLINE
  5
97
  8
TENA_LATE
 66
     1
 10
0.0
 20
0.0
 30
0.0
 70
     1
  0
VERTEX
  5
369
  8
TENA_LATE
 10
576218.26528621232
 20
506925.27946841979
 30
0.0
  0
VERTEX
  5
36A
  8
TENA_LATE
 10
576222.10648347868
 20
506934.6663756757
 30
0.0
  0
VERTEX
  5
36B
  8
TENA_LATE
 10
576227.5829278928
 20
506944.26117892412
 30
0.0
  0
VERTEX
  5
36C
  8
TENA_LATE
 10
576233.81024653534
 20
506951.38972583978
 30
0.0
  0
VERTEX
  5
36D
  8
TENA_LATE
 10
576240.18087972223
 20
506953.96030414331
 30
0.0
  0
VERTEX
  5
36E
  8
TENA_LATE
 10
576252.31471738778
 20
506950.1789130235
 30
0.0
  0
VERTEX
  5
36F
  8
TENA_LATE
 10
576263.172731456
 20
506946.39318991441
 30
0.0
  0
VERTEX
  5
370
  8
TENA_LATE
 10
576270.20317933452
 20
506942.59426559752
 30
0.0
  0
VERTEX
  5
371
  8
TENA_LATE
 10
576271.47732705774
 20
506935.24238600448
 30
0.0
  0
VERTEX
  5
372
  8
TENA_LATE
 10
576266.43028944021
 20
506926.65206774202
 30
0.0
  0
VERTEX
  5
373
  8
TENA_LATE
 10
576261.98870690935
 20
506919.62787460559
 30
0.0
  0
VERTEX
  5
374
  8
TENA_LATE
 10
576257.54063792038
 20
506914.51524015563
 30
0.0
  0
VERTEX
  5
375
  8
TENA_LATE
 10
576249.88769756746
 20
506913.85178737441
 30
0.0
  0
VERTEX
  5
376
  8
TENA_LATE
 10
576234.57513094111
 20
506914.43633354502
 30
0.0
  0
VERTEX
  5
377
  8
TENA_LATE
 10
576224.81890290556
 20
506917.76454467658
 30
0.0
  0
SEQEND
  5
378
  8
TENA_LATE
  0
POLYLINE
  5
98
  8
TENA_LATE
 66
     1
 10
0.0
 20
0.0
 30
0.0
 70
     1
  0
VERTEX
  5
379
  8
TENA_LATE
 10
576884.90916216525
 20
506900.40557076602
 30
0.0
  0
VERTEX
  5
37A
  8
TENA_LATE
 10
576883.90403885883
 20
506916.52756183309
 30
0.0
  0
VERTEX
  5
37B
  8
TENA_LATE
 10
576883.38045107177
 20
506930.7539892405
 30
0.0
  0
VERTEX
  5
37C
  8
TENA_LATE
 10
576885.53363042243
 20
506940.06120466889
 30
0.0
  0
VERTEX
  5
37D
  8
TENA_LATE
 10
576905.91508925008
 20
506944.32643544709
 30
0.0
  0
VERTEX
  5
37E
  8
TENA_LATE
 10
576926.05510654324
 20
506948.92297241237
 30
0.0
  0
VERTEX
  5
37F
  8
TENA_LATE
 10
576952.1702567935
 20
506949.4868218677
 30
0.0
  0
VERTEX
  5
380
  8
TENA_LATE
 10
576971.04412962799
 20
506947.77196594857
 30
0.0
  0
VERTEX
  5
381
  8
TENA_LATE
 10
576971.99186063267
 20
506934.57478260237
 30
0.0
  0
VERTEX
  5
382
  8
TENA_LATE
 10
576970.99711039907
 20
506919.9611287475
 30
0.0
  0
VERTEX
  5
383
  8
TENA_LATE
 10
576970.24843310495
 20
506909.00291479297
 30
0.0
  0
VERTEX
  5
384
  8
TENA_LATE
 10
576962.29025191185
 20
506906.3625003178
 30
0.0
  0
VERTEX
  5
385
  8
TENA_LATE
 10
576937.12311149749
 20
506906.27611482452
 30
0.0
  0
VERTEX
  5
386
  8
TENA_LATE
 10
576903.42837684345
 20
506900.46920235507
 30
0.0
  0
SEQEND
  5
387
  8
TENA_LATE
  0
POLYLINE
  5
99
  8
TENA_LATE
 66
     1
 10
0.0
 20
0.0
 30
0.0
 70
     1
  0
VERTEX
  5
388
  8
TENA_LATE
 10
576064.80342067336
 20
506887.73919748468
 30
0.0
  0
VERTEX
  5
389
  8
TENA_LATE
 10
576071.97755932936
 20
506886.8088530738
 30
0.0
  0
VERTEX
  5
38A
  8
TENA_LATE
 10
576081.96073305386
 20
506884.41940121609
 30
0.0
  0
VERTEX
  5
38B
  8
TENA_LATE
 10
576087.94591052609
 20
506874.83636145439
 30
0.0
  0
VERTEX
  5
38C
  8
TENA_LATE
 10
576086.61318580643
 20
506862.94174726709
 30
0.0
  0
VERTEX
  5
38D
  8
TENA_LATE
 10
576081.61277457664
 20
506852.40648764919
 30
0.0
  0
VERTEX
  5
38E
  8
TENA_LATE
 10
576068.82713038102
 20
506842.30173156603
 30
0.0
  0
VERTEX
  5
38F
  8
TENA_LATE
 10
576051.43144965707
 20
506841.327473599
 30
0.0
  0
VERTEX
  5
390
  8
TENA_LATE
 10
576038.13292005926
 20
506847.22682556609
 30
0.0
  0
VERTEX
  5
391
  8
TENA_LATE
 10
576033.96820785268
 20
506860.01713678008
 30
0.0
  0
VERTEX
  5
392
  8
TENA_LATE
 10
576039.40605836117
 20
506876.49898899352
 30
0.0
  0
VERTEX
  5
393
  8
TENA_LATE
 10
576050.36336380278
 20
506885.6828484218
 30
0.0
  0
SEQEND
  5
394
  8
TENA_LATE
  0
POLYLINE
  5
9A
  8
TENA_LATE
 66
     1
 10
0.0
 20
0.0
 30
0.0
 70
     1
  0
VERTEX
  5
395
  8
TENA_LATE
 10
576894.07774529164
 20
506899.15347344929
 30
0.0
  0
VERTEX
  5
396
  8
TENA_LATE
 10
576905.00054999162
 20
506897.14839305851
 30
0.0
  0
VERTEX
  5
397
  8
TENA_LATE
 10
576905.60374626576
 20
506884.360983241
 30
0.0
  0
VERTEX
  5
398
  8
TENA_LATE
 10
576909.407268957
 20
506855.54950319609
 30
0.0
  0
VERTEX
  5
399
  8
TENA_LATE
 10
576896.30412958341
 20
506840.50686514669
 30
0.0
  0
VERTEX
  5
39A
  8
TENA_LATE
 10
576878.08585946588
 20
506838.42171284999
 30
0.0
  0
VERTEX
  5
39B
  8
TENA_LATE
 10
576840.82402975217
 20
506834.50812352821
 30
0.0
  0
VERTEX
  5
39C
  8
TENA_LATE
 10
576828.97463504132
 20
506838.25014698319
 30
0.0
  0
VERTEX
  5
39D
  8
TENA_LATE
 10
576826.57799083565
 20
506847.69972568308
 30
0.0
  0
VERTEX
  5
39E
  8
TENA_LATE
 10
576824.61533122009
 20
506867.55376640073
 30
0.0
  0
VERTEX
  5
39F
  8
TENA_LATE
 10
576824.56344265537
 20
506882.68655271071
 30
0.0
  0
VERTEX
  5
3A0
  8
TENA_LATE
 10
576818.35960886441
 20
506895.90578800609
 30
0.0
  0
VERTEX
  5
3A1
  8
TENA_LATE
 10
576826.58658481715
 20
506896.22505376232
 30
0.0
  0
VERTEX
  5
3A2
  8
TENA_LATE
 10
576852.90935259161
 20
506896.98965132207
 30
0.0
  0
VERTEX
  5
3A3
  8
TENA_LATE
 10
576865.05255897273
 20
506899.05392772978
 30
0.0
  0
VERTEX
  5
3A4
  8
TENA_LATE
 10
576880.57767913654
 20
506899.10719724849
 30
0.0
  0
SEQEND
  5
3A5
  8
TENA_LATE
  0
POLYLINE
  5
9B
  8
TENA_LATE
 66
     1
 10
0.0
 20
0.0
 30
0.0
 70
     1
  0
VERTEX
  5
3A6
  8
TENA_LATE
 10
575126.14504262153
 20
506810.3106963379
 30
0.0
  0
VERTEX
  5
3A7
  8
TENA_LATE
 10
575138.81367582874
 20
506812.6373484786
 30
0.0
  0
VERTEX
  5
3A8
  8
TENA_LATE
 10
575147.41386310745
 20
506803.29433302028
 30
0.0
  0
VERTEX
  5
3A9
  8
TENA_LATE
 10
575151.94111484906
 20
506791.8998820273
 30
0.0
  0
VERTEX
  5
3AA
  8
TENA_LATE
 10
575145.70972384152
 20
506780.67990460643
 30
0.0
  0
VERTEX
  5
3AB
  8
TENA_LATE
 10
575135.79109754041
 20
506776.39396821859
 30
0.0
  0
VERTEX
  5
3AC
  8
TENA_LATE
 10
575127.26229144156
 20
506780.61660135322
 30
0.0
  0
VERTEX
  5
3AD
  8
TENA_LATE
 10
575117.2974027897
 20
506789.79478506098
 30
0.0
  0
VERTEX
  5
3AE
  8
TENA_LATE
 10
575114.99998243293
 20
506796.66310254438
 30
0.0
  0
VERTEX
  5
3AF
  8
TENA_LATE
 10
575117.96320167044
 20
506802.55261309678
 30
0.0
  0
SEQEND
  5
3B0
  8
TENA_LATE
  0
POLYLINE
  5
9C
  8
TENA_LATE
 66
     1
 10
0.0
 20
0.0
 30
0.0
 70
     1
  0
VERTEX
  5
3B1
  8
TENA_LATE
 10
576095.2303866219
 20
506738.90703802352
 30
0.0
  0
VERTEX
  5
3B2
  8
TENA_LATE
 10
576099.798003137
 20
506753.4288053643
 30
0.0
  0
VERTEX
  5
3B3
  8
TENA_LATE
 10
576104.36635874829
 20
506769.27220829308
 30
0.0
  0
VERTEX
  5
3B4
  8
TENA_LATE
 10
576119.24639460084
 20
506801.98410741112
 30
0.0
  0
VERTEX
  5
3B5
  8
TENA_LATE
 10
576188.35610258824
 20
506780.33997844841
 30
0.0
  0
VERTEX
  5
3B6
  8
TENA_LATE
 10
576159.22048323322
 20
506717.48367813509
 30
0.0
  0
SEQEND
  5
3B7
  8
TENA_LATE
  0
POLYLINE
  5
9D
  8
TENA_LATE
 66
     1
 10
0.0
 20
0.0
 30
0.0
 70
     1
  0
VERTEX
  5
3B8
  8
TENA_LATE
 10
576870.41304017894
 20
506212.3757336202
 30
0.0
  0
VERTEX
  5
3B9
  8
TENA_LATE
 10
576850.4499172658
 20
506213.9672407257
 30
0.0
  0
VERTEX
  5
3BA
  8
TENA_LATE
 10
576849.58388719289
 20
506223.93086718232
 30
0.0
  0
VERTEX
  5
3BB
  8
TENA_LATE
 10
576847.85761817242
 20
506242.19786297157
 30
0.0
  0
VERTEX
  5
3BC
  8
TENA_LATE
 10
576847.80345969787
 20
506257.9775194127
 30
0.0
  0
VERTEX
  5
3BD
  8
TENA_LATE
 10
576858.58849421563
 20
506264.6589404621
 30
0.0
  0
VERTEX
  5
3BE
  8
TENA_LATE
 10
576881.04128344497
 20
506264.73606633121
 30
0.0
  0
VERTEX
  5
3BF
  8
TENA_LATE
 10
576891.05399451416
 20
506255.63488761842
 30
0.0
  0
VERTEX
  5
3C0
  8
TENA_LATE
 10
576891.92857684672
 20
506243.18026409257
 30
0.0
  0
VERTEX
  5
3C1
  8
TENA_LATE
 10
576893.65484875592
 20
506224.91316712828
 30
0.0
  0
VERTEX
  5
3C2
  8
TENA_LATE
 10
576892.02265447483
 20
506215.77210711688
 30
0.0
  0
VERTEX
  5
3C3
  8
TENA_LATE
 10
576881.22092983662
 20
506212.41277584061
 30
0.0
  0
SEQEND
  5
3C4
  8
TENA_LATE
  0
POLYLINE
  5
9E
  8
TENA_LATE
 66
     1
 10
0.0
 20
0.0
 30
0.0
 70
     1
  0
VERTEX
  5
3C5
  8
TENA_LATE
 10
576427.54729409656
 20
505989.49758127879
 30
0.0
  0
VERTEX
  5
3C6
  8
TENA_LATE
 10
576423.43809667055
 20
505998.24443820928
 30
0.0
  0
VERTEX
  5
3C7
  8
TENA_LATE
 10
576422.5844517746
 20
506008.63248524087
 30
0.0
  0
VERTEX
  5
3C8
  8
TENA_LATE
 10
576423.16794740397
 20
506016.98892700532
 30
0.0
  0
VERTEX
  5
3C9
  8
TENA_LATE
 10
576425.79571579525
 20
506024.73959345493
 30
0.0
  0
VERTEX
  5
3CA
  8
TENA_LATE
 10
576448.95048665884
 20
506026.71165027173
 30
0.0
  0
VERTEX
  5
3CB
  8
TENA_LATE
 10
576461.56350802165
 20
506022.31209449779
 30
0.0
  0
VERTEX
  5
3CC
  8
TENA_LATE
 10
576465.32050596143
 20
506007.52002385427
 30
0.0
  0
VERTEX
  5
3CD
  8
TENA_LATE
 10
576464.60869990464
 20
505998.63580878283
 30
0.0
  0
VERTEX
  5
3CE
  8
TENA_LATE
 10
576453.51567567931
 20
505991.19426164927
 30
0.0
  0
VERTEX
  5
3CF
  8
TENA_LATE
 10
576439.44344937964
 20
505988.18535460439
 30
0.0
  0
SEQEND
  5
3D0
  8
TENA_LATE
  0
POLYLINE
  5
9F
  8
TENA_LIMITS
 66
     1
 10
0.0
 20
0.0
 30
0.0
 70
     1
  0
VERTEX
  5
3D1
  8
TENA_LIMITS
 10
564376.66653522267
 20
506746.41124923719
 30
0.0
  0
VERTEX
  5
3D2
  8
TENA_LIMITS
 10
564410.98079361604
 20
506763.11541251087
 30
0.0
  0
VERTEX
  5
3D3
  8
TENA_LIMITS
 10
564492.08323110582
 20
506765.43126164901
 30
0.0
  0
VERTEX
  5
3D4
  8
TENA_LIMITS
 10
564544.105336971
 20
506793.60508900537
 30
0.0
  0
VERTEX
  5
3D5
  8
TENA_LIMITS
 10
564464.48965240305
 20
506888.19083903643
 30
0.0
  0
VERTEX
  5
3D6
  8
TENA_LIMITS
 10
564379.33481875295
 20
506942.53877262888
 30
0.0
  0
VERTEX
  5
3D7
  8
TENA_LIMITS
 10
564327.30801380763
 20
507007.85251358489
 30
0.0
  0
VERTEX
  5
3D8
  8
TENA_LIMITS
 10
564241.39082953101
 20
507088.8984272111
 30
0.0
  0
VERTEX
  5
3D9
  8
TENA_LIMITS
 10
564142.67965897883
 20
507149.53921452269
 30
0.0
  0
VERTEX
  5
3DA
  8
TENA_LIMITS
 10
564064.11234024784
 20
507207.41520180588
 30
0.0
  0
VERTEX
  5
3DB
  8
TENA_LIMITS
 10
563994.52086942864
 20
507302.2871391247
 30
0.0
  0
VERTEX
  5
3DC
  8
TENA_LIMITS
 10
563899.05594215984
 20
507366.36057139072
 30
0.0
  0
VERTEX
  5
3DD
  8
TENA_LIMITS
 10
563837.48139278695
 20
507414.70188125531
 30
0.0
  0
VERTEX
  5
3DE
  8
TENA_LIMITS
 10
563791.66092529381
 20
507496.89274132019
 30
0.0
  0
VERTEX
  5
3DF
  8
TENA_LIMITS
 10
563757.77054739767
 20
507512.62486372289
 30
0.0
  0
VERTEX
  5
3E0
  8
TENA_LIMITS
 10
563683.59273223381
 20
507533.88654347887
 30
0.0
  0
VERTEX
  5
3E1
  8
TENA_LIMITS
 10
563594.42943857878
 20
507611.49976566492
 30
0.0
  0
VERTEX
  5
3E2
  8
TENA_LIMITS
 10
563559.20494600968
 20
507673.95339082729
 30
0.0
  0
VERTEX
  5
3E3
  8
TENA_LIMITS
 10
563474.33586263144
 20
507718.28953414038
 30
0.0
  0
VERTEX
  5
3E4
  8
TENA_LIMITS
 10
563442.16689286183
 20
507790.85030805023
 30
0.0
  0
VERTEX
  5
3E5
  8
TENA_LIMITS
 10
563407.43346346065
 20
507820.41812498198
 30
0.0
  0
VERTEX
  5
3E6
  8
TENA_LIMITS
 10
563356.56388024974
 20
507817.55193699431
 30
0.0
  0
VERTEX
  5
3E7
  8
TENA_LIMITS
 10
563339.8989529215
 20
507873.50743694272
 30
0.0
  0
VERTEX
  5
3E8
  8
TENA_LIMITS
 10
563304.84505906946
 20
507913.88953445799
 30
0.0
  0
VERTEX
  5
3E9
  8
TENA_LIMITS
 10
563273.44741268014
 20
507958.13807512121
 30
0.0
  0
VERTEX
  5
3EA
  8
TENA_LIMITS
 10
563205.91546397272
 20
507948.68554469809
 30
0.0
  0
VERTEX
  5
3EB
  8
TENA_LIMITS
 10
563153.54571697256
 20
507935.90387444949
 30
0.0
  0
VERTEX
  5
3EC
  8
TENA_LIMITS
 10
563074.72275261185
 20
507926.12893338548
 30
0.0
  0
VERTEX
  5
3ED
  8
TENA_LIMITS
 10
562897.82889350865
 20
507921.07779677602
 30
0.0
  0
VERTEX
  5
3EE
  8
TENA_LIMITS
 10
562824.92329806462
 20
507967.90318450681
 30
0.0
  0
VERTEX
  5
3EF
  8
TENA_LIMITS
 10
562784.28081744863
 20
508072.08124405798
 30
0.0
  0
VERTEX
  5
3F0
  8
TENA_LIMITS
 10
562741.05546768417
 20
508134.80250269541
 30
0.0
  0
VERTEX
  5
3F1
  8
TENA_LIMITS
 10
562723.85385119845
 20
508209.55318152718
 30
0.0
  0
VERTEX
  5
3F2
  8
TENA_LIMITS
 10
562749.3410306602
 20
508240.37768385059
 30
0.0
  0
VERTEX
  5
3F3
  8
TENA_LIMITS
 10
562762.46381759015
 20
508308.47008303303
 30
0.0
  0
VERTEX
  5
3F4
  8
TENA_LIMITS
 10
562749.13325612491
 20
508379.5691573479
 30
0.0
  0
VERTEX
  5
3F5
  8
TENA_LIMITS
 10
562793.63014350913
 20
508520.54139971052
 30
0.0
  0
VERTEX
  5
3F6
  8
TENA_LIMITS
 10
562857.48323230247
 20
508634.78261666233
 30
0.0
  0
VERTEX
  5
3F7
  8
TENA_LIMITS
 10
562921.33632109594
 20
508749.02383361402
 30
0.0
  0
VERTEX
  5
3F8
  8
TENA_LIMITS
 10
563014.63429678709
 20
508826.20624521113
 30
0.0
  0
VERTEX
  5
3F9
  8
TENA_LIMITS
 10
563168.78976443061
 20
508856.93132708361
 30
0.0
  0
VERTEX
  5
3FA
  8
TENA_LIMITS
 10
563299.60080855468
 20
508882.31611446111
 30
0.0
  0
VERTEX
  5
3FB
  8
TENA_LIMITS
 10
563430.41185267898
 20
508907.7009018386
 30
0.0
  0
VERTEX
  5
3FC
  8
TENA_LIMITS
 10
563493.0157909214
 20
508993.48018535879
 30
0.0
  0
VERTEX
  5
3FD
  8
TENA_LIMITS
 10
563591.77043310716
 20
509052.92197976692
 30
0.0
  0
VERTEX
  5
3FE
  8
TENA_LIMITS
 10
563712.11617221741
 20
509199.08581554738
 30
0.0
  0
VERTEX
  5
3FF
  8
TENA_LIMITS
 10
563854.5106711163
 20
509325.2288919561
 30
0.0
  0
VERTEX
  5
400
  8
TENA_LIMITS
 10
563970.00871417683
 20
509442.66831830773
 30
0.0
  0
VERTEX
  5
401
  8
TENA_LIMITS
 10
564088.10730281752
 20
509564.74660601403
 30
0.0
  0
VERTEX
  5
402
  8
TENA_LIMITS
 10
564132.8339666517
 20
509648.20577546832
 30
0.0
  0
VERTEX
  5
403
  8
TENA_LIMITS
 10
564164.36943029275
 20
509763.24528881838
 30
0.0
  0
VERTEX
  5
404
  8
TENA_LIMITS
 10
564231.58416873612
 20
509882.93682644289
 30
0.0
  0
VERTEX
  5
405
  8
TENA_LIMITS
 10
564298.79890717962
 20
510002.62836406869
 30
0.0
  0
VERTEX
  5
406
  8
TENA_LIMITS
 10
564419.70841837837
 20
510086.74314640742
 30
0.0
  0
VERTEX
  5
407
  8
TENA_LIMITS
 10
564446.1520784914
 20
510121.4597659664
 30
0.0
  0
VERTEX
  5
408
  8
TENA_LIMITS
 10
564451.98700004746
 20
510196.36231334659
 30
0.0
  0
VERTEX
  5
409
  8
TENA_LIMITS
 10
564496.5888914488
 20
510360.0401757689
 30
0.0
  0
VERTEX
  5
40A
  8
TENA_LIMITS
 10
564566.95633746637
 20
510548.01324721932
 30
0.0
  0
VERTEX
  5
40B
  8
TENA_LIMITS
 10
564620.70437412895
 20
510618.89603230701
 30
0.0
  0
VERTEX
  5
40C
  8
TENA_LIMITS
 10
564703.68724933418
 20
510625.9861502428
 30
0.0
  0
VERTEX
  5
40D
  8
TENA_LIMITS
 10
564858.02840227284
 20
510670.59474865062
 30
0.0
  0
VERTEX
  5
40E
  8
TENA_LIMITS
 10
564720.66180368792
 20
510721.57120363013
 30
0.0
  0
VERTEX
  5
40F
  8
TENA_LIMITS
 10
564692.81924782589
 20
510780.45175254822
 30
0.0
  0
VERTEX
  5
410
  8
TENA_LIMITS
 10
564601.44448197458
 20
510819.66675845621
 30
0.0
  0
VERTEX
  5
411
  8
TENA_LIMITS
 10
564571.9864658179
 20
510864.97789268137
 30
0.0
  0
VERTEX
  5
412
  8
TENA_LIMITS
 10
564525.42231490859
 20
510961.59052302077
 30
0.0
  0
VERTEX
  5
413
  8
TENA_LIMITS
 10
564478.85816399928
 20
511058.20315335988
 30
0.0
  0
VERTEX
  5
414
  8
TENA_LIMITS
 10
564445.51012022013
 20
511085.87945114478
 30
0.0
  0
VERTEX
  5
415
  8
TENA_LIMITS
 10
564433.44745183107
 20
511128.82641734759
 30
0.0
  0
VERTEX
  5
416
  8
TENA_LIMITS
 10
564424.3742261834
 20
511151.41557121178
 30
0.0
  0
VERTEX
  5
417
  8
TENA_LIMITS
 10
564424.27352954773
 20
511197.10916857451
 30
0.0
  0
VERTEX
  5
418
  8
TENA_LIMITS
 10
564404.82106311701
 20
511245.85777597618
 30
0.0
  0
VERTEX
  5
419
  8
TENA_LIMITS
 10
564403.58590051159
 20
511289.1139174726
 30
0.0
  0
VERTEX
  5
41A
  8
TENA_LIMITS
 10
564409.65758795384
 20
511320.17019969062
 30
0.0
  0
VERTEX
  5
41B
  8
TENA_LIMITS
 10
564410.94362301903
 20
511326.60272115259
 30
0.0
  0
VERTEX
  5
41C
  8
TENA_LIMITS
 10
564399.53284576628
 20
511346.72006549931
 30
0.0
  0
VERTEX
  5
41D
  8
TENA_LIMITS
 10
564378.53209210397
 20
511365.36099060922
 30
0.0
  0
VERTEX
  5
41E
  8
TENA_LIMITS
 10
564377.46848009969
 20
511402.60932629829
 30
0.0
  0
VERTEX
  5
41F
  8
TENA_LIMITS
 10
564372.01181560045
 20
511459.59382526501
 30
0.0
  0
VERTEX
  5
420
  8
TENA_LIMITS
 10
564297.40243840741
 20
511489.95646683552
 30
0.0
  0
VERTEX
  5
421
  8
TENA_LIMITS
 10
564226.94177632243
 20
511526.93615996698
 30
0.0
  0
VERTEX
  5
422
  8
TENA_LIMITS
 10
564165.83351810521
 20
511616.1718516429
 30
0.0
  0
VERTEX
  5
423
  8
TENA_LIMITS
 10
564127.32350440265
 20
511673.55974371219
 30
0.0
  0
VERTEX
  5
424
  8
TENA_LIMITS
 10
564060.08475066395
 20
511749.62310764223
 30
0.0
  0
VERTEX
  5
425
  8
TENA_LIMITS
 10
564001.08175224764
 20
511841.08510973607
 30
0.0
  0
VERTEX
  5
426
  8
TENA_LIMITS
 10
563947.52550006739
 20
511893.71097115421
 30
0.0
  0
VERTEX
  5
427
  8
TENA_LIMITS
 10
563899.17280704831
 20
511991.97567523748
 30
0.0
  0
VERTEX
  5
428
  8
TENA_LIMITS
 10
563838.47749020986
 20
512077.20580083242
 30
0.0
  0
VERTEX
  5
429
  8
TENA_LIMITS
 10
563815.21185216389
 20
512163.14842982119
 30
0.0
  0
VERTEX
  5
42A
  8
TENA_LIMITS
 10
563798.1859144941
 20
512273.51922101859
 30
0.0
  0
VERTEX
  5
42B
  8
TENA_LIMITS
 10
563767.59346017172
 20
512373.10978705349
 30
0.0
  0
VERTEX
  5
42C
  8
TENA_LIMITS
 10
563723.53332930547
 20
512458.45868754812
 30
0.0
  0
VERTEX
  5
42D
  8
TENA_LIMITS
 10
563624.11988633114
 20
512538.7626823227
 30
0.0
  0
VERTEX
  5
42E
  8
TENA_LIMITS
 10
563580.25743711716
 20
512617.18865179882
 30
0.0
  0
VERTEX
  5
42F
  8
TENA_LIMITS
 10
563507.97702601226
 20
512719.05314716912
 30
0.0
  0
VERTEX
  5
430
  8
TENA_LIMITS
 10
563458.46805241227
 20
512752.28221542877
 30
0.0
  0
VERTEX
  5
431
  8
TENA_LIMITS
 10
563385.75509225531
 20
512749.37245902448
 30
0.0
  0
VERTEX
  5
432
  8
TENA_LIMITS
 10
563377.49206314376
 20
512885.03507036011
 30
0.0
  0
VERTEX
  5
433
  8
TENA_LIMITS
 10
563431.12896434602
 20
513004.92993373692
 30
0.0
  0
VERTEX
  5
434
  8
TENA_LIMITS
 10
563470.85842966114
 20
513150.73061599961
 30
0.0
  0
VERTEX
  5
435
  8
TENA_LIMITS
 10
563471.49179473484
 20
513282.26345384278
 30
0.0
  0
VERTEX
  5
436
  8
TENA_LIMITS
 10
563445.81107404572
 20
513413.0448527048
 30
0.0
  0
VERTEX
  5
437
  8
TENA_LIMITS
 10
563494.18678022618
 20
513563.47628201387
 30
0.0
  0
VERTEX
  5
438
  8
TENA_LIMITS
 10
563564.61612576596
 20
513710.15353732673
 30
0.0
  0
VERTEX
  5
439
  8
TENA_LIMITS
 10
563620.12821233587
 20
513801.7928441299
 30
0.0
  0
VERTEX
  5
43A
  8
TENA_LIMITS
 10
563673.12027033791
 20
513890.11629147589
 30
0.0
  0
VERTEX
  5
43B
  8
TENA_LIMITS
 10
563701.04232662474
 20
513935.46241082071
 30
0.0
  0
VERTEX
  5
43C
  8
TENA_LIMITS
 10
563753.95215307595
 20
514049.1457657069
 30
0.0
  0
VERTEX
  5
43D
  8
TENA_LIMITS
 10
563802.44848245895
 20
514071.56295106391
 30
0.0
  0
VERTEX
  5
43E
  8
TENA_LIMITS
 10
563915.86916791962
 20
514032.73690336832
 30
0.0
  0
VERTEX
  5
43F
  8
TENA_LIMITS
 10
564036.10354269063
 20
514001.11619826249
 30
0.0
  0
VERTEX
  5
440
  8
TENA_LIMITS
 10
564147.32379515958
 20
514039.346001881
 30
0.0
  0
VERTEX
  5
441
  8
TENA_LIMITS
 10
564251.53033269406
 20
514077.37548123812
 30
0.0
  0
VERTEX
  5
442
  8
TENA_LIMITS
 10
564334.6981083717
 20
514079.76851709932
 30
0.0
  0
VERTEX
  5
443
  8
TENA_LIMITS
 10
564518.66533426906
 20
514076.44010991819
 30
0.0
  0
VERTEX
  5
444
  8
TENA_LIMITS
 10
564672.9534108052
 20
514089.42726811633
 30
0.0
  0
VERTEX
  5
445
  8
TENA_LIMITS
 10
564746.73683603609
 20
514093.2504097459
 30
0.0
  0
VERTEX
  5
446
  8
TENA_LIMITS
 10
564865.12959846447
 20
514084.5672059785
 30
0.0
  0
VERTEX
  5
447
  8
TENA_LIMITS
 10
564953.69848084415
 20
514034.12226839719
 30
0.0
  0
VERTEX
  5
448
  8
TENA_LIMITS
 10
565019.33932319551
 20
513990.59034198552
 30
0.0
  0
VERTEX
  5
449
  8
TENA_LIMITS
 10
565105.20924192015
 20
514034.66474403261
 30
0.0
  0
VERTEX
  5
44A
  8
TENA_LIMITS
 10
565174.0297147166
 20
514053.96261920949
 30
0.0
  0
VERTEX
  5
44B
  8
TENA_LIMITS
 10
565184.48192630045
 20
514109.18267216289
 30
0.0
  0
VERTEX
  5
44C
  8
TENA_LIMITS
 10
565131.60305814177
 20
514215.79958995571
 30
0.0
  0
VERTEX
  5
44D
  8
TENA_LIMITS
 10
565054.71155354858
 20
514368.33442644461
 30
0.0
  0
VERTEX
  5
44E
  8
TENA_LIMITS
 10
565016.98485312471
 20
514403.9220945033
 30
0.0
  0
VERTEX
  5
44F
  8
TENA_LIMITS
 10
564963.84388372127
 20
514443.6527440201
 30
0.0
  0
VERTEX
  5
450
  8
TENA_LIMITS
 10
564908.39262559137
 20
514482.92365728918
 30
0.0
  0
VERTEX
  5
451
  8
TENA_LIMITS
 10
564883.3437500993
 20
514521.35305565479
 30
0.0
  0
VERTEX
  5
452
  8
TENA_LIMITS
 10
564912.43762745603
 20
514570.0273208142
 30
0.0
  0
VERTEX
  5
453
  8
TENA_LIMITS
 10
564981.00296061905
 20
514608.95513945312
 30
0.0
  0
VERTEX
  5
454
  8
TENA_LIMITS
 10
565024.45750368736
 20
514688.48528622248
 30
0.0
  0
VERTEX
  5
455
  8
TENA_LIMITS
 10
565048.39341808669
 20
514765.28338828922
 30
0.0
  0
VERTEX
  5
456
  8
TENA_LIMITS
 10
565100.11230785446
 20
514784.15783344908
 30
0.0
  0
VERTEX
  5
457
  8
TENA_LIMITS
 10
565135.48073482874
 20
514765.5954356569
 30
0.0
  0
VERTEX
  5
458
  8
TENA_LIMITS
 10
565150.08583222609
 20
514711.64488489961
 30
0.0
  0
VERTEX
  5
459
  8
TENA_LIMITS
 10
565165.31126930821
 20
514635.96502027317
 30
0.0
  0
VERTEX
  5
45A
  8
TENA_LIMITS
 10
565198.4380853459
 20
514543.3986906794
 30
0.0
  0
VERTEX
  5
45B
  8
TENA_LIMITS
 10
565209.93666653184
 20
514521.98000084149
 30
0.0
  0
VERTEX
  5
45C
  8
TENA_LIMITS
 10
565271.28869948594
 20
514508.50895042351
 30
0.0
  0
VERTEX
  5
45D
  8
TENA_LIMITS
 10
565351.22865216085
 20
514530.36393497232
 30
0.0
  0
VERTEX
  5
45E
  8
TENA_LIMITS
 10
565405.99174612947
 20
514518.87943762838
 30
0.0
  0
VERTEX
  5
45F
  8
TENA_LIMITS
 10
565451.12156444287
 20
514539.74043208087
 30
0.0
  0
VERTEX
  5
460
  8
TENA_LIMITS
 10
565465.73457101465
 20
514638.01939981623
 30
0.0
  0
VERTEX
  5
461
  8
TENA_LIMITS
 10
565510.05777595926
 20
514687.12848230143
 30
0.0
  0
VERTEX
  5
462
  8
TENA_LIMITS
 10
565618.03278135974
 20
514718.48283823539
 30
0.0
  0
VERTEX
  5
463
  8
TENA_LIMITS
 10
565698.78323790932
 20
514788.20441670337
 30
0.0
  0
VERTEX
  5
464
  8
TENA_LIMITS
 10
565735.09054938005
 20
514889.27750443667
 30
0.0
  0
VERTEX
  5
465
  8
TENA_LIMITS
 10
565757.16102434404
 20
514955.1488510308
 30
0.0
  0
VERTEX
  5
466
  8
TENA_LIMITS
 10
565879.99320593523
 20
514999.97563423251
 30
0.0
  0
VERTEX
  5
467
  8
TENA_LIMITS
 10
565979.01745634153
 20
515039.7731956247
 30
0.0
  0
VERTEX
  5
468
  8
TENA_LIMITS
 10
566038.37995571631
 20
515019.72124169662
 30
0.0
  0
VERTEX
  5
469
  8
TENA_LIMITS
 10
566067.5898855729
 20
514911.82013261801
 30
0.0
  0
VERTEX
  5
46A
  8
TENA_LIMITS
 10
566101.4032423757
 20
514871.46630295849
 30
0.0
  0
VERTEX
  5
46B
  8
TENA_LIMITS
 10
566207.45076270436
 20
514894.06677913311
 30
0.0
  0
VERTEX
  5
46C
  8
TENA_LIMITS
 10
566211.99214257882
 20
514963.78698453418
 30
0.0
  0
VERTEX
  5
46D
  8
TENA_LIMITS
 10
566293.11501546379
 20
515020.47096062527
 30
0.0
  0
VERTEX
  5
46E
  8
TENA_LIMITS
 10
566297.59434826649
 20
515092.36409200809
 30
0.0
  0
VERTEX
  5
46F
  8
TENA_LIMITS
 10
566227.79195843125
 20
515173.00967603299
 30
0.0
  0
VERTEX
  5
470
  8
TENA_LIMITS
 10
566174.08769052918
 20
515223.66901688313
 30
0.0
  0
VERTEX
  5
471
  8
TENA_LIMITS
 10
566163.70298730105
 20
515284.32177607692
 30
0.0
  0
VERTEX
  5
472
  8
TENA_LIMITS
 10
566208.43827944004
 20
515363.84542982921
 30
0.0
  0
VERTEX
  5
473
  8
TENA_LIMITS
 10
566111.48878125346
 20
515466.70956789469
 30
0.0
  0
VERTEX
  5
474
  8
TENA_LIMITS
 10
565997.76006079349
 20
515471.28671315953
 30
0.0
  0
VERTEX
  5
475
  8
TENA_LIMITS
 10
565918.14092734805
 20
515515.96097194147
 30
0.0
  0
VERTEX
  5
476
  8
TENA_LIMITS
 10
565872.74300450005
 20
515596.8232188804
 30
0.0
  0
VERTEX
  5
477
  8
TENA_LIMITS
 10
565898.13159807073
 20
515667.96980958508
 30
0.0
  0
VERTEX
  5
478
  8
TENA_LIMITS
 10
565914.79932923126
 20
515770.16593152791
 30
0.0
  0
VERTEX
  5
479
  8
TENA_LIMITS
 10
566002.70007257489
 20
515847.00984553091
 30
0.0
  0
VERTEX
  5
47A
  8
TENA_LIMITS
 10
566023.28173989453
 20
515949.31772842718
 30
0.0
  0
VERTEX
  5
47B
  8
TENA_LIMITS
 10
565958.53725094791
 20
516021.80291610112
 30
0.0
  0
VERTEX
  5
47C
  8
TENA_LIMITS
 10
565968.68788524054
 20
516086.79508914251
 30
0.0
  0
VERTEX
  5
47D
  8
TENA_LIMITS
 10
565984.68672081875
 20
516137.33542889502
 30
0.0
  0
VERTEX
  5
47E
  8
TENA_LIMITS
 10
565962.78173117724
 20
516217.27910222689
 30
0.0
  0
VERTEX
  5
47F
  8
TENA_LIMITS
 10
565975.359412789
 20
516311.27260571509
 30
0.0
  0
VERTEX
  5
480
  8
TENA_LIMITS
 10
565992.54278388305
 20
516396.6875125824
 30
0.0
  0
VERTEX
  5
481
  8
TENA_LIMITS
 10
565957.75330854743
 20
516469.73057840648
 30
0.0
  0
VERTEX
  5
482
  8
TENA_LIMITS
 10
565858.97642507625
 20
516493.0405744235
 30
0.0
  0
VERTEX
  5
483
  8
TENA_LIMITS
 10
565806.48510329693
 20
516497.62353340752
 30
0.0
  0
VERTEX
  5
484
  8
TENA_LIMITS
 10
565792.10631912656
 20
516523.1173972612
 30
0.0
  0
VERTEX
  5
485
  8
TENA_LIMITS
 10
565828.00240317255
 20
516604.58241554239
 30
0.0
  0
VERTEX
  5
486
  8
TENA_LIMITS
 10
565945.69802363345
 20
516689.746606651
 30
0.0
  0
VERTEX
  5
487
  8
TENA_LIMITS
 10
566012.06337869493
 20
516660.28367722081
 30
0.0
  0
VERTEX
  5
488
  8
TENA_LIMITS
 10
566074.33190978109
 20
516535.26639552228
 30
0.0
  0
VERTEX
  5
489
  8
TENA_LIMITS
 10
566188.16141059808
 20
516468.98387928947
 30
0.0
  0
VERTEX
  5
48A
  8
TENA_LIMITS
 10
566304.56338656181
 20
516408.22834136267
 30
0.0
  0
VERTEX
  5
48B
  8
TENA_LIMITS
 10
566316.55934297654
 20
516274.95860493142
 30
0.0
  0
VERTEX
  5
48C
  8
TENA_LIMITS
 10
566288.84707609576
 20
516193.72727242572
 30
0.0
  0
VERTEX
  5
48D
  8
TENA_LIMITS
 10
566274.90949136275
 20
516105.61376560607
 30
0.0
  0
VERTEX
  5
48E
  8
TENA_LIMITS
 10
566366.46355358954
 20
516055.46340156812
 30
0.0
  0
VERTEX
  5
48F
  8
TENA_LIMITS
 10
566535.4686698647
 20
516013.73227370781
 30
0.0
  0
VERTEX
  5
490
  8
TENA_LIMITS
 10
566636.07819768484
 20
516081.78494656482
 30
0.0
  0
VERTEX
  5
491
  8
TENA_LIMITS
 10
566641.40856243868
 20
516221.60821669659
 30
0.0
  0
VERTEX
  5
492
  8
TENA_LIMITS
 10
566672.90829085233
 20
516315.6217385839
 30
0.0
  0
VERTEX
  5
493
  8
TENA_LIMITS
 10
566771.06210299011
 20
516360.84310402197
 30
0.0
  0
VERTEX
  5
494
  8
TENA_LIMITS
 10
566869.21591512696
 20
516406.064469459
 30
0.0
  0
VERTEX
  5
495
  8
TENA_LIMITS
 10
566967.36972726462
 20
516451.2858348958
 30
0.0
  0
VERTEX
  5
496
  8
TENA_LIMITS
 10
567103.1097656471
 20
516486.19984282041
 30
0.0
  0
VERTEX
  5
497
  8
TENA_LIMITS
 10
567180.91504363948
 20
516482.2139422379
 30
0.0
  0
VERTEX
  5
498
  8
TENA_LIMITS
 10
567217.10822172766
 20
516411.8600178262
 30
0.0
  0
VERTEX
  5
499
  8
TENA_LIMITS
 10
567267.49859278079
 20
516388.46849326952
 30
0.0
  0
VERTEX
  5
49A
  8
TENA_LIMITS
 10
567378.66326879244
 20
516413.36936021881
 30
0.0
  0
VERTEX
  5
49B
  8
TENA_LIMITS
 10
567445.04530722729
 20
516444.02888947801
 30
0.0
  0
VERTEX
  5
49C
  8
TENA_LIMITS
 10
567464.54413741559
 20
516453.06725917791
 30
0.0
  0
VERTEX
  5
49D
  8
TENA_LIMITS
 10
567646.67827956902
 20
516386.88062327588
 30
0.0
  0
VERTEX
  5
49E
  8
TENA_LIMITS
 10
567710.28623356239
 20
516335.93226878671
 30
0.0
  0
VERTEX
  5
49F
  8
TENA_LIMITS
 10
567796.95847223513
 20
516239.08550171001
 30
0.0
  0
VERTEX
  5
4A0
  8
TENA_LIMITS
 10
567870.41312796762
 20
516169.79556456662
 30
0.0
  0
VERTEX
  5
4A1
  8
TENA_LIMITS
 10
567926.30547690275
 20
516171.39154925122
 30
0.0
  0
VERTEX
  5
4A2
  8
TENA_LIMITS
 10
567993.28993982309
 20
516219.8612694465
 30
0.0
  0
VERTEX
  5
4A3
  8
TENA_LIMITS
 10
568039.51256436924
 20
516233.59634002368
 30
0.0
  0
VERTEX
  5
4A4
  8
TENA_LIMITS
 10
568091.14284667152
 20
516166.7870165247
 30
0.0
  0
VERTEX
  5
4A5
  8
TENA_LIMITS
 10
568147.74350959063
 20
516143.57277417253
 30
0.0
  0
VERTEX
  5
4A6
  8
TENA_LIMITS
 10
568222.08948609384
 20
516151.90329573769
 30
0.0
  0
VERTEX
  5
4A7
  8
TENA_LIMITS
 10
568283.21787965624
 20
516187.79064723518
 30
0.0
  0
VERTEX
  5
4A8
  8
TENA_LIMITS
 10
568332.81138253433
 20
516192.31057107088
 30
0.0
  0
VERTEX
  5
4A9
  8
TENA_LIMITS
 10
568367.86432057479
 20
516265.9274415797
 30
0.0
  0
VERTEX
  5
4AA
  8
TENA_LIMITS
 10
568381.86504815845
 20
516320.7405514298
 30
0.0
  0
VERTEX
  5
4AB
  8
TENA_LIMITS
 10
568428.75037985505
 20
516382.3227017782
 30
0.0
  0
VERTEX
  5
4AC
  8
TENA_LIMITS
 10
568445.02803452557
 20
516425.54081235483
 30
0.0
  0
VERTEX
  5
4AD
  8
TENA_LIMITS
 10
568436.0351288782
 20
516536.05399983173
 30
0.0
  0
VERTEX
  5
4AE
  8
TENA_LIMITS
 10
568439.31710301514
 20
516625.54108794121
 30
0.0
  0
VERTEX
  5
4AF
  8
TENA_LIMITS
 10
568507.97625957301
 20
516674.14158755518
 30
0.0
  0
VERTEX
  5
4B0
  8
TENA_LIMITS
 10
568608.06671026896
 20
516679.70463916729
 30
0.0
  0
VERTEX
  5
4B1
  8
TENA_LIMITS
 10
568649.78920240211
 20
516682.07765724388
 30
0.0
  0
VERTEX
  5
4B2
  8
TENA_LIMITS
 10
568763.10518758011
 20
516665.88002538087
 30
0.0
  0
VERTEX
  5
4B3
  8
TENA_LIMITS
 10
568851.31330640067
 20
516643.13546510611
 30
0.0
  0
VERTEX
  5
4B4
  8
TENA_LIMITS
 10
568896.25438850035
 20
516704.66204784042
 30
0.0
  0
VERTEX
  5
4B5
  8
TENA_LIMITS
 10
568900.92251118773
 20
516745.60537534847
 30
0.0
  0
VERTEX
  5
4B6
  8
TENA_LIMITS
 10
568986.13290791574
 20
516759.69849144231
 30
0.0
  0
VERTEX
  5
4B7
  8
TENA_LIMITS
 10
569030.90414039092
 20
516759.03358926682
 30
0.0
  0
VERTEX
  5
4B8
  8
TENA_LIMITS
 10
569058.64773420047
 20
516862.2060797665
 30
0.0
  0
VERTEX
  5
4B9
  8
TENA_LIMITS
 10
569082.77953845903
 20
516926.89748338709
 30
0.0
  0
VERTEX
  5
4BA
  8
TENA_LIMITS
 10
569205.60421200306
 20
517053.22000252741
 30
0.0
  0
VERTEX
  5
4BB
  8
TENA_LIMITS
 10
569272.74956525129
 20
517067.24583130179
 30
0.0
  0
VERTEX
  5
4BC
  8
TENA_LIMITS
 10
569324.02064719924
 20
517030.65443346603
 30
0.0
  0
VERTEX
  5
4BD
  8
TENA_LIMITS
 10
569383.64515595394
 20
516944.13757138117
 30
0.0
  0
VERTEX
  5
4BE
  8
TENA_LIMITS
 10
569490.88873281516
 20
516948.92968792858
 30
0.0
  0
VERTEX
  5
4BF
  8
TENA_LIMITS
 10
569593.63165546325
 20
516929.37615170021
 30
0.0
  0
VERTEX
  5
4C0
  8
TENA_LIMITS
 10
569686.4850397188
 20
516892.24230347673
 30
0.0
  0
VERTEX
  5
4C1
  8
TENA_LIMITS
 10
569776.324525884
 20
516899.99703685858
 30
0.0
  0
VERTEX
  5
4C2
  8
TENA_LIMITS
 10
569856.03078697075
 20
516959.35617987579
 30
0.0
  0
VERTEX
  5
4C3
  8
TENA_LIMITS
 10
569977.46419939934
 20
516952.4448622943
 30
0.0
  0
VERTEX
  5
4C4
  8
TENA_LIMITS
 10
570083.56943782174
 20
516936.44697001838
 30
0.0
  0
VERTEX
  5
4C5
  8
TENA_LIMITS
 10
570186.1545013116
 20
516941.7410116308
 30
0.0
  0
VERTEX
  5
4C6
  8
TENA_LIMITS
 10
570352.59445608733
 20
517046.02755350358
 30
0.0
  0
VERTEX
  5
4C7
  8
TENA_LIMITS
 10
570469.38836883462
 20
517143.91977597732
 30
0.0
  0
VERTEX
  5
4C8
  8
TENA_LIMITS
 10
570612.70920501358
 20
517185.337464927
 30
0.0
  0
VERTEX
  5
4C9
  8
TENA_LIMITS
 10
570756.03004119254
 20
517226.75515387591
 30
0.0
  0
VERTEX
  5
4CA
  8
TENA_LIMITS
 10
570879.22272899805
 20
517275.06313467189
 30
0.0
  0
VERTEX
  5
4CB
  8
TENA_LIMITS
 10
570981.08007117815
 20
517372.52889938431
 30
0.0
  0
VERTEX
  5
4CC
  8
TENA_LIMITS
 10
571066.71848082007
 20
517427.22957554372
 30
0.0
  0
VERTEX
  5
4CD
  8
TENA_LIMITS
 10
571152.35689046269
 20
517481.9302517029
 30
0.0
  0
VERTEX
  5
4CE
  8
TENA_LIMITS
 10
571222.48333769676
 20
517538.76776628871
 30
0.0
  0
VERTEX
  5
4CF
  8
TENA_LIMITS
 10
571295.52993495215
 20
517598.2698721792
 30
0.0
  0
VERTEX
  5
4D0
  8
TENA_LIMITS
 10
571339.62375616143
 20
517577.37690653122
 30
0.0
  0
VERTEX
  5
4D1
  8
TENA_LIMITS
 10
571407.30749457236
 20
517545.00997753913
 30
0.0
  0
VERTEX
  5
4D2
  8
TENA_LIMITS
 10
571519.08505419234
 20
517491.75008289889
 30
0.0
  0
VERTEX
  5
4D3
  8
TENA_LIMITS
 10
571571.4145517837
 20
517353.71106387698
 30
0.0
  0
VERTEX
  5
4D4
  8
TENA_LIMITS
 10
571623.74404937495
 20
517215.6720448549
 30
0.0
  0
VERTEX
  5
4D5
  8
TENA_LIMITS
 10
571718.15115600487
 20
517120.2583340783
 30
0.0
  0
VERTEX
  5
4D6
  8
TENA_LIMITS
 10
571817.60880843655
 20
517077.31389690237
 30
0.0
  0
VERTEX
  5
4D7
  8
TENA_LIMITS
 10
571924.54297583934
 20
517001.87982574297
 30
0.0
  0
VERTEX
  5
4D8
  8
TENA_LIMITS
 10
571993.14963813836
 20
516892.64815398538
 30
0.0
  0
VERTEX
  5
4D9
  8
TENA_LIMITS
 10
572113.35718909907
 20
516811.05240418948
 30
0.0
  0
VERTEX
  5
4DA
  8
TENA_LIMITS
 10
572253.75479678903
 20
516710.41134019452
 30
0.0
  0
VERTEX
  5
4DB
  8
TENA_LIMITS
 10
572335.0751347515
 20
516614.62394173519
 30
0.0
  0
VERTEX
  5
4DC
  8
TENA_LIMITS
 10
572444.24426449148
 20
516530.3180947862
 30
0.0
  0
VERTEX
  5
4DD
  8
TENA_LIMITS
 10
572458.14629366098
 20
516493.85647997243
 30
0.0
  0
VERTEX
  5
4DE
  8
TENA_LIMITS
 10
572476.18765534717
 20
516449.28159736958
 30
0.0
  0
VERTEX
  5
4DF
  8
TENA_LIMITS
 10
572527.58354213519
 20
516325.54984725942
 30
0.0
  0
VERTEX
  5
4E0
  8
TENA_LIMITS
 10
572533.89201574877
 20
516290.32840888062
 30
0.0
  0
VERTEX
  5
4E1
  8
TENA_LIMITS
 10
572544.1600206811
 20
516227.22344914009
 30
0.0
  0
VERTEX
  5
4E2
  8
TENA_LIMITS
 10
572552.36597512697
 20
516176.01832231472
 30
0.0
  0
VERTEX
  5
4E3
  8
TENA_LIMITS
 10
572562.37703325867
 20
516127.47975766519
 30
0.0
  0
VERTEX
  5
4E4
  8
TENA_LIMITS
 10
572591.98903472174
 20
515982.45103509817
 30
0.0
  0
VERTEX
  5
4E5
  8
TENA_LIMITS
 10
572718.99944841408
 20
516004.28854181751
 30
0.0
  0
VERTEX
  5
4E6
  8
TENA_LIMITS
 10
572794.66656089213
 20
515908.56610718218
 30
0.0
  0
VERTEX
  5
4E7
  8
TENA_LIMITS
 10
572819.51394185412
 20
515756.76006504148
 30
0.0
  0
VERTEX
  5
4E8
  8
TENA_LIMITS
 10
572814.56132734881
 20
515610.93216038047
 30
0.0
  0
VERTEX
  5
4E9
  8
TENA_LIMITS
 10
572812.99421683163
 20
515506.17526702047
 30
0.0
  0
VERTEX
  5
4EA
  8
TENA_LIMITS
 10
572888.53143623995
 20
515415.00176624092
 30
0.0
  0
VERTEX
  5
4EB
  8
TENA_LIMITS
 10
573039.41927083
 20
515398.82316613989
 30
0.0
  0
VERTEX
  5
4EC
  8
TENA_LIMITS
 10
573140.85964051157
 20
515438.14140348189
 30
0.0
  0
VERTEX
  5
4ED
  8
TENA_LIMITS
 10
573281.50500903965
 20
515379.95625381707
 30
0.0
  0
VERTEX
  5
4EE
  8
TENA_LIMITS
 10
573163.51123962889
 20
515225.2170687443
 30
0.0
  0
VERTEX
  5
4EF
  8
TENA_LIMITS
 10
573108.5893115151
 20
515107.21032590722
 30
0.0
  0
VERTEX
  5
4F0
  8
TENA_LIMITS
 10
573102.92568525777
 20
514999.34306043072
 30
0.0
  0
VERTEX
  5
4F1
  8
TENA_LIMITS
 10
573097.26205899986
 20
514891.47579495551
 30
0.0
  0
VERTEX
  5
4F2
  8
TENA_LIMITS
 10
573103.33030091913
 20
514781.03258691612
 30
0.0
  0
VERTEX
  5
4F3
  8
TENA_LIMITS
 10
573109.39854283805
 20
514670.58937887661
 30
0.0
  0
VERTEX
  5
4F4
  8
TENA_LIMITS
 10
573187.93966508156
 20
514573.85942289472
 30
0.0
  0
VERTEX
  5
4F5
  8
TENA_LIMITS
 10
573248.59229631501
 20
514491.17347639968
 30
0.0
  0
VERTEX
  5
4F6
  8
TENA_LIMITS
 10
573309.24492754915
 20
514408.4875299061
 30
0.0
  0
VERTEX
  5
4F7
  8
TENA_LIMITS
 10
573458.84155841405
 20
514273.03310317721
 30
0.0
  0
VERTEX
  5
4F8
  8
TENA_LIMITS
 10
573521.35260524123
 20
514193.31118138012
 30
0.0
  0
VERTEX
  5
4F9
  8
TENA_LIMITS
 10
573583.86365206866
 20
514113.58925958298
 30
0.0
  0
VERTEX
  5
4FA
  8
TENA_LIMITS
 10
573646.37469889526
 20
514033.86733778619
 30
0.0
  0
VERTEX
  5
4FB
  8
TENA_LIMITS
 10
573649.69684469572
 20
513917.52378255111
 30
0.0
  0
VERTEX
  5
4FC
  8
TENA_LIMITS
 10
573681.14438514831
 20
513836.91483742022
 30
0.0
  0
VERTEX
  5
4FD
  8
TENA_LIMITS
 10
573802.37354343524
 20
513778.19289012812
 30
0.0
  0
VERTEX
  5
4FE
  8
TENA_LIMITS
 10
573923.60270172206
 20
513719.47094283602
 30
0.0
  0
VERTEX
  5
4FF
  8
TENA_LIMITS
 10
574044.83186000935
 20
513660.74899554497
 30
0.0
  0
VERTEX
  5
500
  8
TENA_LIMITS
 10
574145.23328076245
 20
513617.54859587841
 30
0.0
  0
VERTEX
  5
501
  8
TENA_LIMITS
 10
574245.63470151601
 20
513574.34819621319
 30
0.0
  0
VERTEX
  5
502
  8
TENA_LIMITS
 10
574375.66822602961
 20
513624.12857776158
 30
0.0
  0
VERTEX
  5
503
  8
TENA_LIMITS
 10
574505.70175054297
 20
513673.90895931137
 30
0.0
  0
VERTEX
  5
504
  8
TENA_LIMITS
 10
574626.91224190209
 20
513709.61720283079
 30
0.0
  0
VERTEX
  5
505
  8
TENA_LIMITS
 10
574748.12273326097
 20
513745.32544635033
 30
0.0
  0
VERTEX
  5
506
  8
TENA_LIMITS
 10
574876.37770046829
 20
513776.62811734388
 30
0.0
  0
VERTEX
  5
507
  8
TENA_LIMITS
 10
574979.8762742813
 20
513786.49359202472
 30
0.0
  0
VERTEX
  5
508
  8
TENA_LIMITS
 10
575083.374848095
 20
513796.35906670452
 30
0.0
  0
VERTEX
  5
509
  8
TENA_LIMITS
 10
575231.64180196088
 20
513772.95237359247
 30
0.0
  0
VERTEX
  5
50A
  8
TENA_LIMITS
 10
575379.908755827
 20
513749.54568048031
 30
0.0
  0
VERTEX
  5
50B
  8
TENA_LIMITS
 10
575485.24327084026
 20
513614.35152078688
 30
0.0
  0
VERTEX
  5
50C
  8
TENA_LIMITS
 10
575514.60410200828
 20
513555.30238452269
 30
0.0
  0
VERTEX
  5
50D
  8
TENA_LIMITS
 10
575670.77410184196
 20
513578.18865861889
 30
0.0
  0
VERTEX
  5
50E
  8
TENA_LIMITS
 10
575812.85514854384
 20
513609.8861280338
 30
0.0
  0
VERTEX
  5
50F
  8
TENA_LIMITS
 10
575921.22103376745
 20
513530.05927639548
 30
0.0
  0
VERTEX
  5
510
  8
TENA_LIMITS
 10
575896.98621769785
 20
513409.59226360673
 30
0.0
  0
VERTEX
  5
511
  8
TENA_LIMITS
 10
575840.5518429993
 20
513325.05960346613
 30
0.0
  0
VERTEX
  5
512
  8
TENA_LIMITS
 10
575873.01780828252
 20
513290.38032816473
 30
0.0
  0
VERTEX
  5
513
  8
TENA_LIMITS
 10
575991.37060926366
 20
513239.86607084807
 30
0.0
  0
VERTEX
  5
514
  8
TENA_LIMITS
 10
576131.75016250345
 20
513103.03801563481
 30
0.0
  0
VERTEX
  5
515
  8
TENA_LIMITS
 10
576121.77668240806
 20
512924.71800672158
 30
0.0
  0
VERTEX
  5
516
  8
TENA_LIMITS
 10
576310.34974167275
 20
512934.59373654018
 30
0.0
  0
VERTEX
  5
517
  8
TENA_LIMITS
 10
576331.16876782058
 20
512835.38761879609
 30
0.0
  0
VERTEX
  5
518
  8
TENA_LIMITS
 10
576351.98779396829
 20
512736.18150105089
 30
0.0
  0
VERTEX
  5
519
  8
TENA_LIMITS
 10
576386.48492412618
 20
512630.37419136311
 30
0.0
  0
VERTEX
  5
51A
  8
TENA_LIMITS
 10
576420.98205428454
 20
512524.56688167428
 30
0.0
  0
VERTEX
  5
51B
  8
TENA_LIMITS
 10
576509.42245206935
 20
512419.30461089761
 30
0.0
  0
VERTEX
  5
51C
  8
TENA_LIMITS
 10
576605.98812598747
 20
512334.46946888079
 30
0.0
  0
VERTEX
  5
51D
  8
TENA_LIMITS
 10
576702.55379990546
 20
512249.63432686409
 30
0.0
  0
VERTEX
  5
51E
  8
TENA_LIMITS
 10
576823.8529389404
 20
512176.55356480839
 30
0.0
  0
VERTEX
  5
51F
  8
TENA_LIMITS
 10
576945.15207797533
 20
512103.47280275339
 30
0.0
  0
VERTEX
  5
520
  8
TENA_LIMITS
 10
577079.49432583281
 20
511971.21656909387
 30
0.0
  0
VERTEX
  5
521
  8
TENA_LIMITS
 10
577101.9218325204
 20
511850.54635585938
 30
0.0
  0
VERTEX
  5
522
  8
TENA_LIMITS
 10
577124.3493392081
 20
511729.87614262511
 30
0.0
  0
VERTEX
  5
523
  8
TENA_LIMITS
 10
577146.7768458958
 20
511609.2059293912
 30
0.0
  0
VERTEX
  5
524
  8
TENA_LIMITS
 10
577171.78956616984
 20
511495.32862306148
 30
0.0
  0
VERTEX
  5
525
  8
TENA_LIMITS
 10
577196.80228644435
 20
511381.4513167321
 30
0.0
  0
VERTEX
  5
526
  8
TENA_LIMITS
 10
577221.81500671792
 20
511267.57401040371
 30
0.0
  0
VERTEX
  5
527
  8
TENA_LIMITS
 10
577246.82772699185
 20
511153.69670407398
 30
0.0
  0
VERTEX
  5
528
  8
TENA_LIMITS
 10
577271.84044726612
 20
511039.8193977456
 30
0.0
  0
VERTEX
  5
529
  8
TENA_LIMITS
 10
577296.85316754016
 20
510925.9420914161
 30
0.0
  0
VERTEX
  5
52A
  8
TENA_LIMITS
 10
577331.77607229294
 20
510829.47615253652
 30
0.0
  0
VERTEX
  5
52B
  8
TENA_LIMITS
 10
577366.69897704467
 20
510733.01021365687
 30
0.0
  0
VERTEX
  5
52C
  8
TENA_LIMITS
 10
577401.62188179733
 20
510636.54427477717
 30
0.0
  0
VERTEX
  5
52D
  8
TENA_LIMITS
 10
577436.54478654952
 20
510540.07833589782
 30
0.0
  0
VERTEX
  5
52E
  8
TENA_LIMITS
 10
577471.46769130195
 20
510443.61239701923
 30
0.0
  0
VERTEX
  5
52F
  8
TENA_LIMITS
 10
577506.39059605391
 20
510347.14645813958
 30
0.0
  0
VERTEX
  5
530
  8
TENA_LIMITS
 10
577588.17276139895
 20
510273.70370994828
 30
0.0
  0
VERTEX
  5
531
  8
TENA_LIMITS
 10
577669.9549267441
 20
510200.26096175791
 30
0.0
  0
VERTEX
  5
532
  8
TENA_LIMITS
 10
577751.73709208902
 20
510126.8182135665
 30
0.0
  0
VERTEX
  5
533
  8
TENA_LIMITS
 10
577856.4224219874
 20
510105.41627302492
 30
0.0
  0
VERTEX
  5
534
  8
TENA_LIMITS
 10
577961.10775188578
 20
510084.01433248352
 30
0.0
  0
VERTEX
  5
535
  8
TENA_LIMITS
 10
578065.79308178485
 20
510062.61239194218
 30
0.0
  0
VERTEX
  5
536
  8
TENA_LIMITS
 10
578153.6633751326
 20
509960.50503130897
 30
0.0
  0
VERTEX
  5
537
  8
TENA_LIMITS
 10
578241.53366848105
 20
509858.39767067583
 30
0.0
  0
VERTEX
  5
538
  8
TENA_LIMITS
 10
578329.40396182926
 20
509756.29031004373
 30
0.0
  0
VERTEX
  5
539
  8
TENA_LIMITS
 10
578347.76310911169
 20
509638.49940890027
 30
0.0
  0
VERTEX
  5
53A
  8
TENA_LIMITS
 10
578366.12225639366
 20
509520.70850775682
 30
0.0
  0
VERTEX
  5
53B
  8
TENA_LIMITS
 10
578384.48140367586
 20
509402.91760661348
 30
0.0
  0
VERTEX
  5
53C
  8
TENA_LIMITS
 10
578304.26794768055
 20
509309.02832506498
 30
0.0
  0
VERTEX
  5
53D
  8
TENA_LIMITS
 10
578224.05449168524
 20
509215.13904351683
 30
0.0
  0
VERTEX
  5
53E
  8
TENA_LIMITS
 10
578143.84103568969
 20
509121.24976196821
 30
0.0
  0
VERTEX
  5
53F
  8
TENA_LIMITS
 10
578063.6275796952
 20
509027.36048041901
 30
0.0
  0
VERTEX
  5
540
  8
TENA_LIMITS
 10
578150.73412612174
 20
508957.78508022422
 30
0.0
  0
VERTEX
  5
541
  8
TENA_LIMITS
 10
578237.84067254863
 20
508888.20968002838
 30
0.0
  0
VERTEX
  5
542
  8
TENA_LIMITS
 10
578324.94721897552
 20
508818.63427983352
 30
0.0
  0
VERTEX
  5
543
  8
TENA_LIMITS
 10
578412.05376540276
 20
508749.0588796385
 30
0.0
  0
VERTEX
  5
544
  8
TENA_LIMITS
 10
578499.16031182976
 20
508679.48347944277
 30
0.0
  0
VERTEX
  5
545
  8
TENA_LIMITS
 10
578586.26685825631
 20
508609.90807924792
 30
0.0
  0
VERTEX
  5
546
  8
TENA_LIMITS
 10
578673.37340468366
 20
508540.33267905202
 30
0.0
  0
VERTEX
  5
547
  8
TENA_LIMITS
 10
578760.47995111113
 20
508470.75727885769
 30
0.0
  0
VERTEX
  5
548
  8
TENA_LIMITS
 10
578847.58649753744
 20
508401.18187866232
 30
0.0
  0
VERTEX
  5
549
  8
TENA_LIMITS
 10
578931.56245738873
 20
508334.09154979588
 30
0.0
  0
VERTEX
  5
54A
  8
TENA_LIMITS
 10
579015.53841723967
 20
508267.00122093002
 30
0.0
  0
VERTEX
  5
54B
  8
TENA_LIMITS
 10
579099.51437709096
 20
508199.91089206422
 30
0.0
  0
VERTEX
  5
54C
  8
TENA_LIMITS
 10
579205.84602521919
 20
508172.82388233382
 30
0.0
  0
VERTEX
  5
54D
  8
TENA_LIMITS
 10
579312.17767334764
 20
508145.736872604
 30
0.0
  0
VERTEX
  5
54E
  8
TENA_LIMITS
 10
579418.50932147575
 20
508118.64986287378
 30
0.0
  0
VERTEX
  5
54F
  8
TENA_LIMITS
 10
579524.84096960432
 20
508091.56285314361
 30
0.0
  0
VERTEX
  5
550
  8
TENA_LIMITS
 10
579631.17261773266
 20
508064.47584341379
 30
0.0
  0
VERTEX
  5
551
  8
TENA_LIMITS
 10
579737.50426586112
 20
508037.3888336838
 30
0.0
  0
VERTEX
  5
552
  8
TENA_LIMITS
 10
579779.61543335975
 20
507937.59034129092
 30
0.0
  0
VERTEX
  5
553
  8
TENA_LIMITS
 10
579821.72660085827
 20
507837.79184889782
 30
0.0
  0
VERTEX
  5
554
  8
TENA_LIMITS
 10
579863.83776835701
 20
507737.99335650459
 30
0.0
  0
VERTEX
  5
555
  8
TENA_LIMITS
 10
579905.94893585599
 20
507638.19486411201
 30
0.0
  0
VERTEX
  5
556
  8
TENA_LIMITS
 10
579948.06010335404
 20
507538.39637171902
 30
0.0
  0
VERTEX
  5
557
  8
TENA_LIMITS
 10
579990.17127085361
 20
507438.59787932609
 30
0.0
  0
VERTEX
  5
558
  8
TENA_LIMITS
 10
580032.28243835189
 20
507338.79938693321
 30
0.0
  0
VERTEX
  5
559
  8
TENA_LIMITS
 10
580074.39360585087
 20
507239.0008945404
 30
0.0
  0
VERTEX
  5
55A
  8
TENA_LIMITS
 10
580116.50477334973
 20
507139.20240214729
 30
0.0
  0
VERTEX
  5
55B
  8
TENA_LIMITS
 10
580158.6159408486
 20
507039.40390975442
 30
0.0
  0
VERTEX
  5
55C
  8
TENA_LIMITS
 10
580200.72710834688
 20
506939.6054173616
 30
0.0
  0
VERTEX
  5
55D
  8
TENA_LIMITS
 10
580109.17549678055
 20
506851.44671503583
 30
0.0
  0
VERTEX
  5
55E
  8
TENA_LIMITS
 10
580017.62388521433
 20
506763.28801271023
 30
0.0
  0
VERTEX
  5
55F
  8
TENA_LIMITS
 10
579914.27695469605
 20
506690.43779427803
 30
0.0
  0
VERTEX
  5
560
  8
TENA_LIMITS
 10
579810.93002417719
 20
506617.58757584571
 30
0.0
  0
VERTEX
  5
561
  8
TENA_LIMITS
 10
579707.58309365844
 20
506544.73735741299
 30
0.0
  0
VERTEX
  5
562
  8
TENA_LIMITS
 10
579623.60535764205
 20
506452.49845066812
 30
0.0
  0
VERTEX
  5
563
  8
TENA_LIMITS
 10
579639.19784327457
 20
506373.08479062608
 30
0.0
  0
VERTEX
  5
564
  8
TENA_LIMITS
 10
579704.13313939492
 20
506293.48578660848
 30
0.0
  0
VERTEX
  5
565
  8
TENA_LIMITS
 10
579722.96639321151
 20
506108.77641986229
 30
0.0
  0
VERTEX
  5
566
  8
TENA_LIMITS
 10
579622.56199839141
 20
506090.73360728309
 30
0.0
  0
VERTEX
  5
567
  8
TENA_LIMITS
 10
579522.15760357131
 20
506072.69079470373
 30
0.0
  0
VERTEX
  5
568
  8
TENA_LIMITS
 10
579421.75320875109
 20
506054.64798212401
 30
0.0
  0
VERTEX
  5
569
  8
TENA_LIMITS
 10
579321.34881393099
 20
506036.60516954417
 30
0.0
  0
VERTEX
  5
56A
  8
TENA_LIMITS
 10
579305.94212454651
 20
505936.54425902228
 30
0.0
  0
VERTEX
  5
56B
  8
TENA_LIMITS
 10
579290.53543516167
 20
505836.4833485001
 30
0.0
  0
VERTEX
  5
56C
  8
TENA_LIMITS
 10
579275.12874577718
 20
505736.4224379778
 30
0.0
  0
VERTEX
  5
56D
  8
TENA_LIMITS
 10
579271.55127736949
 20
505713.28219483391
 30
0.0
  0
VERTEX
  5
56E
  8
TENA_LIMITS
 10
579273.69341027585
 20
505676.89380280889
 30
0.0
  0
VERTEX
  5
56F
  8
TENA_LIMITS
 10
579231.20965746418
 20
505577.6126499743
 30
0.0
  0
VERTEX
  5
570
  8
TENA_LIMITS
 10
579188.7259046525
 20
505478.33149714
 30
0.0
  0
VERTEX
  5
571
  8
TENA_LIMITS
 10
579146.24215184059
 20
505379.05034430511
 30
0.0
  0
VERTEX
  5
572
  8
TENA_LIMITS
 10
579103.75839902915
 20
505279.7691914704
 30
0.0
  0
VERTEX
  5
573
  8
TENA_LIMITS
 10
579091.74968551402
 20
505171.29976328148
 30
0.0
  0
VERTEX
  5
574
  8
TENA_LIMITS
 10
579079.74097199924
 20
505062.83033509261
 30
0.0
  0
VERTEX
  5
575
  8
TENA_LIMITS
 10
579067.73225848412
 20
504954.36090690328
 30
0.0
  0
VERTEX
  5
576
  8
TENA_LIMITS
 10
579055.72354496946
 20
504845.89147871413
 30
0.0
  0
VERTEX
  5
577
  8
TENA_LIMITS
 10
579043.71483145398
 20
504737.42205052468
 30
0.0
  0
VERTEX
  5
578
  8
TENA_LIMITS
 10
579031.70611793897
 20
504628.95262233581
 30
0.0
  0
VERTEX
  5
579
  8
TENA_LIMITS
 10
578952.35765452031
 20
504542.33826600888
 30
0.0
  0
VERTEX
  5
57A
  8
TENA_LIMITS
 10
578873.0091911006
 20
504455.72390968213
 30
0.0
  0
VERTEX
  5
57B
  8
TENA_LIMITS
 10
578793.66072768148
 20
504369.10955335601
 30
0.0
  0
VERTEX
  5
57C
  8
TENA_LIMITS
 10
578714.31226426223
 20
504282.49519702903
 30
0.0
  0
VERTEX
  5
57D
  8
TENA_LIMITS
 10
578653.16434907669
 20
504354.52321349957
 30
0.0
  0
VERTEX
  5
57E
  8
TENA_LIMITS
 10
578513.61674380116
 20
504438.0714952742
 30
0.0
  0
VERTEX
  5
57F
  8
TENA_LIMITS
 10
578406.02314243803
 20
504485.74255391269
 30
0.0
  0
VERTEX
  5
580
  8
TENA_LIMITS
 10
578304.09527927602
 20
504496.6714031829
 30
0.0
  0
VERTEX
  5
581
  8
TENA_LIMITS
 10
578193.07084873365
 20
504502.7273832818
 30
0.0
  0
VERTEX
  5
582
  8
TENA_LIMITS
 10
578024.42393262824
 20
504504.83189969428
 30
0.0
  0
VERTEX
  5
583
  8
TENA_LIMITS
 10
577922.72896020825
 20
504507.69419655169
 30
0.0
  0
VERTEX
  5
584
  8
TENA_LIMITS
 10
577821.03398778732
 20
504510.5564934088
 30
0.0
  0
VERTEX
  5
585
  8
TENA_LIMITS
 10
577687.79233483085
 20
504526.35734733491
 30
0.0
  0
VERTEX
  5
586
  8
TENA_LIMITS
 10
577554.55068187427
 20
504542.15820126078
 30
0.0
  0
VERTEX
  5
587
  8
TENA_LIMITS
 10
577400.93753634603
 20
504583.90303816262
 30
0.0
  0
VERTEX
  5
588
  8
TENA_LIMITS
 10
577261.76024278521
 20
504605.30056010559
 30
0.0
  0
VERTEX
  5
589
  8
TENA_LIMITS
 10
577168.47339851363
 20
504637.23470663169
 30
0.0
  0
VERTEX
  5
58A
  8
TENA_LIMITS
 10
577102.14664993586
 20
504614.58221538871
 30
0.0
  0
VERTEX
  5
58B
  8
TENA_LIMITS
 10
577060.01548857219
 20
504553.40958298999
 30
0.0
  0
VERTEX
  5
58C
  8
TENA_LIMITS
 10
577032.78085798514
 20
504455.75638510223
 30
0.0
  0
VERTEX
  5
58D
  8
TENA_LIMITS
 10
577013.1286212242
 20
504335.2550677025
 30
0.0
  0
VERTEX
  5
58E
  8
TENA_LIMITS
 10
577024.79426054237
 20
504250.24690598442
 30
0.0
  0
VERTEX
  5
58F
  8
TENA_LIMITS
 10
576999.12876172026
 20
504150.63589139847
 30
0.0
  0
VERTEX
  5
590
  8
TENA_LIMITS
 10
576973.46326289885
 20
504051.02487681288
 30
0.0
  0
VERTEX
  5
591
  8
TENA_LIMITS
 10
576915.01420810982
 20
503957.79349571781
 30
0.0
  0
VERTEX
  5
592
  8
TENA_LIMITS
 10
576856.56515332113
 20
503864.56211462262
 30
0.0
  0
VERTEX
  5
593
  8
TENA_LIMITS
 10
576743.11974640994
 20
504009.78193494462
 30
0.0
  0
VERTEX
  5
594
  8
TENA_LIMITS
 10
576637.3810451047
 20
504036.71668839292
 30
0.0
  0
VERTEX
  5
595
  8
TENA_LIMITS
 10
576531.64234380005
 20
504063.65144183999
 30
0.0
  0
VERTEX
  5
596
  8
TENA_LIMITS
 10
576416.48902614845
 20
504157.71406601981
 30
0.0
  0
VERTEX
  5
597
  8
TENA_LIMITS
 10
576301.33570849604
 20
504251.77669019968
 30
0.0
  0
VERTEX
  5
598
  8
TENA_LIMITS
 10
576334.58774222923
 20
504312.63435271318
 30
0.0
  0
VERTEX
  5
599
  8
TENA_LIMITS
 10
576290.30198362726
 20
504425.17508726509
 30
0.0
  0
VERTEX
  5
59A
  8
TENA_LIMITS
 10
576246.01622502552
 20
504537.71582181688
 30
0.0
  0
VERTEX
  5
59B
  8
TENA_LIMITS
 10
576201.73046642402
 20
504650.25655636849
 30
0.0
  0
VERTEX
  5
59C
  8
TENA_LIMITS
 10
576158.38562319311
 20
504799.32215418672
 30
0.0
  0
VERTEX
  5
59D
  8
TENA_LIMITS
 10
576122.42560213804
 20
504871.20649038278
 30
0.0
  0
VERTEX
  5
59E
  8
TENA_LIMITS
 10
576081.67574264365
 20
504953.29102492239
 30
0.0
  0
VERTEX
  5
59F
  8
TENA_LIMITS
 10
576044.0779181273
 20
505106.42471014749
 30
0.0
  0
VERTEX
  5
5A0
  8
TENA_LIMITS
 10
575983.57100469666
 20
505189.74872034538
 30
0.0
  0
VERTEX
  5
5A1
  8
TENA_LIMITS
 10
575923.06409126625
 20
505273.07273054338
 30
0.0
  0
VERTEX
  5
5A2
  8
TENA_LIMITS
 10
575862.55717783561
 20
505356.39674074127
 30
0.0
  0
VERTEX
  5
5A3
  8
TENA_LIMITS
 10
575786.56771546649
 20
505416.69062636822
 30
0.0
  0
VERTEX
  5
5A4
  8
TENA_LIMITS
 10
575640.77417505858
 20
505389.10364659288
 30
0.0
  0
VERTEX
  5
5A5
  8
TENA_LIMITS
 10
575597.31435615045
 20
505473.75025746768
 30
0.0
  0
VERTEX
  5
5A6
  8
TENA_LIMITS
 10
575518.81512112077
 20
505553.49239490461
 30
0.0
  0
VERTEX
  5
5A7
  8
TENA_LIMITS
 10
575454.43120773137
 20
505618.02160883992
 30
0.0
  0
VERTEX
  5
5A8
  8
TENA_LIMITS
 10
575372.86168196006
 20
505668.39617558487
 30
0.0
  0
VERTEX
  5
5A9
  8
TENA_LIMITS
 10
575250.9476767095
 20
505625.87513289112
 30
0.0
  0
VERTEX
  5
5AA
  8
TENA_LIMITS
 10
575195.43317533145
 20
505653.56983721122
 30
0.0
  0
VERTEX
  5
5AB
  8
TENA_LIMITS
 10
575112.63840559474
 20
505746.85318869108
 30
0.0
  0
VERTEX
  5
5AC
  8
TENA_LIMITS
 10
575080.18817271525
 20
505860.30386673368
 30
0.0
  0
VERTEX
  5
5AD
  8
TENA_LIMITS
 10
575046.8822945127
 20
505931.57650091819
 30
0.0
  0
VERTEX
  5
5AE
  8
TENA_LIMITS
 10
575077.37602245784
 20
506054.50972363679
 30
0.0
  0
VERTEX
  5
5AF
  8
TENA_LIMITS
 10
575088.94918802276
 20
506099.53197960899
 30
0.0
  0
VERTEX
  5
5B0
  8
TENA_LIMITS
 10
575107.86975040287
 20
506177.44294635567
 30
0.0
  0
VERTEX
  5
5B1
  8
TENA_LIMITS
 10
574980.78449941054
 20
506147.83223243442
 30
0.0
  0
VERTEX
  5
5B2
  8
TENA_LIMITS
 10
574957.83910855604
 20
506208.95838970167
 30
0.0
  0
VERTEX
  5
5B3
  8
TENA_LIMITS
 10
574931.75882113678
 20
506255.87158013647
 30
0.0
  0
VERTEX
  5
5B4
  8
TENA_LIMITS
 10
574845.70594276441
 20
506299.30895542941
 30
0.0
  0
VERTEX
  5
5B5
  8
TENA_LIMITS
 10
574808.93673109391
 20
506349.44839352858
 30
0.0
  0
VERTEX
  5
5B6
  8
TENA_LIMITS
 10
574757.53479771246
 20
506355.04115037317
 30
0.0
  0
VERTEX
  5
5B7
  8
TENA_LIMITS
 10
574704.87076114188
 20
506342.94536367309
 30
0.0
  0
VERTEX
  5
5B8
  8
TENA_LIMITS
 10
574695.02652222861
 20
506285.13630617713
 30
0.0
  0
VERTEX
  5
5B9
  8
TENA_LIMITS
 10
574692.75919847994
 20
506271.9943283507
 30
0.0
  0
VERTEX
  5
5BA
  8
TENA_LIMITS
 10
574642.76738838805
 20
506228.2037147354
 30
0.0
  0
VERTEX
  5
5BB
  8
TENA_LIMITS
 10
574665.71913087217
 20
506167.077738836
 30
0.0
  0
VERTEX
  5
5BC
  8
TENA_LIMITS
 10
574565.94007303158
 20
506134.22077531659
 30
0.0
  0
VERTEX
  5
5BD
  8
TENA_LIMITS
 10
574514.89950595121
 20
506113.85172813613
 30
0.0
  0
VERTEX
  5
5BE
  8
TENA_LIMITS
 10
574466.41380344215
 20
506082.32437861431
 30
0.0
  0
VERTEX
  5
5BF
  8
TENA_LIMITS
 10
574370.24671008182
 20
506009.14928917121
 30
0.0
  0
VERTEX
  5
5C0
  8
TENA_LIMITS
 10
574411.14228486223
 20
505959.92022449127
 30
0.0
  0
VERTEX
  5
5C1
  8
TENA_LIMITS
 10
574465.0655622409
 20
505915.44555887009
 30
0.0
  0
VERTEX
  5
5C2
  8
TENA_LIMITS
 10
574395.72704200225
 20
505808.28968212107
 30
0.0
  0
VERTEX
  5
5C3
  8
TENA_LIMITS
 10
574246.16016222385
 20
505744.85744003288
 30
0.0
  0
VERTEX
  5
5C4
  8
TENA_LIMITS
 10
574059.14402624429
 20
505763.62005212298
 30
0.0
  0
VERTEX
  5
5C5
  8
TENA_LIMITS
 10
573971.20991984813
 20
505769.87377233279
 30
0.0
  0
VERTEX
  5
5C6
  8
TENA_LIMITS
 10
573896.11583425954
 20
505787.44997847272
 30
0.0
  0
VERTEX
  5
5C7
  8
TENA_LIMITS
 10
573788.77342223993
 20
505935.57522287499
 30
0.0
  0
VERTEX
  5
5C8
  8
TENA_LIMITS
 10
573764.1618100052
 20
505925.29476241581
 30
0.0
  0
VERTEX
  5
5C9
  8
TENA_LIMITS
 10
573697.64314973506
 20
505947.63703646621
 30
0.0
  0
VERTEX
  5
5CA
  8
TENA_LIMITS
 10
573532.47979751974
 20
505903.0952208903
 30
0.0
  0
VERTEX
  5
5CB
  8
TENA_LIMITS
 10
573394.04173515306
 20
505833.34331911092
 30
0.0
  0
VERTEX
  5
5CC
  8
TENA_LIMITS
 10
573280.82124563074
 20
505738.22981311189
 30
0.0
  0
VERTEX
  5
5CD
  8
TENA_LIMITS
 10
573131.65595706378
 20
505784.71293288539
 30
0.0
  0
VERTEX
  5
5CE
  8
TENA_LIMITS
 10
573093.46535854344
 20
505796.60903945687
 30
0.0
  0
VERTEX
  5
5CF
  8
TENA_LIMITS
 10
572899.01619594998
 20
505782.59543538571
 30
0.0
  0
VERTEX
  5
5D0
  8
TENA_LIMITS
 10
572797.45640956145
 20
505760.54619178618
 30
0.0
  0
VERTEX
  5
5D1
  8
TENA_LIMITS
 10
572776.94043342734
 20
505755.84129390819
 30
0.0
  0
VERTEX
  5
5D2
  8
TENA_LIMITS
 10
572678.50494084531
 20
505717.0704427571
 30
0.0
  0
VERTEX
  5
5D3
  8
TENA_LIMITS
 10
572547.7441911652
 20
505695.39047081763
 30
0.0
  0
VERTEX
  5
5D4
  8
TENA_LIMITS
 10
572416.98344148556
 20
505673.71049887763
 30
0.0
  0
VERTEX
  5
5D5
  8
TENA_LIMITS
 10
572228.04587650858
 20
505668.315458845
 30
0.0
  0
VERTEX
  5
5D6
  8
TENA_LIMITS
 10
572086.99941283977
 20
505688.56953994208
 30
0.0
  0
VERTEX
  5
5D7
  8
TENA_LIMITS
 10
571945.95294917049
 20
505708.8236210391
 30
0.0
  0
VERTEX
  5
5D8
  8
TENA_LIMITS
 10
571782.92871911475
 20
505741.93995732372
 30
0.0
  0
VERTEX
  5
5D9
  8
TENA_LIMITS
 10
571630.54704560491
 20
505780.75605614338
 30
0.0
  0
VERTEX
  5
5DA
  8
TENA_LIMITS
 10
571490.03941626451
 20
505782.13983313728
 30
0.0
  0
VERTEX
  5
5DB
  8
TENA_LIMITS
 10
571382.84489562176
 20
505752.09934100357
 30
0.0
  0
VERTEX
  5
5DC
  8
TENA_LIMITS
 10
571260.99514027708
 20
505667.68123750138
 30
0.0
  0
VERTEX
  5
5DD
  8
TENA_LIMITS
 10
571193.28161133407
 20
505579.41310487862
 30
0.0
  0
VERTEX
  5
5DE
  8
TENA_LIMITS
 10
571094.70443050144
 20
505524.13997111341
 30
0.0
  0
VERTEX
  5
5DF
  8
TENA_LIMITS
 10
570996.12724966905
 20
505468.86683734792
 30
0.0
  0
VERTEX
  5
5E0
  8
TENA_LIMITS
 10
570898.98193359468
 20
505472.41398713918
 30
0.0
  0
VERTEX
  5
5E1
  8
TENA_LIMITS
 10
570761.72588354326
 20
505476.9228226376
 30
0.0
  0
VERTEX
  5
5E2
  8
TENA_LIMITS
 10
570669.15723242715
 20
505467.95846294478
 30
0.0
  0
VERTEX
  5
5E3
  8
TENA_LIMITS
 10
570566.40963011852
 20
505446.0612527816
 30
0.0
  0
VERTEX
  5
5E4
  8
TENA_LIMITS
 10
570498.95589581097
 20
505444.13513715198
 30
0.0
  0
VERTEX
  5
5E5
  8
TENA_LIMITS
 10
570470.41056570469
 20
505483.35365176509
 30
0.0
  0
VERTEX
  5
5E6
  8
TENA_LIMITS
 10
570439.93760205223
 20
505516.19602633629
 30
0.0
  0
VERTEX
  5
5E7
  8
TENA_LIMITS
 10
570424.28037103871
 20
505547.3544260955
 30
0.0
  0
VERTEX
  5
5E8
  8
TENA_LIMITS
 10
570351.88927284034
 20
505570.57171473512
 30
0.0
  0
VERTEX
  5
5E9
  8
TENA_LIMITS
 10
570309.67055585154
 20
505571.47320779122
 30
0.0
  0
VERTEX
  5
5EA
  8
TENA_LIMITS
 10
570268.27586131112
 20
505567.31188588543
 30
0.0
  0
VERTEX
  5
5EB
  8
TENA_LIMITS
 10
570259.47048861382
 20
505566.30856292392
 30
0.0
  0
VERTEX
  5
5EC
  8
TENA_LIMITS
 10
570178.0661065625
 20
505584.18251438468
 30
0.0
  0
VERTEX
  5
5ED
  8
TENA_LIMITS
 10
570086.44680482626
 20
505562.17277758429
 30
0.0
  0
VERTEX
  5
5EE
  8
TENA_LIMITS
 10
570049.12158314604
 20
505582.08467567118
 30
0.0
  0
VERTEX
  5
5EF
  8
TENA_LIMITS
 10
570044.85235723015
 20
505639.65149752528
 30
0.0
  0
VERTEX
  5
5F0
  8
TENA_LIMITS
 10
570035.33642356994
 20
505697.06845133367
 30
0.0
  0
VERTEX
  5
5F1
  8
TENA_LIMITS
 10
570010.23012435087
 20
505748.79583955189
 30
0.0
  0
VERTEX
  5
5F2
  8
TENA_LIMITS
 10
569998.46497755288
 20
505793.03754599491
 30
0.0
  0
VERTEX
  5
5F3
  8
TENA_LIMITS
 10
569980.40557390265
 20
505873.8105447655
 30
0.0
  0
VERTEX
  5
5F4
  8
TENA_LIMITS
 10
569994.4997653187
 20
505931.90167668113
 30
0.0
  0
VERTEX
  5
5F5
  8
TENA_LIMITS
 10
569974.93930327147
 20
505973.29859654669
 30
0.0
  0
VERTEX
  5
5F6
  8
TENA_LIMITS
 10
569932.21787393151
 20
505998.30084694648
 30
0.0
  0
VERTEX
  5
5F7
  8
TENA_LIMITS
 10
569869.48220831691
 20
505988.6427703689
 30
0.0
  0
VERTEX
  5
5F8
  8
TENA_LIMITS
 10
569854.49036655133
 20
505961.99253954767
 30
0.0
  0
VERTEX
  5
5F9
  8
TENA_LIMITS
 10
569833.50379476871
 20
505961.3932760029
 30
0.0
  0
VERTEX
  5
5FA
  8
TENA_LIMITS
 10
569793.25589036662
 20
505991.71059592522
 30
0.0
  0
VERTEX
  5
5FB
  8
TENA_LIMITS
 10
569744.68922948872
 20
506037.523643511
 30
0.0
  0
VERTEX
  5
5FC
  8
TENA_LIMITS
 10
569703.99256471137
 20
506083.5614661398
 30
0.0
  0
VERTEX
  5
5FD
  8
TENA_LIMITS
 10
569701.96780014876
 20
506062.5258939105
 30
0.0
  0
VERTEX
  5
5FE
  8
TENA_LIMITS
 10
569733.44303850655
 20
505971.64715156209
 30
0.0
  0
VERTEX
  5
5FF
  8
TENA_LIMITS
 10
569753.60188900668
 20
505909.28966321831
 30
0.0
  0
VERTEX
  5
600
  8
TENA_LIMITS
 10
569754.64930420904
 20
505872.60854933079
 30
0.0
  0
VERTEX
  5
601
  8
TENA_LIMITS
 10
569729.38862225704
 20
505837.79846240889
 30
0.0
  0
VERTEX
  5
602
  8
TENA_LIMITS
 10
569696.4822560047
 20
505794.90342260158
 30
0.0
  0
VERTEX
  5
603
  8
TENA_LIMITS
 10
569687.33564577659
 20
505747.44239459379
 30
0.0
  0
VERTEX
  5
604
  8
TENA_LIMITS
 10
569686.18551567011
 20
505702.4809935966
 30
0.0
  0
VERTEX
  5
605
  8
TENA_LIMITS
 10
569657.40561420843
 20
505664.0339608863
 30
0.0
  0
VERTEX
  5
606
  8
TENA_LIMITS
 10
569615.46076054301
 20
505631.69812417479
 30
0.0
  0
VERTEX
  5
607
  8
TENA_LIMITS
 10
569596.24788402789
 20
505576.65775201051
 30
0.0
  0
VERTEX
  5
608
  8
TENA_LIMITS
 10
569577.66663018265
 20
505544.9890539716
 30
0.0
  0
VERTEX
  5
609
  8
TENA_LIMITS
 10
569516.86262376176
 20
505518.14076670178
 30
0.0
  0
VERTEX
  5
60A
  8
TENA_LIMITS
 10
569514.80610856635
 20
505517.24563104619
 30
0.0
  0
VERTEX
  5
60B
  8
TENA_LIMITS
 10
569471.30420116533
 20
505493.94727579202
 30
0.0
  0
VERTEX
  5
60C
  8
TENA_LIMITS
 10
569424.3930039882
 20
505469.35120203492
 30
0.0
  0
VERTEX
  5
60D
  8
TENA_LIMITS
 10
569383.86301338044
 20
505415.68112436758
 30
0.0
  0
VERTEX
  5
60E
  8
TENA_LIMITS
 10
569311.96192579414
 20
505355.86397604679
 30
0.0
  0
VERTEX
  5
60F
  8
TENA_LIMITS
 10
569231.05668155826
 20
505335.17424918379
 30
0.0
  0
VERTEX
  5
610
  8
TENA_LIMITS
 10
569143.99901381775
 20
505345.81657826598
 30
0.0
  0
VERTEX
  5
611
  8
TENA_LIMITS
 10
569033.45044820162
 20
505350.53680246271
 30
0.0
  0
VERTEX
  5
612
  8
TENA_LIMITS
 10
568977.3846697472
 20
505288.54615971551
 30
0.0
  0
VERTEX
  5
613
  8
TENA_LIMITS
 10
568928.37517826864
 20
505255.63902665669
 30
0.0
  0
VERTEX
  5
614
  8
TENA_LIMITS
 10
568874.33696020115
 20
505214.71140394959
 30
0.0
  0
VERTEX
  5
615
  8
TENA_LIMITS
 10
568845.06316308375
 20
505135.10633780633
 30
0.0
  0
VERTEX
  5
616
  8
TENA_LIMITS
 10
568832.72456633684
 20
505079.81466084463
 30
0.0
  0
VERTEX
  5
617
  8
TENA_LIMITS
 10
568811.81625282671
 20
505037.64587562298
 30
0.0
  0
VERTEX
  5
618
  8
TENA_LIMITS
 10
568775.98147900018
 20
505017.13587285479
 30
0.0
  0
VERTEX
  5
619
  8
TENA_LIMITS
 10
568693.09897690266
 20
505004.37630588218
 30
0.0
  0
VERTEX
  5
61A
  8
TENA_LIMITS
 10
568661.86991056427
 20
505004.78364518081
 30
0.0
  0
VERTEX
  5
61B
  8
TENA_LIMITS
 10
568639.47897389834
 20
505014.53721961111
 30
0.0
  0
VERTEX
  5
61C
  8
TENA_LIMITS
 10
568603.60700184398
 20
504995.32527833531
 30
0.0
  0
VERTEX
  5
61D
  8
TENA_LIMITS
 10
568604.75603461056
 20
504955.08545588888
 30
0.0
  0
VERTEX
  5
61E
  8
TENA_LIMITS
 10
568570.29504657665
 20
504932.0164840119
 30
0.0
  0
VERTEX
  5
61F
  8
TENA_LIMITS
 10
568451.53265417693
 20
504870.47284522769
 30
0.0
  0
VERTEX
  5
620
  8
TENA_LIMITS
 10
568403.66344065056
 20
504799.33180302498
 30
0.0
  0
VERTEX
  5
621
  8
TENA_LIMITS
 10
568330.24499265128
 20
504690.91288835899
 30
0.0
  0
VERTEX
  5
622
  8
TENA_LIMITS
 10
568286.26861539704
 20
504599.94754610199
 30
0.0
  0
VERTEX
  5
623
  8
TENA_LIMITS
 10
568217.21699265786
 20
504455.10495032708
 30
0.0
  0
VERTEX
  5
624
  8
TENA_LIMITS
 10
568228.516179536
 20
504408.91149090341
 30
0.0
  0
VERTEX
  5
625
  8
TENA_LIMITS
 10
568232.49768187164
 20
504269.47687100951
 30
0.0
  0
VERTEX
  5
626
  8
TENA_LIMITS
 10
568156.03970852611
 20
504151.00343460351
 30
0.0
  0
VERTEX
  5
627
  8
TENA_LIMITS
 10
568060.49700822879
 20
504118.37206151208
 30
0.0
  0
VERTEX
  5
628
  8
TENA_LIMITS
 10
568003.41415707732
 20
504020.38728252199
 30
0.0
  0
VERTEX
  5
629
  8
TENA_LIMITS
 10
568006.63727617019
 20
503907.51170247648
 30
0.0
  0
VERTEX
  5
62A
  8
TENA_LIMITS
 10
568033.5245026151
 20
503753.19056847377
 30
0.0
  0
VERTEX
  5
62B
  8
TENA_LIMITS
 10
568041.79385711334
 20
503658.78316271922
 30
0.0
  0
VERTEX
  5
62C
  8
TENA_LIMITS
 10
567946.32516354183
 20
503683.89344771311
 30
0.0
  0
VERTEX
  5
62D
  8
TENA_LIMITS
 10
567871.42605574662
 20
503680.54845524329
 30
0.0
  0
VERTEX
  5
62E
  8
TENA_LIMITS
 10
567816.22877291217
 20
503678.97231790621
 30
0.0
  0
VERTEX
  5
62F
  8
TENA_LIMITS
 10
567718.81436563504
 20
503667.702438101
 30
0.0
  0
VERTEX
  5
630
  8
TENA_LIMITS
 10
567637.53607352835
 20
503686.60216384148
 30
0.0
  0
VERTEX
  5
631
  8
TENA_LIMITS
 10
567606.36139124958
 20
503736.6415245863
 30
0.0
  0
VERTEX
  5
632
  8
TENA_LIMITS
 10
567541.70357534196
 20
503768.74823973019
 30
0.0
  0
VERTEX
  5
633
  8
TENA_LIMITS
 10
567508.11461188516
 20
503831.5759763543
 30
0.0
  0
VERTEX
  5
634
  8
TENA_LIMITS
 10
567435.54783144675
 20
503903.28933514142
 30
0.0
  0
VERTEX
  5
635
  8
TENA_LIMITS
 10
567371.50967219169
 20
503911.52240570268
 30
0.0
  0
VERTEX
  5
636
  8
TENA_LIMITS
 10
567280.5333150503
 20
503922.3401515588
 30
0.0
  0
VERTEX
  5
637
  8
TENA_LIMITS
 10
567170.24158257665
 20
503962.79132149532
 30
0.0
  0
VERTEX
  5
638
  8
TENA_LIMITS
 10
567059.94985010335
 20
504003.24249143113
 30
0.0
  0
VERTEX
  5
639
  8
TENA_LIMITS
 10
566988.14846431254
 20
504048.14662377158
 30
0.0
  0
VERTEX
  5
63A
  8
TENA_LIMITS
 10
566912.22623802989
 20
504119.7641690842
 30
0.0
  0
VERTEX
  5
63B
  8
TENA_LIMITS
 10
566853.94192909612
 20
504161.70039114379
 30
0.0
  0
VERTEX
  5
63C
  8
TENA_LIMITS
 10
566838.89393047313
 20
504218.28675053577
 30
0.0
  0
VERTEX
  5
63D
  8
TENA_LIMITS
 10
566827.30960032658
 20
504266.17338916368
 30
0.0
  0
VERTEX
  5
63E
  8
TENA_LIMITS
 10
566812.24893749156
 20
504328.2041261805
 30
0.0
  0
VERTEX
  5
63F
  8
TENA_LIMITS
 10
566763.93474532256
 20
504373.77892636741
 30
0.0
  0
VERTEX
  5
640
  8
TENA_LIMITS
 10
566686.09270148014
 20
504395.03337327437
 30
0.0
  0
VERTEX
  5
641
  8
TENA_LIMITS
 10
566557.53806099121
 20
504428.25528234552
 30
0.0
  0
VERTEX
  5
642
  8
TENA_LIMITS
 10
566426.58488355507
 20
504427.86984961061
 30
0.0
  0
VERTEX
  5
643
  8
TENA_LIMITS
 10
566315.26793955872
 20
504438.8798728257
 30
0.0
  0
VERTEX
  5
644
  8
TENA_LIMITS
 10
566174.10107461095
 20
504499.1289405335
 30
0.0
  0
VERTEX
  5
645
  8
TENA_LIMITS
 10
566050.23373878363
 20
504517.01861716062
 30
0.0
  0
VERTEX
  5
646
  8
TENA_LIMITS
 10
565848.40856636898
 20
504529.30628565932
 30
0.0
  0
VERTEX
  5
647
  8
TENA_LIMITS
 10
565787.03353301284
 20
504530.92974719242
 30
0.0
  0
VERTEX
  5
648
  8
TENA_LIMITS
 10
565633.77321773104
 20
504639.04349111841
 30
0.0
  0
VERTEX
  5
649
  8
TENA_LIMITS
 10
565576.97408710315
 20
504749.91169765248
 30
0.0
  0
VERTEX
  5
64A
  8
TENA_LIMITS
 10
565519.86942382762
 20
504871.4844852197
 30
0.0
  0
VERTEX
  5
64B
  8
TENA_LIMITS
 10
565326.02992095985
 20
504898.08948904218
 30
0.0
  0
VERTEX
  5
64C
  8
TENA_LIMITS
 10
565205.55641083547
 20
504894.72816923377
 30
0.0
  0
VERTEX
  5
64D
  8
TENA_LIMITS
 10
565063.44104829256
 20
504890.59136403829
 30
0.0
  0
VERTEX
  5
64E
  8
TENA_LIMITS
 10
564890.73178631649
 20
504928.51308953163
 30
0.0
  0
VERTEX
  5
64F
  8
TENA_LIMITS
 10
564701.33432832418
 20
504987.3849510689
 30
0.0
  0
VERTEX
  5
650
  8
TENA_LIMITS
 10
564620.33867347939
 20
505006.49886248802
 30
0.0
  0
VERTEX
  5
651
  8
TENA_LIMITS
 10
564466.91577033943
 20
504932.48121857032
 30
0.0
  0
VERTEX
  5
652
  8
TENA_LIMITS
 10
564333.24747900967
 20
504917.95101583569
 30
0.0
  0
VERTEX
  5
653
  8
TENA_LIMITS
 10
564268.67570124962
 20
504953.52616098168
 30
0.0
  0
VERTEX
  5
654
  8
TENA_LIMITS
 10
564140.66341957392
 20
504983.73532039631
 30
0.0
  0
VERTEX
  5
655
  8
TENA_LIMITS
 10
564036.73180240742
 20
505061.19578949059
 30
0.0
  0
VERTEX
  5
656
  8
TENA_LIMITS
 10
563881.61934791214
 20
505149.89400357119
 30
0.0
  0
VERTEX
  5
657
  8
TENA_LIMITS
 10
563797.78417102131
 20
505265.56643150467
 30
0.0
  0
VERTEX
  5
658
  8
TENA_LIMITS
 10
563776.87463290908
 20
505267.94306941301
 30
0.0
  0
VERTEX
  5
659
  8
TENA_LIMITS
 10
563761.06665294454
 20
505300.20214667742
 30
0.0
  0
VERTEX
  5
65A
  8
TENA_LIMITS
 10
563730.4686768183
 20
505329.06524977169
 30
0.0
  0
VERTEX
  5
65B
  8
TENA_LIMITS
 10
563631.27720809693
 20
505361.91704513581
 30
0.0
  0
VERTEX
  5
65C
  8
TENA_LIMITS
 10
563516.10526401096
 20
505380.93096670992
 30
0.0
  0
VERTEX
  5
65D
  8
TENA_LIMITS
 10
563400.93331992475
 20
505399.9448882835
 30
0.0
  0
VERTEX
  5
65E
  8
TENA_LIMITS
 10
563275.30667301745
 20
505420.1471307028
 30
0.0
  0
VERTEX
  5
65F
  8
TENA_LIMITS
 10
563235.78384679905
 20
505448.75538811
 30
0.0
  0
VERTEX
  5
660
  8
TENA_LIMITS
 10
563196.6852364121
 20
505462.50735052832
 30
0.0
  0
VERTEX
  5
661
  8
TENA_LIMITS
 10
563062.47311293893
 20
505470.56968110858
 30
0.0
  0
VERTEX
  5
662
  8
TENA_LIMITS
 10
562993.77181422245
 20
505475.86650987872
 30
0.0
  0
VERTEX
  5
663
  8
TENA_LIMITS
 10
562889.41690742935
 20
505483.47023732791
 30
0.0
  0
VERTEX
  5
664
  8
TENA_LIMITS
 10
562725.28555201169
 20
505496.62563923409
 30
0.0
  0
VERTEX
  5
665
  8
TENA_LIMITS
 10
562713.21602168703
 20
505502.22835166601
 30
0.0
  0
VERTEX
  5
666
  8
TENA_LIMITS
 10
562642.67113597994
 20
505574.55601093918
 30
0.0
  0
VERTEX
  5
667
  8
TENA_LIMITS
 10
562563.79517102416
 20
505625.82996754372
 30
0.0
  0
VERTEX
  5
668
  8
TENA_LIMITS
 10
562464.34917251661
 20
505667.59554995492
 30
0.0
  0
VERTEX
  5
669
  8
TENA_LIMITS
 10
562352.9184859891
 20
505711.9926159606
 30
0.0
  0
VERTEX
  5
66A
  8
TENA_LIMITS
 10
562321.39273682225
 20
505801.95666067582
 30
0.0
  0
VERTEX
  5
66B
  8
TENA_LIMITS
 10
562319.09792385472
 20
505882.32239874551
 30
0.0
  0
VERTEX
  5
66C
  8
TENA_LIMITS
 10
562344.39002232882
 20
505936.66546544892
 30
0.0
  0
VERTEX
  5
66D
  8
TENA_LIMITS
 10
562367.99912424735
 20
506049.94344651978
 30
0.0
  0
VERTEX
  5
66E
  8
TENA_LIMITS
 10
562338.65298847505
 20
506137.57986089127
 30
0.0
  0
VERTEX
  5
66F
  8
TENA_LIMITS
 10
562389.47279273113
 20
506132.5738185416
 30
0.0
  0
VERTEX
  5
670
  8
TENA_LIMITS
 10
562460.75752598513
 20
506147.87459555152
 30
0.0
  0
VERTEX
  5
671
  8
TENA_LIMITS
 10
562530.93542498141
 20
506187.43284720229
 30
0.0
  0
VERTEX
  5
672
  8
TENA_LIMITS
 10
562607.82788847026
 20
506246.90729415527
 30
0.0
  0
VERTEX
  5
673
  8
TENA_LIMITS
 10
562697.32947236532
 20
506236.73435282003
 30
0.0
  0
VERTEX
  5
674
  8
TENA_LIMITS
 10
562810.84666771605
 20
506278.16166767012
 30
0.0
  0
VERTEX
  5
675
  8
TENA_LIMITS
 10
562861.78677077556
 20
506353.86662181438
 30
0.0
  0
VERTEX
  5
676
  8
TENA_LIMITS
 10
562908.54665012332
 20
506501.58106888662
 30
0.0
  0
VERTEX
  5
677
  8
TENA_LIMITS
 10
562946.09230129456
 20
506602.93034507532
 30
0.0
  0
VERTEX
  5
678
  8
TENA_LIMITS
 10
562977.4284605704
 20
506561.65691991028
 30
0.0
  0
VERTEX
  5
679
  8
TENA_LIMITS
 10
563012.12151229614
 20
506508.43130183499
 30
0.0
  0
VERTEX
  5
67A
  8
TENA_LIMITS
 10
563046.9006325549
 20
506452.19615464588
 30
0.0
  0
VERTEX
  5
67B
  8
TENA_LIMITS
 10
563104.84080235788
 20
506429.7545186904
 30
0.0
  0
VERTEX
  5
67C
  8
TENA_LIMITS
 10
563153.22551808564
 20
506425.11210192891
 30
0.0
  0
VERTEX
  5
67D
  8
TENA_LIMITS
 10
563192.48433188826
 20
506423.22108529101
 30
0.0
  0
VERTEX
  5
67E
  8
TENA_LIMITS
 10
563219.86190806318
 20
506414.96678060282
 30
0.0
  0
VERTEX
  5
67F
  8
TENA_LIMITS
 10
563240.95498511451
 20
506415.56908536493
 30
0.0
  0
VERTEX
  5
680
  8
TENA_LIMITS
 10
563289.25376334356
 20
506413.93625176873
 30
0.0
  0
VERTEX
  5
681
  8
TENA_LIMITS
 10
563327.91101896565
 20
506433.11216648109
 30
0.0
  0
VERTEX
  5
682
  8
TENA_LIMITS
 10
563367.0838952706
 20
506434.23073300801
 30
0.0
  0
VERTEX
  5
683
  8
TENA_LIMITS
 10
563402.81380915758
 20
506450.31107182661
 30
0.0
  0
VERTEX
  5
684
  8
TENA_LIMITS
 10
563441.55700084253
 20
506466.477453642
 30
0.0
  0
VERTEX
  5
685
  8
TENA_LIMITS
 10
563467.39797094988
 20
506455.13684817287
 30
0.0
  0
VERTEX
  5
686
  8
TENA_LIMITS
 10
563544.17293218942
 20
506419.49747733428
 30
0.0
  0
VERTEX
  5
687
  8
TENA_LIMITS
 10
563603.03125090385
 20
506442.79624017858
 30
0.0
  0
VERTEX
  5
688
  8
TENA_LIMITS
 10
563650.92164231557
 20
506471.1863395531
 30
0.0
  0
VERTEX
  5
689
  8
TENA_LIMITS
 10
563673.62835605175
 20
506434.0030705501
 30
0.0
  0
VERTEX
  5
68A
  8
TENA_LIMITS
 10
563636.85995635763
 20
506395.12156269967
 30
0.0
  0
VERTEX
  5
68B
  8
TENA_LIMITS
 10
563540.92484274437
 20
506343.7414786013
 30
0.0
  0
VERTEX
  5
68C
  8
TENA_LIMITS
 10
563520.3769040542
 20
506305.32313982188
 30
0.0
  0
VERTEX
  5
68D
  8
TENA_LIMITS
 10
563585.87567382026
 20
506285.57534616021
 30
0.0
  0
VERTEX
  5
68E
  8
TENA_LIMITS
 10
563649.52393127652
 20
506330.62896990159
 30
0.0
  0
VERTEX
  5
68F
  8
TENA_LIMITS
 10
563729.392783641
 20
506376.1457162291
 30
0.0
  0
VERTEX
  5
690
  8
TENA_LIMITS
 10
563852.0535595665
 20
506439.0979341148
 30
0.0
  0
VERTEX
  5
691
  8
TENA_LIMITS
 10
563964.05480483011
 20
506496.34125166573
 30
0.0
  0
VERTEX
  5
692
  8
TENA_LIMITS
 10
564061.22350500419
 20
506504.52038830699
 30
0.0
  0
VERTEX
  5
693
  8
TENA_LIMITS
 10
564168.89740505104
 20
506523.8085399323
 30
0.0
  0
VERTEX
  5
694
  8
TENA_LIMITS
 10
564189.4453423057
 20
506562.22692897997
 30
0.0
  0
VERTEX
  5
695
  8
TENA_LIMITS
 10
564295.11466706195
 20
506651.71651968721
 30
0.0
  0
VERTEX
  5
696
  8
TENA_LIMITS
 10
564342.54246351402
 20
506696.30697435729
 30
0.0
  0
VERTEX
  5
697
  8
TENA_LIMITS
 10
564362.93620388396
 20
506740.12543156918
 30
0.0
  0
SEQEND
  5
698
  8
TENA_LIMITS
  0
POLYLINE
  5
A0
  8
TENA_LATE
 66
     1
 10
0.0
 20
0.0
 30
0.0
 70
     1
  0
VERTEX
  5
699
  8
TENA_LATE
 10
570149.18723692244
 20
516639.74950360443
 30
0.0
  0
VERTEX
  5
69A
  8
TENA_LATE
 10
570151.93675455928
 20
516633.61585991649
 30
0.0
  0
VERTEX
  5
69B
  8
TENA_LATE
 10
570147.72883906669
 20
516626.69574888458
 30
0.0
  0
VERTEX
  5
69C
  8
TENA_LATE
 10
570139.34755223722
 20
516611.65640788118
 30
0.0
  0
VERTEX
  5
69D
  8
TENA_LATE
 10
570125.19270637387
 20
516602.45222550002
 30
0.0
  0
VERTEX
  5
69E
  8
TENA_LATE
 10
570111.81603887409
 20
516608.07028026291
 30
0.0
  0
VERTEX
  5
69F
  8
TENA_LATE
 10
570108.3524715919
 20
516617.17134319042
 30
0.0
  0
VERTEX
  5
6A0
  8
TENA_LATE
 10
570114.50385901053
 20
516626.14698987128
 30
0.0
  0
VERTEX
  5
6A1
  8
TENA_LATE
 10
570121.38726855209
 20
516637.54354732297
 30
0.0
  0
VERTEX
  5
6A2
  8
TENA_LATE
 10
570130.36281613074
 20
516645.79990160471
 30
0.0
  0
VERTEX
  5
6A3
  8
TENA_LATE
 10
570141.56745560281
 20
516646.11984580691
 30
0.0
  0
SEQEND
  5
6A4
  8
TENA_LATE
  0
POLYLINE
  5
A1
  8
TENA_LATE
 66
     1
 10
0.0
 20
0.0
 30
0.0
 70
     1
  0
VERTEX
  5
6A5
  8
TENA_LATE
 10
570099.89595299808
 20
516511.7275552713
 30
0.0
  0
VERTEX
  5
6A6
  8
TENA_LATE
 10
570090.78032441251
 20
516498.83790506382
 30
0.0
  0
VERTEX
  5
6A7
  8
TENA_LATE
 10
570083.56010503136
 20
516488.76498924679
 30
0.0
  0
VERTEX
  5
6A8
  8
TENA_LATE
 10
570076.97190963209
 20
516484.2355465524
 30
0.0
  0
VERTEX
  5
6A9
  8
TENA_LATE
 10
570062.64541601692
 20
516487.77307607589
 30
0.0
  0
VERTEX
  5
6AA
  8
TENA_LATE
 10
570046.63823194383
 20
516494.81473150582
 30
0.0
  0
VERTEX
  5
6AB
  8
TENA_LATE
 10
570041.50608390453
 20
516508.48164852511
 30
0.0
  0
VERTEX
  5
6AC
  8
TENA_LATE
 10
570041.83407639049
 20
516524.67248852021
 30
0.0
  0
VERTEX
  5
6AD
  8
TENA_LATE
 10
570049.68642381707
 20
516540.28877917829
 30
0.0
  0
VERTEX
  5
6AE
  8
TENA_LATE
 10
570058.84776069829
 20
516565.41459178628
 30
0.0
  0
VERTEX
  5
6AF
  8
TENA_LATE
 10
570068.24556940992
 20
516582.25901787408
 30
0.0
  0
VERTEX
  5
6B0
  8
TENA_LATE
 10
570081.44457838335
 20
516590.52934720833
 30
0.0
  0
VERTEX
  5
6B1
  8
TENA_LATE
 10
570107.68361429556
 20
516584.96386377531
 30
0.0
  0
VERTEX
  5
6B2
  8
TENA_LATE
 10
570119.18933727324
 20
516569.50563321612
 30
0.0
  0
VERTEX
  5
6B3
  8
TENA_LATE
 10
570121.07271539536
 20
516558.90326272848
 30
0.0
  0
VERTEX
  5
6B4
  8
TENA_LATE
 10
570109.11369222088
 20
516534.88166988757
 30
0.0
  0
VERTEX
  5
6B5
  8
TENA_LATE
 10
570103.28061771847
 20
516517.74433121219
 30
0.0
  0
SEQEND
  5
6B6
  8
TENA_LATE
  0
POLYLINE
  5
A2
  8
TENA_LATE
 66
     1
 10
0.0
 20
0.0
 30
0.0
 70
     1
  0
VERTEX
  5
6B7
  8
TENA_LATE
 10
569108.94250541006
 20
516439.21620591811
 30
0.0
  0
VERTEX
  5
6B8
  8
TENA_LATE
 10
569098.11603409983
 20
516445.19515849429
 30
0.0
  0
VERTEX
  5
6B9
  8
TENA_LATE
 10
569114.39545416553
 20
516494.59488339722
 30
0.0
  0
VERTEX
  5
6BA
  8
TENA_LATE
 10
569117.11890466744
 20
516506.26776204811
 30
0.0
  0
VERTEX
  5
6BB
  8
TENA_LATE
 10
569126.3493312276
 20
516532.00238441478
 30
0.0
  0
VERTEX
  5
6BC
  8
TENA_LATE
 10
569146.72689274431
 20
516528.1416809939
 30
0.0
  0
VERTEX
  5
6BD
  8
TENA_LATE
 10
569159.70990568236
 20
516523.57559060608
 30
0.0
  0
VERTEX
  5
6BE
  8
TENA_LATE
 10
569148.20345175464
 20
516493.6231995516
 30
0.0
  0
VERTEX
  5
6BF
  8
TENA_LATE
 10
569140.37106095487
 20
516473.65198339132
 30
0.0
  0
VERTEX
  5
6C0
  8
TENA_LATE
 10
569125.73576339404
 20
516432.25572594861
 30
0.0
  0
SEQEND
  5
6C1
  8
TENA_LATE
  0
POLYLINE
  5
A3
  8
TENA_LATE
 66
     1
 10
0.0
 20
0.0
 30
0.0
 70
     1
  0
VERTEX
  5
6C2
  8
TENA_LATE
 10
569401.92939036456
 20
515497.9144366624
 30
0.0
  0
VERTEX
  5
6C3
  8
TENA_LATE
 10
569406.44311435486
 20
515500.50793484889
 30
0.0
  0
VERTEX
  5
6C4
  8
TENA_LATE
 10
569419.15958944568
 20
515495.981824658
 30
0.0
  0
VERTEX
  5
6C5
  8
TENA_LATE
 10
569438.44348422787
 20
515481.86520109582
 30
0.0
  0
VERTEX
  5
6C6
  8
TENA_LATE
 10
569452.09780447348
 20
515468.98457482189
 30
0.0
  0
VERTEX
  5
6C7
  8
TENA_LATE
 10
569452.33693419956
 20
515460.61010718439
 30
0.0
  0
VERTEX
  5
6C8
  8
TENA_LATE
 10
569447.06605425372
 20
515449.28440301819
 30
0.0
  0
VERTEX
  5
6C9
  8
TENA_LATE
 10
569417.24029262725
 20
515440.74981770728
 30
0.0
  0
VERTEX
  5
6CA
  8
TENA_LATE
 10
569405.78185626632
 20
515450.20097373688
 30
0.0
  0
VERTEX
  5
6CB
  8
TENA_LATE
 10
569392.84608160332
 20
515462.40354147297
 30
0.0
  0
VERTEX
  5
6CC
  8
TENA_LATE
 10
569390.95045996329
 20
515479.81058084342
 30
0.0
  0
SEQEND
  5
6CD
  8
TENA_LATE
  0
POLYLINE
  5
A4
  8
TENA_LATE
 66
     1
 10
0.0
 20
0.0
 30
0.0
 70
     1
  0
VERTEX
  5
6CE
  8
TENA_LATE
 10
568982.09698221565
 20
515316.2645801559
 30
0.0
  0
VERTEX
  5
6CF
  8
TENA_LATE
 10
568981.66784685361
 20
515311.11228694773
 30
0.0
  0
VERTEX
  5
6D0
  8
TENA_LATE
 10
568978.47682392329
 20
515309.3069782221
 30
0.0
  0
VERTEX
  5
6D1
  8
TENA_LATE
 10
568974.27654777223
 20
515309.56614947843
 30
0.0
  0
VERTEX
  5
6D2
  8
TENA_LATE
 10
568968.56723714259
 20
515315.87824345101
 30
0.0
  0
VERTEX
  5
6D3
  8
TENA_LATE
 10
568964.02509598469
 20
515321.46079057851
 30
0.0
  0
VERTEX
  5
6D4
  8
TENA_LATE
 10
568964.97947987542
 20
515327.96326506278
 30
0.0
  0
VERTEX
  5
6D5
  8
TENA_LATE
 10
568968.73477992823
 20
515329.97535460838
 30
0.0
  0
VERTEX
  5
6D6
  8
TENA_LATE
 10
568972.55059985397
 20
515330.0843138895
 30
0.0
  0
VERTEX
  5
6D7
  8
TENA_LATE
 10
568975.84962511831
 20
515327.89454937278
 30
0.0
  0
VERTEX
  5
6D8
  8
TENA_LATE
 10
568979.59983277228
 20
515323.42894216528
 30
0.0
  0
SEQEND
  5
6D9
  8
TENA_LATE
  0
POLYLINE
  5
A5
  8
TENA_LATE
 66
     1
 10
0.0
 20
0.0
 30
0.0
 70
     1
  0
VERTEX
  5
6DA
  8
TENA_LATE
 10
571341.89817908884
 20
514691.4798600559
 30
0.0
  0
VERTEX
  5
6DB
  8
TENA_LATE
 10
571345.44863110723
 20
514685.72966513451
 30
0.0
  0
VERTEX
  5
6DC
  8
TENA_LATE
 10
571348.36521535786
 20
514671.53957141982
 30
0.0
  0
VERTEX
  5
6DD
  8
TENA_LATE
 10
571337.57302311144
 20
514659.33221628889
 30
0.0
  0
VERTEX
  5
6DE
  8
TENA_LATE
 10
571323.08617339516
 20
514648.45003056788
 30
0.0
  0
VERTEX
  5
6DF
  8
TENA_LATE
 10
571298.08734001347
 20
514649.27440296218
 30
0.0
  0
VERTEX
  5
6E0
  8
TENA_LATE
 10
571288.16275940672
 20
514662.2324695909
 30
0.0
  0
VERTEX
  5
6E1
  8
TENA_LATE
 10
571284.04312467447
 20
514676.89449877013
 30
0.0
  0
VERTEX
  5
6E2
  8
TENA_LATE
 10
571288.66632101266
 20
514687.80315857858
 30
0.0
  0
VERTEX
  5
6E3
  8
TENA_LATE
 10
571308.2776396838
 20
514702.83701805287
 30
0.0
  0
VERTEX
  5
6E4
  8
TENA_LATE
 10
571328.90321209119
 20
514703.73410034331
 30
0.0
  0
VERTEX
  5
6E5
  8
TENA_LATE
 10
571336.17557160312
 20
514697.47392918251
 30
0.0
  0
SEQEND
  5
6E6
  8
TENA_LATE
  0
POLYLINE
  5
A6
  8
TENA_LATE
 66
     1
 10
0.0
 20
0.0
 30
0.0
 70
     1
  0
VERTEX
  5
6E7
  8
TENA_LATE
 10
570760.72571430099
 20
514418.94370898529
 30
0.0
  0
VERTEX
  5
6E8
  8
TENA_LATE
 10
570752.47122923762
 20
514439.04175092012
 30
0.0
  0
VERTEX
  5
6E9
  8
TENA_LATE
 10
570746.59011147171
 20
514456.52312263328
 30
0.0
  0
VERTEX
  5
6EA
  8
TENA_LATE
 10
570742.88672974438
 20
514478.66802762862
 30
0.0
  0
VERTEX
  5
6EB
  8
TENA_LATE
 10
570739.6833887219
 20
514496.60972987971
 30
0.0
  0
VERTEX
  5
6EC
  8
TENA_LATE
 10
570741.09414244571
 20
514520.20081492967
 30
0.0
  0
VERTEX
  5
6ED
  8
TENA_LATE
 10
570758.43808123143
 20
514525.58994661173
 30
0.0
  0
VERTEX
  5
6EE
  8
TENA_LATE
 10
570775.13011649076
 20
514529.56088058691
 30
0.0
  0
VERTEX
  5
6EF
  8
TENA_LATE
 10
570805.16449108406
 20
514531.81808353867
 30
0.0
  0
VERTEX
  5
6F0
  8
TENA_LATE
 10
570822.33524803852
 20
514519.0238942185
 30
0.0
  0
VERTEX
  5
6F1
  8
TENA_LATE
 10
570829.9382013391
 20
514497.26768462732
 30
0.0
  0
VERTEX
  5
6F2
  8
TENA_LATE
 10
570830.7153411695
 20
514470.05177773407
 30
0.0
  0
VERTEX
  5
6F3
  8
TENA_LATE
 10
570827.29443452728
 20
514441.94603426941
 30
0.0
  0
VERTEX
  5
6F4
  8
TENA_LATE
 10
570827.57903449389
 20
514431.9791713045
 30
0.0
  0
VERTEX
  5
6F5
  8
TENA_LATE
 10
570827.64474229957
 20
514429.67804420931
 30
0.0
  0
VERTEX
  5
6F6
  8
TENA_LATE
 10
570818.43305048451
 20
514429.4150078664
 30
0.0
  0
VERTEX
  5
6F7
  8
TENA_LATE
 10
570792.71494017681
 20
514428.68063704582
 30
0.0
  0
VERTEX
  5
6F8
  8
TENA_LATE
 10
570781.64094048063
 20
514426.44518624467
 30
0.0
  0
VERTEX
  5
6F9
  8
TENA_LATE
 10
570769.0514170276
 20
514423.40125639021
 30
0.0
  0
VERTEX
  5
6FA
  8
TENA_LATE
 10
570763.73956564255
 20
514420.94657514431
 30
0.0
  0
SEQEND
  5
6FB
  8
TENA_LATE
  0
POLYLINE
  5
A7
  8
TENA_LATE
 66
     1
 10
0.0
 20
0.0
 30
0.0
 70
     1
  0
VERTEX
  5
6FC
  8
TENA_LATE
 10
570767.58968026971
 20
514421.3545148804
 30
0.0
  0
VERTEX
  5
6FD
  8
TENA_LATE
 10
570793.66610966774
 20
514426.9268782711
 30
0.0
  0
VERTEX
  5
6FE
  8
TENA_LATE
 10
570828.38424461393
 20
514427.39372687723
 30
0.0
  0
VERTEX
  5
6FF
  8
TENA_LATE
 10
570830.57925325085
 20
514415.56936722383
 30
0.0
  0
VERTEX
  5
700
  8
TENA_LATE
 10
570826.42181340221
 20
514392.00566581578
 30
0.0
  0
VERTEX
  5
701
  8
TENA_LATE
 10
570822.77682339121
 20
514358.51694651908
 30
0.0
  0
VERTEX
  5
702
  8
TENA_LATE
 10
570809.87871570152
 20
514334.97837060707
 30
0.0
  0
VERTEX
  5
703
  8
TENA_LATE
 10
570793.84129303345
 20
514324.19245444692
 30
0.0
  0
VERTEX
  5
704
  8
TENA_LATE
 10
570779.25518499827
 20
514351.35731486272
 30
0.0
  0
VERTEX
  5
705
  8
TENA_LATE
 10
570767.7299631394
 20
514392.3991444633
 30
0.0
  0
VERTEX
  5
706
  8
TENA_LATE
 10
570760.83085211529
 20
514416.33618839929
 30
0.0
  0
SEQEND
  5
707
  8
TENA_LATE
  0
POLYLINE
  5
A8
  8
TENA_LATE
 66
     1
 10
0.0
 20
0.0
 30
0.0
 70
     1
  0
VERTEX
  5
708
  8
TENA_LATE
 10
572416.3520908904
 20
513959.4837177298
 30
0.0
  0
VERTEX
  5
709
  8
TENA_LATE
 10
572435.64736669348
 20
513924.38694111141
 30
0.0
  0
VERTEX
  5
70A
  8
TENA_LATE
 10
572429.50387149246
 20
513918.8866813794
 30
0.0
  0
VERTEX
  5
70B
  8
TENA_LATE
 10
572409.44115810515
 20
513908.6325570129
 30
0.0
  0
VERTEX
  5
70C
  8
TENA_LATE
 10
572402.79440378945
 20
513919.32056404807
 30
0.0
  0
VERTEX
  5
70D
  8
TENA_LATE
 10
572386.8088252329
 20
513942.72971341672
 30
0.0
  0
SEQEND
  5
70E
  8
TENA_LATE
  0
POLYLINE
  5
A9
  8
TENA_LATE
 66
     1
 10
0.0
 20
0.0
 30
0.0
 70
     1
  0
VERTEX
  5
70F
  8
TENA_LATE
 10
571681.66572539357
 20
513838.41065454978
 30
0.0
  0
VERTEX
  5
710
  8
TENA_LATE
 10
571690.04549782455
 20
513836.43209005479
 30
0.0
  0
VERTEX
  5
711
  8
TENA_LATE
 10
571692.97568504361
 20
513830.97484209441
 30
0.0
  0
VERTEX
  5
712
  8
TENA_LATE
 10
571691.50344342878
 20
513824.28179714869
 30
0.0
  0
VERTEX
  5
713
  8
TENA_LATE
 10
571685.61270125874
 20
513816.90870441397
 30
0.0
  0
VERTEX
  5
714
  8
TENA_LATE
 10
571674.42929500458
 20
513819.91254041722
 30
0.0
  0
VERTEX
  5
715
  8
TENA_LATE
 10
571674.22366343206
 20
513827.1138824537
 30
0.0
  0
VERTEX
  5
716
  8
TENA_LATE
 10
571675.10621719691
 20
513834.89784747339
 30
0.0
  0
SEQEND
  5
717
  8
TENA_LATE
  0
ENDSEC
  0
EOF
