  0
SECTION
  2
HEADER
  9
$ACADVER
  1
AC1009
  9
$INSBASE
 10
0.0
 20
0.0
 30
0.0
  9
$EXTMIN
 10
500000.0
 20
386825.40200000012
 30
0.0
  9
$EXTMAX
 10
833372.25899999996
 20
719460.31599999988
 30
5200.0
  9
$LIMMIN
 10
0.0
 20
0.0
  9
$LIMMAX
 10
12.0
 20
9.0
  9
$ORTHOMODE
 70
     0
  9
$REGENMODE
 70
     1
  9
$FILLMODE
 70
     1
  9
$QTEXTMODE
 70
     0
  9
$MIRRTEXT
 70
     0
  9
$DRAGMODE
 70
     2
  9
$LTSCALE
 40
1.0
  9
$OSMODE
 70
    37
  9
$ATTMODE
 70
     1
  9
$TEXTSIZE
 40
1200.0
  9
$TRACEWID
 40
0.05
  9
$TEXTSTYLE
  7
STANDARD
  9
$CLAYER
  8
TENA_LIMITS
  9
$CELTYPE
  6
BYLAYER
  9
$CECOLOR
 62
   256
  9
$DIMSCALE
 40
1.0
  9
$DIMASZ
 40
0.18
  9
$DIMEXO
 40
0.0625
  9
$DIMDLI
 40
0.38
  9
$DIMRND
 40
0.0
  9
$DIMDLE
 40
0.0
  9
$DIMEXE
 40
0.18
  9
$DIMTP
 40
0.0
  9
$DIMTM
 40
0.0
  9
$DIMTXT
 40
0.18
  9
$DIMCEN
 40
0.09
  9
$DIMTSZ
 40
0.0
  9
$DIMTOL
 70
     0
  9
$DIMLIM
 70
     0
  9
$DIMTIH
 70
     1
  9
$DIMTOH
 70
     1
  9
$DIMSE1
 70
     0
  9
$DIMSE2
 70
     0
  9
$DIMTAD
 70
     0
  9
$DIMZIN
 70
     0
  9
$DIMBLK
  1

  9
$DIMASO
 70
     1
  9
$DIMSHO
 70
     1
  9
$DIMPOST
  1

  9
$DIMAPOST
  1

  9
$DIMALT
 70
     0
  9
$DIMALTD
 70
     2
  9
$DIMALTF
 40
25.399999999999999
  9
$DIMLFAC
 40
1.0
  9
$DIMTOFL
 70
     0
  9
$DIMTVP
 40
0.0
  9
$DIMTIX
 70
     0
  9
$DIMSOXD
 70
     0
  9
$DIMSAH
 70
     0
  9
$DIMBLK1
  1

  9
$DIMBLK2
  1

  9
$DIMSTYLE
  2
STANDARD
  9
$DIMCLRD
 70
     0
  9
$DIMCLRE
 70
     0
  9
$DIMCLRT
 70
     0
  9
$DIMTFAC
 40
1.0
  9
$DIMGAP
 40
0.09
  9
$LUNITS
 70
     2
  9
$LUPREC
 70
     4
  9
$SKETCHINC
 40
0.1
  9
$FILLETRAD
 40
0.0
  9
$AUNITS
 70
     0
  9
$AUPREC
 70
     0
  9
$MENU
  1
.
  9
$ELEVATION
 40
0.0
  9
$PELEVATION
 40
0.0
  9
$THICKNESS
 40
0.0
  9
$LIMCHECK
 70
     0
  9
$BLIPMODE
 70
     0
  9
$CHAMFERA
 40
0.0
  9
$CHAMFERB
 40
0.0
  9
$SKPOLY
 70
     0
  9
$TDCREATE
 40
2455804.6739510992
  9
$TDUPDATE
 40
2457511.592198553
  9
$TDINDWG
 40
0.5682249537
  9
$TDUSRTIMER
 40
0.5682193634
  9
$USRTIMER
 70
     1
  9
$ANGBASE
 50
0.0
  9
$ANGDIR
 70
     0
  9
$PDMODE
 70
     0
  9
$PDSIZE
 40
0.0
  9
$PLINEWID
 40
0.0
  9
$COORDS
 70
     1
  9
$SPLFRAME
 70
     0
  9
$SPLINETYPE
 70
     6
  9
$SPLINESEGS
 70
     8
  9
$ATTDIA
 70
     1
  9
$ATTREQ
 70
     1
  9
$HANDLING
 70
     1
  9
$HANDSEED
  5
568
  9
$SURFTAB1
 70
     6
  9
$SURFTAB2
 70
     6
  9
$SURFTYPE
 70
     6
  9
$SURFU
 70
     6
  9
$SURFV
 70
     6
  9
$UCSNAME
  2

  9
$UCSORG
 10
0.0
 20
0.0
 30
0.0
  9
$UCSXDIR
 10
1.0
 20
0.0
 30
0.0
  9
$UCSYDIR
 10
0.0
 20
1.0
 30
0.0
  9
$PUCSNAME
  2

  9
$PUCSORG
 10
0.0
 20
0.0
 30
0.0
  9
$PUCSXDIR
 10
1.0
 20
0.0
 30
0.0
  9
$PUCSYDIR
 10
0.0
 20
1.0
 30
0.0
  9
$USERI1
 70
     0
  9
$USERI2
 70
     0
  9
$USERI3
 70
     0
  9
$USERI4
 70
     0
  9
$USERI5
 70
     0
  9
$USERR1
 40
0.0
  9
$USERR2
 40
0.0
  9
$USERR3
 40
0.0
  9
$USERR4
 40
0.0
  9
$USERR5
 40
0.0
  9
$WORLDVIEW
 70
     1
  9
$SHADEDGE
 70
     3
  9
$SHADEDIF
 70
    70
  9
$TILEMODE
 70
     1
  9
$MAXACTVP
 70
    64
  9
$PLIMCHECK
 70
     0
  9
$PEXTMIN
 10
1.049999952316284
 20
0.7999999523162842
 30
0.0
  9
$PEXTMAX
 10
9.4499995708465594
 20
7.1999995708465576
 30
0.0
  9
$PLIMMIN
 10
-0.2500002402958907
 20
-0.2499999962453767
  9
$PLIMMAX
 10
10.74999951940822
 20
8.2499997634587334
  9
$UNITMODE
 70
     0
  9
$VISRETAIN
 70
     1
  9
$PLINEGEN
 70
     0
  9
$PSLTSCALE
 70
     1
  0
ENDSEC
  0
SECTION
  2
TABLES
  0
TABLE
  2
VPORT
 70
     1
  0
VPORT
  2
*ACTIVE
 70
     0
 10
0.0
 20
0.0
 11
1.0
 21
1.0
 12
572440.08951897523
 22
510108.04930645862
 13
0.0
 23
0.0
 14
0.5
 24
0.5
 15
0.5
 25
0.5
 16
0.0
 26
0.0
 36
1.0
 17
0.0
 27
0.0
 37
0.0
 40
25480.44219567081
 41
1.205432937181663
 42
50.0
 43
0.0
 44
0.0
 50
0.0
 51
0.0
 71
     0
 72
  1000
 73
     1
 74
     3
 75
     0
 76
     0
 77
     0
 78
     0
  0
ENDTAB
  0
TABLE
  2
LTYPE
 70
     1
  0
LTYPE
  2
CONTINUOUS
 70
     0
  3
Solid line
 72
    65
 73
     0
 40
0.0
  0
ENDTAB
  0
TABLE
  2
LAYER
 70
     3
  0
LAYER
  2
0
 70
     4
 62
     7
  6
CONTINUOUS
  0
LAYER
  2
TENA_LIMITS
 70
     0
 62
     5
  6
CONTINUOUS
  0
LAYER
  2
TENA_HERRERA
 70
     0
 62
     4
  6
CONTINUOUS
  0
ENDTAB
  0
TABLE
  2
STYLE
 70
     1
  0
STYLE
  2
STANDARD
 70
     0
 40
0.0
 41
1.0
 50
0.0
 71
     0
 42
1200.0
  3
txt
  4

  0
ENDTAB
  0
TABLE
  2
VIEW
 70
     0
  0
ENDTAB
  0
TABLE
  2
UCS
 70
     0
  0
ENDTAB
  0
TABLE
  2
APPID
 70
     5
  0
APPID
  2
ACAD
 70
     0
  0
APPID
  2
ADE
 70
     0
  0
APPID
  2
ACAD_NAV_VCDISPLAY
 70
     0
  0
APPID
  2
ACAD_PSEXT
 70
     0
  0
APPID
  2
ADE_PROJECTION
 70
     0
  0
ENDTAB
  0
TABLE
  2
DIMSTYLE
 70
     1
  0
DIMSTYLE
  2
STANDARD
 70
     0
  3

  4

  5

  6

  7

 40
1.0
 41
0.18
 42
0.0625
 43
0.38
 44
0.18
 45
0.0
 46
0.0
 47
0.0
 48
0.0
140
0.18
141
0.09
142
0.0
143
25.399999999999999
144
1.0
145
0.0
146
1.0
147
0.09
 71
     0
 72
     0
 73
     1
 74
     1
 75
     0
 76
     0
 77
     0
 78
     0
170
     0
171
     2
172
     0
173
     0
174
     0
175
     0
176
     0
177
     0
178
     0
  0
ENDTAB
  0
ENDSEC
  0
SECTION
  2
BLOCKS
  0
BLOCK
  8
0
  2
$MODEL_SPACE
 70
     0
 10
0.0
 20
0.0
 30
0.0
  3
$MODEL_SPACE
  1

  0
ENDBLK
  5
16
  8
0
  0
BLOCK
 67
     1
  8
0
  2
$PAPER_SPACE
 70
     0
 10
0.0
 20
0.0
 30
0.0
  3
$PAPER_SPACE
  1

  0
ENDBLK
  5
1C
 67
     1
  8
0
  0
ENDSEC
  0
SECTION
  2
ENTITIES
  0
POLYLINE
  5
65
  8
TENA_HERRERA
 66
     1
 10
0.0
 20
0.0
 30
0.0
 70
     1
  0
VERTEX
  5
BA
  8
TENA_HERRERA
 10
576426.70535084489
 20
505989.915703315
 30
0.0
  0
VERTEX
  5
BB
  8
TENA_HERRERA
 10
576422.59615341912
 20
505998.66256024549
 30
0.0
  0
VERTEX
  5
BC
  8
TENA_HERRERA
 10
576421.74250852352
 20
506009.05060727708
 30
0.0
  0
VERTEX
  5
BD
  8
TENA_HERRERA
 10
576422.32600415288
 20
506017.40704904147
 30
0.0
  0
VERTEX
  5
BE
  8
TENA_HERRERA
 10
576424.95377254381
 20
506025.15771549108
 30
0.0
  0
VERTEX
  5
BF
  8
TENA_HERRERA
 10
576448.10854340775
 20
506027.12977230811
 30
0.0
  0
VERTEX
  5
C0
  8
TENA_HERRERA
 10
576460.72156477056
 20
506022.73021653411
 30
0.0
  0
VERTEX
  5
C1
  8
TENA_HERRERA
 10
576464.47856271046
 20
506007.93814589112
 30
0.0
  0
VERTEX
  5
C2
  8
TENA_HERRERA
 10
576463.76675665344
 20
505999.05393081921
 30
0.0
  0
VERTEX
  5
C3
  8
TENA_HERRERA
 10
576452.673732428
 20
505991.6123836856
 30
0.0
  0
VERTEX
  5
C4
  8
TENA_HERRERA
 10
576438.60150612809
 20
505988.60347664071
 30
0.0
  0
SEQEND
  5
C5
  8
TENA_HERRERA
  0
POLYLINE
  5
67
  8
TENA_HERRERA
 66
     1
 10
0.0
 20
0.0
 30
0.0
 70
     1
  0
VERTEX
  5
C6
  8
TENA_HERRERA
 10
576927.44560911495
 20
506822.52468654781
 30
0.0
  0
VERTEX
  5
C7
  8
TENA_HERRERA
 10
576939.89155159961
 20
506820.28838684619
 30
0.0
  0
VERTEX
  5
C8
  8
TENA_HERRERA
 10
576954.61944661918
 20
506811.20773107099
 30
0.0
  0
VERTEX
  5
C9
  8
TENA_HERRERA
 10
576954.04440573708
 20
506800.40626041312
 30
0.0
  0
VERTEX
  5
CA
  8
TENA_HERRERA
 10
576948.58600821509
 20
506789.61561368208
 30
0.0
  0
VERTEX
  5
CB
  8
TENA_HERRERA
 10
576940.92437937867
 20
506782.81671348301
 30
0.0
  0
VERTEX
  5
CC
  8
TENA_HERRERA
 10
576925.73093136842
 20
506787.06654168491
 30
0.0
  0
VERTEX
  5
CD
  8
TENA_HERRERA
 10
576918.74412936834
 20
506791.31923260633
 30
0.0
  0
VERTEX
  5
CE
  8
TENA_HERRERA
 10
576917.8075027403
 20
506800.79774309008
 30
0.0
  0
VERTEX
  5
CF
  8
TENA_HERRERA
 10
576922.1701339304
 20
506814.35636759421
 30
0.0
  0
SEQEND
  5
D0
  8
TENA_HERRERA
  0
POLYLINE
  5
68
  8
TENA_HERRERA
 66
     1
 10
0.0
 20
0.0
 30
0.0
 70
     1
  0
VERTEX
  5
D1
  8
TENA_HERRERA
 10
576893.23580204067
 20
506899.5715954855
 30
0.0
  0
VERTEX
  5
D2
  8
TENA_HERRERA
 10
576904.15860674006
 20
506897.56651509542
 30
0.0
  0
VERTEX
  5
D3
  8
TENA_HERRERA
 10
576904.76180301444
 20
506884.77910527732
 30
0.0
  0
VERTEX
  5
D4
  8
TENA_HERRERA
 10
576908.56532570592
 20
506855.96762523201
 30
0.0
  0
VERTEX
  5
D5
  8
TENA_HERRERA
 10
576895.46218633233
 20
506840.92498718301
 30
0.0
  0
VERTEX
  5
D6
  8
TENA_HERRERA
 10
576877.24391621444
 20
506838.8398348862
 30
0.0
  0
VERTEX
  5
D7
  8
TENA_HERRERA
 10
576839.98208650062
 20
506834.92624556459
 30
0.0
  0
VERTEX
  5
D8
  8
TENA_HERRERA
 10
576828.13269179
 20
506838.66826901957
 30
0.0
  0
VERTEX
  5
D9
  8
TENA_HERRERA
 10
576825.73604758433
 20
506848.11784771952
 30
0.0
  0
VERTEX
  5
DA
  8
TENA_HERRERA
 10
576823.77338796877
 20
506867.97188843682
 30
0.0
  0
VERTEX
  5
DB
  8
TENA_HERRERA
 10
576823.72149940429
 20
506883.1046747471
 30
0.0
  0
VERTEX
  5
DC
  8
TENA_HERRERA
 10
576817.51766561286
 20
506896.32391004241
 30
0.0
  0
VERTEX
  5
DD
  8
TENA_HERRERA
 10
576825.74464156572
 20
506896.64317579899
 30
0.0
  0
VERTEX
  5
DE
  8
TENA_HERRERA
 10
576852.06740934041
 20
506897.4077733584
 30
0.0
  0
VERTEX
  5
DF
  8
TENA_HERRERA
 10
576864.21061572188
 20
506899.47204976651
 30
0.0
  0
VERTEX
  5
E0
  8
TENA_HERRERA
 10
576879.73573588487
 20
506899.52531928488
 30
0.0
  0
SEQEND
  5
E1
  8
TENA_HERRERA
  0
POLYLINE
  5
69
  8
TENA_HERRERA
 66
     1
 10
0.0
 20
0.0
 30
0.0
 70
     1
  0
VERTEX
  5
E2
  8
TENA_HERRERA
 10
576884.06721891416
 20
506900.82369280281
 30
0.0
  0
VERTEX
  5
E3
  8
TENA_HERRERA
 10
576883.06209560775
 20
506916.94568386918
 30
0.0
  0
VERTEX
  5
E4
  8
TENA_HERRERA
 10
576882.53850782069
 20
506931.17211127648
 30
0.0
  0
VERTEX
  5
E5
  8
TENA_HERRERA
 10
576884.69168717135
 20
506940.47932670539
 30
0.0
  0
VERTEX
  5
E6
  8
TENA_HERRERA
 10
576905.07314599853
 20
506944.7445574837
 30
0.0
  0
VERTEX
  5
E7
  8
TENA_HERRERA
 10
576925.21316329215
 20
506949.34109444887
 30
0.0
  0
VERTEX
  5
E8
  8
TENA_HERRERA
 10
576951.32831354241
 20
506949.90494390437
 30
0.0
  0
VERTEX
  5
E9
  8
TENA_HERRERA
 10
576970.20218637621
 20
506948.19008798501
 30
0.0
  0
VERTEX
  5
EA
  8
TENA_HERRERA
 10
576971.14991738147
 20
506934.99290463887
 30
0.0
  0
VERTEX
  5
EB
  8
TENA_HERRERA
 10
576970.15516714787
 20
506920.37925078429
 30
0.0
  0
VERTEX
  5
EC
  8
TENA_HERRERA
 10
576969.40648985386
 20
506909.4210368293
 30
0.0
  0
VERTEX
  5
ED
  8
TENA_HERRERA
 10
576961.44830866065
 20
506906.78062235471
 30
0.0
  0
VERTEX
  5
EE
  8
TENA_HERRERA
 10
576936.28116824594
 20
506906.6942368609
 30
0.0
  0
VERTEX
  5
EF
  8
TENA_HERRERA
 10
576902.58643359225
 20
506900.8873243914
 30
0.0
  0
SEQEND
  5
F0
  8
TENA_HERRERA
  0
POLYLINE
  5
6A
  8
TENA_HERRERA
 66
     1
 10
0.0
 20
0.0
 30
0.0
 70
     1
  0
VERTEX
  5
F1
  8
TENA_HERRERA
 10
576810.39011103916
 20
506949.58390361088
 30
0.0
  0
VERTEX
  5
F2
  8
TENA_HERRERA
 10
576822.56154297327
 20
506968.89376657369
 30
0.0
  0
VERTEX
  5
F3
  8
TENA_HERRERA
 10
576819.16609857697
 20
506977.3218926735
 30
0.0
  0
VERTEX
  5
F4
  8
TENA_HERRERA
 10
576824.80663636455
 20
506975.84025367349
 30
0.0
  0
VERTEX
  5
F5
  8
TENA_HERRERA
 10
576845.85219318897
 20
506974.036332989
 30
0.0
  0
VERTEX
  5
F6
  8
TENA_HERRERA
 10
576857.51538421854
 20
506969.19824545429
 30
0.0
  0
VERTEX
  5
F7
  8
TENA_HERRERA
 10
576857.52317446051
 20
506966.94670090202
 30
0.0
  0
VERTEX
  5
F8
  8
TENA_HERRERA
 10
576865.76883207157
 20
506943.28191093728
 30
0.0
  0
VERTEX
  5
F9
  8
TENA_HERRERA
 10
576881.93403665535
 20
506941.37295999221
 30
0.0
  0
VERTEX
  5
FA
  8
TENA_HERRERA
 10
576879.72280287079
 20
506901.42150524928
 30
0.0
  0
VERTEX
  5
FB
  8
TENA_HERRERA
 10
576824.69124059158
 20
506900.04097061668
 30
0.0
  0
VERTEX
  5
FC
  8
TENA_HERRERA
 10
576802.92137484194
 20
506893.96236464288
 30
0.0
  0
VERTEX
  5
FD
  8
TENA_HERRERA
 10
576792.38517019013
 20
506898.80438196682
 30
0.0
  0
VERTEX
  5
FE
  8
TENA_HERRERA
 10
576784.6651368764
 20
506906.26362119388
 30
0.0
  0
VERTEX
  5
FF
  8
TENA_HERRERA
 10
576786.98483683937
 20
506916.13990028301
 30
0.0
  0
VERTEX
  5
100
  8
TENA_HERRERA
 10
576791.63341313158
 20
506931.66329087177
 30
0.0
  0
VERTEX
  5
101
  8
TENA_HERRERA
 10
576798.66309758718
 20
506939.20671729231
 30
0.0
  0
SEQEND
  5
102
  8
TENA_HERRERA
  0
POLYLINE
  5
6B
  8
TENA_HERRERA
 66
     1
 10
0.0
 20
0.0
 30
0.0
 70
     1
  0
VERTEX
  5
103
  8
TENA_HERRERA
 10
576714.52697174426
 20
506976.04197592661
 30
0.0
  0
VERTEX
  5
104
  8
TENA_HERRERA
 10
576731.17837620329
 20
506991.2656230788
 30
0.0
  0
VERTEX
  5
105
  8
TENA_HERRERA
 10
576745.54939371475
 20
507007.23978479829
 30
0.0
  0
VERTEX
  5
106
  8
TENA_HERRERA
 10
576766.05152902997
 20
507006.55190084688
 30
0.0
  0
VERTEX
  5
107
  8
TENA_HERRERA
 10
576786.65009277535
 20
506977.8061568854
 30
0.0
  0
VERTEX
  5
108
  8
TENA_HERRERA
 10
576799.59116866661
 20
506967.99240782968
 30
0.0
  0
VERTEX
  5
109
  8
TENA_HERRERA
 10
576807.55882359925
 20
506951.92513959907
 30
0.0
  0
VERTEX
  5
10A
  8
TENA_HERRERA
 10
576788.33090626844
 20
506934.47143752821
 30
0.0
  0
VERTEX
  5
10B
  8
TENA_HERRERA
 10
576782.30671730137
 20
506907.66532300471
 30
0.0
  0
VERTEX
  5
10C
  8
TENA_HERRERA
 10
576757.97579717729
 20
506926.14156720007
 30
0.0
  0
VERTEX
  5
10D
  8
TENA_HERRERA
 10
576743.48510598729
 20
506945.04997300549
 30
0.0
  0
VERTEX
  5
10E
  8
TENA_HERRERA
 10
576725.95990399923
 20
506963.18965817138
 30
0.0
  0
SEQEND
  5
10F
  8
TENA_HERRERA
  0
POLYLINE
  5
6C
  8
TENA_HERRERA
 66
     1
 10
0.0
 20
0.0
 30
0.0
 70
     1
  0
VERTEX
  5
110
  8
TENA_HERRERA
 10
575852.46652574977
 20
506975.19214298372
 30
0.0
  0
VERTEX
  5
111
  8
TENA_HERRERA
 10
575847.81408974982
 20
506923.49182525539
 30
0.0
  0
VERTEX
  5
112
  8
TENA_HERRERA
 10
575773.76955868653
 20
506922.59452730039
 30
0.0
  0
VERTEX
  5
113
  8
TENA_HERRERA
 10
575777.20585550799
 20
506982.36700637738
 30
0.0
  0
SEQEND
  5
114
  8
TENA_HERRERA
  0
POLYLINE
  5
6D
  8
TENA_HERRERA
 66
     1
 10
0.0
 20
0.0
 30
0.0
 70
     1
  0
VERTEX
  5
115
  8
TENA_HERRERA
 10
576972.08258800511
 20
506927.1458452575
 30
0.0
  0
VERTEX
  5
116
  8
TENA_HERRERA
 10
576971.12669639825
 20
506947.90896761749
 30
0.0
  0
VERTEX
  5
117
  8
TENA_HERRERA
 10
577023.52237009595
 20
507008.1317929239
 30
0.0
  0
VERTEX
  5
118
  8
TENA_HERRERA
 10
577033.35997497605
 20
507018.5884854481
 30
0.0
  0
VERTEX
  5
119
  8
TENA_HERRERA
 10
577079.17791147926
 20
507002.66376443068
 30
0.0
  0
VERTEX
  5
11A
  8
TENA_HERRERA
 10
577071.74640156643
 20
506970.77048073761
 30
0.0
  0
VERTEX
  5
11B
  8
TENA_HERRERA
 10
577059.05047731055
 20
506947.45983731892
 30
0.0
  0
VERTEX
  5
11C
  8
TENA_HERRERA
 10
577032.7856102027
 20
506936.86255031958
 30
0.0
  0
SEQEND
  5
11D
  8
TENA_HERRERA
  0
POLYLINE
  5
6E
  8
TENA_HERRERA
 66
     1
 10
0.0
 20
0.0
 30
0.0
 70
     1
  0
VERTEX
  5
11E
  8
TENA_HERRERA
 10
575855.71326881822
 20
506991.71987587411
 30
0.0
  0
VERTEX
  5
11F
  8
TENA_HERRERA
 10
575882.53870864667
 20
507005.02247099811
 30
0.0
  0
VERTEX
  5
120
  8
TENA_HERRERA
 10
575902.38723848795
 20
507004.67812210612
 30
0.0
  0
VERTEX
  5
121
  8
TENA_HERRERA
 10
575920.17872915778
 20
506999.37244495802
 30
0.0
  0
VERTEX
  5
122
  8
TENA_HERRERA
 10
575915.73769411456
 20
506967.97798800439
 30
0.0
  0
VERTEX
  5
123
  8
TENA_HERRERA
 10
575896.06310887309
 20
506919.1916376747
 30
0.0
  0
VERTEX
  5
124
  8
TENA_HERRERA
 10
575885.33361663111
 20
506913.37360623531
 30
0.0
  0
VERTEX
  5
125
  8
TENA_HERRERA
 10
575858.86970876926
 20
506916.17238575802
 30
0.0
  0
VERTEX
  5
126
  8
TENA_HERRERA
 10
575848.11323338782
 20
506918.20003696019
 30
0.0
  0
SEQEND
  5
127
  8
TENA_HERRERA
  0
POLYLINE
  5
6F
  8
TENA_HERRERA
 66
     1
 10
0.0
 20
0.0
 30
0.0
 70
     1
  0
VERTEX
  5
128
  8
TENA_HERRERA
 10
576406.0911120649
 20
506985.60152400797
 30
0.0
  0
VERTEX
  5
129
  8
TENA_HERRERA
 10
576384.75575601205
 20
506977.4763528055
 30
0.0
  0
VERTEX
  5
12A
  8
TENA_HERRERA
 10
576369.41267135111
 20
506985.07292793511
 30
0.0
  0
VERTEX
  5
12B
  8
TENA_HERRERA
 10
576354.05989231193
 20
506995.48773215601
 30
0.0
  0
VERTEX
  5
12C
  8
TENA_HERRERA
 10
576354.43251570966
 20
507004.34606077668
 30
0.0
  0
VERTEX
  5
12D
  8
TENA_HERRERA
 10
576373.33430089487
 20
507016.89130273962
 30
0.0
  0
VERTEX
  5
12E
  8
TENA_HERRERA
 10
576392.6403200326
 20
507029.03536138131
 30
0.0
  0
VERTEX
  5
12F
  8
TENA_HERRERA
 10
576405.53740100982
 20
507029.48220851948
 30
0.0
  0
VERTEX
  5
130
  8
TENA_HERRERA
 10
576417.6393073533
 20
507026.70559631567
 30
0.0
  0
VERTEX
  5
131
  8
TENA_HERRERA
 10
576420.89712732122
 20
507017.0546011487
 30
0.0
  0
VERTEX
  5
132
  8
TENA_HERRERA
 10
576419.31098977569
 20
507009.39990055503
 30
0.0
  0
VERTEX
  5
133
  8
TENA_HERRERA
 10
576414.51010822656
 20
506998.91600561881
 30
0.0
  0
SEQEND
  5
134
  8
TENA_HERRERA
  0
POLYLINE
  5
70
  8
TENA_HERRERA
 66
     1
 10
0.0
 20
0.0
 30
0.0
 70
     1
  0
VERTEX
  5
135
  8
TENA_HERRERA
 10
576112.86230594479
 20
507027.16175983503
 30
0.0
  0
VERTEX
  5
136
  8
TENA_HERRERA
 10
576126.98851826065
 20
507007.39349628257
 30
0.0
  0
VERTEX
  5
137
  8
TENA_HERRERA
 10
576155.11108468985
 20
507002.53592058312
 30
0.0
  0
VERTEX
  5
138
  8
TENA_HERRERA
 10
576146.4898783617
 20
506985.16465125198
 30
0.0
  0
VERTEX
  5
139
  8
TENA_HERRERA
 10
576133.32081502059
 20
506969.01935915952
 30
0.0
  0
VERTEX
  5
13A
  8
TENA_HERRERA
 10
576127.54184218799
 20
506966.10793231323
 30
0.0
  0
VERTEX
  5
13B
  8
TENA_HERRERA
 10
576103.53552449797
 20
506975.52137001482
 30
0.0
  0
VERTEX
  5
13C
  8
TENA_HERRERA
 10
576083.21450458805
 20
506993.61828195711
 30
0.0
  0
VERTEX
  5
13D
  8
TENA_HERRERA
 10
576098.03062257438
 20
507012.66080461192
 30
0.0
  0
SEQEND
  5
13E
  8
TENA_HERRERA
  0
POLYLINE
  5
71
  8
TENA_HERRERA
 66
     1
 10
0.0
 20
0.0
 30
0.0
 70
     1
  0
VERTEX
  5
13F
  8
TENA_HERRERA
 10
576892.12925190642
 20
507045.9585198912
 30
0.0
  0
VERTEX
  5
140
  8
TENA_HERRERA
 10
576895.99272103352
 20
507040.30657227768
 30
0.0
  0
VERTEX
  5
141
  8
TENA_HERRERA
 10
576881.64751155209
 20
507010.7193639811
 30
0.0
  0
VERTEX
  5
142
  8
TENA_HERRERA
 10
576875.54206765967
 20
506984.78721271578
 30
0.0
  0
VERTEX
  5
143
  8
TENA_HERRERA
 10
576858.79867365945
 20
506969.15033918002
 30
0.0
  0
VERTEX
  5
144
  8
TENA_HERRERA
 10
576848.08639248845
 20
506978.2898663255
 30
0.0
  0
VERTEX
  5
145
  8
TENA_HERRERA
 10
576830.5259909631
 20
506978.229615224
 30
0.0
  0
VERTEX
  5
146
  8
TENA_HERRERA
 10
576819.0346886958
 20
506980.8884840688
 30
0.0
  0
VERTEX
  5
147
  8
TENA_HERRERA
 10
576819.01617180009
 20
506986.28518909769
 30
0.0
  0
VERTEX
  5
148
  8
TENA_HERRERA
 10
576824.36851656693
 20
507001.14447777398
 30
0.0
  0
VERTEX
  5
149
  8
TENA_HERRERA
 10
576825.64745205583
 20
507022.06112902198
 30
0.0
  0
VERTEX
  5
14A
  8
TENA_HERRERA
 10
576829.63053762214
 20
507042.31237284211
 30
0.0
  0
VERTEX
  5
14B
  8
TENA_HERRERA
 10
576841.09616777184
 20
507047.0738408044
 30
0.0
  0
VERTEX
  5
14C
  8
TENA_HERRERA
 10
576866.75233847648
 20
507049.86035256961
 30
0.0
  0
SEQEND
  5
14D
  8
TENA_HERRERA
  0
POLYLINE
  5
72
  8
TENA_HERRERA
 66
     1
 10
0.0
 20
0.0
 30
0.0
 70
     1
  0
VERTEX
  5
14E
  8
TENA_HERRERA
 10
576570.83635954733
 20
507075.22546640527
 30
0.0
  0
VERTEX
  5
14F
  8
TENA_HERRERA
 10
576601.25426332222
 20
507068.90586070053
 30
0.0
  0
VERTEX
  5
150
  8
TENA_HERRERA
 10
576648.9980701789
 20
507040.75236752658
 30
0.0
  0
VERTEX
  5
151
  8
TENA_HERRERA
 10
576646.47601531388
 20
507028.35628602991
 30
0.0
  0
VERTEX
  5
152
  8
TENA_HERRERA
 10
576644.88704183465
 20
507014.66968916799
 30
0.0
  0
VERTEX
  5
153
  8
TENA_HERRERA
 10
576641.35074751952
 20
506993.33893733181
 30
0.0
  0
VERTEX
  5
154
  8
TENA_HERRERA
 10
576630.98348770244
 20
506976.48424524767
 30
0.0
  0
VERTEX
  5
155
  8
TENA_HERRERA
 10
576583.93563493644
 20
506989.12671705103
 30
0.0
  0
VERTEX
  5
156
  8
TENA_HERRERA
 10
576531.93421322294
 20
506992.50483486592
 30
0.0
  0
VERTEX
  5
157
  8
TENA_HERRERA
 10
576552.54102870135
 20
507036.65458740463
 30
0.0
  0
VERTEX
  5
158
  8
TENA_HERRERA
 10
576559.50013033836
 20
507072.4110297205
 30
0.0
  0
SEQEND
  5
159
  8
TENA_HERRERA
  0
POLYLINE
  5
73
  8
TENA_HERRERA
 66
     1
 10
0.0
 20
0.0
 30
0.0
 70
     1
  0
VERTEX
  5
15A
  8
TENA_HERRERA
 10
576490.16827660159
 20
507103.52278229018
 30
0.0
  0
VERTEX
  5
15B
  8
TENA_HERRERA
 10
576509.51521526871
 20
507098.54230775172
 30
0.0
  0
VERTEX
  5
15C
  8
TENA_HERRERA
 10
576541.51724382839
 20
507098.10746319051
 30
0.0
  0
VERTEX
  5
15D
  8
TENA_HERRERA
 10
576559.71153894207
 20
507090.76271986502
 30
0.0
  0
VERTEX
  5
15E
  8
TENA_HERRERA
 10
576560.02787854953
 20
507084.55666123651
 30
0.0
  0
VERTEX
  5
15F
  8
TENA_HERRERA
 10
576551.7434141509
 20
507036.86409681023
 30
0.0
  0
VERTEX
  5
160
  8
TENA_HERRERA
 10
576541.2163800993
 20
507015.10478358658
 30
0.0
  0
VERTEX
  5
161
  8
TENA_HERRERA
 10
576537.7495262291
 20
507007.34929506242
 30
0.0
  0
VERTEX
  5
162
  8
TENA_HERRERA
 10
576514.73704345583
 20
507013.19565569592
 30
0.0
  0
VERTEX
  5
163
  8
TENA_HERRERA
 10
576485.40572143614
 20
507022.7249675999
 30
0.0
  0
VERTEX
  5
164
  8
TENA_HERRERA
 10
576473.88041606254
 20
507031.94699210749
 30
0.0
  0
VERTEX
  5
165
  8
TENA_HERRERA
 10
576475.41271747707
 20
507045.14309892099
 30
0.0
  0
VERTEX
  5
166
  8
TENA_HERRERA
 10
576484.56854691717
 20
507075.05044295348
 30
0.0
  0
SEQEND
  5
167
  8
TENA_HERRERA
  0
POLYLINE
  5
74
  8
TENA_HERRERA
 66
     1
 10
0.0
 20
0.0
 30
0.0
 70
     1
  0
VERTEX
  5
168
  8
TENA_HERRERA
 10
576828.02673875494
 20
507143.1380024837
 30
0.0
  0
VERTEX
  5
169
  8
TENA_HERRERA
 10
576823.0538030304
 20
507155.61928365851
 30
0.0
  0
VERTEX
  5
16A
  8
TENA_HERRERA
 10
576820.87650398491
 20
507166.30216554011
 30
0.0
  0
VERTEX
  5
16B
  8
TENA_HERRERA
 10
576822.27091696626
 20
507175.80946887669
 30
0.0
  0
VERTEX
  5
16C
  8
TENA_HERRERA
 10
576839.14608480933
 20
507179.43082542397
 30
0.0
  0
VERTEX
  5
16D
  8
TENA_HERRERA
 10
576855.07559323858
 20
507181.38602064189
 30
0.0
  0
VERTEX
  5
16E
  8
TENA_HERRERA
 10
576867.67678607046
 20
507182.85461385368
 30
0.0
  0
VERTEX
  5
16F
  8
TENA_HERRERA
 10
576875.04539291025
 20
507174.06777559943
 30
0.0
  0
VERTEX
  5
170
  8
TENA_HERRERA
 10
576875.82484193309
 20
507165.06534564332
 30
0.0
  0
VERTEX
  5
171
  8
TENA_HERRERA
 10
576875.84355426987
 20
507159.60151239153
 30
0.0
  0
VERTEX
  5
172
  8
TENA_HERRERA
 10
576875.37922039721
 20
507156.27409154503
 30
0.0
  0
VERTEX
  5
173
  8
TENA_HERRERA
 10
576873.72492698207
 20
507153.1800119793
 30
0.0
  0
VERTEX
  5
174
  8
TENA_HERRERA
 10
576864.45852482854
 20
507150.29749884258
 30
0.0
  0
VERTEX
  5
175
  8
TENA_HERRERA
 10
576848.0583115106
 20
507146.91530642263
 30
0.0
  0
VERTEX
  5
176
  8
TENA_HERRERA
 10
576834.51631485287
 20
507142.35518572689
 30
0.0
  0
SEQEND
  5
177
  8
TENA_HERRERA
  0
POLYLINE
  5
75
  8
TENA_HERRERA
 66
     1
 10
0.0
 20
0.0
 30
0.0
 70
     1
  0
VERTEX
  5
178
  8
TENA_HERRERA
 10
576308.85539886996
 20
507199.76286889461
 30
0.0
  0
VERTEX
  5
179
  8
TENA_HERRERA
 10
576311.69589983008
 20
507197.2975516353
 30
0.0
  0
VERTEX
  5
17A
  8
TENA_HERRERA
 10
576321.27088793705
 20
507192.38029354188
 30
0.0
  0
VERTEX
  5
17B
  8
TENA_HERRERA
 10
576327.67454690766
 20
507183.20917096699
 30
0.0
  0
VERTEX
  5
17C
  8
TENA_HERRERA
 10
576324.86557957064
 20
507176.48150034552
 30
0.0
  0
VERTEX
  5
17D
  8
TENA_HERRERA
 10
576322.05661223351
 20
507169.75382972398
 30
0.0
  0
VERTEX
  5
17E
  8
TENA_HERRERA
 10
576313.91457620694
 20
507169.7258773903
 30
0.0
  0
VERTEX
  5
17F
  8
TENA_HERRERA
 10
576303.27878741536
 20
507174.28588386322
 30
0.0
  0
VERTEX
  5
180
  8
TENA_HERRERA
 10
576291.57714848849
 20
507179.90306351113
 30
0.0
  0
VERTEX
  5
181
  8
TENA_HERRERA
 10
576289.4119550006
 20
507191.91732250451
 30
0.0
  0
VERTEX
  5
182
  8
TENA_HERRERA
 10
576294.34499784489
 20
507198.65228252392
 30
0.0
  0
VERTEX
  5
183
  8
TENA_HERRERA
 10
576301.41407351673
 20
507201.85875470081
 30
0.0
  0
SEQEND
  5
184
  8
TENA_HERRERA
  0
POLYLINE
  5
76
  8
TENA_HERRERA
 66
     1
 10
0.0
 20
0.0
 30
0.0
 70
     1
  0
VERTEX
  5
185
  8
TENA_HERRERA
 10
575769.37359677616
 20
507326.33482542192
 30
0.0
  0
VERTEX
  5
186
  8
TENA_HERRERA
 10
575768.56620966725
 20
507321.26600222569
 30
0.0
  0
VERTEX
  5
187
  8
TENA_HERRERA
 10
575764.00676451903
 20
507306.01480579033
 30
0.0
  0
VERTEX
  5
188
  8
TENA_HERRERA
 10
575757.65667017794
 20
507295.71784482518
 30
0.0
  0
VERTEX
  5
189
  8
TENA_HERRERA
 10
575735.65036540537
 20
507299.18543526519
 30
0.0
  0
VERTEX
  5
18A
  8
TENA_HERRERA
 10
575716.49419864756
 20
507299.119715715
 30
0.0
  0
VERTEX
  5
18B
  8
TENA_HERRERA
 10
575702.64452835941
 20
507303.32387115021
 30
0.0
  0
VERTEX
  5
18C
  8
TENA_HERRERA
 10
575701.91316563741
 20
507309.6990263231
 30
0.0
  0
VERTEX
  5
18D
  8
TENA_HERRERA
 10
575704.01846627821
 20
507316.43829764659
 30
0.0
  0
VERTEX
  5
18E
  8
TENA_HERRERA
 10
575721.00125685974
 20
507329.60625820077
 30
0.0
  0
VERTEX
  5
18F
  8
TENA_HERRERA
 10
575730.20149210421
 20
507336.36980800028
 30
0.0
  0
VERTEX
  5
190
  8
TENA_HERRERA
 10
575740.48414210742
 20
507337.82231862989
 30
0.0
  0
VERTEX
  5
191
  8
TENA_HERRERA
 10
575752.54788884451
 20
507337.15512941033
 30
0.0
  0
VERTEX
  5
192
  8
TENA_HERRERA
 10
575763.56692784745
 20
507330.81532545428
 30
0.0
  0
SEQEND
  5
193
  8
TENA_HERRERA
  0
POLYLINE
  5
77
  8
TENA_HERRERA
 66
     1
 10
0.0
 20
0.0
 30
0.0
 70
     1
  0
VERTEX
  5
194
  8
TENA_HERRERA
 10
574848.53783372021
 20
507743.72396838519
 30
0.0
  0
VERTEX
  5
195
  8
TENA_HERRERA
 10
574867.52330829878
 20
507741.13976228161
 30
0.0
  0
VERTEX
  5
196
  8
TENA_HERRERA
 10
574871.63814125955
 20
507730.76291981392
 30
0.0
  0
VERTEX
  5
197
  8
TENA_HERRERA
 10
574870.45162364375
 20
507719.7551432061
 30
0.0
  0
VERTEX
  5
198
  8
TENA_HERRERA
 10
574864.74699728645
 20
507716.67977679468
 30
0.0
  0
VERTEX
  5
199
  8
TENA_HERRERA
 10
574856.59845257748
 20
507713.79819881817
 30
0.0
  0
VERTEX
  5
19A
  8
TENA_HERRERA
 10
574848.23576131661
 20
507713.36296557542
 30
0.0
  0
VERTEX
  5
19B
  8
TENA_HERRERA
 10
574840.48306201037
 20
507713.54064649501
 30
0.0
  0
VERTEX
  5
19C
  8
TENA_HERRERA
 10
574826.59140715981
 20
507718.78959431348
 30
0.0
  0
VERTEX
  5
19D
  8
TENA_HERRERA
 10
574827.17557289463
 20
507726.94171733112
 30
0.0
  0
VERTEX
  5
19E
  8
TENA_HERRERA
 10
574826.73293352977
 20
507737.5354088149
 30
0.0
  0
VERTEX
  5
19F
  8
TENA_HERRERA
 10
574836.91810803895
 20
507742.05405207892
 30
0.0
  0
SEQEND
  5
1A0
  8
TENA_HERRERA
  0
POLYLINE
  5
78
  8
TENA_HERRERA
 66
     1
 10
0.0
 20
0.0
 30
0.0
 70
     1
  0
VERTEX
  5
1A1
  8
TENA_HERRERA
 10
575102.82498973946
 20
507680.41171869659
 30
0.0
  0
VERTEX
  5
1A2
  8
TENA_HERRERA
 10
575090.18274128798
 20
507670.23906305479
 30
0.0
  0
VERTEX
  5
1A3
  8
TENA_HERRERA
 10
575080.53077531885
 20
507675.27056933998
 30
0.0
  0
VERTEX
  5
1A4
  8
TENA_HERRERA
 10
575066.27348319395
 20
507692.44137596863
 30
0.0
  0
VERTEX
  5
1A5
  8
TENA_HERRERA
 10
575052.53536205634
 20
507706.06881448679
 30
0.0
  0
VERTEX
  5
1A6
  8
TENA_HERRERA
 10
575041.82760699
 20
507723.2519713412
 30
0.0
  0
VERTEX
  5
1A7
  8
TENA_HERRERA
 10
575042.27563066315
 20
507740.4732948427
 30
0.0
  0
VERTEX
  5
1A8
  8
TENA_HERRERA
 10
575051.87017287407
 20
507752.1549470356
 30
0.0
  0
VERTEX
  5
1A9
  8
TENA_HERRERA
 10
575069.07084692316
 20
507763.86271628621
 30
0.0
  0
VERTEX
  5
1AA
  8
TENA_HERRERA
 10
575088.83121823671
 20
507768.48871313891
 30
0.0
  0
VERTEX
  5
1AB
  8
TENA_HERRERA
 10
575095.44600405486
 20
507761.92735770432
 30
0.0
  0
VERTEX
  5
1AC
  8
TENA_HERRERA
 10
575106.64517080341
 20
507749.30419386609
 30
0.0
  0
VERTEX
  5
1AD
  8
TENA_HERRERA
 10
575116.82683673815
 20
507737.69037259492
 30
0.0
  0
VERTEX
  5
1AE
  8
TENA_HERRERA
 10
575132.08960891841
 20
507723.05531453039
 30
0.0
  0
VERTEX
  5
1AF
  8
TENA_HERRERA
 10
575131.63286890683
 20
507708.36619526509
 30
0.0
  0
VERTEX
  5
1B0
  8
TENA_HERRERA
 10
575112.92487820634
 20
507692.60153302399
 30
0.0
  0
SEQEND
  5
1B1
  8
TENA_HERRERA
  0
POLYLINE
  5
79
  8
TENA_HERRERA
 66
     1
 10
0.0
 20
0.0
 30
0.0
 70
     1
  0
VERTEX
  5
1B2
  8
TENA_HERRERA
 10
575038.72641137999
 20
507728.57391640497
 30
0.0
  0
VERTEX
  5
1B3
  8
TENA_HERRERA
 10
575018.79067568155
 20
507759.62832577649
 30
0.0
  0
VERTEX
  5
1B4
  8
TENA_HERRERA
 10
575008.47929351195
 20
507774.96219210199
 30
0.0
  0
VERTEX
  5
1B5
  8
TENA_HERRERA
 10
574993.69083405007
 20
507787.07874588761
 30
0.0
  0
VERTEX
  5
1B6
  8
TENA_HERRERA
 10
574973.10782001982
 20
507806.21963583521
 30
0.0
  0
VERTEX
  5
1B7
  8
TENA_HERRERA
 10
574972.37488340761
 20
507815.44069279218
 30
0.0
  0
VERTEX
  5
1B8
  8
TENA_HERRERA
 10
574981.22318030731
 20
507821.72435776039
 30
0.0
  0
VERTEX
  5
1B9
  8
TENA_HERRERA
 10
575011.43078202603
 20
507837.46116268932
 30
0.0
  0
VERTEX
  5
1BA
  8
TENA_HERRERA
 10
575022.90731477318
 20
507838.02166197333
 30
0.0
  0
VERTEX
  5
1BB
  8
TENA_HERRERA
 10
575042.28716760583
 20
507825.6686485043
 30
0.0
  0
VERTEX
  5
1BC
  8
TENA_HERRERA
 10
575064.18786126329
 20
507796.28611563268
 30
0.0
  0
VERTEX
  5
1BD
  8
TENA_HERRERA
 10
575076.44023317844
 20
507775.83583922329
 30
0.0
  0
VERTEX
  5
1BE
  8
TENA_HERRERA
 10
575082.23270273395
 20
507769.4518979839
 30
0.0
  0
VERTEX
  5
1BF
  8
TENA_HERRERA
 10
575068.13592071715
 20
507766.84195359418
 30
0.0
  0
VERTEX
  5
1C0
  8
TENA_HERRERA
 10
575056.61695750442
 20
507760.39859248849
 30
0.0
  0
VERTEX
  5
1C1
  8
TENA_HERRERA
 10
575048.31493240665
 20
507750.7643177149
 30
0.0
  0
VERTEX
  5
1C2
  8
TENA_HERRERA
 10
575041.28626478976
 20
507743.69591983472
 30
0.0
  0
SEQEND
  5
1C3
  8
TENA_HERRERA
  0
POLYLINE
  5
7A
  8
TENA_HERRERA
 66
     1
 10
0.0
 20
0.0
 30
0.0
 70
     1
  0
VERTEX
  5
1C4
  8
TENA_HERRERA
 10
574627.7766534728
 20
507835.973045644
 30
0.0
  0
VERTEX
  5
1C5
  8
TENA_HERRERA
 10
574615.09521403955
 20
507838.27218480612
 30
0.0
  0
VERTEX
  5
1C6
  8
TENA_HERRERA
 10
574605.70134256931
 20
507841.05230710539
 30
0.0
  0
VERTEX
  5
1C7
  8
TENA_HERRERA
 10
574596.30898086831
 20
507843.36466230161
 30
0.0
  0
VERTEX
  5
1C8
  8
TENA_HERRERA
 10
574593.47181006882
 20
507849.44740194367
 30
0.0
  0
VERTEX
  5
1C9
  8
TENA_HERRERA
 10
574593.45572969411
 20
507854.13466438878
 30
0.0
  0
VERTEX
  5
1CA
  8
TENA_HERRERA
 10
574595.3025624142
 20
507862.57811284519
 30
0.0
  0
VERTEX
  5
1CB
  8
TENA_HERRERA
 10
574602.30789034895
 20
507872.91423779487
 30
0.0
  0
VERTEX
  5
1CC
  8
TENA_HERRERA
 10
574609.31171140319
 20
507883.71802867262
 30
0.0
  0
VERTEX
  5
1CD
  8
TENA_HERRERA
 10
574617.24274031527
 20
507896.86962660262
 30
0.0
  0
VERTEX
  5
1CE
  8
TENA_HERRERA
 10
574627.68487774825
 20
507896.82190181332
 30
0.0
  0
VERTEX
  5
1CF
  8
TENA_HERRERA
 10
574638.73705793335
 20
507893.18317994138
 30
0.0
  0
VERTEX
  5
1D0
  8
TENA_HERRERA
 10
574652.36049849051
 20
507889.1889521408
 30
0.0
  0
VERTEX
  5
1D1
  8
TENA_HERRERA
 10
574667.46907128324
 20
507882.99306030368
 30
0.0
  0
VERTEX
  5
1D2
  8
TENA_HERRERA
 10
574684.89284119953
 20
507875.54034720402
 30
0.0
  0
VERTEX
  5
1D3
  8
TENA_HERRERA
 10
574685.20079561521
 20
507862.84070160839
 30
0.0
  0
VERTEX
  5
1D4
  8
TENA_HERRERA
 10
574678.25544112793
 20
507849.21987179562
 30
0.0
  0
VERTEX
  5
1D5
  8
TENA_HERRERA
 10
574672.75451699307
 20
507843.68804042722
 30
0.0
  0
VERTEX
  5
1D6
  8
TENA_HERRERA
 10
574663.24420199718
 20
507828.58861460967
 30
0.0
  0
VERTEX
  5
1D7
  8
TENA_HERRERA
 10
574655.47957114992
 20
507830.91109755251
 30
0.0
  0
VERTEX
  5
1D8
  8
TENA_HERRERA
 10
574647.49375044147
 20
507833.69608729368
 30
0.0
  0
SEQEND
  5
1D9
  8
TENA_HERRERA
  0
POLYLINE
  5
7B
  8
TENA_HERRERA
 66
     1
 10
0.0
 20
0.0
 30
0.0
 70
     1
  0
VERTEX
  5
1DA
  8
TENA_HERRERA
 10
575174.86014480237
 20
509320.65901834919
 30
0.0
  0
VERTEX
  5
1DB
  8
TENA_HERRERA
 10
575182.55128495698
 20
509315.06624589738
 30
0.0
  0
VERTEX
  5
1DC
  8
TENA_HERRERA
 10
575186.6743938931
 20
509305.88539100601
 30
0.0
  0
VERTEX
  5
1DD
  8
TENA_HERRERA
 10
575182.61618783639
 20
509296.16563005798
 30
0.0
  0
VERTEX
  5
1DE
  8
TENA_HERRERA
 10
575170.61800042435
 20
509289.99433389778
 30
0.0
  0
VERTEX
  5
1DF
  8
TENA_HERRERA
 10
575156.28157683299
 20
509294.54273848771
 30
0.0
  0
VERTEX
  5
1E0
  8
TENA_HERRERA
 10
575149.60806407407
 20
509301.67138357548
 30
0.0
  0
VERTEX
  5
1E1
  8
TENA_HERRERA
 10
575150.09589874127
 20
509308.56941420247
 30
0.0
  0
VERTEX
  5
1E2
  8
TENA_HERRERA
 10
575154.67617167626
 20
509315.22595211741
 30
0.0
  0
VERTEX
  5
1E3
  8
TENA_HERRERA
 10
575163.86393651401
 20
509320.62125661271
 30
0.0
  0
SEQEND
  5
1E4
  8
TENA_HERRERA
  0
POLYLINE
  5
7C
  8
TENA_HERRERA
 66
     1
 10
0.0
 20
0.0
 30
0.0
 70
     1
  0
VERTEX
  5
1E5
  8
TENA_HERRERA
 10
574648.68834832159
 20
509674.69239284919
 30
0.0
  0
VERTEX
  5
1E6
  8
TENA_HERRERA
 10
574656.33827617252
 20
509665.0074331488
 30
0.0
  0
VERTEX
  5
1E7
  8
TENA_HERRERA
 10
574658.80962315132
 20
509653.20058370632
 30
0.0
  0
VERTEX
  5
1E8
  8
TENA_HERRERA
 10
574657.86338403472
 20
509645.590178377
 30
0.0
  0
VERTEX
  5
1E9
  8
TENA_HERRERA
 10
574652.05667685368
 20
509637.63938031229
 30
0.0
  0
VERTEX
  5
1EA
  8
TENA_HERRERA
 10
574647.53370987647
 20
509633.41567425343
 30
0.0
  0
VERTEX
  5
1EB
  8
TENA_HERRERA
 10
574638.7921797107
 20
509630.63411635673
 30
0.0
  0
VERTEX
  5
1EC
  8
TENA_HERRERA
 10
574623.93898369814
 20
509625.60286846868
 30
0.0
  0
VERTEX
  5
1ED
  8
TENA_HERRERA
 10
574610.29362254322
 20
509623.90022280533
 30
0.0
  0
VERTEX
  5
1EE
  8
TENA_HERRERA
 10
574604.12441050401
 20
509627.11619365029
 30
0.0
  0
VERTEX
  5
1EF
  8
TENA_HERRERA
 10
574598.11121722253
 20
509632.11298201559
 30
0.0
  0
VERTEX
  5
1F0
  8
TENA_HERRERA
 10
574595.63701335562
 20
509644.72910205409
 30
0.0
  0
VERTEX
  5
1F1
  8
TENA_HERRERA
 10
574596.90297881595
 20
509653.63541890832
 30
0.0
  0
VERTEX
  5
1F2
  8
TENA_HERRERA
 10
574598.17824952991
 20
509659.79032559053
 30
0.0
  0
VERTEX
  5
1F3
  8
TENA_HERRERA
 10
574603.18693768105
 20
509664.17755999771
 30
0.0
  0
VERTEX
  5
1F4
  8
TENA_HERRERA
 10
574614.41661584203
 20
509669.44688167638
 30
0.0
  0
VERTEX
  5
1F5
  8
TENA_HERRERA
 10
574629.62758330407
 20
509674.7643738694
 30
0.0
  0
VERTEX
  5
1F6
  8
TENA_HERRERA
 10
574641.33618038788
 20
509676.55955210241
 30
0.0
  0
SEQEND
  5
1F7
  8
TENA_HERRERA
  0
POLYLINE
  5
7D
  8
TENA_HERRERA
 66
     1
 10
0.0
 20
0.0
 30
0.0
 70
     1
  0
VERTEX
  5
1F8
  8
TENA_HERRERA
 10
574500.65423314541
 20
509693.21822666231
 30
0.0
  0
VERTEX
  5
1F9
  8
TENA_HERRERA
 10
574514.10203005886
 20
509680.22619275033
 30
0.0
  0
VERTEX
  5
1FA
  8
TENA_HERRERA
 10
574517.62351662561
 20
509666.35916980793
 30
0.0
  0
VERTEX
  5
1FB
  8
TENA_HERRERA
 10
574521.13137786218
 20
509656.54024004517
 30
0.0
  0
VERTEX
  5
1FC
  8
TENA_HERRERA
 10
574518.2621227568
 20
509649.01253283711
 30
0.0
  0
VERTEX
  5
1FD
  8
TENA_HERRERA
 10
574501.48919801216
 20
509643.75027956552
 30
0.0
  0
VERTEX
  5
1FE
  8
TENA_HERRERA
 10
574488.77511390415
 20
509636.7671116743
 30
0.0
  0
VERTEX
  5
1FF
  8
TENA_HERRERA
 10
574476.62207235629
 20
509634.99053110433
 30
0.0
  0
VERTEX
  5
200
  8
TENA_HERRERA
 10
574458.67521565524
 20
509634.3506833748
 30
0.0
  0
VERTEX
  5
201
  8
TENA_HERRERA
 10
574445.34245227498
 20
509638.93118985801
 30
0.0
  0
VERTEX
  5
202
  8
TENA_HERRERA
 10
574434.28394743975
 20
509655.66375927319
 30
0.0
  0
VERTEX
  5
203
  8
TENA_HERRERA
 10
574424.95065459819
 20
509675.87204813142
 30
0.0
  0
VERTEX
  5
204
  8
TENA_HERRERA
 10
574431.13505001075
 20
509687.1917387179
 30
0.0
  0
VERTEX
  5
205
  8
TENA_HERRERA
 10
574451.53079388919
 20
509691.57726642478
 30
0.0
  0
VERTEX
  5
206
  8
TENA_HERRERA
 10
574477.56971341476
 20
509696.29303308681
 30
0.0
  0
SEQEND
  5
207
  8
TENA_HERRERA
  0
POLYLINE
  5
7E
  8
TENA_HERRERA
 66
     1
 10
0.0
 20
0.0
 30
0.0
 70
     1
  0
VERTEX
  5
208
  8
TENA_HERRERA
 10
575395.43029615562
 20
510315.12589205708
 30
0.0
  0
VERTEX
  5
209
  8
TENA_HERRERA
 10
575389.80172029277
 20
510319.36947175208
 30
0.0
  0
VERTEX
  5
20A
  8
TENA_HERRERA
 10
575401.10401247325
 20
510329.75538938731
 30
0.0
  0
VERTEX
  5
20B
  8
TENA_HERRERA
 10
575406.88893258863
 20
510338.92663099529
 30
0.0
  0
VERTEX
  5
20C
  8
TENA_HERRERA
 10
575413.54890614457
 20
510347.16931639297
 30
0.0
  0
VERTEX
  5
20D
  8
TENA_HERRERA
 10
575422.03834571515
 20
510358.21895510302
 30
0.0
  0
VERTEX
  5
20E
  8
TENA_HERRERA
 10
575425.89066719916
 20
510360.76592386258
 30
0.0
  0
VERTEX
  5
20F
  8
TENA_HERRERA
 10
575428.43461460003
 20
510360.83856530942
 30
0.0
  0
VERTEX
  5
210
  8
TENA_HERRERA
 10
575431.0843911838
 20
510360.91422866809
 30
0.0
  0
VERTEX
  5
211
  8
TENA_HERRERA
 10
575433.9614473473
 20
510360.4666020298
 30
0.0
  0
VERTEX
  5
212
  8
TENA_HERRERA
 10
575437.41682675225
 20
510358.34023408173
 30
0.0
  0
VERTEX
  5
213
  8
TENA_HERRERA
 10
575439.49430209829
 20
510356.17452060961
 30
0.0
  0
VERTEX
  5
214
  8
TENA_HERRERA
 10
575441.29298214475
 20
510352.6234388111
 30
0.0
  0
VERTEX
  5
215
  8
TENA_HERRERA
 10
575452.40340923844
 20
510338.59734813258
 30
0.0
  0
VERTEX
  5
216
  8
TENA_HERRERA
 10
575452.83627576276
 20
510334.58350290189
 30
0.0
  0
VERTEX
  5
217
  8
TENA_HERRERA
 10
575450.63125677861
 20
510330.0704694516
 30
0.0
  0
VERTEX
  5
218
  8
TENA_HERRERA
 10
575447.95092128532
 20
510327.34513535898
 30
0.0
  0
VERTEX
  5
219
  8
TENA_HERRERA
 10
575437.04540907498
 20
510326.6098682154
 30
0.0
  0
VERTEX
  5
21A
  8
TENA_HERRERA
 10
575404.7063689616
 20
510308.78674466268
 30
0.0
  0
SEQEND
  5
21B
  8
TENA_HERRERA
  0
POLYLINE
  5
7F
  8
TENA_HERRERA
 66
     1
 10
0.0
 20
0.0
 30
0.0
 70
     1
  0
VERTEX
  5
21C
  8
TENA_HERRERA
 10
575631.76129468193
 20
511731.6748912133
 30
0.0
  0
VERTEX
  5
21D
  8
TENA_HERRERA
 10
575650.68313140911
 20
511724.34768231679
 30
0.0
  0
VERTEX
  5
21E
  8
TENA_HERRERA
 10
575656.70914588124
 20
511702.8805939912
 30
0.0
  0
VERTEX
  5
21F
  8
TENA_HERRERA
 10
575641.90711941046
 20
511686.72046815348
 30
0.0
  0
VERTEX
  5
220
  8
TENA_HERRERA
 10
575606.32722782379
 20
511673.9008969281
 30
0.0
  0
VERTEX
  5
221
  8
TENA_HERRERA
 10
575587.05510379921
 20
511676.30032457318
 30
0.0
  0
VERTEX
  5
222
  8
TENA_HERRERA
 10
575580.49083058827
 20
511682.01468476042
 30
0.0
  0
VERTEX
  5
223
  8
TENA_HERRERA
 10
575579.50911103992
 20
511699.2000428561
 30
0.0
  0
VERTEX
  5
224
  8
TENA_HERRERA
 10
575595.25629120006
 20
511716.86318955349
 30
0.0
  0
VERTEX
  5
225
  8
TENA_HERRERA
 10
575611.24981416017
 20
511725.6794040011
 30
0.0
  0
SEQEND
  5
226
  8
TENA_HERRERA
  0
POLYLINE
  5
80
  8
TENA_HERRERA
 66
     1
 10
0.0
 20
0.0
 30
0.0
 70
     1
  0
VERTEX
  5
227
  8
TENA_HERRERA
 10
568599.35307495482
 20
511629.83585296571
 30
0.0
  0
VERTEX
  5
228
  8
TENA_HERRERA
 10
568592.86676837341
 20
511626.6672856384
 30
0.0
  0
VERTEX
  5
229
  8
TENA_HERRERA
 10
568585.56679668475
 20
511625.35188940942
 30
0.0
  0
VERTEX
  5
22A
  8
TENA_HERRERA
 10
568578.03356251598
 20
511625.98916744668
 30
0.0
  0
VERTEX
  5
22B
  8
TENA_HERRERA
 10
568571.69657342823
 20
511629.7297223304
 30
0.0
  0
VERTEX
  5
22C
  8
TENA_HERRERA
 10
568569.59527608554
 20
511637.59849616839
 30
0.0
  0
VERTEX
  5
22D
  8
TENA_HERRERA
 10
568571.91611946013
 20
511646.01983713527
 30
0.0
  0
VERTEX
  5
22E
  8
TENA_HERRERA
 10
568578.18613942619
 20
511650.54657368071
 30
0.0
  0
VERTEX
  5
22F
  8
TENA_HERRERA
 10
568587.79199344141
 20
511651.92781349912
 30
0.0
  0
VERTEX
  5
230
  8
TENA_HERRERA
 10
568594.73527550604
 20
511650.93326147943
 30
0.0
  0
VERTEX
  5
231
  8
TENA_HERRERA
 10
568601.70525216789
 20
511647.28753459192
 30
0.0
  0
VERTEX
  5
232
  8
TENA_HERRERA
 10
568603.3619214138
 20
511635.56080636987
 30
0.0
  0
SEQEND
  5
233
  8
TENA_HERRERA
  0
POLYLINE
  5
81
  8
TENA_HERRERA
 66
     1
 10
0.0
 20
0.0
 30
0.0
 70
     1
  0
VERTEX
  5
234
  8
TENA_HERRERA
 10
569361.96170234331
 20
511983.31815130328
 30
0.0
  0
VERTEX
  5
235
  8
TENA_HERRERA
 10
569372.82270130841
 20
511986.86052753642
 30
0.0
  0
VERTEX
  5
236
  8
TENA_HERRERA
 10
569384.61808426306
 20
511982.50647959299
 30
0.0
  0
VERTEX
  5
237
  8
TENA_HERRERA
 10
569394.90342967014
 20
511980.24757030921
 30
0.0
  0
VERTEX
  5
238
  8
TENA_HERRERA
 10
569400.05852038297
 20
511978.57152721332
 30
0.0
  0
VERTEX
  5
239
  8
TENA_HERRERA
 10
569408.24367267906
 20
511973.33774455049
 30
0.0
  0
VERTEX
  5
23A
  8
TENA_HERRERA
 10
569414.1452901077
 20
511963.00726518017
 30
0.0
  0
VERTEX
  5
23B
  8
TENA_HERRERA
 10
569413.13319959107
 20
511955.68882910878
 30
0.0
  0
VERTEX
  5
23C
  8
TENA_HERRERA
 10
569405.75156904839
 20
511950.1303306722
 30
0.0
  0
VERTEX
  5
23D
  8
TENA_HERRERA
 10
569394.37286245008
 20
511948.1048955443
 30
0.0
  0
VERTEX
  5
23E
  8
TENA_HERRERA
 10
569382.85548302904
 20
511950.93586652679
 30
0.0
  0
VERTEX
  5
23F
  8
TENA_HERRERA
 10
569366.88470557972
 20
511956.31246862118
 30
0.0
  0
VERTEX
  5
240
  8
TENA_HERRERA
 10
569354.47144321504
 20
511964.95039829728
 30
0.0
  0
VERTEX
  5
241
  8
TENA_HERRERA
 10
569354.34925207985
 20
511977.82535983977
 30
0.0
  0
SEQEND
  5
242
  8
TENA_HERRERA
  0
POLYLINE
  5
82
  8
TENA_HERRERA
 66
     1
 10
0.0
 20
0.0
 30
0.0
 70
     1
  0
VERTEX
  5
243
  8
TENA_HERRERA
 10
575513.37463264773
 20
512216.15403347189
 30
0.0
  0
VERTEX
  5
244
  8
TENA_HERRERA
 10
575505.1706880792
 20
512205.22676556063
 30
0.0
  0
VERTEX
  5
245
  8
TENA_HERRERA
 10
575487.50615853164
 20
512201.80604089011
 30
0.0
  0
VERTEX
  5
246
  8
TENA_HERRERA
 10
575467.49274582486
 20
512198.75091857702
 30
0.0
  0
VERTEX
  5
247
  8
TENA_HERRERA
 10
575445.61463213316
 20
512203.0412423691
 30
0.0
  0
VERTEX
  5
248
  8
TENA_HERRERA
 10
575434.05197991012
 20
512209.92578207992
 30
0.0
  0
VERTEX
  5
249
  8
TENA_HERRERA
 10
575430.72773330996
 20
512229.67968233972
 30
0.0
  0
VERTEX
  5
24A
  8
TENA_HERRERA
 10
575434.31892547605
 20
512240.87155720021
 30
0.0
  0
VERTEX
  5
24B
  8
TENA_HERRERA
 10
575435.93635551934
 20
512252.3417284778
 30
0.0
  0
VERTEX
  5
24C
  8
TENA_HERRERA
 10
575456.41700056475
 20
512257.98092094122
 30
0.0
  0
VERTEX
  5
24D
  8
TENA_HERRERA
 10
575475.8166107937
 20
512255.22678289132
 30
0.0
  0
VERTEX
  5
24E
  8
TENA_HERRERA
 10
575497.12273835496
 20
512243.70531816559
 30
0.0
  0
VERTEX
  5
24F
  8
TENA_HERRERA
 10
575512.48194399965
 20
512230.22502168798
 30
0.0
  0
SEQEND
  5
250
  8
TENA_HERRERA
  0
POLYLINE
  5
83
  8
TENA_HERRERA
 66
     1
 10
0.0
 20
0.0
 30
0.0
 70
     1
  0
VERTEX
  5
251
  8
TENA_HERRERA
 10
572855.01682430343
 20
513818.33100131428
 30
0.0
  0
VERTEX
  5
252
  8
TENA_HERRERA
 10
572853.58901024167
 20
513814.57144320069
 30
0.0
  0
VERTEX
  5
253
  8
TENA_HERRERA
 10
572847.82329057192
 20
513809.37673164241
 30
0.0
  0
VERTEX
  5
254
  8
TENA_HERRERA
 10
572839.13518953661
 20
513806.94036776392
 30
0.0
  0
VERTEX
  5
255
  8
TENA_HERRERA
 10
572831.33962275297
 20
513811.53064436553
 30
0.0
  0
VERTEX
  5
256
  8
TENA_HERRERA
 10
572826.444099457
 20
513821.88954859669
 30
0.0
  0
VERTEX
  5
257
  8
TENA_HERRERA
 10
572822.86399584124
 20
513839.94058407529
 30
0.0
  0
VERTEX
  5
258
  8
TENA_HERRERA
 10
572831.55446286511
 20
513850.03168671241
 30
0.0
  0
VERTEX
  5
259
  8
TENA_HERRERA
 10
572846.70001759892
 20
513848.71443053579
 30
0.0
  0
VERTEX
  5
25A
  8
TENA_HERRERA
 10
572857.93265871238
 20
513828.85513778019
 30
0.0
  0
SEQEND
  5
25B
  8
TENA_HERRERA
  0
POLYLINE
  5
84
  8
TENA_LIMITS
 66
     1
 10
0.0
 20
0.0
 30
0.0
 70
     1
  0
VERTEX
  5
25C
  8
TENA_LIMITS
 10
564376.66653522267
 20
506746.41124923719
 30
0.0
  0
VERTEX
  5
25D
  8
TENA_LIMITS
 10
564410.98079361604
 20
506763.11541251087
 30
0.0
  0
VERTEX
  5
25E
  8
TENA_LIMITS
 10
564492.08323110582
 20
506765.43126164901
 30
0.0
  0
VERTEX
  5
25F
  8
TENA_LIMITS
 10
564544.105336971
 20
506793.60508900537
 30
0.0
  0
VERTEX
  5
260
  8
TENA_LIMITS
 10
564464.48965240305
 20
506888.19083903643
 30
0.0
  0
VERTEX
  5
261
  8
TENA_LIMITS
 10
564379.33481875295
 20
506942.53877262888
 30
0.0
  0
VERTEX
  5
262
  8
TENA_LIMITS
 10
564327.30801380763
 20
507007.85251358489
 30
0.0
  0
VERTEX
  5
263
  8
TENA_LIMITS
 10
564241.39082953101
 20
507088.8984272111
 30
0.0
  0
VERTEX
  5
264
  8
TENA_LIMITS
 10
564142.67965897883
 20
507149.53921452269
 30
0.0
  0
VERTEX
  5
265
  8
TENA_LIMITS
 10
564064.11234024784
 20
507207.41520180588
 30
0.0
  0
VERTEX
  5
266
  8
TENA_LIMITS
 10
563994.52086942864
 20
507302.2871391247
 30
0.0
  0
VERTEX
  5
267
  8
TENA_LIMITS
 10
563899.05594215984
 20
507366.36057139072
 30
0.0
  0
VERTEX
  5
268
  8
TENA_LIMITS
 10
563837.48139278695
 20
507414.70188125531
 30
0.0
  0
VERTEX
  5
269
  8
TENA_LIMITS
 10
563791.66092529381
 20
507496.89274132019
 30
0.0
  0
VERTEX
  5
26A
  8
TENA_LIMITS
 10
563757.77054739767
 20
507512.62486372289
 30
0.0
  0
VERTEX
  5
26B
  8
TENA_LIMITS
 10
563683.59273223381
 20
507533.88654347887
 30
0.0
  0
VERTEX
  5
26C
  8
TENA_LIMITS
 10
563594.42943857878
 20
507611.49976566492
 30
0.0
  0
VERTEX
  5
26D
  8
TENA_LIMITS
 10
563559.20494600968
 20
507673.95339082729
 30
0.0
  0
VERTEX
  5
26E
  8
TENA_LIMITS
 10
563474.33586263144
 20
507718.28953414038
 30
0.0
  0
VERTEX
  5
26F
  8
TENA_LIMITS
 10
563442.16689286183
 20
507790.85030805023
 30
0.0
  0
VERTEX
  5
270
  8
TENA_LIMITS
 10
563407.43346346065
 20
507820.41812498198
 30
0.0
  0
VERTEX
  5
271
  8
TENA_LIMITS
 10
563356.56388024974
 20
507817.55193699431
 30
0.0
  0
VERTEX
  5
272
  8
TENA_LIMITS
 10
563339.8989529215
 20
507873.50743694272
 30
0.0
  0
VERTEX
  5
273
  8
TENA_LIMITS
 10
563304.84505906946
 20
507913.88953445799
 30
0.0
  0
VERTEX
  5
274
  8
TENA_LIMITS
 10
563273.44741268014
 20
507958.13807512121
 30
0.0
  0
VERTEX
  5
275
  8
TENA_LIMITS
 10
563205.91546397272
 20
507948.68554469809
 30
0.0
  0
VERTEX
  5
276
  8
TENA_LIMITS
 10
563153.54571697256
 20
507935.90387444949
 30
0.0
  0
VERTEX
  5
277
  8
TENA_LIMITS
 10
563074.72275261185
 20
507926.12893338548
 30
0.0
  0
VERTEX
  5
278
  8
TENA_LIMITS
 10
562897.82889350865
 20
507921.07779677602
 30
0.0
  0
VERTEX
  5
279
  8
TENA_LIMITS
 10
562824.92329806462
 20
507967.90318450681
 30
0.0
  0
VERTEX
  5
27A
  8
TENA_LIMITS
 10
562784.28081744863
 20
508072.08124405798
 30
0.0
  0
VERTEX
  5
27B
  8
TENA_LIMITS
 10
562741.05546768417
 20
508134.80250269541
 30
0.0
  0
VERTEX
  5
27C
  8
TENA_LIMITS
 10
562723.85385119845
 20
508209.55318152718
 30
0.0
  0
VERTEX
  5
27D
  8
TENA_LIMITS
 10
562749.3410306602
 20
508240.37768385059
 30
0.0
  0
VERTEX
  5
27E
  8
TENA_LIMITS
 10
562762.46381759015
 20
508308.47008303303
 30
0.0
  0
VERTEX
  5
27F
  8
TENA_LIMITS
 10
562749.13325612491
 20
508379.5691573479
 30
0.0
  0
VERTEX
  5
280
  8
TENA_LIMITS
 10
562793.63014350913
 20
508520.54139971052
 30
0.0
  0
VERTEX
  5
281
  8
TENA_LIMITS
 10
562857.48323230247
 20
508634.78261666233
 30
0.0
  0
VERTEX
  5
282
  8
TENA_LIMITS
 10
562921.33632109594
 20
508749.02383361402
 30
0.0
  0
VERTEX
  5
283
  8
TENA_LIMITS
 10
563014.63429678709
 20
508826.20624521113
 30
0.0
  0
VERTEX
  5
284
  8
TENA_LIMITS
 10
563168.78976443061
 20
508856.93132708361
 30
0.0
  0
VERTEX
  5
285
  8
TENA_LIMITS
 10
563299.60080855468
 20
508882.31611446111
 30
0.0
  0
VERTEX
  5
286
  8
TENA_LIMITS
 10
563430.41185267898
 20
508907.7009018386
 30
0.0
  0
VERTEX
  5
287
  8
TENA_LIMITS
 10
563493.0157909214
 20
508993.48018535879
 30
0.0
  0
VERTEX
  5
288
  8
TENA_LIMITS
 10
563591.77043310716
 20
509052.92197976692
 30
0.0
  0
VERTEX
  5
289
  8
TENA_LIMITS
 10
563712.11617221741
 20
509199.08581554738
 30
0.0
  0
VERTEX
  5
28A
  8
TENA_LIMITS
 10
563854.5106711163
 20
509325.2288919561
 30
0.0
  0
VERTEX
  5
28B
  8
TENA_LIMITS
 10
563970.00871417683
 20
509442.66831830773
 30
0.0
  0
VERTEX
  5
28C
  8
TENA_LIMITS
 10
564088.10730281752
 20
509564.74660601403
 30
0.0
  0
VERTEX
  5
28D
  8
TENA_LIMITS
 10
564132.8339666517
 20
509648.20577546832
 30
0.0
  0
VERTEX
  5
28E
  8
TENA_LIMITS
 10
564164.36943029275
 20
509763.24528881838
 30
0.0
  0
VERTEX
  5
28F
  8
TENA_LIMITS
 10
564231.58416873612
 20
509882.93682644289
 30
0.0
  0
VERTEX
  5
290
  8
TENA_LIMITS
 10
564298.79890717962
 20
510002.62836406869
 30
0.0
  0
VERTEX
  5
291
  8
TENA_LIMITS
 10
564419.70841837837
 20
510086.74314640742
 30
0.0
  0
VERTEX
  5
292
  8
TENA_LIMITS
 10
564446.1520784914
 20
510121.4597659664
 30
0.0
  0
VERTEX
  5
293
  8
TENA_LIMITS
 10
564451.98700004746
 20
510196.36231334659
 30
0.0
  0
VERTEX
  5
294
  8
TENA_LIMITS
 10
564496.5888914488
 20
510360.0401757689
 30
0.0
  0
VERTEX
  5
295
  8
TENA_LIMITS
 10
564566.95633746637
 20
510548.01324721932
 30
0.0
  0
VERTEX
  5
296
  8
TENA_LIMITS
 10
564620.70437412895
 20
510618.89603230701
 30
0.0
  0
VERTEX
  5
297
  8
TENA_LIMITS
 10
564703.68724933418
 20
510625.9861502428
 30
0.0
  0
VERTEX
  5
298
  8
TENA_LIMITS
 10
564858.02840227284
 20
510670.59474865062
 30
0.0
  0
VERTEX
  5
299
  8
TENA_LIMITS
 10
564720.66180368792
 20
510721.57120363013
 30
0.0
  0
VERTEX
  5
29A
  8
TENA_LIMITS
 10
564692.81924782589
 20
510780.45175254822
 30
0.0
  0
VERTEX
  5
29B
  8
TENA_LIMITS
 10
564601.44448197458
 20
510819.66675845621
 30
0.0
  0
VERTEX
  5
29C
  8
TENA_LIMITS
 10
564571.9864658179
 20
510864.97789268137
 30
0.0
  0
VERTEX
  5
29D
  8
TENA_LIMITS
 10
564525.42231490859
 20
510961.59052302077
 30
0.0
  0
VERTEX
  5
29E
  8
TENA_LIMITS
 10
564478.85816399928
 20
511058.20315335988
 30
0.0
  0
VERTEX
  5
29F
  8
TENA_LIMITS
 10
564445.51012022013
 20
511085.87945114478
 30
0.0
  0
VERTEX
  5
2A0
  8
TENA_LIMITS
 10
564433.44745183107
 20
511128.82641734759
 30
0.0
  0
VERTEX
  5
2A1
  8
TENA_LIMITS
 10
564424.3742261834
 20
511151.41557121178
 30
0.0
  0
VERTEX
  5
2A2
  8
TENA_LIMITS
 10
564424.27352954773
 20
511197.10916857451
 30
0.0
  0
VERTEX
  5
2A3
  8
TENA_LIMITS
 10
564404.82106311701
 20
511245.85777597618
 30
0.0
  0
VERTEX
  5
2A4
  8
TENA_LIMITS
 10
564403.58590051159
 20
511289.1139174726
 30
0.0
  0
VERTEX
  5
2A5
  8
TENA_LIMITS
 10
564409.65758795384
 20
511320.17019969062
 30
0.0
  0
VERTEX
  5
2A6
  8
TENA_LIMITS
 10
564410.94362301903
 20
511326.60272115259
 30
0.0
  0
VERTEX
  5
2A7
  8
TENA_LIMITS
 10
564399.53284576628
 20
511346.72006549931
 30
0.0
  0
VERTEX
  5
2A8
  8
TENA_LIMITS
 10
564378.53209210397
 20
511365.36099060922
 30
0.0
  0
VERTEX
  5
2A9
  8
TENA_LIMITS
 10
564377.46848009969
 20
511402.60932629829
 30
0.0
  0
VERTEX
  5
2AA
  8
TENA_LIMITS
 10
564372.01181560045
 20
511459.59382526501
 30
0.0
  0
VERTEX
  5
2AB
  8
TENA_LIMITS
 10
564297.40243840741
 20
511489.95646683552
 30
0.0
  0
VERTEX
  5
2AC
  8
TENA_LIMITS
 10
564226.94177632243
 20
511526.93615996698
 30
0.0
  0
VERTEX
  5
2AD
  8
TENA_LIMITS
 10
564165.83351810521
 20
511616.1718516429
 30
0.0
  0
VERTEX
  5
2AE
  8
TENA_LIMITS
 10
564127.32350440265
 20
511673.55974371219
 30
0.0
  0
VERTEX
  5
2AF
  8
TENA_LIMITS
 10
564060.08475066395
 20
511749.62310764223
 30
0.0
  0
VERTEX
  5
2B0
  8
TENA_LIMITS
 10
564001.08175224764
 20
511841.08510973607
 30
0.0
  0
VERTEX
  5
2B1
  8
TENA_LIMITS
 10
563947.52550006739
 20
511893.71097115421
 30
0.0
  0
VERTEX
  5
2B2
  8
TENA_LIMITS
 10
563899.17280704831
 20
511991.97567523748
 30
0.0
  0
VERTEX
  5
2B3
  8
TENA_LIMITS
 10
563838.47749020986
 20
512077.20580083242
 30
0.0
  0
VERTEX
  5
2B4
  8
TENA_LIMITS
 10
563815.21185216389
 20
512163.14842982119
 30
0.0
  0
VERTEX
  5
2B5
  8
TENA_LIMITS
 10
563798.1859144941
 20
512273.51922101859
 30
0.0
  0
VERTEX
  5
2B6
  8
TENA_LIMITS
 10
563767.59346017172
 20
512373.10978705349
 30
0.0
  0
VERTEX
  5
2B7
  8
TENA_LIMITS
 10
563723.53332930547
 20
512458.45868754812
 30
0.0
  0
VERTEX
  5
2B8
  8
TENA_LIMITS
 10
563624.11988633114
 20
512538.7626823227
 30
0.0
  0
VERTEX
  5
2B9
  8
TENA_LIMITS
 10
563580.25743711716
 20
512617.18865179882
 30
0.0
  0
VERTEX
  5
2BA
  8
TENA_LIMITS
 10
563507.97702601226
 20
512719.05314716912
 30
0.0
  0
VERTEX
  5
2BB
  8
TENA_LIMITS
 10
563458.46805241227
 20
512752.28221542877
 30
0.0
  0
VERTEX
  5
2BC
  8
TENA_LIMITS
 10
563385.75509225531
 20
512749.37245902448
 30
0.0
  0
VERTEX
  5
2BD
  8
TENA_LIMITS
 10
563377.49206314376
 20
512885.03507036011
 30
0.0
  0
VERTEX
  5
2BE
  8
TENA_LIMITS
 10
563431.12896434602
 20
513004.92993373692
 30
0.0
  0
VERTEX
  5
2BF
  8
TENA_LIMITS
 10
563470.85842966114
 20
513150.73061599961
 30
0.0
  0
VERTEX
  5
2C0
  8
TENA_LIMITS
 10
563471.49179473484
 20
513282.26345384278
 30
0.0
  0
VERTEX
  5
2C1
  8
TENA_LIMITS
 10
563445.81107404572
 20
513413.0448527048
 30
0.0
  0
VERTEX
  5
2C2
  8
TENA_LIMITS
 10
563494.18678022618
 20
513563.47628201387
 30
0.0
  0
VERTEX
  5
2C3
  8
TENA_LIMITS
 10
563564.61612576596
 20
513710.15353732673
 30
0.0
  0
VERTEX
  5
2C4
  8
TENA_LIMITS
 10
563620.12821233587
 20
513801.7928441299
 30
0.0
  0
VERTEX
  5
2C5
  8
TENA_LIMITS
 10
563673.12027033791
 20
513890.11629147589
 30
0.0
  0
VERTEX
  5
2C6
  8
TENA_LIMITS
 10
563701.04232662474
 20
513935.46241082071
 30
0.0
  0
VERTEX
  5
2C7
  8
TENA_LIMITS
 10
563753.95215307595
 20
514049.1457657069
 30
0.0
  0
VERTEX
  5
2C8
  8
TENA_LIMITS
 10
563802.44848245895
 20
514071.56295106391
 30
0.0
  0
VERTEX
  5
2C9
  8
TENA_LIMITS
 10
563915.86916791962
 20
514032.73690336832
 30
0.0
  0
VERTEX
  5
2CA
  8
TENA_LIMITS
 10
564036.10354269063
 20
514001.11619826249
 30
0.0
  0
VERTEX
  5
2CB
  8
TENA_LIMITS
 10
564147.32379515958
 20
514039.346001881
 30
0.0
  0
VERTEX
  5
2CC
  8
TENA_LIMITS
 10
564251.53033269406
 20
514077.37548123812
 30
0.0
  0
VERTEX
  5
2CD
  8
TENA_LIMITS
 10
564334.6981083717
 20
514079.76851709932
 30
0.0
  0
VERTEX
  5
2CE
  8
TENA_LIMITS
 10
564518.66533426906
 20
514076.44010991819
 30
0.0
  0
VERTEX
  5
2CF
  8
TENA_LIMITS
 10
564672.9534108052
 20
514089.42726811633
 30
0.0
  0
VERTEX
  5
2D0
  8
TENA_LIMITS
 10
564746.73683603609
 20
514093.2504097459
 30
0.0
  0
VERTEX
  5
2D1
  8
TENA_LIMITS
 10
564865.12959846447
 20
514084.5672059785
 30
0.0
  0
VERTEX
  5
2D2
  8
TENA_LIMITS
 10
564953.69848084415
 20
514034.12226839719
 30
0.0
  0
VERTEX
  5
2D3
  8
TENA_LIMITS
 10
565019.33932319551
 20
513990.59034198552
 30
0.0
  0
VERTEX
  5
2D4
  8
TENA_LIMITS
 10
565105.20924192015
 20
514034.66474403261
 30
0.0
  0
VERTEX
  5
2D5
  8
TENA_LIMITS
 10
565174.0297147166
 20
514053.96261920949
 30
0.0
  0
VERTEX
  5
2D6
  8
TENA_LIMITS
 10
565184.48192630045
 20
514109.18267216289
 30
0.0
  0
VERTEX
  5
2D7
  8
TENA_LIMITS
 10
565131.60305814177
 20
514215.79958995571
 30
0.0
  0
VERTEX
  5
2D8
  8
TENA_LIMITS
 10
565054.71155354858
 20
514368.33442644461
 30
0.0
  0
VERTEX
  5
2D9
  8
TENA_LIMITS
 10
565016.98485312471
 20
514403.9220945033
 30
0.0
  0
VERTEX
  5
2DA
  8
TENA_LIMITS
 10
564963.84388372127
 20
514443.6527440201
 30
0.0
  0
VERTEX
  5
2DB
  8
TENA_LIMITS
 10
564908.39262559137
 20
514482.92365728918
 30
0.0
  0
VERTEX
  5
2DC
  8
TENA_LIMITS
 10
564883.3437500993
 20
514521.35305565479
 30
0.0
  0
VERTEX
  5
2DD
  8
TENA_LIMITS
 10
564912.43762745603
 20
514570.0273208142
 30
0.0
  0
VERTEX
  5
2DE
  8
TENA_LIMITS
 10
564981.00296061905
 20
514608.95513945312
 30
0.0
  0
VERTEX
  5
2DF
  8
TENA_LIMITS
 10
565024.45750368736
 20
514688.48528622248
 30
0.0
  0
VERTEX
  5
2E0
  8
TENA_LIMITS
 10
565048.39341808669
 20
514765.28338828922
 30
0.0
  0
VERTEX
  5
2E1
  8
TENA_LIMITS
 10
565100.11230785446
 20
514784.15783344908
 30
0.0
  0
VERTEX
  5
2E2
  8
TENA_LIMITS
 10
565135.48073482874
 20
514765.5954356569
 30
0.0
  0
VERTEX
  5
2E3
  8
TENA_LIMITS
 10
565150.08583222609
 20
514711.64488489961
 30
0.0
  0
VERTEX
  5
2E4
  8
TENA_LIMITS
 10
565165.31126930821
 20
514635.96502027317
 30
0.0
  0
VERTEX
  5
2E5
  8
TENA_LIMITS
 10
565198.4380853459
 20
514543.3986906794
 30
0.0
  0
VERTEX
  5
2E6
  8
TENA_LIMITS
 10
565209.93666653184
 20
514521.98000084149
 30
0.0
  0
VERTEX
  5
2E7
  8
TENA_LIMITS
 10
565271.28869948594
 20
514508.50895042351
 30
0.0
  0
VERTEX
  5
2E8
  8
TENA_LIMITS
 10
565351.22865216085
 20
514530.36393497232
 30
0.0
  0
VERTEX
  5
2E9
  8
TENA_LIMITS
 10
565405.99174612947
 20
514518.87943762838
 30
0.0
  0
VERTEX
  5
2EA
  8
TENA_LIMITS
 10
565451.12156444287
 20
514539.74043208087
 30
0.0
  0
VERTEX
  5
2EB
  8
TENA_LIMITS
 10
565465.73457101465
 20
514638.01939981623
 30
0.0
  0
VERTEX
  5
2EC
  8
TENA_LIMITS
 10
565510.05777595926
 20
514687.12848230143
 30
0.0
  0
VERTEX
  5
2ED
  8
TENA_LIMITS
 10
565618.03278135974
 20
514718.48283823539
 30
0.0
  0
VERTEX
  5
2EE
  8
TENA_LIMITS
 10
565698.78323790932
 20
514788.20441670337
 30
0.0
  0
VERTEX
  5
2EF
  8
TENA_LIMITS
 10
565735.09054938005
 20
514889.27750443667
 30
0.0
  0
VERTEX
  5
2F0
  8
TENA_LIMITS
 10
565757.16102434404
 20
514955.1488510308
 30
0.0
  0
VERTEX
  5
2F1
  8
TENA_LIMITS
 10
565879.99320593523
 20
514999.97563423251
 30
0.0
  0
VERTEX
  5
2F2
  8
TENA_LIMITS
 10
565979.01745634153
 20
515039.7731956247
 30
0.0
  0
VERTEX
  5
2F3
  8
TENA_LIMITS
 10
566038.37995571631
 20
515019.72124169662
 30
0.0
  0
VERTEX
  5
2F4
  8
TENA_LIMITS
 10
566067.5898855729
 20
514911.82013261801
 30
0.0
  0
VERTEX
  5
2F5
  8
TENA_LIMITS
 10
566101.4032423757
 20
514871.46630295849
 30
0.0
  0
VERTEX
  5
2F6
  8
TENA_LIMITS
 10
566207.45076270436
 20
514894.06677913311
 30
0.0
  0
VERTEX
  5
2F7
  8
TENA_LIMITS
 10
566211.99214257882
 20
514963.78698453418
 30
0.0
  0
VERTEX
  5
2F8
  8
TENA_LIMITS
 10
566293.11501546379
 20
515020.47096062527
 30
0.0
  0
VERTEX
  5
2F9
  8
TENA_LIMITS
 10
566297.59434826649
 20
515092.36409200809
 30
0.0
  0
VERTEX
  5
2FA
  8
TENA_LIMITS
 10
566227.79195843125
 20
515173.00967603299
 30
0.0
  0
VERTEX
  5
2FB
  8
TENA_LIMITS
 10
566174.08769052918
 20
515223.66901688313
 30
0.0
  0
VERTEX
  5
2FC
  8
TENA_LIMITS
 10
566163.70298730105
 20
515284.32177607692
 30
0.0
  0
VERTEX
  5
2FD
  8
TENA_LIMITS
 10
566208.43827944004
 20
515363.84542982921
 30
0.0
  0
VERTEX
  5
2FE
  8
TENA_LIMITS
 10
566111.48878125346
 20
515466.70956789469
 30
0.0
  0
VERTEX
  5
2FF
  8
TENA_LIMITS
 10
565997.76006079349
 20
515471.28671315953
 30
0.0
  0
VERTEX
  5
300
  8
TENA_LIMITS
 10
565918.14092734805
 20
515515.96097194147
 30
0.0
  0
VERTEX
  5
301
  8
TENA_LIMITS
 10
565872.74300450005
 20
515596.8232188804
 30
0.0
  0
VERTEX
  5
302
  8
TENA_LIMITS
 10
565898.13159807073
 20
515667.96980958508
 30
0.0
  0
VERTEX
  5
303
  8
TENA_LIMITS
 10
565914.79932923126
 20
515770.16593152791
 30
0.0
  0
VERTEX
  5
304
  8
TENA_LIMITS
 10
566002.70007257489
 20
515847.00984553091
 30
0.0
  0
VERTEX
  5
305
  8
TENA_LIMITS
 10
566023.28173989453
 20
515949.31772842718
 30
0.0
  0
VERTEX
  5
306
  8
TENA_LIMITS
 10
565958.53725094791
 20
516021.80291610112
 30
0.0
  0
VERTEX
  5
307
  8
TENA_LIMITS
 10
565968.68788524054
 20
516086.79508914251
 30
0.0
  0
VERTEX
  5
308
  8
TENA_LIMITS
 10
565984.68672081875
 20
516137.33542889502
 30
0.0
  0
VERTEX
  5
309
  8
TENA_LIMITS
 10
565962.78173117724
 20
516217.27910222689
 30
0.0
  0
VERTEX
  5
30A
  8
TENA_LIMITS
 10
565975.359412789
 20
516311.27260571509
 30
0.0
  0
VERTEX
  5
30B
  8
TENA_LIMITS
 10
565992.54278388305
 20
516396.6875125824
 30
0.0
  0
VERTEX
  5
30C
  8
TENA_LIMITS
 10
565957.75330854743
 20
516469.73057840648
 30
0.0
  0
VERTEX
  5
30D
  8
TENA_LIMITS
 10
565858.97642507625
 20
516493.0405744235
 30
0.0
  0
VERTEX
  5
30E
  8
TENA_LIMITS
 10
565806.48510329693
 20
516497.62353340752
 30
0.0
  0
VERTEX
  5
30F
  8
TENA_LIMITS
 10
565792.10631912656
 20
516523.1173972612
 30
0.0
  0
VERTEX
  5
310
  8
TENA_LIMITS
 10
565828.00240317255
 20
516604.58241554239
 30
0.0
  0
VERTEX
  5
311
  8
TENA_LIMITS
 10
565945.69802363345
 20
516689.746606651
 30
0.0
  0
VERTEX
  5
312
  8
TENA_LIMITS
 10
566012.06337869493
 20
516660.28367722081
 30
0.0
  0
VERTEX
  5
313
  8
TENA_LIMITS
 10
566074.33190978109
 20
516535.26639552228
 30
0.0
  0
VERTEX
  5
314
  8
TENA_LIMITS
 10
566188.16141059808
 20
516468.98387928947
 30
0.0
  0
VERTEX
  5
315
  8
TENA_LIMITS
 10
566304.56338656181
 20
516408.22834136267
 30
0.0
  0
VERTEX
  5
316
  8
TENA_LIMITS
 10
566316.55934297654
 20
516274.95860493142
 30
0.0
  0
VERTEX
  5
317
  8
TENA_LIMITS
 10
566288.84707609576
 20
516193.72727242572
 30
0.0
  0
VERTEX
  5
318
  8
TENA_LIMITS
 10
566274.90949136275
 20
516105.61376560607
 30
0.0
  0
VERTEX
  5
319
  8
TENA_LIMITS
 10
566366.46355358954
 20
516055.46340156812
 30
0.0
  0
VERTEX
  5
31A
  8
TENA_LIMITS
 10
566535.4686698647
 20
516013.73227370781
 30
0.0
  0
VERTEX
  5
31B
  8
TENA_LIMITS
 10
566636.07819768484
 20
516081.78494656482
 30
0.0
  0
VERTEX
  5
31C
  8
TENA_LIMITS
 10
566641.40856243868
 20
516221.60821669659
 30
0.0
  0
VERTEX
  5
31D
  8
TENA_LIMITS
 10
566672.90829085233
 20
516315.6217385839
 30
0.0
  0
VERTEX
  5
31E
  8
TENA_LIMITS
 10
566771.06210299011
 20
516360.84310402197
 30
0.0
  0
VERTEX
  5
31F
  8
TENA_LIMITS
 10
566869.21591512696
 20
516406.064469459
 30
0.0
  0
VERTEX
  5
320
  8
TENA_LIMITS
 10
566967.36972726462
 20
516451.2858348958
 30
0.0
  0
VERTEX
  5
321
  8
TENA_LIMITS
 10
567103.1097656471
 20
516486.19984282041
 30
0.0
  0
VERTEX
  5
322
  8
TENA_LIMITS
 10
567180.91504363948
 20
516482.2139422379
 30
0.0
  0
VERTEX
  5
323
  8
TENA_LIMITS
 10
567217.10822172766
 20
516411.8600178262
 30
0.0
  0
VERTEX
  5
324
  8
TENA_LIMITS
 10
567267.49859278079
 20
516388.46849326952
 30
0.0
  0
VERTEX
  5
325
  8
TENA_LIMITS
 10
567378.66326879244
 20
516413.36936021881
 30
0.0
  0
VERTEX
  5
326
  8
TENA_LIMITS
 10
567445.04530722729
 20
516444.02888947801
 30
0.0
  0
VERTEX
  5
327
  8
TENA_LIMITS
 10
567464.54413741559
 20
516453.06725917791
 30
0.0
  0
VERTEX
  5
328
  8
TENA_LIMITS
 10
567646.67827956902
 20
516386.88062327588
 30
0.0
  0
VERTEX
  5
329
  8
TENA_LIMITS
 10
567710.28623356239
 20
516335.93226878671
 30
0.0
  0
VERTEX
  5
32A
  8
TENA_LIMITS
 10
567796.95847223513
 20
516239.08550171001
 30
0.0
  0
VERTEX
  5
32B
  8
TENA_LIMITS
 10
567870.41312796762
 20
516169.79556456662
 30
0.0
  0
VERTEX
  5
32C
  8
TENA_LIMITS
 10
567926.30547690275
 20
516171.39154925122
 30
0.0
  0
VERTEX
  5
32D
  8
TENA_LIMITS
 10
567993.28993982309
 20
516219.8612694465
 30
0.0
  0
VERTEX
  5
32E
  8
TENA_LIMITS
 10
568039.51256436924
 20
516233.59634002368
 30
0.0
  0
VERTEX
  5
32F
  8
TENA_LIMITS
 10
568091.14284667152
 20
516166.7870165247
 30
0.0
  0
VERTEX
  5
330
  8
TENA_LIMITS
 10
568147.74350959063
 20
516143.57277417253
 30
0.0
  0
VERTEX
  5
331
  8
TENA_LIMITS
 10
568222.08948609384
 20
516151.90329573769
 30
0.0
  0
VERTEX
  5
332
  8
TENA_LIMITS
 10
568283.21787965624
 20
516187.79064723518
 30
0.0
  0
VERTEX
  5
333
  8
TENA_LIMITS
 10
568332.81138253433
 20
516192.31057107088
 30
0.0
  0
VERTEX
  5
334
  8
TENA_LIMITS
 10
568367.86432057479
 20
516265.9274415797
 30
0.0
  0
VERTEX
  5
335
  8
TENA_LIMITS
 10
568381.86504815845
 20
516320.7405514298
 30
0.0
  0
VERTEX
  5
336
  8
TENA_LIMITS
 10
568428.75037985505
 20
516382.3227017782
 30
0.0
  0
VERTEX
  5
337
  8
TENA_LIMITS
 10
568445.02803452557
 20
516425.54081235483
 30
0.0
  0
VERTEX
  5
338
  8
TENA_LIMITS
 10
568436.0351288782
 20
516536.05399983173
 30
0.0
  0
VERTEX
  5
339
  8
TENA_LIMITS
 10
568439.31710301514
 20
516625.54108794121
 30
0.0
  0
VERTEX
  5
33A
  8
TENA_LIMITS
 10
568507.97625957301
 20
516674.14158755518
 30
0.0
  0
VERTEX
  5
33B
  8
TENA_LIMITS
 10
568608.06671026896
 20
516679.70463916729
 30
0.0
  0
VERTEX
  5
33C
  8
TENA_LIMITS
 10
568649.78920240211
 20
516682.07765724388
 30
0.0
  0
VERTEX
  5
33D
  8
TENA_LIMITS
 10
568763.10518758011
 20
516665.88002538087
 30
0.0
  0
VERTEX
  5
33E
  8
TENA_LIMITS
 10
568851.31330640067
 20
516643.13546510611
 30
0.0
  0
VERTEX
  5
33F
  8
TENA_LIMITS
 10
568896.25438850035
 20
516704.66204784042
 30
0.0
  0
VERTEX
  5
340
  8
TENA_LIMITS
 10
568900.92251118773
 20
516745.60537534847
 30
0.0
  0
VERTEX
  5
341
  8
TENA_LIMITS
 10
568986.13290791574
 20
516759.69849144231
 30
0.0
  0
VERTEX
  5
342
  8
TENA_LIMITS
 10
569030.90414039092
 20
516759.03358926682
 30
0.0
  0
VERTEX
  5
343
  8
TENA_LIMITS
 10
569058.64773420047
 20
516862.2060797665
 30
0.0
  0
VERTEX
  5
344
  8
TENA_LIMITS
 10
569082.77953845903
 20
516926.89748338709
 30
0.0
  0
VERTEX
  5
345
  8
TENA_LIMITS
 10
569205.60421200306
 20
517053.22000252741
 30
0.0
  0
VERTEX
  5
346
  8
TENA_LIMITS
 10
569272.74956525129
 20
517067.24583130179
 30
0.0
  0
VERTEX
  5
347
  8
TENA_LIMITS
 10
569324.02064719924
 20
517030.65443346603
 30
0.0
  0
VERTEX
  5
348
  8
TENA_LIMITS
 10
569383.64515595394
 20
516944.13757138117
 30
0.0
  0
VERTEX
  5
349
  8
TENA_LIMITS
 10
569490.88873281516
 20
516948.92968792858
 30
0.0
  0
VERTEX
  5
34A
  8
TENA_LIMITS
 10
569593.63165546325
 20
516929.37615170021
 30
0.0
  0
VERTEX
  5
34B
  8
TENA_LIMITS
 10
569686.4850397188
 20
516892.24230347673
 30
0.0
  0
VERTEX
  5
34C
  8
TENA_LIMITS
 10
569776.324525884
 20
516899.99703685858
 30
0.0
  0
VERTEX
  5
34D
  8
TENA_LIMITS
 10
569856.03078697075
 20
516959.35617987579
 30
0.0
  0
VERTEX
  5
34E
  8
TENA_LIMITS
 10
569977.46419939934
 20
516952.4448622943
 30
0.0
  0
VERTEX
  5
34F
  8
TENA_LIMITS
 10
570083.56943782174
 20
516936.44697001838
 30
0.0
  0
VERTEX
  5
350
  8
TENA_LIMITS
 10
570186.1545013116
 20
516941.7410116308
 30
0.0
  0
VERTEX
  5
351
  8
TENA_LIMITS
 10
570352.59445608733
 20
517046.02755350358
 30
0.0
  0
VERTEX
  5
352
  8
TENA_LIMITS
 10
570469.38836883462
 20
517143.91977597732
 30
0.0
  0
VERTEX
  5
353
  8
TENA_LIMITS
 10
570612.70920501358
 20
517185.337464927
 30
0.0
  0
VERTEX
  5
354
  8
TENA_LIMITS
 10
570756.03004119254
 20
517226.75515387591
 30
0.0
  0
VERTEX
  5
355
  8
TENA_LIMITS
 10
570879.22272899805
 20
517275.06313467189
 30
0.0
  0
VERTEX
  5
356
  8
TENA_LIMITS
 10
570981.08007117815
 20
517372.52889938431
 30
0.0
  0
VERTEX
  5
357
  8
TENA_LIMITS
 10
571066.71848082007
 20
517427.22957554372
 30
0.0
  0
VERTEX
  5
358
  8
TENA_LIMITS
 10
571152.35689046269
 20
517481.9302517029
 30
0.0
  0
VERTEX
  5
359
  8
TENA_LIMITS
 10
571222.48333769676
 20
517538.76776628871
 30
0.0
  0
VERTEX
  5
35A
  8
TENA_LIMITS
 10
571295.52993495215
 20
517598.2698721792
 30
0.0
  0
VERTEX
  5
35B
  8
TENA_LIMITS
 10
571339.62375616143
 20
517577.37690653122
 30
0.0
  0
VERTEX
  5
35C
  8
TENA_LIMITS
 10
571407.30749457236
 20
517545.00997753913
 30
0.0
  0
VERTEX
  5
35D
  8
TENA_LIMITS
 10
571519.08505419234
 20
517491.75008289889
 30
0.0
  0
VERTEX
  5
35E
  8
TENA_LIMITS
 10
571571.4145517837
 20
517353.71106387698
 30
0.0
  0
VERTEX
  5
35F
  8
TENA_LIMITS
 10
571623.74404937495
 20
517215.6720448549
 30
0.0
  0
VERTEX
  5
360
  8
TENA_LIMITS
 10
571718.15115600487
 20
517120.2583340783
 30
0.0
  0
VERTEX
  5
361
  8
TENA_LIMITS
 10
571817.60880843655
 20
517077.31389690237
 30
0.0
  0
VERTEX
  5
362
  8
TENA_LIMITS
 10
571924.54297583934
 20
517001.87982574297
 30
0.0
  0
VERTEX
  5
363
  8
TENA_LIMITS
 10
571993.14963813836
 20
516892.64815398538
 30
0.0
  0
VERTEX
  5
364
  8
TENA_LIMITS
 10
572113.35718909907
 20
516811.05240418948
 30
0.0
  0
VERTEX
  5
365
  8
TENA_LIMITS
 10
572253.75479678903
 20
516710.41134019452
 30
0.0
  0
VERTEX
  5
366
  8
TENA_LIMITS
 10
572335.0751347515
 20
516614.62394173519
 30
0.0
  0
VERTEX
  5
367
  8
TENA_LIMITS
 10
572444.24426449148
 20
516530.3180947862
 30
0.0
  0
VERTEX
  5
368
  8
TENA_LIMITS
 10
572458.14629366098
 20
516493.85647997243
 30
0.0
  0
VERTEX
  5
369
  8
TENA_LIMITS
 10
572476.18765534717
 20
516449.28159736958
 30
0.0
  0
VERTEX
  5
36A
  8
TENA_LIMITS
 10
572527.58354213519
 20
516325.54984725942
 30
0.0
  0
VERTEX
  5
36B
  8
TENA_LIMITS
 10
572533.89201574877
 20
516290.32840888062
 30
0.0
  0
VERTEX
  5
36C
  8
TENA_LIMITS
 10
572544.1600206811
 20
516227.22344914009
 30
0.0
  0
VERTEX
  5
36D
  8
TENA_LIMITS
 10
572552.36597512697
 20
516176.01832231472
 30
0.0
  0
VERTEX
  5
36E
  8
TENA_LIMITS
 10
572562.37703325867
 20
516127.47975766519
 30
0.0
  0
VERTEX
  5
36F
  8
TENA_LIMITS
 10
572591.98903472174
 20
515982.45103509817
 30
0.0
  0
VERTEX
  5
370
  8
TENA_LIMITS
 10
572718.99944841408
 20
516004.28854181751
 30
0.0
  0
VERTEX
  5
371
  8
TENA_LIMITS
 10
572794.66656089213
 20
515908.56610718218
 30
0.0
  0
VERTEX
  5
372
  8
TENA_LIMITS
 10
572819.51394185412
 20
515756.76006504148
 30
0.0
  0
VERTEX
  5
373
  8
TENA_LIMITS
 10
572814.56132734881
 20
515610.93216038047
 30
0.0
  0
VERTEX
  5
374
  8
TENA_LIMITS
 10
572812.99421683163
 20
515506.17526702047
 30
0.0
  0
VERTEX
  5
375
  8
TENA_LIMITS
 10
572888.53143623995
 20
515415.00176624092
 30
0.0
  0
VERTEX
  5
376
  8
TENA_LIMITS
 10
573039.41927083
 20
515398.82316613989
 30
0.0
  0
VERTEX
  5
377
  8
TENA_LIMITS
 10
573140.85964051157
 20
515438.14140348189
 30
0.0
  0
VERTEX
  5
378
  8
TENA_LIMITS
 10
573281.50500903965
 20
515379.95625381707
 30
0.0
  0
VERTEX
  5
379
  8
TENA_LIMITS
 10
573163.51123962889
 20
515225.2170687443
 30
0.0
  0
VERTEX
  5
37A
  8
TENA_LIMITS
 10
573108.5893115151
 20
515107.21032590722
 30
0.0
  0
VERTEX
  5
37B
  8
TENA_LIMITS
 10
573102.92568525777
 20
514999.34306043072
 30
0.0
  0
VERTEX
  5
37C
  8
TENA_LIMITS
 10
573097.26205899986
 20
514891.47579495551
 30
0.0
  0
VERTEX
  5
37D
  8
TENA_LIMITS
 10
573103.33030091913
 20
514781.03258691612
 30
0.0
  0
VERTEX
  5
37E
  8
TENA_LIMITS
 10
573109.39854283805
 20
514670.58937887661
 30
0.0
  0
VERTEX
  5
37F
  8
TENA_LIMITS
 10
573187.93966508156
 20
514573.85942289472
 30
0.0
  0
VERTEX
  5
380
  8
TENA_LIMITS
 10
573248.59229631501
 20
514491.17347639968
 30
0.0
  0
VERTEX
  5
381
  8
TENA_LIMITS
 10
573309.24492754915
 20
514408.4875299061
 30
0.0
  0
VERTEX
  5
382
  8
TENA_LIMITS
 10
573458.84155841405
 20
514273.03310317721
 30
0.0
  0
VERTEX
  5
383
  8
TENA_LIMITS
 10
573521.35260524123
 20
514193.31118138012
 30
0.0
  0
VERTEX
  5
384
  8
TENA_LIMITS
 10
573583.86365206866
 20
514113.58925958298
 30
0.0
  0
VERTEX
  5
385
  8
TENA_LIMITS
 10
573646.37469889526
 20
514033.86733778619
 30
0.0
  0
VERTEX
  5
386
  8
TENA_LIMITS
 10
573649.69684469572
 20
513917.52378255111
 30
0.0
  0
VERTEX
  5
387
  8
TENA_LIMITS
 10
573681.14438514831
 20
513836.91483742022
 30
0.0
  0
VERTEX
  5
388
  8
TENA_LIMITS
 10
573802.37354343524
 20
513778.19289012812
 30
0.0
  0
VERTEX
  5
389
  8
TENA_LIMITS
 10
573923.60270172206
 20
513719.47094283602
 30
0.0
  0
VERTEX
  5
38A
  8
TENA_LIMITS
 10
574044.83186000935
 20
513660.74899554497
 30
0.0
  0
VERTEX
  5
38B
  8
TENA_LIMITS
 10
574145.23328076245
 20
513617.54859587841
 30
0.0
  0
VERTEX
  5
38C
  8
TENA_LIMITS
 10
574245.63470151601
 20
513574.34819621319
 30
0.0
  0
VERTEX
  5
38D
  8
TENA_LIMITS
 10
574375.66822602961
 20
513624.12857776158
 30
0.0
  0
VERTEX
  5
38E
  8
TENA_LIMITS
 10
574505.70175054297
 20
513673.90895931137
 30
0.0
  0
VERTEX
  5
38F
  8
TENA_LIMITS
 10
574626.91224190209
 20
513709.61720283079
 30
0.0
  0
VERTEX
  5
390
  8
TENA_LIMITS
 10
574748.12273326097
 20
513745.32544635033
 30
0.0
  0
VERTEX
  5
391
  8
TENA_LIMITS
 10
574876.37770046829
 20
513776.62811734388
 30
0.0
  0
VERTEX
  5
392
  8
TENA_LIMITS
 10
574979.8762742813
 20
513786.49359202472
 30
0.0
  0
VERTEX
  5
393
  8
TENA_LIMITS
 10
575083.374848095
 20
513796.35906670452
 30
0.0
  0
VERTEX
  5
394
  8
TENA_LIMITS
 10
575231.64180196088
 20
513772.95237359247
 30
0.0
  0
VERTEX
  5
395
  8
TENA_LIMITS
 10
575379.908755827
 20
513749.54568048031
 30
0.0
  0
VERTEX
  5
396
  8
TENA_LIMITS
 10
575485.24327084026
 20
513614.35152078688
 30
0.0
  0
VERTEX
  5
397
  8
TENA_LIMITS
 10
575514.60410200828
 20
513555.30238452269
 30
0.0
  0
VERTEX
  5
398
  8
TENA_LIMITS
 10
575670.77410184196
 20
513578.18865861889
 30
0.0
  0
VERTEX
  5
399
  8
TENA_LIMITS
 10
575812.85514854384
 20
513609.8861280338
 30
0.0
  0
VERTEX
  5
39A
  8
TENA_LIMITS
 10
575921.22103376745
 20
513530.05927639548
 30
0.0
  0
VERTEX
  5
39B
  8
TENA_LIMITS
 10
575896.98621769785
 20
513409.59226360673
 30
0.0
  0
VERTEX
  5
39C
  8
TENA_LIMITS
 10
575840.5518429993
 20
513325.05960346613
 30
0.0
  0
VERTEX
  5
39D
  8
TENA_LIMITS
 10
575873.01780828252
 20
513290.38032816473
 30
0.0
  0
VERTEX
  5
39E
  8
TENA_LIMITS
 10
575991.37060926366
 20
513239.86607084807
 30
0.0
  0
VERTEX
  5
39F
  8
TENA_LIMITS
 10
576131.75016250345
 20
513103.03801563481
 30
0.0
  0
VERTEX
  5
3A0
  8
TENA_LIMITS
 10
576121.77668240806
 20
512924.71800672158
 30
0.0
  0
VERTEX
  5
3A1
  8
TENA_LIMITS
 10
576310.34974167275
 20
512934.59373654018
 30
0.0
  0
VERTEX
  5
3A2
  8
TENA_LIMITS
 10
576331.16876782058
 20
512835.38761879609
 30
0.0
  0
VERTEX
  5
3A3
  8
TENA_LIMITS
 10
576351.98779396829
 20
512736.18150105089
 30
0.0
  0
VERTEX
  5
3A4
  8
TENA_LIMITS
 10
576386.48492412618
 20
512630.37419136311
 30
0.0
  0
VERTEX
  5
3A5
  8
TENA_LIMITS
 10
576420.98205428454
 20
512524.56688167428
 30
0.0
  0
VERTEX
  5
3A6
  8
TENA_LIMITS
 10
576509.42245206935
 20
512419.30461089761
 30
0.0
  0
VERTEX
  5
3A7
  8
TENA_LIMITS
 10
576605.98812598747
 20
512334.46946888079
 30
0.0
  0
VERTEX
  5
3A8
  8
TENA_LIMITS
 10
576702.55379990546
 20
512249.63432686409
 30
0.0
  0
VERTEX
  5
3A9
  8
TENA_LIMITS
 10
576823.8529389404
 20
512176.55356480839
 30
0.0
  0
VERTEX
  5
3AA
  8
TENA_LIMITS
 10
576945.15207797533
 20
512103.47280275339
 30
0.0
  0
VERTEX
  5
3AB
  8
TENA_LIMITS
 10
577079.49432583281
 20
511971.21656909387
 30
0.0
  0
VERTEX
  5
3AC
  8
TENA_LIMITS
 10
577101.9218325204
 20
511850.54635585938
 30
0.0
  0
VERTEX
  5
3AD
  8
TENA_LIMITS
 10
577124.3493392081
 20
511729.87614262511
 30
0.0
  0
VERTEX
  5
3AE
  8
TENA_LIMITS
 10
577146.7768458958
 20
511609.2059293912
 30
0.0
  0
VERTEX
  5
3AF
  8
TENA_LIMITS
 10
577171.78956616984
 20
511495.32862306148
 30
0.0
  0
VERTEX
  5
3B0
  8
TENA_LIMITS
 10
577196.80228644435
 20
511381.4513167321
 30
0.0
  0
VERTEX
  5
3B1
  8
TENA_LIMITS
 10
577221.81500671792
 20
511267.57401040371
 30
0.0
  0
VERTEX
  5
3B2
  8
TENA_LIMITS
 10
577246.82772699185
 20
511153.69670407398
 30
0.0
  0
VERTEX
  5
3B3
  8
TENA_LIMITS
 10
577271.84044726612
 20
511039.8193977456
 30
0.0
  0
VERTEX
  5
3B4
  8
TENA_LIMITS
 10
577296.85316754016
 20
510925.9420914161
 30
0.0
  0
VERTEX
  5
3B5
  8
TENA_LIMITS
 10
577331.77607229294
 20
510829.47615253652
 30
0.0
  0
VERTEX
  5
3B6
  8
TENA_LIMITS
 10
577366.69897704467
 20
510733.01021365687
 30
0.0
  0
VERTEX
  5
3B7
  8
TENA_LIMITS
 10
577401.62188179733
 20
510636.54427477717
 30
0.0
  0
VERTEX
  5
3B8
  8
TENA_LIMITS
 10
577436.54478654952
 20
510540.07833589782
 30
0.0
  0
VERTEX
  5
3B9
  8
TENA_LIMITS
 10
577471.46769130195
 20
510443.61239701923
 30
0.0
  0
VERTEX
  5
3BA
  8
TENA_LIMITS
 10
577506.39059605391
 20
510347.14645813958
 30
0.0
  0
VERTEX
  5
3BB
  8
TENA_LIMITS
 10
577588.17276139895
 20
510273.70370994828
 30
0.0
  0
VERTEX
  5
3BC
  8
TENA_LIMITS
 10
577669.9549267441
 20
510200.26096175791
 30
0.0
  0
VERTEX
  5
3BD
  8
TENA_LIMITS
 10
577751.73709208902
 20
510126.8182135665
 30
0.0
  0
VERTEX
  5
3BE
  8
TENA_LIMITS
 10
577856.4224219874
 20
510105.41627302492
 30
0.0
  0
VERTEX
  5
3BF
  8
TENA_LIMITS
 10
577961.10775188578
 20
510084.01433248352
 30
0.0
  0
VERTEX
  5
3C0
  8
TENA_LIMITS
 10
578065.79308178485
 20
510062.61239194218
 30
0.0
  0
VERTEX
  5
3C1
  8
TENA_LIMITS
 10
578153.6633751326
 20
509960.50503130897
 30
0.0
  0
VERTEX
  5
3C2
  8
TENA_LIMITS
 10
578241.53366848105
 20
509858.39767067583
 30
0.0
  0
VERTEX
  5
3C3
  8
TENA_LIMITS
 10
578329.40396182926
 20
509756.29031004373
 30
0.0
  0
VERTEX
  5
3C4
  8
TENA_LIMITS
 10
578347.76310911169
 20
509638.49940890027
 30
0.0
  0
VERTEX
  5
3C5
  8
TENA_LIMITS
 10
578366.12225639366
 20
509520.70850775682
 30
0.0
  0
VERTEX
  5
3C6
  8
TENA_LIMITS
 10
578384.48140367586
 20
509402.91760661348
 30
0.0
  0
VERTEX
  5
3C7
  8
TENA_LIMITS
 10
578304.26794768055
 20
509309.02832506498
 30
0.0
  0
VERTEX
  5
3C8
  8
TENA_LIMITS
 10
578224.05449168524
 20
509215.13904351683
 30
0.0
  0
VERTEX
  5
3C9
  8
TENA_LIMITS
 10
578143.84103568969
 20
509121.24976196821
 30
0.0
  0
VERTEX
  5
3CA
  8
TENA_LIMITS
 10
578063.6275796952
 20
509027.36048041901
 30
0.0
  0
VERTEX
  5
3CB
  8
TENA_LIMITS
 10
578150.73412612174
 20
508957.78508022422
 30
0.0
  0
VERTEX
  5
3CC
  8
TENA_LIMITS
 10
578237.84067254863
 20
508888.20968002838
 30
0.0
  0
VERTEX
  5
3CD
  8
TENA_LIMITS
 10
578324.94721897552
 20
508818.63427983352
 30
0.0
  0
VERTEX
  5
3CE
  8
TENA_LIMITS
 10
578412.05376540276
 20
508749.0588796385
 30
0.0
  0
VERTEX
  5
3CF
  8
TENA_LIMITS
 10
578499.16031182976
 20
508679.48347944277
 30
0.0
  0
VERTEX
  5
3D0
  8
TENA_LIMITS
 10
578586.26685825631
 20
508609.90807924792
 30
0.0
  0
VERTEX
  5
3D1
  8
TENA_LIMITS
 10
578673.37340468366
 20
508540.33267905202
 30
0.0
  0
VERTEX
  5
3D2
  8
TENA_LIMITS
 10
578760.47995111113
 20
508470.75727885769
 30
0.0
  0
VERTEX
  5
3D3
  8
TENA_LIMITS
 10
578847.58649753744
 20
508401.18187866232
 30
0.0
  0
VERTEX
  5
3D4
  8
TENA_LIMITS
 10
578931.56245738873
 20
508334.09154979588
 30
0.0
  0
VERTEX
  5
3D5
  8
TENA_LIMITS
 10
579015.53841723967
 20
508267.00122093002
 30
0.0
  0
VERTEX
  5
3D6
  8
TENA_LIMITS
 10
579099.51437709096
 20
508199.91089206422
 30
0.0
  0
VERTEX
  5
3D7
  8
TENA_LIMITS
 10
579205.84602521919
 20
508172.82388233382
 30
0.0
  0
VERTEX
  5
3D8
  8
TENA_LIMITS
 10
579312.17767334764
 20
508145.736872604
 30
0.0
  0
VERTEX
  5
3D9
  8
TENA_LIMITS
 10
579418.50932147575
 20
508118.64986287378
 30
0.0
  0
VERTEX
  5
3DA
  8
TENA_LIMITS
 10
579524.84096960432
 20
508091.56285314361
 30
0.0
  0
VERTEX
  5
3DB
  8
TENA_LIMITS
 10
579631.17261773266
 20
508064.47584341379
 30
0.0
  0
VERTEX
  5
3DC
  8
TENA_LIMITS
 10
579737.50426586112
 20
508037.3888336838
 30
0.0
  0
VERTEX
  5
3DD
  8
TENA_LIMITS
 10
579779.61543335975
 20
507937.59034129092
 30
0.0
  0
VERTEX
  5
3DE
  8
TENA_LIMITS
 10
579821.72660085827
 20
507837.79184889782
 30
0.0
  0
VERTEX
  5
3DF
  8
TENA_LIMITS
 10
579863.83776835701
 20
507737.99335650459
 30
0.0
  0
VERTEX
  5
3E0
  8
TENA_LIMITS
 10
579905.94893585599
 20
507638.19486411201
 30
0.0
  0
VERTEX
  5
3E1
  8
TENA_LIMITS
 10
579948.06010335404
 20
507538.39637171902
 30
0.0
  0
VERTEX
  5
3E2
  8
TENA_LIMITS
 10
579990.17127085361
 20
507438.59787932609
 30
0.0
  0
VERTEX
  5
3E3
  8
TENA_LIMITS
 10
580032.28243835189
 20
507338.79938693321
 30
0.0
  0
VERTEX
  5
3E4
  8
TENA_LIMITS
 10
580074.39360585087
 20
507239.0008945404
 30
0.0
  0
VERTEX
  5
3E5
  8
TENA_LIMITS
 10
580116.50477334973
 20
507139.20240214729
 30
0.0
  0
VERTEX
  5
3E6
  8
TENA_LIMITS
 10
580158.6159408486
 20
507039.40390975442
 30
0.0
  0
VERTEX
  5
3E7
  8
TENA_LIMITS
 10
580200.72710834688
 20
506939.6054173616
 30
0.0
  0
VERTEX
  5
3E8
  8
TENA_LIMITS
 10
580109.17549678055
 20
506851.44671503583
 30
0.0
  0
VERTEX
  5
3E9
  8
TENA_LIMITS
 10
580017.62388521433
 20
506763.28801271023
 30
0.0
  0
VERTEX
  5
3EA
  8
TENA_LIMITS
 10
579914.27695469605
 20
506690.43779427803
 30
0.0
  0
VERTEX
  5
3EB
  8
TENA_LIMITS
 10
579810.93002417719
 20
506617.58757584571
 30
0.0
  0
VERTEX
  5
3EC
  8
TENA_LIMITS
 10
579707.58309365844
 20
506544.73735741299
 30
0.0
  0
VERTEX
  5
3ED
  8
TENA_LIMITS
 10
579623.60535764205
 20
506452.49845066812
 30
0.0
  0
VERTEX
  5
3EE
  8
TENA_LIMITS
 10
579639.19784327457
 20
506373.08479062608
 30
0.0
  0
VERTEX
  5
3EF
  8
TENA_LIMITS
 10
579704.13313939492
 20
506293.48578660848
 30
0.0
  0
VERTEX
  5
3F0
  8
TENA_LIMITS
 10
579722.96639321151
 20
506108.77641986229
 30
0.0
  0
VERTEX
  5
3F1
  8
TENA_LIMITS
 10
579622.56199839141
 20
506090.73360728309
 30
0.0
  0
VERTEX
  5
3F2
  8
TENA_LIMITS
 10
579522.15760357131
 20
506072.69079470373
 30
0.0
  0
VERTEX
  5
3F3
  8
TENA_LIMITS
 10
579421.75320875109
 20
506054.64798212401
 30
0.0
  0
VERTEX
  5
3F4
  8
TENA_LIMITS
 10
579321.34881393099
 20
506036.60516954417
 30
0.0
  0
VERTEX
  5
3F5
  8
TENA_LIMITS
 10
579305.94212454651
 20
505936.54425902228
 30
0.0
  0
VERTEX
  5
3F6
  8
TENA_LIMITS
 10
579290.53543516167
 20
505836.4833485001
 30
0.0
  0
VERTEX
  5
3F7
  8
TENA_LIMITS
 10
579275.12874577718
 20
505736.4224379778
 30
0.0
  0
VERTEX
  5
3F8
  8
TENA_LIMITS
 10
579271.55127736949
 20
505713.28219483391
 30
0.0
  0
VERTEX
  5
3F9
  8
TENA_LIMITS
 10
579273.69341027585
 20
505676.89380280889
 30
0.0
  0
VERTEX
  5
3FA
  8
TENA_LIMITS
 10
579231.20965746418
 20
505577.6126499743
 30
0.0
  0
VERTEX
  5
3FB
  8
TENA_LIMITS
 10
579188.7259046525
 20
505478.33149714
 30
0.0
  0
VERTEX
  5
3FC
  8
TENA_LIMITS
 10
579146.24215184059
 20
505379.05034430511
 30
0.0
  0
VERTEX
  5
3FD
  8
TENA_LIMITS
 10
579103.75839902915
 20
505279.7691914704
 30
0.0
  0
VERTEX
  5
3FE
  8
TENA_LIMITS
 10
579091.74968551402
 20
505171.29976328148
 30
0.0
  0
VERTEX
  5
3FF
  8
TENA_LIMITS
 10
579079.74097199924
 20
505062.83033509261
 30
0.0
  0
VERTEX
  5
400
  8
TENA_LIMITS
 10
579067.73225848412
 20
504954.36090690328
 30
0.0
  0
VERTEX
  5
401
  8
TENA_LIMITS
 10
579055.72354496946
 20
504845.89147871413
 30
0.0
  0
VERTEX
  5
402
  8
TENA_LIMITS
 10
579043.71483145398
 20
504737.42205052468
 30
0.0
  0
VERTEX
  5
403
  8
TENA_LIMITS
 10
579031.70611793897
 20
504628.95262233581
 30
0.0
  0
VERTEX
  5
404
  8
TENA_LIMITS
 10
578952.35765452031
 20
504542.33826600888
 30
0.0
  0
VERTEX
  5
405
  8
TENA_LIMITS
 10
578873.0091911006
 20
504455.72390968213
 30
0.0
  0
VERTEX
  5
406
  8
TENA_LIMITS
 10
578793.66072768148
 20
504369.10955335601
 30
0.0
  0
VERTEX
  5
407
  8
TENA_LIMITS
 10
578714.31226426223
 20
504282.49519702903
 30
0.0
  0
VERTEX
  5
408
  8
TENA_LIMITS
 10
578653.16434907669
 20
504354.52321349957
 30
0.0
  0
VERTEX
  5
409
  8
TENA_LIMITS
 10
578513.61674380116
 20
504438.0714952742
 30
0.0
  0
VERTEX
  5
40A
  8
TENA_LIMITS
 10
578406.02314243803
 20
504485.74255391269
 30
0.0
  0
VERTEX
  5
40B
  8
TENA_LIMITS
 10
578304.09527927602
 20
504496.6714031829
 30
0.0
  0
VERTEX
  5
40C
  8
TENA_LIMITS
 10
578193.07084873365
 20
504502.7273832818
 30
0.0
  0
VERTEX
  5
40D
  8
TENA_LIMITS
 10
578024.42393262824
 20
504504.83189969428
 30
0.0
  0
VERTEX
  5
40E
  8
TENA_LIMITS
 10
577922.72896020825
 20
504507.69419655169
 30
0.0
  0
VERTEX
  5
40F
  8
TENA_LIMITS
 10
577821.03398778732
 20
504510.5564934088
 30
0.0
  0
VERTEX
  5
410
  8
TENA_LIMITS
 10
577687.79233483085
 20
504526.35734733491
 30
0.0
  0
VERTEX
  5
411
  8
TENA_LIMITS
 10
577554.55068187427
 20
504542.15820126078
 30
0.0
  0
VERTEX
  5
412
  8
TENA_LIMITS
 10
577400.93753634603
 20
504583.90303816262
 30
0.0
  0
VERTEX
  5
413
  8
TENA_LIMITS
 10
577261.76024278521
 20
504605.30056010559
 30
0.0
  0
VERTEX
  5
414
  8
TENA_LIMITS
 10
577168.47339851363
 20
504637.23470663169
 30
0.0
  0
VERTEX
  5
415
  8
TENA_LIMITS
 10
577102.14664993586
 20
504614.58221538871
 30
0.0
  0
VERTEX
  5
416
  8
TENA_LIMITS
 10
577060.01548857219
 20
504553.40958298999
 30
0.0
  0
VERTEX
  5
417
  8
TENA_LIMITS
 10
577032.78085798514
 20
504455.75638510223
 30
0.0
  0
VERTEX
  5
418
  8
TENA_LIMITS
 10
577013.1286212242
 20
504335.2550677025
 30
0.0
  0
VERTEX
  5
419
  8
TENA_LIMITS
 10
577024.79426054237
 20
504250.24690598442
 30
0.0
  0
VERTEX
  5
41A
  8
TENA_LIMITS
 10
576999.12876172026
 20
504150.63589139847
 30
0.0
  0
VERTEX
  5
41B
  8
TENA_LIMITS
 10
576973.46326289885
 20
504051.02487681288
 30
0.0
  0
VERTEX
  5
41C
  8
TENA_LIMITS
 10
576915.01420810982
 20
503957.79349571781
 30
0.0
  0
VERTEX
  5
41D
  8
TENA_LIMITS
 10
576856.56515332113
 20
503864.56211462262
 30
0.0
  0
VERTEX
  5
41E
  8
TENA_LIMITS
 10
576743.11974640994
 20
504009.78193494462
 30
0.0
  0
VERTEX
  5
41F
  8
TENA_LIMITS
 10
576637.3810451047
 20
504036.71668839292
 30
0.0
  0
VERTEX
  5
420
  8
TENA_LIMITS
 10
576531.64234380005
 20
504063.65144183999
 30
0.0
  0
VERTEX
  5
421
  8
TENA_LIMITS
 10
576416.48902614845
 20
504157.71406601981
 30
0.0
  0
VERTEX
  5
422
  8
TENA_LIMITS
 10
576301.33570849604
 20
504251.77669019968
 30
0.0
  0
VERTEX
  5
423
  8
TENA_LIMITS
 10
576334.58774222923
 20
504312.63435271318
 30
0.0
  0
VERTEX
  5
424
  8
TENA_LIMITS
 10
576290.30198362726
 20
504425.17508726509
 30
0.0
  0
VERTEX
  5
425
  8
TENA_LIMITS
 10
576246.01622502552
 20
504537.71582181688
 30
0.0
  0
VERTEX
  5
426
  8
TENA_LIMITS
 10
576201.73046642402
 20
504650.25655636849
 30
0.0
  0
VERTEX
  5
427
  8
TENA_LIMITS
 10
576158.38562319311
 20
504799.32215418672
 30
0.0
  0
VERTEX
  5
428
  8
TENA_LIMITS
 10
576122.42560213804
 20
504871.20649038278
 30
0.0
  0
VERTEX
  5
429
  8
TENA_LIMITS
 10
576081.67574264365
 20
504953.29102492239
 30
0.0
  0
VERTEX
  5
42A
  8
TENA_LIMITS
 10
576044.0779181273
 20
505106.42471014749
 30
0.0
  0
VERTEX
  5
42B
  8
TENA_LIMITS
 10
575983.57100469666
 20
505189.74872034538
 30
0.0
  0
VERTEX
  5
42C
  8
TENA_LIMITS
 10
575923.06409126625
 20
505273.07273054338
 30
0.0
  0
VERTEX
  5
42D
  8
TENA_LIMITS
 10
575862.55717783561
 20
505356.39674074127
 30
0.0
  0
VERTEX
  5
42E
  8
TENA_LIMITS
 10
575786.56771546649
 20
505416.69062636822
 30
0.0
  0
VERTEX
  5
42F
  8
TENA_LIMITS
 10
575640.77417505858
 20
505389.10364659288
 30
0.0
  0
VERTEX
  5
430
  8
TENA_LIMITS
 10
575597.31435615045
 20
505473.75025746768
 30
0.0
  0
VERTEX
  5
431
  8
TENA_LIMITS
 10
575518.81512112077
 20
505553.49239490461
 30
0.0
  0
VERTEX
  5
432
  8
TENA_LIMITS
 10
575454.43120773137
 20
505618.02160883992
 30
0.0
  0
VERTEX
  5
433
  8
TENA_LIMITS
 10
575372.86168196006
 20
505668.39617558487
 30
0.0
  0
VERTEX
  5
434
  8
TENA_LIMITS
 10
575250.9476767095
 20
505625.87513289112
 30
0.0
  0
VERTEX
  5
435
  8
TENA_LIMITS
 10
575195.43317533145
 20
505653.56983721122
 30
0.0
  0
VERTEX
  5
436
  8
TENA_LIMITS
 10
575112.63840559474
 20
505746.85318869108
 30
0.0
  0
VERTEX
  5
437
  8
TENA_LIMITS
 10
575080.18817271525
 20
505860.30386673368
 30
0.0
  0
VERTEX
  5
438
  8
TENA_LIMITS
 10
575046.8822945127
 20
505931.57650091819
 30
0.0
  0
VERTEX
  5
439
  8
TENA_LIMITS
 10
575077.37602245784
 20
506054.50972363679
 30
0.0
  0
VERTEX
  5
43A
  8
TENA_LIMITS
 10
575088.94918802276
 20
506099.53197960899
 30
0.0
  0
VERTEX
  5
43B
  8
TENA_LIMITS
 10
575107.86975040287
 20
506177.44294635567
 30
0.0
  0
VERTEX
  5
43C
  8
TENA_LIMITS
 10
574980.78449941054
 20
506147.83223243442
 30
0.0
  0
VERTEX
  5
43D
  8
TENA_LIMITS
 10
574957.83910855604
 20
506208.95838970167
 30
0.0
  0
VERTEX
  5
43E
  8
TENA_LIMITS
 10
574931.75882113678
 20
506255.87158013647
 30
0.0
  0
VERTEX
  5
43F
  8
TENA_LIMITS
 10
574845.70594276441
 20
506299.30895542941
 30
0.0
  0
VERTEX
  5
440
  8
TENA_LIMITS
 10
574808.93673109391
 20
506349.44839352858
 30
0.0
  0
VERTEX
  5
441
  8
TENA_LIMITS
 10
574757.53479771246
 20
506355.04115037317
 30
0.0
  0
VERTEX
  5
442
  8
TENA_LIMITS
 10
574704.87076114188
 20
506342.94536367309
 30
0.0
  0
VERTEX
  5
443
  8
TENA_LIMITS
 10
574695.02652222861
 20
506285.13630617713
 30
0.0
  0
VERTEX
  5
444
  8
TENA_LIMITS
 10
574692.75919847994
 20
506271.9943283507
 30
0.0
  0
VERTEX
  5
445
  8
TENA_LIMITS
 10
574642.76738838805
 20
506228.2037147354
 30
0.0
  0
VERTEX
  5
446
  8
TENA_LIMITS
 10
574665.71913087217
 20
506167.077738836
 30
0.0
  0
VERTEX
  5
447
  8
TENA_LIMITS
 10
574565.94007303158
 20
506134.22077531659
 30
0.0
  0
VERTEX
  5
448
  8
TENA_LIMITS
 10
574514.89950595121
 20
506113.85172813613
 30
0.0
  0
VERTEX
  5
449
  8
TENA_LIMITS
 10
574466.41380344215
 20
506082.32437861431
 30
0.0
  0
VERTEX
  5
44A
  8
TENA_LIMITS
 10
574370.24671008182
 20
506009.14928917121
 30
0.0
  0
VERTEX
  5
44B
  8
TENA_LIMITS
 10
574411.14228486223
 20
505959.92022449127
 30
0.0
  0
VERTEX
  5
44C
  8
TENA_LIMITS
 10
574465.0655622409
 20
505915.44555887009
 30
0.0
  0
VERTEX
  5
44D
  8
TENA_LIMITS
 10
574395.72704200225
 20
505808.28968212107
 30
0.0
  0
VERTEX
  5
44E
  8
TENA_LIMITS
 10
574246.16016222385
 20
505744.85744003288
 30
0.0
  0
VERTEX
  5
44F
  8
TENA_LIMITS
 10
574059.14402624429
 20
505763.62005212298
 30
0.0
  0
VERTEX
  5
450
  8
TENA_LIMITS
 10
573971.20991984813
 20
505769.87377233279
 30
0.0
  0
VERTEX
  5
451
  8
TENA_LIMITS
 10
573896.11583425954
 20
505787.44997847272
 30
0.0
  0
VERTEX
  5
452
  8
TENA_LIMITS
 10
573788.77342223993
 20
505935.57522287499
 30
0.0
  0
VERTEX
  5
453
  8
TENA_LIMITS
 10
573764.1618100052
 20
505925.29476241581
 30
0.0
  0
VERTEX
  5
454
  8
TENA_LIMITS
 10
573697.64314973506
 20
505947.63703646621
 30
0.0
  0
VERTEX
  5
455
  8
TENA_LIMITS
 10
573532.47979751974
 20
505903.0952208903
 30
0.0
  0
VERTEX
  5
456
  8
TENA_LIMITS
 10
573394.04173515306
 20
505833.34331911092
 30
0.0
  0
VERTEX
  5
457
  8
TENA_LIMITS
 10
573280.82124563074
 20
505738.22981311189
 30
0.0
  0
VERTEX
  5
458
  8
TENA_LIMITS
 10
573131.65595706378
 20
505784.71293288539
 30
0.0
  0
VERTEX
  5
459
  8
TENA_LIMITS
 10
573093.46535854344
 20
505796.60903945687
 30
0.0
  0
VERTEX
  5
45A
  8
TENA_LIMITS
 10
572899.01619594998
 20
505782.59543538571
 30
0.0
  0
VERTEX
  5
45B
  8
TENA_LIMITS
 10
572797.45640956145
 20
505760.54619178618
 30
0.0
  0
VERTEX
  5
45C
  8
TENA_LIMITS
 10
572776.94043342734
 20
505755.84129390819
 30
0.0
  0
VERTEX
  5
45D
  8
TENA_LIMITS
 10
572678.50494084531
 20
505717.0704427571
 30
0.0
  0
VERTEX
  5
45E
  8
TENA_LIMITS
 10
572547.7441911652
 20
505695.39047081763
 30
0.0
  0
VERTEX
  5
45F
  8
TENA_LIMITS
 10
572416.98344148556
 20
505673.71049887763
 30
0.0
  0
VERTEX
  5
460
  8
TENA_LIMITS
 10
572228.04587650858
 20
505668.315458845
 30
0.0
  0
VERTEX
  5
461
  8
TENA_LIMITS
 10
572086.99941283977
 20
505688.56953994208
 30
0.0
  0
VERTEX
  5
462
  8
TENA_LIMITS
 10
571945.95294917049
 20
505708.8236210391
 30
0.0
  0
VERTEX
  5
463
  8
TENA_LIMITS
 10
571782.92871911475
 20
505741.93995732372
 30
0.0
  0
VERTEX
  5
464
  8
TENA_LIMITS
 10
571630.54704560491
 20
505780.75605614338
 30
0.0
  0
VERTEX
  5
465
  8
TENA_LIMITS
 10
571490.03941626451
 20
505782.13983313728
 30
0.0
  0
VERTEX
  5
466
  8
TENA_LIMITS
 10
571382.84489562176
 20
505752.09934100357
 30
0.0
  0
VERTEX
  5
467
  8
TENA_LIMITS
 10
571260.99514027708
 20
505667.68123750138
 30
0.0
  0
VERTEX
  5
468
  8
TENA_LIMITS
 10
571193.28161133407
 20
505579.41310487862
 30
0.0
  0
VERTEX
  5
469
  8
TENA_LIMITS
 10
571094.70443050144
 20
505524.13997111341
 30
0.0
  0
VERTEX
  5
46A
  8
TENA_LIMITS
 10
570996.12724966905
 20
505468.86683734792
 30
0.0
  0
VERTEX
  5
46B
  8
TENA_LIMITS
 10
570898.98193359468
 20
505472.41398713918
 30
0.0
  0
VERTEX
  5
46C
  8
TENA_LIMITS
 10
570761.72588354326
 20
505476.9228226376
 30
0.0
  0
VERTEX
  5
46D
  8
TENA_LIMITS
 10
570669.15723242715
 20
505467.95846294478
 30
0.0
  0
VERTEX
  5
46E
  8
TENA_LIMITS
 10
570566.40963011852
 20
505446.0612527816
 30
0.0
  0
VERTEX
  5
46F
  8
TENA_LIMITS
 10
570498.95589581097
 20
505444.13513715198
 30
0.0
  0
VERTEX
  5
470
  8
TENA_LIMITS
 10
570470.41056570469
 20
505483.35365176509
 30
0.0
  0
VERTEX
  5
471
  8
TENA_LIMITS
 10
570439.93760205223
 20
505516.19602633629
 30
0.0
  0
VERTEX
  5
472
  8
TENA_LIMITS
 10
570424.28037103871
 20
505547.3544260955
 30
0.0
  0
VERTEX
  5
473
  8
TENA_LIMITS
 10
570351.88927284034
 20
505570.57171473512
 30
0.0
  0
VERTEX
  5
474
  8
TENA_LIMITS
 10
570309.67055585154
 20
505571.47320779122
 30
0.0
  0
VERTEX
  5
475
  8
TENA_LIMITS
 10
570268.27586131112
 20
505567.31188588543
 30
0.0
  0
VERTEX
  5
476
  8
TENA_LIMITS
 10
570259.47048861382
 20
505566.30856292392
 30
0.0
  0
VERTEX
  5
477
  8
TENA_LIMITS
 10
570178.0661065625
 20
505584.18251438468
 30
0.0
  0
VERTEX
  5
478
  8
TENA_LIMITS
 10
570086.44680482626
 20
505562.17277758429
 30
0.0
  0
VERTEX
  5
479
  8
TENA_LIMITS
 10
570049.12158314604
 20
505582.08467567118
 30
0.0
  0
VERTEX
  5
47A
  8
TENA_LIMITS
 10
570044.85235723015
 20
505639.65149752528
 30
0.0
  0
VERTEX
  5
47B
  8
TENA_LIMITS
 10
570035.33642356994
 20
505697.06845133367
 30
0.0
  0
VERTEX
  5
47C
  8
TENA_LIMITS
 10
570010.23012435087
 20
505748.79583955189
 30
0.0
  0
VERTEX
  5
47D
  8
TENA_LIMITS
 10
569998.46497755288
 20
505793.03754599491
 30
0.0
  0
VERTEX
  5
47E
  8
TENA_LIMITS
 10
569980.40557390265
 20
505873.8105447655
 30
0.0
  0
VERTEX
  5
47F
  8
TENA_LIMITS
 10
569994.4997653187
 20
505931.90167668113
 30
0.0
  0
VERTEX
  5
480
  8
TENA_LIMITS
 10
569974.93930327147
 20
505973.29859654669
 30
0.0
  0
VERTEX
  5
481
  8
TENA_LIMITS
 10
569932.21787393151
 20
505998.30084694648
 30
0.0
  0
VERTEX
  5
482
  8
TENA_LIMITS
 10
569869.48220831691
 20
505988.6427703689
 30
0.0
  0
VERTEX
  5
483
  8
TENA_LIMITS
 10
569854.49036655133
 20
505961.99253954767
 30
0.0
  0
VERTEX
  5
484
  8
TENA_LIMITS
 10
569833.50379476871
 20
505961.3932760029
 30
0.0
  0
VERTEX
  5
485
  8
TENA_LIMITS
 10
569793.25589036662
 20
505991.71059592522
 30
0.0
  0
VERTEX
  5
486
  8
TENA_LIMITS
 10
569744.68922948872
 20
506037.523643511
 30
0.0
  0
VERTEX
  5
487
  8
TENA_LIMITS
 10
569703.99256471137
 20
506083.5614661398
 30
0.0
  0
VERTEX
  5
488
  8
TENA_LIMITS
 10
569701.96780014876
 20
506062.5258939105
 30
0.0
  0
VERTEX
  5
489
  8
TENA_LIMITS
 10
569733.44303850655
 20
505971.64715156209
 30
0.0
  0
VERTEX
  5
48A
  8
TENA_LIMITS
 10
569753.60188900668
 20
505909.28966321831
 30
0.0
  0
VERTEX
  5
48B
  8
TENA_LIMITS
 10
569754.64930420904
 20
505872.60854933079
 30
0.0
  0
VERTEX
  5
48C
  8
TENA_LIMITS
 10
569729.38862225704
 20
505837.79846240889
 30
0.0
  0
VERTEX
  5
48D
  8
TENA_LIMITS
 10
569696.4822560047
 20
505794.90342260158
 30
0.0
  0
VERTEX
  5
48E
  8
TENA_LIMITS
 10
569687.33564577659
 20
505747.44239459379
 30
0.0
  0
VERTEX
  5
48F
  8
TENA_LIMITS
 10
569686.18551567011
 20
505702.4809935966
 30
0.0
  0
VERTEX
  5
490
  8
TENA_LIMITS
 10
569657.40561420843
 20
505664.0339608863
 30
0.0
  0
VERTEX
  5
491
  8
TENA_LIMITS
 10
569615.46076054301
 20
505631.69812417479
 30
0.0
  0
VERTEX
  5
492
  8
TENA_LIMITS
 10
569596.24788402789
 20
505576.65775201051
 30
0.0
  0
VERTEX
  5
493
  8
TENA_LIMITS
 10
569577.66663018265
 20
505544.9890539716
 30
0.0
  0
VERTEX
  5
494
  8
TENA_LIMITS
 10
569516.86262376176
 20
505518.14076670178
 30
0.0
  0
VERTEX
  5
495
  8
TENA_LIMITS
 10
569514.80610856635
 20
505517.24563104619
 30
0.0
  0
VERTEX
  5
496
  8
TENA_LIMITS
 10
569471.30420116533
 20
505493.94727579202
 30
0.0
  0
VERTEX
  5
497
  8
TENA_LIMITS
 10
569424.3930039882
 20
505469.35120203492
 30
0.0
  0
VERTEX
  5
498
  8
TENA_LIMITS
 10
569383.86301338044
 20
505415.68112436758
 30
0.0
  0
VERTEX
  5
499
  8
TENA_LIMITS
 10
569311.96192579414
 20
505355.86397604679
 30
0.0
  0
VERTEX
  5
49A
  8
TENA_LIMITS
 10
569231.05668155826
 20
505335.17424918379
 30
0.0
  0
VERTEX
  5
49B
  8
TENA_LIMITS
 10
569143.99901381775
 20
505345.81657826598
 30
0.0
  0
VERTEX
  5
49C
  8
TENA_LIMITS
 10
569033.45044820162
 20
505350.53680246271
 30
0.0
  0
VERTEX
  5
49D
  8
TENA_LIMITS
 10
568977.3846697472
 20
505288.54615971551
 30
0.0
  0
VERTEX
  5
49E
  8
TENA_LIMITS
 10
568928.37517826864
 20
505255.63902665669
 30
0.0
  0
VERTEX
  5
49F
  8
TENA_LIMITS
 10
568874.33696020115
 20
505214.71140394959
 30
0.0
  0
VERTEX
  5
4A0
  8
TENA_LIMITS
 10
568845.06316308375
 20
505135.10633780633
 30
0.0
  0
VERTEX
  5
4A1
  8
TENA_LIMITS
 10
568832.72456633684
 20
505079.81466084463
 30
0.0
  0
VERTEX
  5
4A2
  8
TENA_LIMITS
 10
568811.81625282671
 20
505037.64587562298
 30
0.0
  0
VERTEX
  5
4A3
  8
TENA_LIMITS
 10
568775.98147900018
 20
505017.13587285479
 30
0.0
  0
VERTEX
  5
4A4
  8
TENA_LIMITS
 10
568693.09897690266
 20
505004.37630588218
 30
0.0
  0
VERTEX
  5
4A5
  8
TENA_LIMITS
 10
568661.86991056427
 20
505004.78364518081
 30
0.0
  0
VERTEX
  5
4A6
  8
TENA_LIMITS
 10
568639.47897389834
 20
505014.53721961111
 30
0.0
  0
VERTEX
  5
4A7
  8
TENA_LIMITS
 10
568603.60700184398
 20
504995.32527833531
 30
0.0
  0
VERTEX
  5
4A8
  8
TENA_LIMITS
 10
568604.75603461056
 20
504955.08545588888
 30
0.0
  0
VERTEX
  5
4A9
  8
TENA_LIMITS
 10
568570.29504657665
 20
504932.0164840119
 30
0.0
  0
VERTEX
  5
4AA
  8
TENA_LIMITS
 10
568451.53265417693
 20
504870.47284522769
 30
0.0
  0
VERTEX
  5
4AB
  8
TENA_LIMITS
 10
568403.66344065056
 20
504799.33180302498
 30
0.0
  0
VERTEX
  5
4AC
  8
TENA_LIMITS
 10
568330.24499265128
 20
504690.91288835899
 30
0.0
  0
VERTEX
  5
4AD
  8
TENA_LIMITS
 10
568286.26861539704
 20
504599.94754610199
 30
0.0
  0
VERTEX
  5
4AE
  8
TENA_LIMITS
 10
568217.21699265786
 20
504455.10495032708
 30
0.0
  0
VERTEX
  5
4AF
  8
TENA_LIMITS
 10
568228.516179536
 20
504408.91149090341
 30
0.0
  0
VERTEX
  5
4B0
  8
TENA_LIMITS
 10
568232.49768187164
 20
504269.47687100951
 30
0.0
  0
VERTEX
  5
4B1
  8
TENA_LIMITS
 10
568156.03970852611
 20
504151.00343460351
 30
0.0
  0
VERTEX
  5
4B2
  8
TENA_LIMITS
 10
568060.49700822879
 20
504118.37206151208
 30
0.0
  0
VERTEX
  5
4B3
  8
TENA_LIMITS
 10
568003.41415707732
 20
504020.38728252199
 30
0.0
  0
VERTEX
  5
4B4
  8
TENA_LIMITS
 10
568006.63727617019
 20
503907.51170247648
 30
0.0
  0
VERTEX
  5
4B5
  8
TENA_LIMITS
 10
568033.5245026151
 20
503753.19056847377
 30
0.0
  0
VERTEX
  5
4B6
  8
TENA_LIMITS
 10
568041.79385711334
 20
503658.78316271922
 30
0.0
  0
VERTEX
  5
4B7
  8
TENA_LIMITS
 10
567946.32516354183
 20
503683.89344771311
 30
0.0
  0
VERTEX
  5
4B8
  8
TENA_LIMITS
 10
567871.42605574662
 20
503680.54845524329
 30
0.0
  0
VERTEX
  5
4B9
  8
TENA_LIMITS
 10
567816.22877291217
 20
503678.97231790621
 30
0.0
  0
VERTEX
  5
4BA
  8
TENA_LIMITS
 10
567718.81436563504
 20
503667.702438101
 30
0.0
  0
VERTEX
  5
4BB
  8
TENA_LIMITS
 10
567637.53607352835
 20
503686.60216384148
 30
0.0
  0
VERTEX
  5
4BC
  8
TENA_LIMITS
 10
567606.36139124958
 20
503736.6415245863
 30
0.0
  0
VERTEX
  5
4BD
  8
TENA_LIMITS
 10
567541.70357534196
 20
503768.74823973019
 30
0.0
  0
VERTEX
  5
4BE
  8
TENA_LIMITS
 10
567508.11461188516
 20
503831.5759763543
 30
0.0
  0
VERTEX
  5
4BF
  8
TENA_LIMITS
 10
567435.54783144675
 20
503903.28933514142
 30
0.0
  0
VERTEX
  5
4C0
  8
TENA_LIMITS
 10
567371.50967219169
 20
503911.52240570268
 30
0.0
  0
VERTEX
  5
4C1
  8
TENA_LIMITS
 10
567280.5333150503
 20
503922.3401515588
 30
0.0
  0
VERTEX
  5
4C2
  8
TENA_LIMITS
 10
567170.24158257665
 20
503962.79132149532
 30
0.0
  0
VERTEX
  5
4C3
  8
TENA_LIMITS
 10
567059.94985010335
 20
504003.24249143113
 30
0.0
  0
VERTEX
  5
4C4
  8
TENA_LIMITS
 10
566988.14846431254
 20
504048.14662377158
 30
0.0
  0
VERTEX
  5
4C5
  8
TENA_LIMITS
 10
566912.22623802989
 20
504119.7641690842
 30
0.0
  0
VERTEX
  5
4C6
  8
TENA_LIMITS
 10
566853.94192909612
 20
504161.70039114379
 30
0.0
  0
VERTEX
  5
4C7
  8
TENA_LIMITS
 10
566838.89393047313
 20
504218.28675053577
 30
0.0
  0
VERTEX
  5
4C8
  8
TENA_LIMITS
 10
566827.30960032658
 20
504266.17338916368
 30
0.0
  0
VERTEX
  5
4C9
  8
TENA_LIMITS
 10
566812.24893749156
 20
504328.2041261805
 30
0.0
  0
VERTEX
  5
4CA
  8
TENA_LIMITS
 10
566763.93474532256
 20
504373.77892636741
 30
0.0
  0
VERTEX
  5
4CB
  8
TENA_LIMITS
 10
566686.09270148014
 20
504395.03337327437
 30
0.0
  0
VERTEX
  5
4CC
  8
TENA_LIMITS
 10
566557.53806099121
 20
504428.25528234552
 30
0.0
  0
VERTEX
  5
4CD
  8
TENA_LIMITS
 10
566426.58488355507
 20
504427.86984961061
 30
0.0
  0
VERTEX
  5
4CE
  8
TENA_LIMITS
 10
566315.26793955872
 20
504438.8798728257
 30
0.0
  0
VERTEX
  5
4CF
  8
TENA_LIMITS
 10
566174.10107461095
 20
504499.1289405335
 30
0.0
  0
VERTEX
  5
4D0
  8
TENA_LIMITS
 10
566050.23373878363
 20
504517.01861716062
 30
0.0
  0
VERTEX
  5
4D1
  8
TENA_LIMITS
 10
565848.40856636898
 20
504529.30628565932
 30
0.0
  0
VERTEX
  5
4D2
  8
TENA_LIMITS
 10
565787.03353301284
 20
504530.92974719242
 30
0.0
  0
VERTEX
  5
4D3
  8
TENA_LIMITS
 10
565633.77321773104
 20
504639.04349111841
 30
0.0
  0
VERTEX
  5
4D4
  8
TENA_LIMITS
 10
565576.97408710315
 20
504749.91169765248
 30
0.0
  0
VERTEX
  5
4D5
  8
TENA_LIMITS
 10
565519.86942382762
 20
504871.4844852197
 30
0.0
  0
VERTEX
  5
4D6
  8
TENA_LIMITS
 10
565326.02992095985
 20
504898.08948904218
 30
0.0
  0
VERTEX
  5
4D7
  8
TENA_LIMITS
 10
565205.55641083547
 20
504894.72816923377
 30
0.0
  0
VERTEX
  5
4D8
  8
TENA_LIMITS
 10
565063.44104829256
 20
504890.59136403829
 30
0.0
  0
VERTEX
  5
4D9
  8
TENA_LIMITS
 10
564890.73178631649
 20
504928.51308953163
 30
0.0
  0
VERTEX
  5
4DA
  8
TENA_LIMITS
 10
564701.33432832418
 20
504987.3849510689
 30
0.0
  0
VERTEX
  5
4DB
  8
TENA_LIMITS
 10
564620.33867347939
 20
505006.49886248802
 30
0.0
  0
VERTEX
  5
4DC
  8
TENA_LIMITS
 10
564466.91577033943
 20
504932.48121857032
 30
0.0
  0
VERTEX
  5
4DD
  8
TENA_LIMITS
 10
564333.24747900967
 20
504917.95101583569
 30
0.0
  0
VERTEX
  5
4DE
  8
TENA_LIMITS
 10
564268.67570124962
 20
504953.52616098168
 30
0.0
  0
VERTEX
  5
4DF
  8
TENA_LIMITS
 10
564140.66341957392
 20
504983.73532039631
 30
0.0
  0
VERTEX
  5
4E0
  8
TENA_LIMITS
 10
564036.73180240742
 20
505061.19578949059
 30
0.0
  0
VERTEX
  5
4E1
  8
TENA_LIMITS
 10
563881.61934791214
 20
505149.89400357119
 30
0.0
  0
VERTEX
  5
4E2
  8
TENA_LIMITS
 10
563797.78417102131
 20
505265.56643150467
 30
0.0
  0
VERTEX
  5
4E3
  8
TENA_LIMITS
 10
563776.87463290908
 20
505267.94306941301
 30
0.0
  0
VERTEX
  5
4E4
  8
TENA_LIMITS
 10
563761.06665294454
 20
505300.20214667742
 30
0.0
  0
VERTEX
  5
4E5
  8
TENA_LIMITS
 10
563730.4686768183
 20
505329.06524977169
 30
0.0
  0
VERTEX
  5
4E6
  8
TENA_LIMITS
 10
563631.27720809693
 20
505361.91704513581
 30
0.0
  0
VERTEX
  5
4E7
  8
TENA_LIMITS
 10
563516.10526401096
 20
505380.93096670992
 30
0.0
  0
VERTEX
  5
4E8
  8
TENA_LIMITS
 10
563400.93331992475
 20
505399.9448882835
 30
0.0
  0
VERTEX
  5
4E9
  8
TENA_LIMITS
 10
563275.30667301745
 20
505420.1471307028
 30
0.0
  0
VERTEX
  5
4EA
  8
TENA_LIMITS
 10
563235.78384679905
 20
505448.75538811
 30
0.0
  0
VERTEX
  5
4EB
  8
TENA_LIMITS
 10
563196.6852364121
 20
505462.50735052832
 30
0.0
  0
VERTEX
  5
4EC
  8
TENA_LIMITS
 10
563062.47311293893
 20
505470.56968110858
 30
0.0
  0
VERTEX
  5
4ED
  8
TENA_LIMITS
 10
562993.77181422245
 20
505475.86650987872
 30
0.0
  0
VERTEX
  5
4EE
  8
TENA_LIMITS
 10
562889.41690742935
 20
505483.47023732791
 30
0.0
  0
VERTEX
  5
4EF
  8
TENA_LIMITS
 10
562725.28555201169
 20
505496.62563923409
 30
0.0
  0
VERTEX
  5
4F0
  8
TENA_LIMITS
 10
562713.21602168703
 20
505502.22835166601
 30
0.0
  0
VERTEX
  5
4F1
  8
TENA_LIMITS
 10
562642.67113597994
 20
505574.55601093918
 30
0.0
  0
VERTEX
  5
4F2
  8
TENA_LIMITS
 10
562563.79517102416
 20
505625.82996754372
 30
0.0
  0
VERTEX
  5
4F3
  8
TENA_LIMITS
 10
562464.34917251661
 20
505667.59554995492
 30
0.0
  0
VERTEX
  5
4F4
  8
TENA_LIMITS
 10
562352.9184859891
 20
505711.9926159606
 30
0.0
  0
VERTEX
  5
4F5
  8
TENA_LIMITS
 10
562321.39273682225
 20
505801.95666067582
 30
0.0
  0
VERTEX
  5
4F6
  8
TENA_LIMITS
 10
562319.09792385472
 20
505882.32239874551
 30
0.0
  0
VERTEX
  5
4F7
  8
TENA_LIMITS
 10
562344.39002232882
 20
505936.66546544892
 30
0.0
  0
VERTEX
  5
4F8
  8
TENA_LIMITS
 10
562367.99912424735
 20
506049.94344651978
 30
0.0
  0
VERTEX
  5
4F9
  8
TENA_LIMITS
 10
562338.65298847505
 20
506137.57986089127
 30
0.0
  0
VERTEX
  5
4FA
  8
TENA_LIMITS
 10
562389.47279273113
 20
506132.5738185416
 30
0.0
  0
VERTEX
  5
4FB
  8
TENA_LIMITS
 10
562460.75752598513
 20
506147.87459555152
 30
0.0
  0
VERTEX
  5
4FC
  8
TENA_LIMITS
 10
562530.93542498141
 20
506187.43284720229
 30
0.0
  0
VERTEX
  5
4FD
  8
TENA_LIMITS
 10
562607.82788847026
 20
506246.90729415527
 30
0.0
  0
VERTEX
  5
4FE
  8
TENA_LIMITS
 10
562697.32947236532
 20
506236.73435282003
 30
0.0
  0
VERTEX
  5
4FF
  8
TENA_LIMITS
 10
562810.84666771605
 20
506278.16166767012
 30
0.0
  0
VERTEX
  5
500
  8
TENA_LIMITS
 10
562861.78677077556
 20
506353.86662181438
 30
0.0
  0
VERTEX
  5
501
  8
TENA_LIMITS
 10
562908.54665012332
 20
506501.58106888662
 30
0.0
  0
VERTEX
  5
502
  8
TENA_LIMITS
 10
562946.09230129456
 20
506602.93034507532
 30
0.0
  0
VERTEX
  5
503
  8
TENA_LIMITS
 10
562977.4284605704
 20
506561.65691991028
 30
0.0
  0
VERTEX
  5
504
  8
TENA_LIMITS
 10
563012.12151229614
 20
506508.43130183499
 30
0.0
  0
VERTEX
  5
505
  8
TENA_LIMITS
 10
563046.9006325549
 20
506452.19615464588
 30
0.0
  0
VERTEX
  5
506
  8
TENA_LIMITS
 10
563104.84080235788
 20
506429.7545186904
 30
0.0
  0
VERTEX
  5
507
  8
TENA_LIMITS
 10
563153.22551808564
 20
506425.11210192891
 30
0.0
  0
VERTEX
  5
508
  8
TENA_LIMITS
 10
563192.48433188826
 20
506423.22108529101
 30
0.0
  0
VERTEX
  5
509
  8
TENA_LIMITS
 10
563219.86190806318
 20
506414.96678060282
 30
0.0
  0
VERTEX
  5
50A
  8
TENA_LIMITS
 10
563240.95498511451
 20
506415.56908536493
 30
0.0
  0
VERTEX
  5
50B
  8
TENA_LIMITS
 10
563289.25376334356
 20
506413.93625176873
 30
0.0
  0
VERTEX
  5
50C
  8
TENA_LIMITS
 10
563327.91101896565
 20
506433.11216648109
 30
0.0
  0
VERTEX
  5
50D
  8
TENA_LIMITS
 10
563367.0838952706
 20
506434.23073300801
 30
0.0
  0
VERTEX
  5
50E
  8
TENA_LIMITS
 10
563402.81380915758
 20
506450.31107182661
 30
0.0
  0
VERTEX
  5
50F
  8
TENA_LIMITS
 10
563441.55700084253
 20
506466.477453642
 30
0.0
  0
VERTEX
  5
510
  8
TENA_LIMITS
 10
563467.39797094988
 20
506455.13684817287
 30
0.0
  0
VERTEX
  5
511
  8
TENA_LIMITS
 10
563544.17293218942
 20
506419.49747733428
 30
0.0
  0
VERTEX
  5
512
  8
TENA_LIMITS
 10
563603.03125090385
 20
506442.79624017858
 30
0.0
  0
VERTEX
  5
513
  8
TENA_LIMITS
 10
563650.92164231557
 20
506471.1863395531
 30
0.0
  0
VERTEX
  5
514
  8
TENA_LIMITS
 10
563673.62835605175
 20
506434.0030705501
 30
0.0
  0
VERTEX
  5
515
  8
TENA_LIMITS
 10
563636.85995635763
 20
506395.12156269967
 30
0.0
  0
VERTEX
  5
516
  8
TENA_LIMITS
 10
563540.92484274437
 20
506343.7414786013
 30
0.0
  0
VERTEX
  5
517
  8
TENA_LIMITS
 10
563520.3769040542
 20
506305.32313982188
 30
0.0
  0
VERTEX
  5
518
  8
TENA_LIMITS
 10
563585.87567382026
 20
506285.57534616021
 30
0.0
  0
VERTEX
  5
519
  8
TENA_LIMITS
 10
563649.52393127652
 20
506330.62896990159
 30
0.0
  0
VERTEX
  5
51A
  8
TENA_LIMITS
 10
563729.392783641
 20
506376.1457162291
 30
0.0
  0
VERTEX
  5
51B
  8
TENA_LIMITS
 10
563852.0535595665
 20
506439.0979341148
 30
0.0
  0
VERTEX
  5
51C
  8
TENA_LIMITS
 10
563964.05480483011
 20
506496.34125166573
 30
0.0
  0
VERTEX
  5
51D
  8
TENA_LIMITS
 10
564061.22350500419
 20
506504.52038830699
 30
0.0
  0
VERTEX
  5
51E
  8
TENA_LIMITS
 10
564168.89740505104
 20
506523.8085399323
 30
0.0
  0
VERTEX
  5
51F
  8
TENA_LIMITS
 10
564189.4453423057
 20
506562.22692897997
 30
0.0
  0
VERTEX
  5
520
  8
TENA_LIMITS
 10
564295.11466706195
 20
506651.71651968721
 30
0.0
  0
VERTEX
  5
521
  8
TENA_LIMITS
 10
564342.54246351402
 20
506696.30697435729
 30
0.0
  0
VERTEX
  5
522
  8
TENA_LIMITS
 10
564362.93620388396
 20
506740.12543156918
 30
0.0
  0
SEQEND
  5
523
  8
TENA_LIMITS
  0
POLYLINE
  5
85
  8
TENA_HERRERA
 66
     1
 10
0.0
 20
0.0
 30
0.0
 70
     1
  0
VERTEX
  5
524
  8
TENA_HERRERA
 10
569070.69691879663
 20
516338.43170740962
 30
0.0
  0
VERTEX
  5
525
  8
TENA_HERRERA
 10
569057.4446791251
 20
516325.96880511643
 30
0.0
  0
VERTEX
  5
526
  8
TENA_HERRERA
 10
569051.88427275815
 20
516321.64419000561
 30
0.0
  0
VERTEX
  5
527
  8
TENA_HERRERA
 10
569044.1673960078
 20
516313.0921578767
 30
0.0
  0
VERTEX
  5
528
  8
TENA_HERRERA
 10
569028.76194382692
 20
516308.10690767388
 30
0.0
  0
VERTEX
  5
529
  8
TENA_HERRERA
 10
569021.62864588806
 20
516318.88713962957
 30
0.0
  0
VERTEX
  5
52A
  8
TENA_HERRERA
 10
569024.10065892234
 20
516325.3938639923
 30
0.0
  0
VERTEX
  5
52B
  8
TENA_HERRERA
 10
569032.19775180134
 20
516333.95675304782
 30
0.0
  0
VERTEX
  5
52C
  8
TENA_HERRERA
 10
569038.94876127201
 20
516341.0822298986
 30
0.0
  0
VERTEX
  5
52D
  8
TENA_HERRERA
 10
569055.95106483798
 20
516351.19094481482
 30
0.0
  0
VERTEX
  5
52E
  8
TENA_HERRERA
 10
569062.13090084039
 20
516347.14901513682
 30
0.0
  0
VERTEX
  5
52F
  8
TENA_HERRERA
 10
569067.39692020451
 20
516343.0810930311
 30
0.0
  0
SEQEND
  5
530
  8
TENA_HERRERA
  0
POLYLINE
  5
86
  8
TENA_HERRERA
 66
     1
 10
0.0
 20
0.0
 30
0.0
 70
     1
  0
VERTEX
  5
531
  8
TENA_HERRERA
 10
569066.86627353984
 20
516343.89868330222
 30
0.0
  0
VERTEX
  5
532
  8
TENA_HERRERA
 10
569063.27210972679
 20
516346.99174387939
 30
0.0
  0
VERTEX
  5
533
  8
TENA_HERRERA
 10
569052.45054865954
 20
516354.11079497501
 30
0.0
  0
VERTEX
  5
534
  8
TENA_HERRERA
 10
569050.33440021717
 20
516362.75143662922
 30
0.0
  0
VERTEX
  5
535
  8
TENA_HERRERA
 10
569066.37819380348
 20
516385.74333098892
 30
0.0
  0
VERTEX
  5
536
  8
TENA_HERRERA
 10
569073.45105536189
 20
516402.66120587551
 30
0.0
  0
VERTEX
  5
537
  8
TENA_HERRERA
 10
569097.1621182221
 20
516445.22611429269
 30
0.0
  0
VERTEX
  5
538
  8
TENA_HERRERA
 10
569107.18976832076
 20
516439.8996387634
 30
0.0
  0
VERTEX
  5
539
  8
TENA_HERRERA
 10
569116.83749692736
 20
516435.75411693292
 30
0.0
  0
VERTEX
  5
53A
  8
TENA_HERRERA
 10
569124.67873912852
 20
516432.49334080401
 30
0.0
  0
VERTEX
  5
53B
  8
TENA_HERRERA
 10
569101.83606418408
 20
516391.60919602372
 30
0.0
  0
VERTEX
  5
53C
  8
TENA_HERRERA
 10
569097.18479577138
 20
516384.4673282298
 30
0.0
  0
VERTEX
  5
53D
  8
TENA_HERRERA
 10
569090.49773617845
 20
516372.95334946521
 30
0.0
  0
SEQEND
  5
53E
  8
TENA_HERRERA
  0
POLYLINE
  5
87
  8
TENA_HERRERA
 66
     1
 10
0.0
 20
0.0
 30
0.0
 70
     1
  0
VERTEX
  5
53F
  8
TENA_HERRERA
 10
569108.10056215851
 20
516439.63432795508
 30
0.0
  0
VERTEX
  5
540
  8
TENA_HERRERA
 10
569097.27409084875
 20
516445.61328053119
 30
0.0
  0
VERTEX
  5
541
  8
TENA_HERRERA
 10
569113.55351091444
 20
516495.01300543419
 30
0.0
  0
VERTEX
  5
542
  8
TENA_HERRERA
 10
569116.27696141624
 20
516506.68588408508
 30
0.0
  0
VERTEX
  5
543
  8
TENA_HERRERA
 10
569125.50738797663
 20
516532.42050645169
 30
0.0
  0
VERTEX
  5
544
  8
TENA_HERRERA
 10
569145.88494949322
 20
516528.55980302981
 30
0.0
  0
VERTEX
  5
545
  8
TENA_HERRERA
 10
569158.86796243105
 20
516523.9937126431
 30
0.0
  0
VERTEX
  5
546
  8
TENA_HERRERA
 10
569147.36150850356
 20
516494.0413215874
 30
0.0
  0
VERTEX
  5
547
  8
TENA_HERRERA
 10
569139.5291177032
 20
516474.07010542811
 30
0.0
  0
VERTEX
  5
548
  8
TENA_HERRERA
 10
569124.89382014296
 20
516432.67384798563
 30
0.0
  0
SEQEND
  5
549
  8
TENA_HERRERA
  0
POLYLINE
  5
88
  8
TENA_HERRERA
 66
     1
 10
0.0
 20
0.0
 30
0.0
 70
     1
  0
VERTEX
  5
54A
  8
TENA_HERRERA
 10
570099.05400974699
 20
516512.1456773082
 30
0.0
  0
VERTEX
  5
54B
  8
TENA_HERRERA
 10
570089.93838116131
 20
516499.25602710078
 30
0.0
  0
VERTEX
  5
54C
  8
TENA_HERRERA
 10
570082.71816178039
 20
516489.18311128271
 30
0.0
  0
VERTEX
  5
54D
  8
TENA_HERRERA
 10
570076.12996638077
 20
516484.65366858942
 30
0.0
  0
VERTEX
  5
54E
  8
TENA_HERRERA
 10
570061.80347276572
 20
516488.19119811221
 30
0.0
  0
VERTEX
  5
54F
  8
TENA_HERRERA
 10
570045.79628869263
 20
516495.23285354272
 30
0.0
  0
VERTEX
  5
550
  8
TENA_HERRERA
 10
570040.66414065333
 20
516508.89977056102
 30
0.0
  0
VERTEX
  5
551
  8
TENA_HERRERA
 10
570040.99213313917
 20
516525.090610557
 30
0.0
  0
VERTEX
  5
552
  8
TENA_HERRERA
 10
570048.8444805661
 20
516540.70690121403
 30
0.0
  0
VERTEX
  5
553
  8
TENA_HERRERA
 10
570058.00581744721
 20
516565.83271382219
 30
0.0
  0
VERTEX
  5
554
  8
TENA_HERRERA
 10
570067.40362615872
 20
516582.67713991099
 30
0.0
  0
VERTEX
  5
555
  8
TENA_HERRERA
 10
570080.60263513215
 20
516590.94746924419
 30
0.0
  0
VERTEX
  5
556
  8
TENA_HERRERA
 10
570106.84167104366
 20
516585.3819858114
 30
0.0
  0
VERTEX
  5
557
  8
TENA_HERRERA
 10
570118.34739402216
 20
516569.92375525302
 30
0.0
  0
VERTEX
  5
558
  8
TENA_HERRERA
 10
570120.23077214428
 20
516559.32138476428
 30
0.0
  0
VERTEX
  5
559
  8
TENA_HERRERA
 10
570108.2717489691
 20
516535.2997919246
 30
0.0
  0
VERTEX
  5
55A
  8
TENA_HERRERA
 10
570102.43867446727
 20
516518.16245324927
 30
0.0
  0
SEQEND
  5
55B
  8
TENA_HERRERA
  0
POLYLINE
  5
89
  8
TENA_HERRERA
 66
     1
 10
0.0
 20
0.0
 30
0.0
 70
     1
  0
VERTEX
  5
55C
  8
TENA_HERRERA
 10
570148.34529367054
 20
516640.16762564029
 30
0.0
  0
VERTEX
  5
55D
  8
TENA_HERRERA
 10
570151.09481130796
 20
516634.03398195229
 30
0.0
  0
VERTEX
  5
55E
  8
TENA_HERRERA
 10
570146.88689581514
 20
516627.1138709216
 30
0.0
  0
VERTEX
  5
55F
  8
TENA_HERRERA
 10
570138.5056089859
 20
516612.07452991803
 30
0.0
  0
VERTEX
  5
560
  8
TENA_HERRERA
 10
570124.35076312267
 20
516602.87034753698
 30
0.0
  0
VERTEX
  5
561
  8
TENA_HERRERA
 10
570110.97409562254
 20
516608.4884022997
 30
0.0
  0
VERTEX
  5
562
  8
TENA_HERRERA
 10
570107.51052834094
 20
516617.58946522739
 30
0.0
  0
VERTEX
  5
563
  8
TENA_HERRERA
 10
570113.66191575944
 20
516626.56511190842
 30
0.0
  0
VERTEX
  5
564
  8
TENA_HERRERA
 10
570120.54532530077
 20
516637.96166935988
 30
0.0
  0
VERTEX
  5
565
  8
TENA_HERRERA
 10
570129.52087287942
 20
516646.21802364168
 30
0.0
  0
VERTEX
  5
566
  8
TENA_HERRERA
 10
570140.72551235172
 20
516646.53796784382
 30
0.0
  0
SEQEND
  5
567
  8
TENA_HERRERA
  0
ENDSEC
  0
EOF
